999
DXF file: C:\Users\sesa63760\Documents\7-Dev\_Creo\CAD\MCADFD0001133_3D-CAD\drw0001_1.dxf
999
Pro/ENGINEER 2019471 by Parametric Technology Corporation
  0
SECTION
  2
HEADER
  9
$ACADVER
  1
AC1024
  9
$DWGCODEPAGE
  3
ANSI_1252
  9
$EXTMAX
 10
115.2907112589
 20
163.0540059234
 30
0.0
  9
$EXTMIN
 10
0.0
 20
0.0
 30
0.0
  9
$LIMMIN
 10
0.0
 20
0.0
  9
$LIMMAX
 10
115.2907112589
 20
163.0540059234
  9
$VIEWCTR
 10
57.6453556295
 20
81.5270029617
  9
$VIEWSIZE
 40
163.0540059234
  9
$CLAYER
  8
0
  9
$LTSCALE
 40
10.6287055713
  9
$CELTYPE
  6
BYLAYER
  9
$DIMSCALE
 40
1.0
  9
$DIMASZ
 40
1.3725084674
  9
$DIMEXO
 40
1.0
  9
$DIMDLI
 40
7.3434693038
  9
$DIMEXE
 40
1.0
  9
$DIMCEN
 40
1.7392427298
  9
$DIMLFAC
 40
1.0
  9
$DIMBLK
  1
_FILLED
  9
$DIMALT
 70
0
  9
$DIMALTF
 40
0.0393700787
  9
$DIMTXT
 40
1.9215118543
  9
$DIMTOL
 70
1
  9
$DIMLIM
 70
0
  9
$DIMTFAC
 40
1.0
  9
$DIMTP
 40
0.01
  9
$DIMTM
 40
0.01
  9
$DIMGAP
 40
0.625
  9
$DIMDSEP
 70
46
  9
$AUNITS
 70
0
  9
$PDMODE
 70
3
  9
$PDSIZE
 40
0.3125
  9
$HANDSEED
  5
3FB
  9
$TILEMODE
 70
1
  9
$MEASUREMENT
 70
1
  9
$INSUNITS
 70
4
  0
ENDSEC
  0
SECTION
  2
CLASSES
  0
CLASS
  1
ACDBDICTIONARYWDFLT
  2
AcDbDictionaryWithDefault
  3
AutoCAD 2000
 90
0
 91
1
280
0
281
0
  0
CLASS
  1
ACDBPLACEHOLDER
  2
AcDbPlaceHolder
  3
AutoCAD 2000
 90
0
 91
1
280
0
281
0
  0
CLASS
  1
LAYOUT
  2
AcDbLayout
  3
AutoCAD 2000
 90
0
 91
0
280
0
281
0
  0
ENDSEC
  0
SECTION
  2
TABLES
  0
TABLE
  2
VPORT
  5
8
100
AcDbSymbolTable
 70
2
  0
VPORT
  5
1F4
100
AcDbSymbolTableRecord
100
AcDbViewportTableRecord
  2
*ACTIVE
 70
0
 10
0.0
 20
0.0
 11
1.0
 21
1.0
 12
57.6453556295
 22
81.5270029617
 13
0.0
 23
0.0
 14
1.0
 24
1.0
 15
0.0
 25
0.0
 16
0.0
 26
0.0
 36
1.0
 17
0.0
 27
0.0
 37
0.0
 40
163.0540059234
 41
0.7070707071
 42
50.0
 43
0.0
 44
0.0
 50
0.0
 51
0.0
 71
0
 72
100
 73
1
 74
1
 75
0
 76
0
 77
0
 78
0
  0
ENDTAB
  0
TABLE
  2
LTYPE
  5
5
100
AcDbSymbolTable
 70
6
  0
LTYPE
  5
14
100
AcDbSymbolTableRecord
100
AcDbLinetypeTableRecord
  2
BYBLOCK
 70
0
  3

 72
65
 73
0
 40
0.0
  0
LTYPE
  5
15
100
AcDbSymbolTableRecord
100
AcDbLinetypeTableRecord
  2
BYLAYER
 70
0
  3

 72
65
 73
0
 40
0.0
  0
LTYPE
  5
16
100
AcDbSymbolTableRecord
100
AcDbLinetypeTableRecord
  2
CONTINUOUS
 70
64
  3
Solid line
 72
65
 73
0
 40
0.0
  0
LTYPE
  5
1F5
100
AcDbSymbolTableRecord
100
AcDbLinetypeTableRecord
  2
CENTER
 70
64
  3
____ _ ____ _ ____ _ ____ _ ____ _ ____ _ ____
 72
65
 73
4
 40
0.6
 49
0.375
 74
0
 49
-0.075
 74
0
 49
0.075
 74
0
 49
-0.075
 74
0
  0
LTYPE
  5
1F6
100
AcDbSymbolTableRecord
100
AcDbLinetypeTableRecord
  2
HIDDEN
 70
64
  3
- - - - - - - - - - - - - - - - - - - -
 72
65
 73
2
 40
0.2
 49
0.1
 74
0
 49
-0.1
 74
0
  0
LTYPE
  5
1F7
100
AcDbSymbolTableRecord
100
AcDbLinetypeTableRecord
  2
PHANTOM
 70
64
  3
_____ _ _ _____ _ _ _____ _ _ _____
 72
65
 73
6
 40
0.8
 49
0.45
 74
0
 49
-0.05
 74
0
 49
0.1
 74
0
 49
-0.05
 74
0
 49
0.1
 74
0
 49
-0.05
 74
0
  0
LTYPE
  5
1F8
100
AcDbSymbolTableRecord
100
AcDbLinetypeTableRecord
  2
DOT
 70
64
  3
. . . . . . . . . . . . . . . . . . . .
 72
65
 73
2
 40
0.2
 49
0.1
 74
0
 49
-0.1
 74
0
  0
LTYPE
  5
1F9
100
AcDbSymbolTableRecord
100
AcDbLinetypeTableRecord
  2
DASHED
 70
64
  3
- - - - - - - - - - - - - - - - - - - -
 72
65
 73
2
 40
0.2
 49
0.1
 74
0
 49
-0.1
 74
0
  0
ENDTAB
  0
TABLE
  2
LAYER
  5
2
100
AcDbSymbolTable
 70
36
  0
LAYER
  5
10
100
AcDbSymbolTableRecord
100
AcDbLayerTableRecord
  2
0
 70
0
 62
7
  6
CONTINUOUS
370
-3
390
F
  0
LAYER
  5
1FA
100
AcDbSymbolTableRecord
100
AcDbLayerTableRecord
  2
DEFAULT_1
 70
0
 62
7
  6
CENTER
370
-3
390
F
  0
LAYER
  5
1FB
100
AcDbSymbolTableRecord
100
AcDbLayerTableRecord
  2
DEFAULT_2
 70
0
 62
8
  6
HIDDEN
370
-3
390
F
  0
LAYER
  5
1FC
100
AcDbSymbolTableRecord
100
AcDbLayerTableRecord
  2
DEFAULT_3
 70
0
 62
7
  6
PHANTOM
370
-3
390
F
  0
LAYER
  5
1FD
100
AcDbSymbolTableRecord
100
AcDbLayerTableRecord
  2
00_COMPONENTS
 70
0
 62
7
  6
CONTINUOUS
370
-3
390
F
  0
LAYER
  5
1FE
100
AcDbSymbolTableRecord
100
AcDbLayerTableRecord
  2
01_1_DEFAULT_DATUMS
 70
0
 62
7
  6
CONTINUOUS
370
-3
390
F
  0
LAYER
  5
1FF
100
AcDbSymbolTableRecord
100
AcDbLayerTableRecord
  2
01_PLANES
 70
0
 62
7
  6
CONTINUOUS
370
-3
390
F
  0
LAYER
  5
200
100
AcDbSymbolTableRecord
100
AcDbLayerTableRecord
  2
02_COORD_SYS
 70
0
 62
7
  6
CONTINUOUS
370
-3
390
F
  0
LAYER
  5
201
100
AcDbSymbolTableRecord
100
AcDbLayerTableRecord
  2
03_AXES
 70
0
 62
7
  6
CONTINUOUS
370
-3
390
F
  0
LAYER
  5
202
100
AcDbSymbolTableRecord
100
AcDbLayerTableRecord
  2
04_POINTS
 70
0
 62
7
  6
CONTINUOUS
370
-3
390
F
  0
LAYER
  5
203
100
AcDbSymbolTableRecord
100
AcDbLayerTableRecord
  2
05_CURVES
 70
0
 62
7
  6
CONTINUOUS
370
-3
390
F
  0
LAYER
  5
204
100
AcDbSymbolTableRecord
100
AcDbLayerTableRecord
  2
06_SURFS
 70
0
 62
7
  6
CONTINUOUS
370
-3
390
F
  0
LAYER
  5
205
100
AcDbSymbolTableRecord
100
AcDbLayerTableRecord
  2
07_COSMETICS
 70
0
 62
7
  6
CONTINUOUS
370
-3
390
F
  0
LAYER
  5
206
100
AcDbSymbolTableRecord
100
AcDbLayerTableRecord
  2
10_NOTES
 70
0
 62
7
  6
CONTINUOUS
370
-3
390
F
  0
LAYER
  5
207
100
AcDbSymbolTableRecord
100
AcDbLayerTableRecord
  2
11_NOTES_PUB
 70
0
 62
7
  6
CONTINUOUS
370
-3
390
F
  0
LAYER
  5
208
100
AcDbSymbolTableRecord
100
AcDbLayerTableRecord
  2
13_REF_GTOL
 70
0
 62
7
  6
CONTINUOUS
370
-3
390
F
  0
LAYER
  5
209
100
AcDbSymbolTableRecord
100
AcDbLayerTableRecord
  2
16_MISC
 70
0
 62
7
  6
CONTINUOUS
370
-3
390
F
  0
LAYER
  5
20A
100
AcDbSymbolTableRecord
100
AcDbLayerTableRecord
  2
17_NO_PRINT
 70
0
 62
7
  6
CONTINUOUS
370
-3
390
F
  0
LAYER
  5
20B
100
AcDbSymbolTableRecord
100
AcDbLayerTableRecord
  2
18_DATUM_CAMS_JOINTS
 70
0
 62
7
  6
CONTINUOUS
370
-3
390
F
  0
LAYER
  5
20C
100
AcDbSymbolTableRecord
100
AcDbLayerTableRecord
  2
19_DATUM_FUNCTIONAL
 70
0
 62
7
  6
CONTINUOUS
370
-3
390
F
  0
LAYER
  5
20D
100
AcDbSymbolTableRecord
100
AcDbLayerTableRecord
  2
20_DATUM_KINEMATIC_SCHEME
 70
0
 62
7
  6
CONTINUOUS
370
-3
390
F
  0
ENDTAB
  0
TABLE
  2
STYLE
  5
3
100
AcDbSymbolTable
 70
1
  0
STYLE
  5
11
100
AcDbSymbolTableRecord
100
AcDbTextStyleTableRecord
  2
STANDARD
 70
0
 40
0.0
 41
0.8
 50
0.0
 71
0
 42
0.2
  3
txt
  4

  0
STYLE
  5
20E
100
AcDbSymbolTableRecord
100
AcDbTextStyleTableRecord
  2
TEXTSTYLE_1
 70
0
 40
0.0
 41
0.8
 50
0.0
 71
0
 42
0.2
  3
gdt
  4

  0
ENDTAB
  0
TABLE
  2
VIEW
  5
6
100
AcDbSymbolTable
 70
0
  0
ENDTAB
  0
TABLE
  2
UCS
  5
7
100
AcDbSymbolTable
 70
0
  0
ENDTAB
  0
TABLE
  2
APPID
  5
9
100
AcDbSymbolTable
 70
1
  0
APPID
  5
20F
100
AcDbSymbolTableRecord
100
AcDbRegAppTableRecord
  2
ACAD
 70
0
  0
ENDTAB
  0
TABLE
  2
BLOCK_RECORD
  5
1
100
AcDbSymbolTable
 70
0
  0
BLOCK_RECORD
  5
210
100
AcDbSymbolTableRecord
100
AcDbBlockTableRecord
  2
*Model_Space
  0
BLOCK_RECORD
  5
211
100
AcDbSymbolTableRecord
100
AcDbBlockTableRecord
  2
*Paper_Space
  0
BLOCK_RECORD
  5
212
100
AcDbSymbolTableRecord
100
AcDbBlockTableRecord
  2
_FILLED
  0
ENDTAB
  0
TABLE
  2
DIMSTYLE
  5
A
100
AcDbSymbolTable
 70
1
100
AcDbDimStyleTable
 71
0
  0
DIMSTYLE
105
213
100
AcDbSymbolTableRecord
100
AcDbDimStyleTableRecord
  2
STANDARD
 70
0
  3

  4

 40
1.0
 41
1.3725084674
 42
1.0
 43
0.38
 44
1.0
 45
0.0
 46
0.0
 47
0.01
 48
0.01
140
1.9215118543
141
0.09
142
0.0
143
25.4
144
1.0
145
0.0
146
1.0
147
0.625
 71
1
 72
0
 73
0
 74
0
 75
0
 76
0
 77
1
 78
8
 79
2
170
0
171
1
172
0
173
0
174
0
175
0
176
0
177
0
178
0
270
2
179
2
271
2
272
2
273
2
274
2
275
0
280
0
281
0
282
0
283
1
284
8
285
0
286
0
287
3
288
0
340
11
278
46
341
212
342
212
343
212
344
212
  0
ENDTAB
  0
ENDSEC
  0
SECTION
  2
BLOCKS
  0
BLOCK
  5
20
100
AcDbEntity
  8
0
100
AcDbBlockBegin
  2
*Model_Space
 70
0
 10
0.0
 20
0.0
 30
0.0
  3
*Model_Space
  1

  0
ENDBLK
  5
21
100
AcDbEntity
  8
0
100
AcDbBlockEnd
  0
BLOCK
  5
1C
100
AcDbEntity
  8
0
100
AcDbBlockBegin
  2
*Paper_Space
 70
0
 10
0.0
 20
0.0
 30
0.0
  3
*Paper_Space
  1

  0
ENDBLK
  5
1D
100
AcDbEntity
  8
0
100
AcDbBlockEnd
  0
BLOCK
  5
214
100
AcDbEntity
  8
0
100
AcDbBlockBegin
  2
_FILLED
 70
64
 10
0.0
 20
0.0
  3
_FILLED
  1

  0
SOLID
  5
215
100
AcDbEntity
  8
0
  6
BYBLOCK
 62
0
100
AcDbTrace
 10
0.0
 20
0.0
 11
-1.0
 21
0.25
 12
-1.0
 22
-0.25
 13
-1.0
 23
-0.25
  0
ENDBLK
  5
216
100
AcDbEntity
  8
0
  6
BYBLOCK
 62
0
100
AcDbBlockEnd
  0
ENDSEC
  0
SECTION
  2
ENTITIES
  0
LINE
  5
217
100
AcDbEntity
  8
0
100
AcDbLine
 62
7
  6
CONTINUOUS
 10
32.4550641611
 20
117.8643580794
 11
65.0525406329
 21
136.7070299567
  0
LINE
  5
218
100
AcDbEntity
  8
0
100
AcDbLine
 62
7
  6
CONTINUOUS
 10
66.2538559124
 20
135.0675913221
 11
68.5872985752
 21
136.4147970298
  0
LINE
  5
219
100
AcDbEntity
  8
0
100
AcDbLine
 62
7
  6
CONTINUOUS
 10
68.8552140246
 20
136.4333787877
 11
66.5217713618
 21
135.0861730799
  0
LINE
  5
21A
100
AcDbEntity
  8
0
100
AcDbLine
 62
7
  6
CONTINUOUS
 10
66.5274243268
 20
34.7591081268
 11
65.4548846616
 21
34.8066318308
  0
LINE
  5
21B
100
AcDbEntity
  8
0
100
AcDbLine
 62
7
  6
CONTINUOUS
 10
14.0530504033
 20
53.739876227
 11
39.3322230773
 21
39.1452692529
  0
LINE
  5
21C
100
AcDbEntity
  8
0
100
AcDbLine
 62
7
  6
CONTINUOUS
 10
39.3326698259
 20
39.1578709681
 11
51.9722561629
 21
31.8605674811
  0
LINE
  5
21D
100
AcDbEntity
  8
0
100
AcDbLine
 62
7
  6
CONTINUOUS
 10
39.1274280976
 20
39.5383437791
 11
13.8482554236
 21
54.1329507532
  0
LINE
  5
21E
100
AcDbEntity
  8
0
100
AcDbLine
 62
7
  6
CONTINUOUS
 10
39.1278405959
 20
39.5514148484
 11
51.7674269329
 21
32.2541113613
  0
LINE
  5
21F
100
AcDbEntity
  8
0
100
AcDbLine
 62
7
  6
CONTINUOUS
 10
16.6228093335
 20
83.3060573035
 11
16.6255521061
 21
83.3416247639
  0
LINE
  5
220
100
AcDbEntity
  8
0
100
AcDbLine
 62
7
  6
CONTINUOUS
 10
16.9020169967
 20
86.6192082628
 11
16.9144187039
 21
86.7579130946
  0
LINE
  5
221
100
AcDbEntity
  8
0
100
AcDbLine
 62
7
  6
CONTINUOUS
 10
16.9017042512
 20
86.6190678808
 11
16.9144187039
 21
86.7579130946
  0
LINE
  5
222
100
AcDbEntity
  8
0
100
AcDbLine
 62
7
  6
CONTINUOUS
 10
16.6788863155
 20
83.3374323012
 11
16.9976586809
 21
86.6106568653
  0
LINE
  5
223
100
AcDbEntity
  8
0
100
AcDbLine
 62
7
  6
CONTINUOUS
 10
66.8659870393
 20
134.8955959442
 11
69.199429702
 21
136.242801652
  0
LINE
  5
224
100
AcDbEntity
  8
0
100
AcDbLine
 62
7
  6
CONTINUOUS
 10
70.0814072685
 20
136.0058084088
 11
67.7479646057
 21
134.658602701
  0
LINE
  5
225
100
AcDbEntity
  8
0
100
AcDbLine
 62
7
  6
CONTINUOUS
 10
70.8469970008
 20
135.5670416955
 11
68.513554338
 21
134.2198359877
  0
LINE
  5
226
100
AcDbEntity
  8
0
100
AcDbLine
 62
7
  6
CONTINUOUS
 10
71.5768976815
 20
135.3277650336
 11
69.2434550187
 21
133.9805593259
  0
LINE
  5
227
100
AcDbEntity
  8
0
100
AcDbLine
 62
7
  6
CONTINUOUS
 10
69.5808667936
 20
133.8043617461
 11
71.9143094564
 21
135.1515674538
  0
LINE
  5
228
100
AcDbEntity
  8
0
100
AcDbLine
 62
7
  6
CONTINUOUS
 10
72.087618583
 20
134.9950086958
 11
72.8653035804
 21
135.4440026582
  0
LINE
  5
229
100
AcDbEntity
  8
0
100
AcDbLine
 62
7
  6
CONTINUOUS
 10
73.2653017897
 20
135.404383235
 11
72.2870917137
 21
134.8396167555
  0
LINE
  5
22A
100
AcDbEntity
  8
0
100
AcDbLine
 62
7
  6
CONTINUOUS
 10
72.8877204676
 20
134.5331972121
 11
73.8309895698
 21
135.0777906314
  0
LINE
  5
22B
100
AcDbEntity
  8
0
100
AcDbLine
 62
7
  6
CONTINUOUS
 10
73.0606703914
 20
134.4897306322
 11
70.7272277286
 21
133.1425249244
  0
LINE
  5
22C
100
AcDbEntity
  8
0
100
AcDbLine
 62
7
  6
CONTINUOUS
 10
71.0646395036
 20
132.92912176
 11
73.3980821664
 21
134.2763274677
  0
LINE
  5
22D
100
AcDbEntity
  8
0
100
AcDbLine
 62
7
  6
CONTINUOUS
 10
70.1492475459
 20
132.2580932979
 11
69.0226717009
 21
131.607668313
  0
LINE
  5
22E
100
AcDbEntity
  8
0
100
AcDbLine
 62
7
  6
CONTINUOUS
 10
74.3966773499
 20
134.0979960941
 11
73.9096178735
 21
133.8167938528
  0
LINE
  5
22F
100
AcDbEntity
  8
0
100
AcDbLine
 62
7
  6
CONTINUOUS
 10
57.2622326809
 20
33.9968918657
 11
69.9018190179
 21
26.6995883787
  0
LINE
  5
230
100
AcDbEntity
  8
0
100
AcDbLine
 62
7
  6
CONTINUOUS
 10
56.6821772119
 20
34.3406848058
 11
57.2217017317
 21
34.0291972258
  0
LINE
  5
231
100
AcDbEntity
  8
0
100
AcDbLine
 62
7
  6
CONTINUOUS
 10
57.0614490541
 20
34.3493096834
 11
69.7010353911
 21
27.0520061963
  0
LINE
  5
232
100
AcDbEntity
  8
0
100
AcDbLine
 62
7
  6
CONTINUOUS
 10
57.0691234738
 20
34.3534034239
 11
56.8866635356
 21
34.4587443351
  0
LINE
  5
233
100
AcDbEntity
  8
0
100
AcDbLine
 62
7
  6
CONTINUOUS
 10
62.353735442
 20
33.3009511328
 11
62.8178359365
 21
32.993593324
  0
LINE
  5
234
100
AcDbEntity
  8
0
100
AcDbLine
 62
7
  6
CONTINUOUS
 10
24.058068101
 20
79.2259311263
 11
24.0423068802
 21
79.0225053046
  0
LINE
  5
235
100
AcDbEntity
  8
0
100
AcDbLine
 62
7
  6
CONTINUOUS
 10
24.0585001977
 20
79.2261335881
 11
24.0423068802
 21
79.0225053046
  0
LINE
  5
236
100
AcDbEntity
  8
0
100
AcDbLine
 62
7
  6
CONTINUOUS
 10
24.2305536734
 20
82.434837464
 11
23.9117813079
 21
79.1616129
  0
LINE
  5
237
100
AcDbEntity
  8
0
100
AcDbLine
 62
7
  6
CONTINUOUS
 10
74.1279839324
 20
133.6728058607
 11
71.7945412696
 21
132.3256001529
  0
LINE
  5
238
100
AcDbEntity
  8
0
100
AcDbLine
 62
7
  6
CONTINUOUS
 10
74.8935725794
 20
133.2275663234
 11
72.5601299166
 21
131.8803606157
  0
LINE
  5
239
100
AcDbEntity
  8
0
100
AcDbLine
 62
7
  6
CONTINUOUS
 10
75.7755501458
 20
132.446162635
 11
73.442107483
 21
131.0989569272
  0
LINE
  5
23A
100
AcDbEntity
  8
0
100
AcDbLine
 62
7
  6
CONTINUOUS
 10
76.1197658232
 20
132.2392827344
 11
73.7863231604
 21
130.8920770266
  0
LINE
  5
23B
100
AcDbEntity
  8
0
100
AcDbLine
 62
7
  6
CONTINUOUS
 10
76.5533708435
 20
131.3537995996
 11
74.2199281807
 21
130.0065938918
  0
LINE
  5
23C
100
AcDbEntity
  8
0
100
AcDbLine
 62
7
  6
CONTINUOUS
 10
65.9033727837
 20
39.6645127725
 11
67.1226415857
 21
38.9605835264
  0
LINE
  5
23D
100
AcDbEntity
  8
0
100
AcDbLine
 62
7
  6
CONTINUOUS
 10
66.000811464
 20
39.720768685
 11
67.0074747109
 21
39.1395845366
  0
LINE
  5
23E
100
AcDbEntity
  8
0
100
AcDbLine
 62
7
  6
CONTINUOUS
 10
29.2472776989
 20
76.017481984
 11
29.2502101613
 21
76.0555066545
  0
LINE
  5
23F
100
AcDbEntity
  8
0
100
AcDbLine
 62
7
  6
CONTINUOUS
 10
29.5267005868
 20
79.3330400887
 11
29.5388870693
 21
79.4693377751
  0
LINE
  5
240
100
AcDbEntity
  8
0
100
AcDbLine
 62
7
  6
CONTINUOUS
 10
29.5263925403
 20
79.3329018205
 11
29.5388870693
 21
79.4693377751
  0
LINE
  5
241
100
AcDbEntity
  8
0
100
AcDbLine
 62
7
  6
CONTINUOUS
 10
29.6171541883
 20
79.3249525617
 11
29.2983818229
 21
76.0517279976
  0
LINE
  5
242
100
AcDbEntity
  8
0
100
AcDbLine
 62
7
  6
CONTINUOUS
 10
29.0690474159
 20
99.9219406958
 11
28.8577287737
 21
98.6374117099
  0
LINE
  5
243
100
AcDbEntity
  8
0
100
AcDbLine
 62
7
  6
CONTINUOUS
 10
65.5755772863
 20
122.6305354473
 11
72.3759163603
 21
126.5614089901
  0
LINE
  5
244
100
AcDbEntity
  8
0
100
AcDbLine
 62
7
  6
CONTINUOUS
 10
73.4047610103
 20
125.9674186923
 11
68.4563108631
 21
123.1070125346
  0
LINE
  5
245
100
AcDbEntity
  8
0
100
AcDbLine
 62
7
  6
CONTINUOUS
 10
70.3386161306
 20
123.545563472
 11
73.4736827058
 21
125.3577599113
  0
LINE
  5
246
100
AcDbEntity
  8
0
100
AcDbLine
 62
7
  6
CONTINUOUS
 10
28.8577287737
 20
98.6374117099
 11
15.1218645409
 21
90.6975215495
  0
LINE
  5
247
100
AcDbEntity
  8
0
100
AcDbLine
 62
7
  6
CONTINUOUS
 10
71.0237895553
 20
122.8754640344
 11
71.2613943219
 21
123.0128092874
  0
LINE
  5
248
100
AcDbEntity
  8
0
100
AcDbLine
 62
7
  6
CONTINUOUS
 10
71.827082102
 20
122.6862166837
 11
71.5894773354
 21
122.5488714307
  0
LINE
  5
249
100
AcDbEntity
  8
0
100
AcDbLine
 62
7
  6
CONTINUOUS
 10
72.7498602933
 20
122.1534624991
 11
75.8849270263
 21
123.9656590295
  0
LINE
  5
24A
100
AcDbEntity
  8
0
100
AcDbLine
 62
7
  6
CONTINUOUS
 10
72.8919541371
 20
122.6437763282
 11
73.0461837526
 21
122.7328203067
  0
LINE
  5
24B
100
AcDbEntity
  8
0
100
AcDbLine
 62
7
  6
CONTINUOUS
 10
73.2004145478
 20
122.64377713
 11
73.0461849323
 21
122.5547331515
  0
LINE
  5
24C
100
AcDbEntity
  8
0
100
AcDbLine
 62
7
  6
CONTINUOUS
 10
72.3763627214
 20
125.7040756155
 11
66.2064982578
 21
122.2662812951
  0
LINE
  5
24D
100
AcDbEntity
  8
0
100
AcDbLine
 62
7
  6
CONTINUOUS
 10
68.7762937349
 20
41.323184556
 11
68.8461521611
 21
41.2828526873
  0
LINE
  5
24E
100
AcDbEntity
  8
0
100
AcDbLine
 62
7
  6
CONTINUOUS
 10
30.9074365703
 20
101.5378676942
 11
30.9082727994
 21
99.9317084079
  0
LINE
  5
24F
100
AcDbEntity
  8
0
100
AcDbLine
 62
7
  6
CONTINUOUS
 10
73.9448758143
 20
121.4635356733
 11
77.0799423895
 21
123.2757321126
  0
LINE
  5
250
100
AcDbEntity
  8
0
100
AcDbLine
 62
7
  6
CONTINUOUS
 10
74.630049239
 20
120.7934362357
 11
74.8676540056
 21
120.9307814887
  0
LINE
  5
251
100
AcDbEntity
  8
0
100
AcDbLine
 62
7
  6
CONTINUOUS
 10
75.4333417857
 20
120.6041888851
 11
75.1957370191
 21
120.4668436321
  0
LINE
  5
252
100
AcDbEntity
  8
0
100
AcDbLine
 62
7
  6
CONTINUOUS
 10
76.356119977
 20
120.0714347004
 11
79.49118671
 21
121.8836312309
  0
LINE
  5
253
100
AcDbEntity
  8
0
100
AcDbLine
 62
7
  6
CONTINUOUS
 10
76.4982137354
 20
120.5617484801
 11
76.6524433508
 21
120.6507924586
  0
LINE
  5
254
100
AcDbEntity
  8
0
100
AcDbLine
 62
7
  6
CONTINUOUS
 10
76.8066741461
 20
120.5617492819
 11
76.6524445306
 21
120.4727053034
  0
LINE
  5
255
100
AcDbEntity
  8
0
100
AcDbLine
 62
7
  6
CONTINUOUS
 10
36.6829446032
 20
71.9425929192
 11
36.6667752456
 21
71.7339299851
  0
LINE
  5
256
100
AcDbEntity
  8
0
100
AcDbLine
 62
7
  6
CONTINUOUS
 10
36.6833853603
 20
71.9427994242
 11
36.6667752456
 21
71.7339299851
  0
LINE
  5
257
100
AcDbEntity
  8
0
100
AcDbLine
 62
7
  6
CONTINUOUS
 10
36.5312768153
 20
71.8759085964
 11
36.8500491808
 21
75.1491331604
  0
LINE
  5
258
100
AcDbEntity
  8
0
100
AcDbLine
 62
7
  6
CONTINUOUS
 10
77.551135498
 20
119.3815078747
 11
80.6862020732
 21
121.193704314
  0
LINE
  5
259
100
AcDbEntity
  8
0
100
AcDbLine
 62
7
  6
CONTINUOUS
 10
78.2363089227
 20
118.711408437
 11
78.4739136893
 21
118.84875369
  0
LINE
  5
25A
100
AcDbEntity
  8
0
100
AcDbLine
 62
7
  6
CONTINUOUS
 10
79.0396014694
 20
118.5221610864
 11
78.8019967028
 21
118.3848158334
  0
LINE
  5
25B
100
AcDbEntity
  8
0
100
AcDbLine
 62
7
  6
CONTINUOUS
 10
79.9623796607
 20
117.9894069018
 11
83.0974463937
 21
119.8016034322
  0
LINE
  5
25C
100
AcDbEntity
  8
0
100
AcDbLine
 62
7
  6
CONTINUOUS
 10
79.2326630743
 20
116.8854234357
 11
84.1811132216
 21
119.7458295934
  0
LINE
  5
25D
100
AcDbEntity
  8
0
100
AcDbLine
 62
7
  6
CONTINUOUS
 10
87.3014580959
 20
120.3608117898
 11
85.2099578723
 21
119.1518392952
  0
LINE
  5
25E
100
AcDbEntity
  8
0
100
AcDbLine
 62
7
  6
CONTINUOUS
 10
78.4096187983
 20
115.2209657525
 11
57.7342368351
 21
103.2697511053
  0
LINE
  5
25F
100
AcDbEntity
  8
0
100
AcDbLine
 62
7
  6
CONTINUOUS
 10
87.4671476668
 20
122.8203686864
 11
89.8005903296
 21
124.1675743942
  0
LINE
  5
260
100
AcDbEntity
  8
0
100
AcDbLine
 62
7
  6
CONTINUOUS
 10
80.1044733336
 20
118.4797206321
 11
80.2587029491
 21
118.5687646106
  0
LINE
  5
261
100
AcDbEntity
  8
0
100
AcDbLine
 62
7
  6
CONTINUOUS
 10
90.068505779
 20
124.1861561521
 11
87.7350631162
 21
122.8389504443
  0
LINE
  5
262
100
AcDbEntity
  8
0
100
AcDbLine
 62
7
  6
CONTINUOUS
 10
80.4129337443
 20
118.4797214338
 11
80.2587041288
 21
118.3906774554
  0
LINE
  5
263
100
AcDbEntity
  8
0
100
AcDbLine
 62
7
  6
CONTINUOUS
 10
88.0792787937
 20
122.6483733086
 11
90.4127214565
 21
123.9955790164
  0
LINE
  5
264
100
AcDbEntity
  8
0
100
AcDbLine
 62
7
  6
CONTINUOUS
 10
91.2946990229
 20
123.7585857732
 11
88.9612563601
 21
122.4113800654
  0
LINE
  5
265
100
AcDbEntity
  8
0
100
AcDbLine
 62
7
  6
CONTINUOUS
 10
92.0602887553
 20
123.3198190599
 11
89.7268460925
 21
121.9726133521
  0
LINE
  5
266
100
AcDbEntity
  8
0
100
AcDbLine
 62
7
  6
CONTINUOUS
 10
57.7622255248
 20
103.2858206489
 11
87.3014580959
 21
120.3402027246
  0
LINE
  5
267
100
AcDbEntity
  8
0
100
AcDbLine
 62
7
  6
CONTINUOUS
 10
92.7901894359
 20
123.080542398
 11
90.4567467731
 21
121.7333366903
  0
LINE
  5
268
100
AcDbEntity
  8
0
100
AcDbLine
 62
7
  6
CONTINUOUS
 10
90.794158548
 20
121.5571391105
 11
93.1276012108
 21
122.9043448182
  0
LINE
  5
269
100
AcDbEntity
  8
0
100
AcDbLine
 62
7
  6
CONTINUOUS
 10
84.1815595828
 20
118.8884962187
 11
79.2330557351
 21
116.1312333126
  0
LINE
  5
26A
100
AcDbEntity
  8
0
100
AcDbLine
 62
7
  6
CONTINUOUS
 10
16.9976586809
 20
86.6106568653
 11
17.0951901319
 21
86.653547023
  0
LINE
  5
26B
100
AcDbEntity
  8
0
100
AcDbLine
 62
7
  6
CONTINUOUS
 10
16.6228093335
 20
83.3060573035
 11
24.0423068802
 21
79.0225053046
  0
LINE
  5
26C
100
AcDbEntity
  8
0
100
AcDbLine
 62
7
  6
CONTINUOUS
 10
29.2472776989
 20
76.017481984
 11
36.6667752456
 21
71.7339299851
  0
LINE
  5
26D
100
AcDbEntity
  8
0
100
AcDbLine
 62
7
  6
CONTINUOUS
 10
41.9032000063
 20
68.7423284844
 11
49.3226975529
 21
64.4587764854
  0
LINE
  5
26E
100
AcDbEntity
  8
0
100
AcDbLine
 62
7
  6
CONTINUOUS
 10
23.9117813079
 20
79.1616129
 11
16.6788863155
 21
83.3374323012
  0
LINE
  5
26F
100
AcDbEntity
  8
0
100
AcDbLine
 62
7
  6
CONTINUOUS
 10
29.2983818229
 20
76.0517279976
 11
36.5312768153
 21
71.8759085964
  0
LINE
  5
270
100
AcDbEntity
  8
0
100
AcDbLine
 62
7
  6
CONTINUOUS
 10
49.1872561766
 20
64.6008155758
 11
41.9543611842
 21
68.7766349771
  0
LINE
  5
271
100
AcDbEntity
  8
0
100
AcDbLine
 62
7
  6
CONTINUOUS
 10
41.9032000063
 20
68.7423284843
 11
41.9061573695
 21
68.7804391574
  0
LINE
  5
272
100
AcDbEntity
  8
0
100
AcDbLine
 62
7
  6
CONTINUOUS
 10
42.184269788
 20
72.058697999
 11
42.1965183261
 21
72.1949679643
  0
LINE
  5
273
100
AcDbEntity
  8
0
100
AcDbLine
 62
7
  6
CONTINUOUS
 10
42.1839618757
 20
72.0585600075
 11
42.1965183261
 21
72.1949679643
  0
LINE
  5
274
100
AcDbEntity
  8
0
100
AcDbLine
 62
7
  6
CONTINUOUS
 10
41.9543611842
 20
68.7766349771
 11
42.2747413573
 21
72.0505660202
  0
LINE
  5
275
100
AcDbEntity
  8
0
100
AcDbLine
 62
7
  6
CONTINUOUS
 10
71.7379757838
 20
121.7442024451
 11
72.0526354341
 21
122.1180786394
  0
LINE
  5
276
100
AcDbEntity
  8
0
100
AcDbLine
 62
7
  6
CONTINUOUS
 10
93.3009103374
 20
122.7477860601
 11
94.0785953348
 21
123.1967800226
  0
LINE
  5
277
100
AcDbEntity
  8
0
100
AcDbLine
 62
7
  6
CONTINUOUS
 10
94.4785935441
 20
123.1571605994
 11
93.5003834681
 21
122.5923941199
  0
LINE
  5
278
100
AcDbEntity
  8
0
100
AcDbLine
 62
7
  6
CONTINUOUS
 10
94.101012222
 20
122.2859745765
 11
95.0442813242
 21
122.8305679958
  0
LINE
  5
279
100
AcDbEntity
  8
0
100
AcDbLine
 62
7
  6
CONTINUOUS
 10
94.2739621458
 20
122.2425079966
 11
91.940519483
 21
120.8953022888
  0
LINE
  5
27A
100
AcDbEntity
  8
0
100
AcDbLine
 62
7
  6
CONTINUOUS
 10
92.277931258
 20
120.6818991244
 11
94.6113739208
 21
122.0291048321
  0
LINE
  5
27B
100
AcDbEntity
  8
0
100
AcDbLine
 62
7
  6
CONTINUOUS
 10
91.3625393003
 20
120.0108706623
 11
90.2359634553
 21
119.3604456774
  0
LINE
  5
27C
100
AcDbEntity
  8
0
100
AcDbLine
 62
7
  6
CONTINUOUS
 10
95.6099691043
 20
121.8507734585
 11
95.1229096279
 21
121.5695712172
  0
LINE
  5
27D
100
AcDbEntity
  8
0
100
AcDbLine
 62
7
  6
CONTINUOUS
 10
95.3412756868
 20
121.4255832251
 11
93.007833024
 21
120.0783775173
  0
LINE
  5
27E
100
AcDbEntity
  8
0
100
AcDbLine
 62
7
  6
CONTINUOUS
 10
96.1068643338
 20
120.9803436878
 11
93.773421671
 21
119.63313798
  0
LINE
  5
27F
100
AcDbEntity
  8
0
100
AcDbLine
 62
7
  6
CONTINUOUS
 10
76.4128927384
 20
109.0527332244
 11
77.1901490538
 21
109.5014796887
  0
LINE
  5
280
100
AcDbEntity
  8
0
100
AcDbLine
 62
7
  6
CONTINUOUS
 10
96.9888419003
 20
120.1989399994
 11
94.6553992374
 21
118.8517342916
  0
LINE
  5
281
100
AcDbEntity
  8
0
100
AcDbLine
 62
7
  6
CONTINUOUS
 10
97.3330575776
 20
119.9920600988
 11
94.9996149148
 21
118.644854391
  0
LINE
  5
282
100
AcDbEntity
  8
0
100
AcDbLine
 62
7
  6
CONTINUOUS
 10
16.6228093335
 20
83.3060573035
 11
16.6813606656
 21
83.3318056733
  0
LINE
  5
283
100
AcDbEntity
  8
0
100
AcDbLine
 62
7
  6
CONTINUOUS
 10
24.2305536734
 20
82.434837464
 11
24.3280851244
 21
82.4777276218
  0
LINE
  5
284
100
AcDbEntity
  8
0
100
AcDbLine
 62
7
  6
CONTINUOUS
 10
36.8500491808
 20
75.1491331604
 11
29.6171541883
 21
79.3249525617
  0
LINE
  5
285
100
AcDbEntity
  8
0
100
AcDbLine
 62
7
  6
CONTINUOUS
 10
16.9976586809
 20
86.6106568653
 11
24.2305536734
 21
82.434837464
  0
LINE
  5
286
100
AcDbEntity
  8
0
100
AcDbLine
 62
7
  6
CONTINUOUS
 10
42.2747413573
 20
72.0505660202
 11
49.5076363497
 21
67.874746619
  0
LINE
  5
287
100
AcDbEntity
  8
0
100
AcDbLine
 62
7
  6
CONTINUOUS
 10
36.958384616
 20
75.1857857761
 11
29.5388870693
 21
79.4693377751
  0
LINE
  5
288
100
AcDbEntity
  8
0
100
AcDbLine
 62
7
  6
CONTINUOUS
 10
24.3339162506
 20
82.4743610957
 11
16.9144187039
 21
86.7579130946
  0
LINE
  5
289
100
AcDbEntity
  8
0
100
AcDbLine
 62
7
  6
CONTINUOUS
 10
49.6160158727
 20
67.9114159653
 11
42.1965183261
 21
72.1949679643
  0
LINE
  5
28A
100
AcDbEntity
  8
0
100
AcDbLine
 62
7
  6
CONTINUOUS
 10
39.6993252056
 20
74.9778878699
 11
14.4201525316
 21
89.572494844
  0
LINE
  5
28B
100
AcDbEntity
  8
0
100
AcDbLine
 62
7
  6
CONTINUOUS
 10
39.718011407
 20
75.0011059704
 11
52.357597744
 21
67.7038024834
  0
LINE
  5
28C
100
AcDbEntity
  8
0
100
AcDbLine
 62
7
  6
CONTINUOUS
 10
15.1218645409
 20
90.6975215495
 11
40.4010372149
 21
76.1029145754
  0
LINE
  5
28D
100
AcDbEntity
  8
0
100
AcDbLine
 62
7
  6
CONTINUOUS
 10
40.4200979825
 20
76.1258618179
 11
53.0596843195
 21
68.8285583308
  0
LINE
  5
28E
100
AcDbEntity
  8
0
100
AcDbLine
 62
7
  6
CONTINUOUS
 10
67.1226890818
 20
38.9606656468
 11
67.0074747109
 21
39.1395845366
  0
LINE
  5
28F
100
AcDbEntity
  8
0
100
AcDbLine
 62
7
  6
CONTINUOUS
 10
75.3442354675
 20
119.6621746464
 11
75.6588951177
 21
120.0360508408
  0
LINE
  5
290
100
AcDbEntity
  8
0
100
AcDbLine
 62
7
  6
CONTINUOUS
 10
97.7666625979
 20
119.1065769639
 11
95.4332199351
 21
117.7593712562
  0
LINE
  5
291
100
AcDbEntity
  8
0
100
AcDbLine
 62
7
  6
CONTINUOUS
 10
81.1499635145
 20
107.2153314633
 11
80.3741573376
 21
106.7674222319
  0
LINE
  5
292
100
AcDbEntity
  8
0
100
AcDbLine
 62
7
  6
CONTINUOUS
 10
23.9117813079
 20
79.1616129
 11
24.0585001977
 21
79.2261335881
  0
LINE
  5
293
100
AcDbEntity
  8
0
100
AcDbLine
 62
7
  6
CONTINUOUS
 10
29.6171541883
 20
79.3249525617
 11
29.7146856393
 21
79.3678427195
  0
LINE
  5
294
100
AcDbEntity
  8
0
100
AcDbLine
 62
7
  6
CONTINUOUS
 10
57.0691123579
 20
34.3534918879
 11
57.0485696089
 21
34.5522202921
  0
LINE
  5
295
100
AcDbEntity
  8
0
100
AcDbLine
 62
7
  6
CONTINUOUS
 10
57.0410420602
 20
34.5478742858
 11
57.0614629
 21
34.3491920071
  0
LINE
  5
296
100
AcDbEntity
  8
0
100
AcDbLine
 62
7
  6
CONTINUOUS
 10
49.3389646102
 20
64.6674109884
 11
49.3226975529
 21
64.4587764854
  0
LINE
  5
297
100
AcDbEntity
  8
0
100
AcDbLine
 62
7
  6
CONTINUOUS
 10
49.3394052158
 20
64.6676171141
 11
49.3226975529
 21
64.4587764854
  0
LINE
  5
298
100
AcDbEntity
  8
0
100
AcDbLine
 62
7
  6
CONTINUOUS
 10
49.5076363497
 20
67.874746619
 11
49.1872561766
 21
64.6008155758
  0
LINE
  5
299
100
AcDbEntity
  8
0
100
AcDbLine
 62
7
  6
CONTINUOUS
 10
54.1369014477
 20
84.0428047358
 11
54.3482200899
 21
85.3273337216
  0
LINE
  5
29A
100
AcDbEntity
  8
0
100
AcDbLine
 62
7
  6
CONTINUOUS
 10
54.3678883739
 20
85.3409522625
 11
54.1559646961
 21
84.0562208247
  0
LINE
  5
29B
100
AcDbEntity
  8
0
100
AcDbLine
 62
7
  6
CONTINUOUS
 10
72.661250972
 20
122.1994725787
 11
72.8919541371
 21
122.6437763282
  0
LINE
  5
29C
100
AcDbEntity
  8
0
100
AcDbLine
 62
7
  6
CONTINUOUS
 10
78.9504951512
 20
117.5801468478
 11
79.2651548014
 21
117.9540230421
  0
LINE
  5
29D
100
AcDbEntity
  8
0
100
AcDbLine
 62
7
  6
CONTINUOUS
 10
54.1369014477
 20
84.0428047358
 11
40.4010372149
 21
76.1029145754
  0
LINE
  5
29E
100
AcDbEntity
  8
0
100
AcDbLine
 62
7
  6
CONTINUOUS
 10
62.7977113296
 20
92.4341178807
 11
62.7790483072
 21
92.423342844
  0
LINE
  5
29F
100
AcDbEntity
  8
0
100
AcDbLine
 62
7
  6
CONTINUOUS
 10
70.4018120738
 20
95.988517281
 11
102.9992944229
 21
114.8085701528
  0
LINE
  5
2A0
100
AcDbEntity
  8
0
100
AcDbLine
 62
7
  6
CONTINUOUS
 10
40.4200979825
 20
76.1258618179
 11
54.1559646961
 21
84.0562208247
  0
LINE
  5
2A1
100
AcDbEntity
  8
0
100
AcDbLine
 62
7
  6
CONTINUOUS
 10
29.2472776989
 20
76.017481984
 11
29.3027199725
 21
76.041863123
  0
LINE
  5
2A2
100
AcDbEntity
  8
0
100
AcDbLine
 62
7
  6
CONTINUOUS
 10
57.0691123579
 20
34.3534918879
 11
57.044685331
 21
34.5493796411
  0
LINE
  5
2A3
100
AcDbEntity
  8
0
100
AcDbLine
 62
7
  6
CONTINUOUS
 10
57.0371600486
 20
34.5450380251
 11
57.0614629
 21
34.3491920071
  0
LINE
  5
2A4
100
AcDbEntity
  8
0
100
AcDbLine
 62
7
  6
CONTINUOUS
 10
56.1874326488
 20
85.3617339052
 11
56.1866032518
 21
86.9559947036
  0
LINE
  5
2A5
100
AcDbEntity
  8
0
100
AcDbLine
 62
7
  6
CONTINUOUS
 10
56.2065658241
 20
85.3506876112
 11
56.2065658241
 21
86.9557697794
  0
LINE
  5
2A6
100
AcDbEntity
  8
0
100
AcDbLine
 62
7
  6
CONTINUOUS
 10
56.1866092443
 20
86.9432607201
 11
56.1868487928
 21
86.9561366036
  0
LINE
  5
2A7
100
AcDbEntity
  8
0
100
AcDbLine
 62
7
  6
CONTINUOUS
 10
76.2675106086
 20
120.1174448045
 11
76.4982137354
 21
120.5617484801
  0
LINE
  5
2A8
100
AcDbEntity
  8
0
100
AcDbLine
 62
7
  6
CONTINUOUS
 10
36.8500491808
 20
75.1491331604
 11
36.9475806318
 21
75.1920233182
  0
LINE
  5
2A9
100
AcDbEntity
  8
0
100
AcDbLine
 62
7
  6
CONTINUOUS
 10
36.5312768153
 20
71.8759085964
 11
36.6833853603
 21
71.9427994242
  0
LINE
  5
2AA
100
AcDbEntity
  8
0
100
AcDbLine
 62
7
  6
CONTINUOUS
 10
67.4226364956
 20
78.6723177296
 11
67.7226052115
 21
78.7019890993
  0
LINE
  5
2AB
100
AcDbEntity
  8
0
100
AcDbLine
 62
7
  6
CONTINUOUS
 10
54.1369014477
 20
84.0428047358
 11
28.8577287737
 21
98.6374117099
  0
LINE
  5
2AC
100
AcDbEntity
  8
0
100
AcDbLine
 62
7
  6
CONTINUOUS
 10
54.1559646961
 20
84.0562208247
 11
66.7955510331
 21
76.7589173376
  0
LINE
  5
2AD
100
AcDbEntity
  8
0
100
AcDbLine
 62
7
  6
CONTINUOUS
 10
67.0074747109
 20
39.1395845366
 11
66.7955510331
 21
40.1796090502
  0
LINE
  5
2AE
100
AcDbEntity
  8
0
100
AcDbLine
 62
7
  6
CONTINUOUS
 10
79.8737702452
 20
118.0354170303
 11
80.1044733336
 21
118.4797206321
  0
LINE
  5
2AF
100
AcDbEntity
  8
0
100
AcDbLine
 62
7
  6
CONTINUOUS
 10
42.3723818571
 20
72.0934354043
 11
42.2747413573
 21
72.0505660202
  0
LINE
  5
2B0
100
AcDbEntity
  8
0
100
AcDbLine
 62
7
  6
CONTINUOUS
 10
41.9587209188
 20
68.7667051244
 11
41.9032000063
 21
68.7423284843
  0
LINE
  5
2B1
100
AcDbEntity
  8
0
100
AcDbLine
 62
7
  6
CONTINUOUS
 10
54.3482200899
 20
85.3273337216
 11
29.0690474158
 21
99.9219406957
  0
LINE
  5
2B2
100
AcDbEntity
  8
0
100
AcDbLine
 62
7
  6
CONTINUOUS
 10
67.0074747109
 20
78.0436487754
 11
54.3678883739
 21
85.3409522625
  0
LINE
  5
2B3
100
AcDbEntity
  8
0
100
AcDbLine
 62
7
  6
CONTINUOUS
 10
67.7905312193
 20
78.5522746312
 11
68.8461521611
 21
77.9428253839
  0
LINE
  5
2B4
100
AcDbEntity
  8
0
100
AcDbLine
 62
7
  6
CONTINUOUS
 10
29.7842565651
 20
100.5806448025
 11
55.0466524594
 21
85.9957236876
  0
LINE
  5
2B5
100
AcDbEntity
  8
0
100
AcDbLine
 62
7
  6
CONTINUOUS
 10
55.0830450685
 20
85.9993379474
 11
67.7226314055
 21
78.7020344604
  0
LINE
  5
2B6
100
AcDbEntity
  8
0
100
AcDbLine
 62
7
  6
CONTINUOUS
 10
56.1866092443
 20
86.9432607201
 11
30.9074365703
 21
101.5378676942
  0
LINE
  5
2B7
100
AcDbEntity
  8
0
100
AcDbLine
 62
7
  6
CONTINUOUS
 10
68.8461521611
 20
79.6584662924
 11
56.2065658241
 21
86.9557697794
  0
LINE
  5
2B8
100
AcDbEntity
  8
0
100
AcDbLine
 62
7
  6
CONTINUOUS
 10
58.9021681159
 20
92.1250805475
 11
59.0525221203
 21
91.5370217465
  0
LINE
  5
2B9
100
AcDbEntity
  8
0
100
AcDbLine
 62
7
  6
CONTINUOUS
 10
67.8475773022
 20
78.4265404061
 11
67.8549833986
 21
77.5324526839
  0
LINE
  5
2BA
100
AcDbEntity
  8
0
100
AcDbLine
 62
7
  6
CONTINUOUS
 10
68.4567035238
 20
122.3528224115
 11
68.4563108631
 21
123.1070125346
  0
LINE
  5
2BB
100
AcDbEntity
  8
0
100
AcDbLine
 62
7
  6
CONTINUOUS
 10
67.8549833986
 20
77.5324526839
 11
67.8549833986
 21
77.3705772479
  0
LINE
  5
2BC
100
AcDbEntity
  8
0
100
AcDbLine
 62
7
  6
CONTINUOUS
 10
67.8549833986
 20
40.7912689605
 11
67.8549833986
 21
40.6293935249
  0
LINE
  5
2BD
100
AcDbEntity
  8
0
100
AcDbLine
 62
7
  6
CONTINUOUS
 10
67.8549833986
 20
40.6293935249
 11
67.8472788032
 21
39.7253845878
  0
LINE
  5
2BE
100
AcDbEntity
  8
0
100
AcDbLine
 62
7
  6
CONTINUOUS
 10
66.7955510331
 20
76.7589173376
 11
67.0074747109
 21
78.0436487754
  0
LINE
  5
2BF
100
AcDbEntity
  8
0
100
AcDbLine
 62
7
  6
CONTINUOUS
 10
53.0596843195
 20
68.8285583308
 11
66.7955510331
 21
76.7589173376
  0
LINE
  5
2C0
100
AcDbEntity
  8
0
100
AcDbLine
 62
7
  6
CONTINUOUS
 10
67.8549833986
 20
77.3705772479
 11
68.8461521611
 21
77.9428253839
  0
LINE
  5
2C1
100
AcDbEntity
  8
0
100
AcDbLine
 62
7
  6
CONTINUOUS
 10
49.6052768496
 20
67.917616003
 11
49.5076363497
 21
67.874746619
  0
LINE
  5
2C2
100
AcDbEntity
  8
0
100
AcDbLine
 62
7
  6
CONTINUOUS
 10
66.4681377532
 20
87.7569647606
 11
65.3940419268
 21
87.8758243843
  0
LINE
  5
2C3
100
AcDbEntity
  8
0
100
AcDbLine
 62
7
  6
CONTINUOUS
 10
99.817300231
 20
64.2262365234
 11
100.6658248357
 21
63.7363516972
  0
LINE
  5
2C4
100
AcDbEntity
  8
0
100
AcDbLine
 62
7
  6
CONTINUOUS
 10
99.817300231
 20
67.4974980433
 11
101.7027711762
 21
66.4089455119
  0
LINE
  5
2C5
100
AcDbEntity
  8
0
100
AcDbLine
 62
7
  6
CONTINUOUS
 10
102.9992944228
 20
67.1574890891
 11
99.8880116322
 21
68.953748409
  0
LINE
  5
2C6
100
AcDbEntity
  8
0
100
AcDbLine
 62
7
  6
CONTINUOUS
 10
103.4992701676
 20
67.2070207449
 11
100.3879873769
 21
69.0032800648
  0
LINE
  5
2C7
100
AcDbEntity
  8
0
100
AcDbLine
 62
7
  6
CONTINUOUS
 10
67.7226052115
 20
78.7019890993
 11
67.8475773022
 21
78.4265404061
  0
LINE
  5
2C8
100
AcDbEntity
  8
0
100
AcDbLine
 62
7
  6
CONTINUOUS
 10
70.2780793472
 20
122.5870549779
 11
70.2777900239
 21
123.1427629333
  0
LINE
  5
2C9
100
AcDbEntity
  8
0
100
AcDbLine
 62
7
  6
CONTINUOUS
 10
70.7412361916
 20
122.3196572985
 11
70.7409468684
 21
122.8753652243
  0
LINE
  5
2CA
100
AcDbEntity
  8
0
100
AcDbLine
 62
7
  6
CONTINUOUS
 10
71.0237895553
 20
122.8754640344
 11
71.0241639736
 21
122.1563125627
  0
LINE
  5
2CB
100
AcDbEntity
  8
0
100
AcDbLine
 62
7
  6
CONTINUOUS
 10
71.2619117107
 20
122.0190519479
 11
71.2613943219
 21
123.0128092874
  0
LINE
  5
2CC
100
AcDbEntity
  8
0
100
AcDbLine
 62
7
  6
CONTINUOUS
 10
71.5312135623
 20
121.8635739688
 11
71.5308993331
 21
122.4671191668
  0
LINE
  5
2CD
100
AcDbEntity
  8
0
100
AcDbLine
 62
7
  6
CONTINUOUS
 10
71.5894785641
 20
122.3854763336
 11
71.5897678873
 21
121.8297683783
  0
LINE
  5
2CE
100
AcDbEntity
  8
0
100
AcDbLine
 62
7
  6
CONTINUOUS
 10
72.3763627214
 20
125.7040756155
 11
72.3759163603
 21
126.5614089901
  0
LINE
  5
2CF
100
AcDbEntity
  8
0
100
AcDbLine
 62
7
  6
CONTINUOUS
 10
73.0462773901
 20
122.3248036794
 11
73.0461849323
 21
122.5547331515
  0
LINE
  5
2D0
100
AcDbEntity
  8
0
100
AcDbLine
 62
7
  6
CONTINUOUS
 10
68.8461521611
 20
41.2828526873
 11
68.8461521611
 21
41.3635170965
  0
LINE
  5
2D1
100
AcDbEntity
  8
0
100
AcDbLine
 62
7
  6
CONTINUOUS
 10
68.8461521611
 20
77.9428253839
 11
68.8461521611
 21
79.6584662924
  0
LINE
  5
2D2
100
AcDbEntity
  8
0
100
AcDbLine
 62
7
  6
CONTINUOUS
 10
74.601700492
 20
133.7332480135
 11
74.5991624319
 21
133.6716050296
  0
LINE
  5
2D3
100
AcDbEntity
  8
0
100
AcDbLine
 62
7
  6
CONTINUOUS
 10
103.7063713357
 20
94.6409378503
 11
99.817300231
 21
92.395595004
  0
LINE
  5
2D4
100
AcDbEntity
  8
0
100
AcDbLine
 62
7
  6
CONTINUOUS
 10
49.3394052158
 20
64.6676171141
 11
49.1872561766
 21
64.6008155758
  0
LINE
  5
2D5
100
AcDbEntity
  8
0
100
AcDbLine
 62
7
  6
CONTINUOUS
 10
62.8415451958
 20
92.3872610648
 11
62.7790483072
 21
92.423342844
  0
LINE
  5
2D6
100
AcDbEntity
  8
0
100
AcDbLine
 62
7
  6
CONTINUOUS
 10
73.4751327169
 20
122.5726995621
 11
73.4736827058
 21
125.3577599113
  0
LINE
  5
2D7
100
AcDbEntity
  8
0
100
AcDbLine
 62
7
  6
CONTINUOUS
 10
73.8843390309
 20
120.5050271792
 11
73.8840497076
 21
121.0607351346
  0
LINE
  5
2D8
100
AcDbEntity
  8
0
100
AcDbLine
 62
7
  6
CONTINUOUS
 10
74.0440138776
 20
122.9015360921
 11
74.0429061713
 21
125.029126025
  0
LINE
  5
2D9
100
AcDbEntity
  8
0
100
AcDbLine
 62
7
  6
CONTINUOUS
 10
74.3474958753
 20
120.2376294998
 11
74.3472065521
 21
120.7933374256
  0
LINE
  5
2DA
100
AcDbEntity
  8
0
100
AcDbLine
 62
7
  6
CONTINUOUS
 10
74.630049239
 20
120.7934362357
 11
74.6304236573
 21
120.074284764
  0
LINE
  5
2DB
100
AcDbEntity
  8
0
100
AcDbLine
 62
7
  6
CONTINUOUS
 10
74.8681713944
 20
119.9370241493
 11
74.8676540056
 21
120.9307814887
  0
LINE
  5
2DC
100
AcDbEntity
  8
0
100
AcDbLine
 62
7
  6
CONTINUOUS
 10
75.137473246
 20
119.7815461702
 11
75.1371590168
 21
120.3850913682
  0
LINE
  5
2DD
100
AcDbEntity
  8
0
100
AcDbLine
 62
7
  6
CONTINUOUS
 10
75.1957382478
 20
120.303448535
 11
75.196027571
 21
119.7477405796
  0
LINE
  5
2DE
100
AcDbEntity
  8
0
100
AcDbLine
 62
7
  6
CONTINUOUS
 10
75.3157037711
 20
124.2942927944
 11
75.3160460757
 21
123.636822621
  0
LINE
  5
2DF
100
AcDbEntity
  8
0
100
AcDbLine
 62
7
  6
CONTINUOUS
 10
77.0813924006
 20
120.4906717635
 11
77.0799423895
 21
123.2757321126
  0
LINE
  5
2E0
100
AcDbEntity
  8
0
100
AcDbLine
 62
7
  6
CONTINUOUS
 10
77.4905987146
 20
118.4229993806
 11
77.4903093913
 21
118.978707336
  0
LINE
  5
2E1
100
AcDbEntity
  8
0
100
AcDbLine
 62
7
  6
CONTINUOUS
 10
77.6502735613
 20
120.8195082934
 11
77.649165855
 21
122.9470982263
  0
LINE
  5
2E2
100
AcDbEntity
  8
0
100
AcDbLine
 62
7
  6
CONTINUOUS
 10
77.953755559
 20
118.1556017011
 11
77.9534662358
 21
118.711309627
  0
LINE
  5
2E3
100
AcDbEntity
  8
0
100
AcDbLine
 62
7
  6
CONTINUOUS
 10
76.6525369884
 20
120.2427758314
 11
76.6524445306
 21
120.4727053034
  0
LINE
  5
2E4
100
AcDbEntity
  8
0
100
AcDbLine
 62
7
  6
CONTINUOUS
 10
74.3966773499
 20
133.520039833
 11
74.3966773499
 21
134.0979960941
  0
LINE
  5
2E5
100
AcDbEntity
  8
0
100
AcDbLine
 62
7
  6
CONTINUOUS
 10
74.6017005423
 20
133.7330161553
 11
74.6017005423
 21
134.3837646222
  0
LINE
  5
2E6
100
AcDbEntity
  8
0
100
AcDbLine
 62
7
  6
CONTINUOUS
 10
77.1901490538
 20
109.5014796887
 11
77.1901495364
 21
108.6056684063
  0
LINE
  5
2E7
100
AcDbEntity
  8
0
100
AcDbLine
 62
7
  6
CONTINUOUS
 10
57.0338222494
 20
102.1573516549
 11
31.7546495754
 21
116.751958629
  0
LINE
  5
2E8
100
AcDbEntity
  8
0
100
AcDbLine
 62
7
  6
CONTINUOUS
 10
69.7010299603
 20
94.8763992798
 11
57.0614436233
 21
102.1737027669
  0
LINE
  5
2E9
100
AcDbEntity
  8
0
100
AcDbLine
 62
7
  6
CONTINUOUS
 10
32.4550641611
 20
117.8643580794
 11
57.7342368351
 21
103.2697511053
  0
LINE
  5
2EA
100
AcDbEntity
  8
0
100
AcDbLine
 62
7
  6
CONTINUOUS
 10
57.7622255248
 20
103.2858206489
 11
70.4018120615
 21
95.9885172771
  0
LINE
  5
2EB
100
AcDbEntity
  8
0
100
AcDbLine
 62
7
  6
CONTINUOUS
 10
78.2363089227
 20
118.711408437
 11
78.236683341
 21
117.9922569654
  0
LINE
  5
2EC
100
AcDbEntity
  8
0
100
AcDbLine
 62
7
  6
CONTINUOUS
 10
78.4096263132
 20
115.2065318951
 11
78.4096187983
 21
115.2209657525
  0
LINE
  5
2ED
100
AcDbEntity
  8
0
100
AcDbLine
 62
7
  6
CONTINUOUS
 10
78.4744310781
 20
117.8549963506
 11
78.4739136893
 21
118.84875369
  0
LINE
  5
2EE
100
AcDbEntity
  8
0
100
AcDbLine
 62
7
  6
CONTINUOUS
 10
78.7437329296
 20
117.6995183715
 11
78.7434187005
 21
118.3030635695
  0
LINE
  5
2EF
100
AcDbEntity
  8
0
100
AcDbLine
 62
7
  6
CONTINUOUS
 10
78.8019979315
 20
118.2214207363
 11
78.8022872547
 21
117.665712781
  0
LINE
  5
2F0
100
AcDbEntity
  8
0
100
AcDbLine
 62
7
  6
CONTINUOUS
 10
78.9219634548
 20
122.2122649958
 11
78.9223057594
 21
121.5547948224
  0
LINE
  5
2F1
100
AcDbEntity
  8
0
100
AcDbLine
 62
7
  6
CONTINUOUS
 10
79.2330557351
 20
116.1312333126
 11
79.2326630743
 21
116.8854234357
  0
LINE
  5
2F2
100
AcDbEntity
  8
0
100
AcDbLine
 62
7
  6
CONTINUOUS
 10
80.6876520843
 20
118.4086439648
 11
80.6862020732
 21
121.193704314
  0
LINE
  5
2F3
100
AcDbEntity
  8
0
100
AcDbLine
 62
7
  6
CONTINUOUS
 10
81.256533245
 20
118.7374804948
 11
81.2554255387
 21
120.8650704276
  0
LINE
  5
2F4
100
AcDbEntity
  8
0
100
AcDbLine
 62
7
  6
CONTINUOUS
 10
82.5282231385
 20
120.1302371971
 11
82.5285654431
 21
119.4727670237
  0
LINE
  5
2F5
100
AcDbEntity
  8
0
100
AcDbLine
 62
7
  6
CONTINUOUS
 10
80.2587965866
 20
118.1607479833
 11
80.2587041288
 21
118.3906774554
  0
LINE
  5
2F6
100
AcDbEntity
  8
0
100
AcDbLine
 62
7
  6
CONTINUOUS
 10
29.7842500114
 20
100.5806334501
 11
29.4840066701
 21
100.5507807685
  0
LINE
  5
2F7
100
AcDbEntity
  8
0
100
AcDbLine
 62
7
  6
CONTINUOUS
 10
84.1815595828
 20
118.8884962187
 11
84.1811132216
 21
119.7458295934
  0
LINE
  5
2F8
100
AcDbEntity
  8
0
100
AcDbLine
 62
7
  6
CONTINUOUS
 10
85.2099678434
 20
119.1326874722
 11
85.2099578723
 21
119.1518392952
  0
LINE
  5
2F9
100
AcDbEntity
  8
0
100
AcDbLine
 62
7
  6
CONTINUOUS
 10
87.3014580959
 20
120.3402027246
 11
87.3014580959
 21
122.4541399332
  0
LINE
  5
2FA
100
AcDbEntity
  8
0
100
AcDbLine
 62
7
  6
CONTINUOUS
 10
99.817300231
 20
68.9129234062
 11
99.8880116322
 21
68.953748409
  0
LINE
  5
2FB
100
AcDbEntity
  8
0
100
AcDbLine
 62
7
  6
CONTINUOUS
 10
77.4903093913
 20
118.978707336
 11
76.8433081703
 21
118.7967042962
  0
LINE
  5
2FC
100
AcDbEntity
  8
0
100
AcDbLine
 62
7
  6
CONTINUOUS
 10
73.8840497076
 20
121.0607351346
 11
73.2370484866
 21
120.8787320949
  0
LINE
  5
2FD
100
AcDbEntity
  8
0
100
AcDbLine
 62
7
  6
CONTINUOUS
 10
76.5805136622
 20
108.9576338799
 11
76.4128927384
 21
109.0527332244
  0
LINE
  5
2FE
100
AcDbEntity
  8
0
100
AcDbLine
 62
7
  6
CONTINUOUS
 10
80.3741573376
 20
106.7674222319
 11
76.5805136622
 21
108.9576338799
  0
LINE
  5
2FF
100
AcDbEntity
  8
0
100
AcDbLine
 62
7
  6
CONTINUOUS
 10
75.8025513837
 20
110.3025914636
 11
77.1901490538
 21
109.5014796887
  0
LINE
  5
300
100
AcDbEntity
  8
0
100
AcDbLine
 62
7
  6
CONTINUOUS
 10
81.1499635145
 20
107.2153314633
 11
82.5375606385
 21
106.4142200138
  0
LINE
  5
301
100
AcDbEntity
  8
0
100
AcDbLine
 62
7
  6
CONTINUOUS
 10
73.2923630901
 20
122.4670512581
 11
73.2004145478
 21
122.64377713
  0
LINE
  5
302
100
AcDbEntity
  8
0
100
AcDbLine
 62
7
  6
CONTINUOUS
 10
95.6099691043
 20
121.2728171974
 11
95.6099691043
 21
121.8507734585
  0
LINE
  5
303
100
AcDbEntity
  8
0
100
AcDbLine
 62
7
  6
CONTINUOUS
 10
95.8149922967
 20
121.4857935196
 11
95.8149922967
 21
122.1365419866
  0
LINE
  5
304
100
AcDbEntity
  8
0
100
AcDbLine
 62
7
  6
CONTINUOUS
 10
95.8149922464
 20
121.4860253779
 11
95.8124541863
 21
121.424382394
  0
LINE
  5
305
100
AcDbEntity
  8
0
100
AcDbLine
 62
7
  6
CONTINUOUS
 10
101.7027711762
 20
66.4089455119
 11
102.9992944228
 21
67.1574890891
  0
LINE
  5
306
100
AcDbEntity
  8
0
100
AcDbLine
 62
7
  6
CONTINUOUS
 10
99.817300231
 20
63.2464587125
 11
100.6658248357
 21
63.7363516972
  0
LINE
  5
307
100
AcDbEntity
  8
0
100
AcDbLine
 62
7
  6
CONTINUOUS
 10
70.2777900239
 20
123.1427629333
 11
69.6307888029
 21
122.9607598936
  0
LINE
  5
308
100
AcDbEntity
  8
0
100
AcDbLine
 62
7
  6
CONTINUOUS
 10
76.8986226883
 20
120.38502341
 11
76.8066741461
 21
120.5617492819
  0
LINE
  5
309
100
AcDbEntity
  8
0
100
AcDbLine
 62
7
  6
CONTINUOUS
 10
80.5048822866
 20
118.302995562
 11
80.4129337443
 21
118.4797214338
  0
LINE
  5
30A
100
AcDbEntity
  8
0
100
AcDbLine
 62
7
  6
CONTINUOUS
 10
99.817300231
 20
92.395595004
 11
99.817300231
 21
63.2464587125
  0
LINE
  5
30B
100
AcDbEntity
  8
0
100
AcDbLine
 62
7
  6
CONTINUOUS
 10
68.8461521611
 20
41.3635170965
 11
67.8549833986
 21
40.7912689605
  0
LINE
  5
30C
100
AcDbEntity
  8
0
100
AcDbLine
 62
7
  6
CONTINUOUS
 10
66.7955510331
 20
40.1796090502
 11
52.4722476794
 21
31.9100953656
  0
LINE
  5
30D
100
AcDbEntity
  8
0
100
AcDbLine
 62
7
  6
CONTINUOUS
 10
65.5755772863
 20
122.6305354473
 11
78.4096187983
 21
115.2209657525
  0
LINE
  5
30E
100
AcDbEntity
  8
0
100
AcDbLine
 62
7
  6
CONTINUOUS
 10
68.4567035238
 20
122.3528224115
 11
79.2330557351
 21
116.1312333126
  0
LINE
  5
30F
100
AcDbEntity
  8
0
100
AcDbLine
 62
7
  6
CONTINUOUS
 10
68.4563108631
 20
123.1070125346
 11
79.2326630743
 21
116.8854234357
  0
LINE
  5
310
100
AcDbEntity
  8
0
100
AcDbLine
 62
7
  6
CONTINUOUS
 10
71.7379757838
 20
121.7442024451
 11
69.6307888029
 21
122.9607598936
  0
LINE
  5
311
100
AcDbEntity
  8
0
100
AcDbLine
 62
7
  6
CONTINUOUS
 10
78.9504951512
 20
117.5801468478
 11
76.8433081703
 21
118.7967042962
  0
LINE
  5
312
100
AcDbEntity
  8
0
100
AcDbLine
 62
7
  6
CONTINUOUS
 10
75.3442354675
 20
119.6621746464
 11
73.2370484866
 21
120.8787320949
  0
LINE
  5
313
100
AcDbEntity
  8
0
100
AcDbLine
 62
7
  6
CONTINUOUS
 10
70.2777900239
 20
123.1427629333
 11
70.7409468684
 21
122.8753652243
  0
LINE
  5
314
100
AcDbEntity
  8
0
100
AcDbLine
 62
7
  6
CONTINUOUS
 10
71.5894785641
 20
122.3854763336
 11
72.0526354341
 21
122.1180786394
  0
LINE
  5
315
100
AcDbEntity
  8
0
100
AcDbLine
 62
7
  6
CONTINUOUS
 10
73.8840497076
 20
121.0607351346
 11
74.3472065521
 21
120.7933374256
  0
LINE
  5
316
100
AcDbEntity
  8
0
100
AcDbLine
 62
7
  6
CONTINUOUS
 10
75.1957382478
 20
120.303448535
 11
75.6588951177
 21
120.0360508408
  0
LINE
  5
317
100
AcDbEntity
  8
0
100
AcDbLine
 62
7
  6
CONTINUOUS
 10
77.4903093913
 20
118.978707336
 11
77.9534662358
 21
118.711309627
  0
LINE
  5
318
100
AcDbEntity
  8
0
100
AcDbLine
 62
7
  6
CONTINUOUS
 10
78.8019979315
 20
118.2214207363
 11
79.2651548014
 21
117.9540230421
  0
LINE
  5
319
100
AcDbEntity
  8
0
100
AcDbLine
 62
7
  6
CONTINUOUS
 10
72.7498602933
 20
122.1534624991
 11
71.827082102
 21
122.6862166837
  0
LINE
  5
31A
100
AcDbEntity
  8
0
100
AcDbLine
 62
7
  6
CONTINUOUS
 10
71.2613943219
 20
123.0128092874
 11
70.3386161306
 21
123.545563472
  0
LINE
  5
31B
100
AcDbEntity
  8
0
100
AcDbLine
 62
7
  6
CONTINUOUS
 10
79.9623796607
 20
117.9894069018
 11
79.0396014694
 21
118.5221610864
  0
LINE
  5
31C
100
AcDbEntity
  8
0
100
AcDbLine
 62
7
  6
CONTINUOUS
 10
78.4739136893
 20
118.84875369
 11
77.551135498
 21
119.3815078747
  0
LINE
  5
31D
100
AcDbEntity
  8
0
100
AcDbLine
 62
7
  6
CONTINUOUS
 10
76.356119977
 20
120.0714347004
 11
75.4333417857
 21
120.6041888851
  0
LINE
  5
31E
100
AcDbEntity
  8
0
100
AcDbLine
 62
7
  6
CONTINUOUS
 10
74.8676540056
 20
120.9307814887
 11
73.9448758143
 21
121.4635356733
  0
LINE
  5
31F
100
AcDbEntity
  8
0
100
AcDbLine
 62
7
  6
CONTINUOUS
 10
80.2587041288
 20
118.3906774554
 11
80.1044733336
 21
118.4797206321
  0
LINE
  5
320
100
AcDbEntity
  8
0
100
AcDbLine
 62
7
  6
CONTINUOUS
 10
76.6524445306
 20
120.4727053034
 11
76.4982137354
 21
120.5617484801
  0
LINE
  5
321
100
AcDbEntity
  8
0
100
AcDbLine
 62
7
  6
CONTINUOUS
 10
73.0461849323
 20
122.5547331515
 11
72.8919541371
 21
122.6437763282
  0
LINE
  5
322
100
AcDbEntity
  8
0
100
AcDbLine
 62
7
  6
CONTINUOUS
 10
73.0461837526
 20
122.7328203067
 11
73.2004145478
 21
122.64377713
  0
LINE
  5
323
100
AcDbEntity
  8
0
100
AcDbLine
 62
7
  6
CONTINUOUS
 10
76.6524433508
 20
120.6507924586
 11
76.8066741461
 21
120.5617492819
  0
LINE
  5
324
100
AcDbEntity
  8
0
100
AcDbLine
 62
7
  6
CONTINUOUS
 10
80.2587029491
 20
118.5687646106
 11
80.4129337443
 21
118.4797214338
  0
LINE
  5
325
100
AcDbEntity
  8
0
100
AcDbLine
 62
7
  6
CONTINUOUS
 10
103.7063713357
 20
114.4003274348
 11
103.7063713357
 21
94.6409378503
  0
LINE
  5
326
100
AcDbEntity
  8
0
100
AcDbLine
 62
7
  6
CONTINUOUS
 10
103.7063713357
 20
66.7492463711
 11
103.7063713357
 21
53.8494398231
  0
LINE
  5
327
100
AcDbEntity
  8
0
100
AcDbLine
 62
7
  6
CONTINUOUS
 10
100.6658248357
 20
63.7363516972
 11
101.7027711762
 21
66.4089455119
  0
LINE
  5
328
100
AcDbEntity
  8
0
100
AcDbLine
 62
7
  6
CONTINUOUS
 10
72.3763627214
 20
125.7040756155
 11
72.6629469405
 21
125.5386198825
  0
LINE
  5
329
100
AcDbEntity
  8
0
100
AcDbLine
 62
7
  6
CONTINUOUS
 10
84.1815595828
 20
118.8884962187
 11
84.4842891427
 21
118.7137191798
  0
LINE
  5
32A
100
AcDbEntity
  8
0
100
AcDbLine
 62
7
  6
CONTINUOUS
 10
73.4736827058
 20
125.3577599113
 11
74.0429061713
 21
125.029126025
  0
LINE
  5
32B
100
AcDbEntity
  8
0
100
AcDbLine
 62
7
  6
CONTINUOUS
 10
75.3157037711
 20
124.2942927944
 11
75.8849270263
 21
123.9656590295
  0
LINE
  5
32C
100
AcDbEntity
  8
0
100
AcDbLine
 62
7
  6
CONTINUOUS
 10
77.0799423895
 20
123.2757321126
 11
77.649165855
 21
122.9470982263
  0
LINE
  5
32D
100
AcDbEntity
  8
0
100
AcDbLine
 62
7
  6
CONTINUOUS
 10
78.9219634548
 20
122.2122649958
 11
79.49118671
 21
121.8836312309
  0
LINE
  5
32E
100
AcDbEntity
  8
0
100
AcDbLine
 62
7
  6
CONTINUOUS
 10
80.6862020732
 20
121.193704314
 11
81.2554255387
 21
120.8650704276
  0
LINE
  5
32F
100
AcDbEntity
  8
0
100
AcDbLine
 62
7
  6
CONTINUOUS
 10
82.5282231385
 20
120.1302371971
 11
83.0974463937
 21
119.8016034322
  0
LINE
  5
330
100
AcDbEntity
  8
0
100
AcDbLine
 62
7
  6
CONTINUOUS
 10
72.3759163603
 20
126.5614089901
 11
73.4047610103
 21
125.9674186923
  0
LINE
  5
331
100
AcDbEntity
  8
0
100
AcDbLine
 62
7
  6
CONTINUOUS
 10
84.1811132216
 20
119.7458295934
 11
85.2099578723
 21
119.1518392952
  0
LINE
  5
332
100
AcDbEntity
  8
0
100
AcDbLine
 62
7
  6
CONTINUOUS
 10
103.7063713357
 20
53.8494398231
 11
102.6073216614
 21
46.0175535209
  0
LINE
  5
333
100
AcDbEntity
  8
0
100
AcDbLine
 62
7
  6
CONTINUOUS
 10
90.4567467731
 20
121.7333366903
 11
90.794158548
 21
121.5571391105
  0
LINE
  5
334
100
AcDbEntity
  8
0
100
AcDbLine
 62
7
  6
CONTINUOUS
 10
69.2434550187
 20
133.9805593259
 11
69.5808667936
 21
133.8043617461
  0
LINE
  5
335
100
AcDbEntity
  8
0
100
AcDbLine
 62
7
  6
CONTINUOUS
 10
93.1276012108
 20
122.9043448182
 11
92.7901894359
 21
123.080542398
  0
LINE
  5
336
100
AcDbEntity
  8
0
100
AcDbLine
 62
7
  6
CONTINUOUS
 10
87.7350631162
 20
122.8389504443
 11
88.0792787939
 21
122.6483733085
  0
LINE
  5
337
100
AcDbEntity
  8
0
100
AcDbLine
 62
7
  6
CONTINUOUS
 10
66.5217713618
 20
135.0861730799
 11
66.8659870395
 21
134.8955959441
  0
LINE
  5
338
100
AcDbEntity
  8
0
100
AcDbLine
 62
7
  6
CONTINUOUS
 10
90.4127214565
 20
123.9955790164
 11
90.068505779
 21
124.1861561521
  0
LINE
  5
339
100
AcDbEntity
  8
0
100
AcDbLine
 62
7
  6
CONTINUOUS
 10
69.1994297021
 20
136.242801652
 11
68.8552140246
 21
136.4333787877
  0
LINE
  5
33A
100
AcDbEntity
  8
0
100
AcDbLine
 62
7
  6
CONTINUOUS
 10
93.3118907597
 20
117.5845983953
 11
92.4987145758
 21
118.054075263
  0
LINE
  5
33B
100
AcDbEntity
  8
0
100
AcDbLine
 62
7
  6
CONTINUOUS
 10
90.2359634553
 20
119.3604456774
 11
89.4227872714
 21
119.8299225451
  0
LINE
  5
33C
100
AcDbEntity
  8
0
100
AcDbLine
 62
7
  6
CONTINUOUS
 10
72.0985990053
 20
129.8318210309
 11
71.2854228214
 21
130.3012978986
  0
LINE
  5
33D
100
AcDbEntity
  8
0
100
AcDbLine
 62
7
  6
CONTINUOUS
 10
69.0226717009
 20
131.607668313
 11
68.209495517
 21
132.0771451807
  0
LINE
  5
33E
100
AcDbEntity
  8
0
100
AcDbLine
 62
7
  6
CONTINUOUS
 10
88.2863108316
 20
123.2933099371
 11
76.5533708435
 21
130.0671727523
  0
LINE
  5
33F
100
AcDbEntity
  8
0
100
AcDbLine
 62
7
  6
CONTINUOUS
 10
67.0730190772
 20
135.5405325727
 11
65.0525406329
 21
136.7070299567
  0
LINE
  5
340
100
AcDbEntity
  8
0
100
AcDbLine
 62
7
  6
CONTINUOUS
 10
102.9992944228
 20
114.8085701528
 11
97.7666625979
 21
117.8295632015
  0
LINE
  5
341
100
AcDbEntity
  8
0
100
AcDbLine
 62
7
  6
CONTINUOUS
 10
88.5796179945
 20
123.4626498957
 11
76.5533708435
 21
130.4058498494
  0
LINE
  5
342
100
AcDbEntity
  8
0
100
AcDbLine
 62
7
  6
CONTINUOUS
 10
67.36632624
 20
135.7098725313
 11
65.5529413232
 21
136.7568071163
  0
LINE
  5
343
100
AcDbEntity
  8
0
100
AcDbLine
 62
7
  6
CONTINUOUS
 10
103.4992701676
 20
114.8581018086
 11
97.7666625979
 21
118.1677494578
  0
LINE
  5
344
100
AcDbEntity
  8
0
100
AcDbLine
 62
7
  6
CONTINUOUS
 10
70.7272277286
 20
133.1425249244
 11
71.0646395036
 21
132.92912176
  0
LINE
  5
345
100
AcDbEntity
  8
0
100
AcDbLine
 62
7
  6
CONTINUOUS
 10
91.940519483
 20
120.8953022888
 11
92.277931258
 21
120.6818991243
  0
LINE
  5
346
100
AcDbEntity
  8
0
100
AcDbLine
 62
7
  6
CONTINUOUS
 10
73.3980821664
 20
134.2763274677
 11
73.0606703914
 21
134.4897306322
  0
LINE
  5
347
100
AcDbEntity
  8
0
100
AcDbLine
 62
7
  6
CONTINUOUS
 10
101.9109865643
 20
44.9408340746
 11
70.4018108322
 21
26.7491116011
  0
LINE
  5
348
100
AcDbEntity
  8
0
100
AcDbLine
 62
7
  6
CONTINUOUS
 10
71.9143094564
 20
135.1515674538
 11
71.5768976815
 21
135.3277650336
  0
LINE
  5
349
100
AcDbEntity
  8
0
100
AcDbLine
 62
7
  6
CONTINUOUS
 10
95.0442813242
 20
122.8305679958
 11
94.4785935441
 21
123.1571605994
  0
LINE
  5
34A
100
AcDbEntity
  8
0
100
AcDbLine
 62
7
  6
CONTINUOUS
 10
73.8309895698
 20
135.0777906314
 11
73.2653017897
 21
135.404383235
  0
LINE
  5
34B
100
AcDbEntity
  8
0
100
AcDbLine
 62
7
  6
CONTINUOUS
 10
95.3942753858
 20
122.865237515
 11
94.8285876056
 21
123.1918301186
  0
LINE
  5
34C
100
AcDbEntity
  8
0
100
AcDbLine
 62
7
  6
CONTINUOUS
 10
74.1809836313
 20
135.1124601506
 11
73.6152958512
 21
135.4390527542
  0
LINE
  5
34D
100
AcDbEntity
  8
0
100
AcDbLine
 62
7
  6
CONTINUOUS
 10
94.6113739208
 20
122.0291048321
 11
94.2739621458
 21
122.2425079966
  0
ARC
  5
34E
100
AcDbEntity
  8
0
100
AcDbCircle
 62
7
  6
CONTINUOUS
 10
284.7002248861
 20
46.2004320882
 40
236.0846292082
100
AcDbArc
 50
174.7234691658
 51
175.5136344885
  0
ARC
  5
34F
100
AcDbEntity
  8
0
100
AcDbCircle
 62
7
  6
CONTINUOUS
 10
271.8650400206
 20
53.6021862785
 40
235.8961392661
100
AcDbArc
 50
174.7503119792
 51
175.5408789281
  0
ARC
  5
350
100
AcDbEntity
  8
0
100
AcDbCircle
 62
7
  6
CONTINUOUS
 10
259.236851041
 20
60.8910930911
 40
235.892403928
100
AcDbArc
 50
174.7503094728
 51
175.5421648364
  0
ARC
  5
351
100
AcDbEntity
  8
0
100
AcDbCircle
 62
7
  6
CONTINUOUS
 10
276.0988627984
 20
50.5845989812
 40
234.8985139924
100
AcDbArc
 50
174.7548090365
 51
175.5572716185
  0
ARC
  5
352
100
AcDbEntity
  8
0
100
AcDbCircle
 62
7
  6
CONTINUOUS
 10
263.2634780905
 20
57.9858079606
 40
234.7098710702
100
AcDbArc
 50
174.7816811149
 51
175.5845787996
  0
ARC
  5
353
100
AcDbEntity
  8
0
100
AcDbCircle
 62
7
  6
CONTINUOUS
 10
250.6348732758
 20
65.2747271225
 40
234.7057203919
100
AcDbArc
 50
174.7822634521
 51
175.5851863809
  0
ARC
  5
354
100
AcDbEntity
  8
0
100
AcDbCircle
 62
7
  6
CONTINUOUS
 10
59.9525881528
 20
108.4174023196
 40
28.9616514296
100
AcDbArc
 50
58.943134434
 51
60.6952999187
  0
ARC
  5
355
100
AcDbEntity
  8
0
100
AcDbCircle
 62
7
  6
CONTINUOUS
 10
81.1658799073
 20
96.1701796841
 40
28.9616514295
100
AcDbArc
 50
58.943134434
 51
60.6952999187
  0
ARC
  5
356
100
AcDbEntity
  8
0
100
AcDbCircle
 62
7
  6
CONTINUOUS
 10
57.747673901
 20
107.2912010017
 40
28.7060206879
100
AcDbArc
 50
58.9353321903
 51
60.7031021625
  0
ARC
  5
357
100
AcDbEntity
  8
0
100
AcDbCircle
 62
7
  6
CONTINUOUS
 10
78.9609656554
 20
95.043978366
 40
28.706020688
100
AcDbArc
 50
58.9353321903
 51
60.7031021625
  0
ARC
  5
358
100
AcDbEntity
  8
0
100
AcDbCircle
 62
7
  6
CONTINUOUS
 10
56.8618369666
 20
33.2009756755
 40
9.8651675532
100
AcDbArc
 50
25.7925719236
 51
36.3095685077
  0
ARC
  5
359
100
AcDbEntity
  8
0
100
AcDbCircle
 62
7
  6
CONTINUOUS
 10
58.1675745167
 20
102.0338936953
 40
1.1404543349
100
AcDbArc
 50
172.7247294987
 51
173.7861689817
  0
ARC
  5
35A
100
AcDbEntity
  8
0
100
AcDbCircle
 62
7
  6
CONTINUOUS
 10
40.8161571943
 20
74.8690333903
 40
1.1221243197
100
AcDbArc
 50
173.1895827842
 51
174.4331248971
  0
ARC
  5
35B
100
AcDbEntity
  8
0
100
AcDbCircle
 62
7
  6
CONTINUOUS
 10
55.0857040347
 20
85.205941597
 40
0.747407932
100
AcDbArc
 50
169.3118244234
 51
170.6527557287
  0
ARC
  5
35C
100
AcDbEntity
  8
0
100
AcDbCircle
 62
7
  6
CONTINUOUS
 10
55.0309280234
 20
85.4932244798
 40
0.5348003582
100
AcDbArc
 50
117.4264132951
 51
120.0431218863
  0
ARC
  5
35D
100
AcDbEntity
  8
0
100
AcDbCircle
 62
7
  6
CONTINUOUS
 10
39.5020263337
 20
39.4402391495
 40
0.340312251
100
AcDbArc
 50
240.0725530063
 51
251.5372489879
  0
ARC
  5
35E
100
AcDbEntity
  8
0
100
AcDbCircle
 62
7
  6
CONTINUOUS
 10
57.430080186
 20
34.2877538609
 40
0.3357892516
100
AcDbArc
 50
231.1992913073
 51
240.0120685859
  0
ARC
  5
35F
100
AcDbEntity
  8
0
100
AcDbCircle
 62
7
  6
CONTINUOUS
 10
54.9819486687
 20
85.823766499
 40
0.2025978881
100
AcDbArc
 50
64.9520316597
 51
68.7782313083
  0
ARC
  5
360
100
AcDbEntity
  8
0
100
AcDbCircle
 62
7
  6
CONTINUOUS
 10
54.983417482
 20
85.8269274622
 40
0.1991123406
100
AcDbArc
 50
59.9784824391
 51
64.9498441503
  0
SPLINE
  5
361
100
AcDbEntity
  8
0
100
AcDbSpline
 62
7
  6
CONTINUOUS
 70
0
 71
3
 72
11
 73
7
 74
0
 42
0.0000001
 43
0.0000001
 44
0.0000000001
 40
0.0
 40
0.0
 40
0.0
 40
0.0
 40
0.2497223774
 40
0.5000310024
 40
0.7503210913
 40
1.0
 40
1.0
 40
1.0
 40
1.0
 10
74.1809836313
 20
135.1124601506
 30
0.0
 10
74.2442442714
 20
135.0759374293
 30
0.0
 10
74.3612786376
 20
134.984769351
 30
0.0
 10
74.4951965909
 20
134.8080477121
 30
0.0
 10
74.581268073
 20
134.6037186124
 30
0.0
 10
74.6017005423
 20
134.4567985892
 30
0.0
 10
74.6017005423
 20
134.3837646223
 30
0.0
  0
SPLINE
  5
362
100
AcDbEntity
  8
0
100
AcDbSpline
 62
7
  6
CONTINUOUS
 70
0
 71
3
 72
11
 73
7
 74
0
 42
0.0000001
 43
0.0000001
 44
0.0000000001
 40
0.0
 40
0.0
 40
0.0
 40
0.0
 40
0.2501193974
 40
0.5001768637
 40
0.7501357843
 40
1.0
 40
1.0
 40
1.0
 40
1.0
 10
72.8653035804
 20
135.4440026582
 30
0.0
 10
72.9218678615
 20
135.4766598662
 30
0.0
 10
73.0443926647
 20
135.5270019175
 30
0.0
 10
73.2410493805
 20
135.5511015618
 30
0.0
 10
73.437069066
 20
135.5231581948
 30
0.0
 10
73.558789044
 20
135.4716762365
 30
0.0
 10
73.6152958512
 20
135.4390527542
 30
0.0
  0
SPLINE
  5
363
100
AcDbEntity
  8
0
100
AcDbSpline
 62
7
  6
CONTINUOUS
 70
0
 71
3
 72
11
 73
7
 74
0
 42
0.0000001
 43
0.0000001
 44
0.0000000001
 40
0.0
 40
0.0
 40
0.0
 40
0.0
 40
0.2761467541
 40
0.5323922289
 40
0.7720358039
 40
1.0
 40
1.0
 40
1.0
 40
1.0
 10
74.4764017573
 20
133.4752558796
 30
0.0
 10
74.4931515039
 20
133.4891609562
 30
0.0
 10
74.5237452394
 20
133.5181462843
 30
0.0
 10
74.560939363
 20
133.5666888311
 30
0.0
 10
74.5869358831
 20
133.6178785096
 30
0.0
 10
74.5965331013
 20
133.6538274109
 30
0.0
 10
74.5991624319
 20
133.6716050296
 30
0.0
  0
SPLINE
  5
364
100
AcDbEntity
  8
0
100
AcDbSpline
 62
7
  6
CONTINUOUS
 70
0
 71
3
 72
15
 73
11
 74
0
 42
0.0000001
 43
0.0000001
 44
0.0000000001
 40
0.0
 40
0.0
 40
0.0
 40
0.0
 40
0.1118613556
 40
0.2315720031
 40
0.3574030891
 40
0.4872869538
 40
0.6188848534
 40
0.7497590358
 40
0.8775474462
 40
1.0
 40
1.0
 40
1.0
 40
1.0
 10
76.5533708435
 20
131.3537995996
 30
0.0
 10
76.5533708435
 20
131.3915705813
 30
0.0
 10
76.5475341225
 20
131.46982376
 30
0.0
 10
76.5238316603
 20
131.5884037709
 30
0.0
 10
76.4854962417
 20
131.7094827901
 30
0.0
 10
76.4335939242
 20
131.8297499236
 30
0.0
 10
76.3695222771
 20
131.9459393451
 30
0.0
 10
76.2950357244
 20
132.0548969755
 30
0.0
 10
76.2121693978
 20
132.1536210776
 30
0.0
 10
76.1511981981
 20
132.2124201905
 30
0.0
 10
76.1197658232
 20
132.2392827344
 30
0.0
  0
SPLINE
  5
365
100
AcDbEntity
  8
0
100
AcDbSpline
 62
7
  6
CONTINUOUS
 70
0
 71
3
 72
9
 73
5
 74
0
 42
0.0000001
 43
0.0000001
 44
0.0000000001
 40
0.0
 40
0.0
 40
0.0
 40
0.0
 40
0.5262145257
 40
1.0
 40
1.0
 40
1.0
 40
1.0
 10
76.1197658232
 20
132.2392827344
 30
0.0
 10
76.0659896935
 20
132.2852405612
 30
0.0
 10
75.9573411999
 20
132.3654354862
 30
0.0
 10
75.835671212
 20
132.4251391599
 30
0.0
 10
75.7755501458
 20
132.446162635
 30
0.0
  0
SPLINE
  5
366
100
AcDbEntity
  8
0
100
AcDbSpline
 62
7
  6
CONTINUOUS
 70
0
 71
3
 72
11
 73
7
 74
0
 42
0.0000001
 43
0.0000001
 44
0.0000000001
 40
0.0
 40
0.0
 40
0.0
 40
0.0
 40
0.2320924501
 40
0.4775087191
 40
0.734289725
 40
1.0
 40
1.0
 40
1.0
 40
1.0
 10
75.7755501458
 20
132.446162635
 30
0.0
 10
75.696190977
 20
132.491979636
 30
0.0
 10
75.5382994237
 20
132.5957787832
 30
0.0
 10
75.3127551365
 20
132.7785721972
 30
0.0
 10
75.0950390831
 20
132.9901064347
 30
0.0
 10
74.9593621182
 20
133.1458499574
 30
0.0
 10
74.8935725794
 20
133.2275663234
 30
0.0
  0
SPLINE
  5
367
100
AcDbEntity
  8
0
100
AcDbSpline
 62
7
  6
CONTINUOUS
 70
0
 71
3
 72
10
 73
6
 74
0
 42
0.0000001
 43
0.0000001
 44
0.0000000001
 40
0.0
 40
0.0
 40
0.0
 40
0.0
 40
0.2344284559
 40
0.4801757481
 40
1.0
 40
1.0
 40
1.0
 40
1.0
 10
74.1279839324
 20
133.6728058607
 30
0.0
 10
74.0636747163
 20
133.7099339873
 30
0.0
 10
73.9354743993
 20
133.7922334117
 30
0.0
 10
73.68381896
 20
133.9849936575
 30
0.0
 10
73.508799303
 20
134.1544487641
 30
0.0
 10
73.3980821664
 20
134.2763274677
 30
0.0
  0
SPLINE
  5
368
100
AcDbEntity
  8
0
100
AcDbSpline
 62
7
  6
CONTINUOUS
 70
0
 71
3
 72
9
 73
5
 74
0
 42
0.0000001
 43
0.0000001
 44
0.0000000001
 40
0.0
 40
0.0
 40
0.0
 40
0.0
 40
0.476816391
 40
1.0
 40
1.0
 40
1.0
 40
1.0
 10
73.0606703914
 20
134.4897306322
 30
0.0
 10
72.9642720216
 20
134.5072323146
 30
0.0
 10
72.7658271058
 20
134.5657420473
 30
0.0
 10
72.5805895657
 20
134.6566210569
 30
0.0
 10
72.4874899239
 20
134.7103709441
 30
0.0
  0
SPLINE
  5
369
100
AcDbEntity
  8
0
100
AcDbSpline
 62
7
  6
CONTINUOUS
 70
0
 71
3
 72
9
 73
5
 74
0
 42
0.0000001
 43
0.0000001
 44
0.0000000001
 40
0.0
 40
0.0
 40
0.0
 40
0.0
 40
0.4832258417
 40
1.0
 40
1.0
 40
1.0
 40
1.0
 10
72.4874899239
 20
134.7103709441
 30
0.0
 10
72.3863979313
 20
134.7687351129
 30
0.0
 10
72.1859642226
 20
134.9050265328
 30
0.0
 10
72.0037750005
 20
135.0645068667
 30
0.0
 10
71.9143094564
 20
135.1515674538
 30
0.0
  0
SPLINE
  5
36A
100
AcDbEntity
  8
0
100
AcDbSpline
 62
7
  6
CONTINUOUS
 70
0
 71
3
 72
10
 73
6
 74
0
 42
0.0000001
 43
0.0000001
 44
0.0000000001
 40
0.0
 40
0.0
 40
0.0
 40
0.0
 40
0.469434149
 40
0.7270437258
 40
1.0
 40
1.0
 40
1.0
 40
1.0
 10
71.5768976815
 20
135.3277650336
 30
0.0
 10
71.4559769079
 20
135.3342781721
 30
0.0
 10
71.2697348744
 20
135.373702991
 30
0.0
 10
71.0297297218
 20
135.4686364299
 30
0.0
 10
70.9079761957
 20
135.5318362027
 30
0.0
 10
70.8469970009
 20
135.5670416955
 30
0.0
  0
SPLINE
  5
36B
100
AcDbEntity
  8
0
100
AcDbSpline
 62
7
  6
CONTINUOUS
 70
0
 71
3
 72
9
 73
5
 74
0
 42
0.0000001
 43
0.0000001
 44
0.0000000001
 40
0.0
 40
0.0
 40
0.0
 40
0.0
 40
0.5155770529
 40
1.0
 40
1.0
 40
1.0
 40
1.0
 10
70.8469970009
 20
135.5670416955
 30
0.0
 10
70.7235955881
 20
135.6555695046
 30
0.0
 10
70.4760810937
 20
135.8162705913
 30
0.0
 10
70.2125590117
 20
135.9495850053
 30
0.0
 10
70.0814072685
 20
136.0058084088
 30
0.0
  0
SPLINE
  5
36C
100
AcDbEntity
  8
0
100
AcDbSpline
 62
7
  6
CONTINUOUS
 70
0
 71
3
 72
11
 73
7
 74
0
 42
0.0000001
 43
0.0000001
 44
0.0000000001
 40
0.0
 40
0.0
 40
0.0
 40
0.0
 40
0.2234551327
 40
0.463368141
 40
0.7219942073
 40
1.0
 40
1.0
 40
1.0
 40
1.0
 10
70.0814072685
 20
136.0058084088
 30
0.0
 10
70.0126638723
 20
135.9997993343
 30
0.0
 10
69.8685840436
 20
136.0020430747
 30
0.0
 10
69.6487668625
 20
136.0444317391
 30
0.0
 10
69.4219890074
 20
136.1247141236
 30
0.0
 10
69.2737796227
 20
136.1998766764
 30
0.0
 10
69.1994297021
 20
136.242801652
 30
0.0
  0
SPLINE
  5
36D
100
AcDbEntity
  8
0
100
AcDbSpline
 62
7
  6
CONTINUOUS
 70
0
 71
3
 72
11
 73
7
 74
0
 42
0.0000001
 43
0.0000001
 44
0.0000000001
 40
0.0
 40
0.0
 40
0.0
 40
0.0
 40
0.2747618894
 40
0.5295707108
 40
0.7689498616
 40
1.0
 40
1.0
 40
1.0
 40
1.0
 10
68.8552140246
 20
136.4333787877
 30
0.0
 10
68.8310190456
 20
136.4406387461
 30
0.0
 10
68.7832322799
 20
136.4512219877
 30
0.0
 10
68.7121526741
 20
136.4539428519
 30
0.0
 10
68.6459253957
 20
136.4425594567
 30
0.0
 10
68.6056969623
 20
136.4254140928
 30
0.0
 10
68.5872995761
 20
136.4147952939
 30
0.0
  0
SPLINE
  5
36E
100
AcDbEntity
  8
0
100
AcDbSpline
 62
7
  6
CONTINUOUS
 70
0
 71
3
 72
15
 73
11
 74
0
 42
0.0000001
 43
0.0000001
 44
0.0000000001
 40
0.0
 40
0.0
 40
0.0
 40
0.0
 40
0.1141555516
 40
0.2373276756
 40
0.3669773296
 40
0.5000011
 40
0.6330247168
 40
0.7626739247
 40
0.885845342
 40
1.0
 40
1.0
 40
1.0
 40
1.0
 10
72.8057087304
 20
128.6070778592
 30
0.0
 10
72.8057087304
 20
128.6629739342
 30
0.0
 10
72.795470569
 20
128.7792895749
 30
0.0
 10
72.7546563443
 20
128.9547643492
 30
0.0
 10
72.689274311
 20
129.132506223
 30
0.0
 10
72.601767926
 20
129.3058315329
 30
0.0
 10
72.4954163415
 20
129.4682762514
 30
0.0
 10
72.3741780174
 20
129.6137685613
 30
0.0
 10
72.2426194614
 20
129.7368505874
 30
0.0
 10
72.1470063209
 20
129.8038736864
 30
0.0
 10
72.0985990053
 20
129.8318210309
 30
0.0
  0
SPLINE
  5
36F
100
AcDbEntity
  8
0
100
AcDbSpline
 62
7
  6
CONTINUOUS
 70
0
 71
3
 72
13
 73
9
 74
0
 42
0.0000001
 43
0.0000001
 44
0.0000000001
 40
0.0
 40
0.0
 40
0.0
 40
0.0
 40
0.2894501207
 40
0.4228150777
 40
0.548836145
 40
0.7817340211
 40
0.8918863542
 40
1.0
 40
1.0
 40
1.0
 40
1.0
 10
68.209495517
 20
132.0771451807
 30
0.0
 10
68.1656012898
 20
132.1024869513
 30
0.0
 10
68.0982218012
 20
132.1345644413
 30
0.0
 10
68.0057685013
 20
132.1615046586
 30
0.0
 10
67.9206434793
 20
132.1758247647
 30
0.0
 10
67.8371381761
 20
132.1735968704
 30
0.0
 10
67.7607119527
 20
132.1524262933
 30
0.0
 10
67.7258936459
 20
132.1361336018
 30
0.0
 10
67.709498609
 20
132.1266679813
 30
0.0
  0
SPLINE
  5
370
100
AcDbEntity
  8
0
100
AcDbSpline
 62
7
  6
CONTINUOUS
 70
0
 71
3
 72
23
 73
19
 74
0
 42
0.0000001
 43
0.0000001
 44
0.0000000001
 40
0.0
 40
0.0
 40
0.0
 40
0.0
 40
0.0623867207
 40
0.1287471202
 40
0.1983459083
 40
0.270334698
 40
0.3437222671
 40
0.4174664317
 40
0.4905031942
 40
0.5618013872
 40
0.6304101058
 40
0.6955084479
 40
0.7564655232
 40
0.8129114493
 40
0.8648203122
 40
0.9126032291
 40
0.9571853202
 40
1.0
 40
1.0
 40
1.0
 40
1.0
 10
71.2854228214
 20
130.3012978986
 30
0.0
 10
71.2854228214
 20
130.3676687531
 30
0.0
 10
71.2764232356
 20
130.5047286018
 30
0.0
 10
71.2394310508
 20
130.7128308426
 30
0.0
 10
71.1792579016
 20
130.9260712089
 30
0.0
 10
71.0972367458
 20
131.1398797192
 30
0.0
 10
70.9950811816
 20
131.3497345947
 30
0.0
 10
70.8749795699
 20
131.5511538034
 30
0.0
 10
70.7394937534
 20
131.7398438791
 30
0.0
 10
70.5915116889
 20
131.9117821932
 30
0.0
 10
70.4341737981
 20
132.0633145371
 30
0.0
 10
70.2707892177
 20
132.1912267225
 30
0.0
 10
70.1047496
 20
132.2928053542
 30
0.0
 10
69.9394300934
 20
132.3658664683
 30
0.0
 10
69.7781205133
 20
132.4087251825
 30
0.0
 10
69.6239881114
 20
132.4200734753
 30
0.0
 10
69.4804501847
 20
132.3990427183
 30
0.0
 10
69.3935018003
 20
132.3628925164
 30
0.0
 10
69.3540530837
 20
132.3401218861
 30
0.0
  0
SPLINE
  5
371
100
AcDbEntity
  8
0
100
AcDbSpline
 62
7
  6
CONTINUOUS
 70
0
 71
3
 72
12
 73
8
 74
0
 42
0.0000001
 43
0.0000001
 44
0.0000000001
 40
0.0
 40
0.0
 40
0.0
 40
0.0
 40
0.2895856793
 40
0.5486339854
 40
0.78163705
 40
0.8918373471
 40
1.0
 40
1.0
 40
1.0
 40
1.0
 10
66.0881663415
 20
134.7013625688
 30
0.0
 10
66.0881663415
 20
134.7419119476
 30
0.0
 10
66.0943095413
 20
134.8190102234
 30
0.0
 10
66.1254857564
 20
134.9248759474
 30
0.0
 10
66.1702806326
 20
134.997922325
 30
0.0
 10
66.2155242487
 20
135.0424137088
 30
0.0
 10
66.2407395935
 20
135.0600183921
 30
0.0
 10
66.2538569133
 20
135.0675895861
 30
0.0
  0
SPLINE
  5
372
100
AcDbEntity
  8
0
100
AcDbSpline
 62
7
  6
CONTINUOUS
 70
0
 71
3
 72
14
 73
10
 74
0
 42
0.0000001
 43
0.0000001
 44
0.0000000001
 40
0.0
 40
0.0
 40
0.0
 40
0.0
 40
0.1080451608
 40
0.218127025
 40
0.3321042291
 40
0.4514992254
 40
0.5774451356
 40
0.7107195457
 40
1.0
 40
1.0
 40
1.0
 40
1.0
 10
69.3540530837
 20
132.3401218861
 30
0.0
 10
69.3278193351
 20
132.3249792136
 30
0.0
 10
69.2773862897
 20
132.2897827541
 30
0.0
 10
69.210739694
 20
132.2242016468
 30
0.0
 10
69.15343253
 20
132.1463532595
 30
0.0
 10
69.1059709154
 20
132.0571397175
 30
0.0
 10
69.0687391497
 20
131.9574368903
 30
0.0
 10
69.0321390706
 20
131.8078138764
 30
0.0
 10
69.0226717009
 20
131.6887680033
 30
0.0
 10
69.0226717009
 20
131.607668313
 30
0.0
  0
SPLINE
  5
373
100
AcDbEntity
  8
0
100
AcDbSpline
 62
7
  6
CONTINUOUS
 70
0
 71
3
 72
12
 73
8
 74
0
 42
0.0000001
 43
0.0000001
 44
0.0000000001
 40
0.0
 40
0.0
 40
0.0
 40
0.0
 40
0.1081508643
 40
0.2183547805
 40
0.4513288564
 40
0.7104433135
 40
1.0
 40
1.0
 40
1.0
 40
1.0
 10
74.6016979193
 20
134.3837646222
 30
0.0
 10
74.6016985128
 20
134.3705142618
 30
0.0
 10
74.599399501
 20
134.34370555
 30
0.0
 10
74.5854588726
 20
134.2899683097
 30
0.0
 10
74.5497279152
 20
134.2240542243
 30
0.0
 10
74.4831305951
 20
134.1541264178
 30
0.0
 10
74.4274002759
 20
134.1157338778
 30
0.0
 10
74.3966773499
 20
134.0979960941
 30
0.0
  0
SPLINE
  5
374
100
AcDbEntity
  8
0
100
AcDbSpline
 62
7
  6
CONTINUOUS
 70
0
 71
3
 72
13
 73
9
 74
0
 42
0.0000001
 43
0.0000001
 44
0.0000000001
 40
0.0
 40
0.0
 40
0.0
 40
0.0
 40
0.1081131453
 40
0.2182650547
 40
0.4511625307
 40
0.5771836882
 40
0.7105489075
 40
1.0
 40
1.0
 40
1.0
 40
1.0
 10
67.709498609
 20
132.1266679813
 30
0.0
 10
67.693103209
 20
132.1172021512
 30
0.0
 10
67.6615833837
 20
132.0951945555
 30
0.0
 10
67.6050346747
 20
132.0395914407
 30
0.0
 10
67.5613518518
 20
131.968385615
 30
0.0
 10
67.5311907035
 20
131.8875027527
 30
0.0
 10
67.5082950803
 20
131.7939628119
 30
0.0
 10
67.5023857918
 20
131.7195694463
 30
0.0
 10
67.5023857918
 20
131.6688835181
 30
0.0
  0
SPLINE
  5
375
100
AcDbEntity
  8
0
100
AcDbSpline
 62
7
  6
CONTINUOUS
 70
0
 71
3
 72
12
 73
8
 74
0
 42
0.0000001
 43
0.0000001
 44
0.0000000001
 40
0.0
 40
0.0
 40
0.0
 40
0.0
 40
0.2895912563
 40
0.5486401214
 40
0.7816344028
 40
0.8918356837
 40
1.0
 40
1.0
 40
1.0
 40
1.0
 10
73.2653017897
 20
135.404383235
 30
0.0
 10
73.2301850015
 20
135.4246574635
 30
0.0
 10
73.1603448419
 20
135.4578850473
 30
0.0
 10
73.0530774038
 20
135.4838171734
 30
0.0
 10
72.9674228881
 20
135.4815470519
 30
0.0
 10
72.9062733985
 20
135.4646092305
 30
0.0
 10
72.878419544
 20
135.4515759092
 30
0.0
 10
72.8653036968
 20
135.4440024568
 30
0.0
  0
SPLINE
  5
376
100
AcDbEntity
  8
0
100
AcDbSpline
 62
7
  6
CONTINUOUS
 70
0
 71
3
 72
12
 73
8
 74
0
 42
0.0000001
 43
0.0000001
 44
0.0000000001
 40
0.0
 40
0.0
 40
0.0
 40
0.0
 40
0.108151798
 40
0.2183565172
 40
0.4513314193
 40
0.7104452966
 40
1.0
 40
1.0
 40
1.0
 40
1.0
 10
73.6152945398
 20
135.4390504828
 30
0.0
 10
73.6038195529
 20
135.4456761053
 30
0.0
 10
73.5794528125
 20
135.4570893376
 30
0.0
 10
73.5259444864
 20
135.4718849179
 30
0.0
 10
73.4509958427
 20
135.47389828
 30
0.0
 10
73.3571382378
 20
135.4511878879
 30
0.0
 10
73.2960244279
 20
135.4221208526
 30
0.0
 10
73.2653017897
 20
135.404383235
 30
0.0
  0
SPLINE
  5
377
100
AcDbEntity
  8
0
100
AcDbSpline
 62
7
  6
CONTINUOUS
 70
0
 71
3
 72
11
 73
7
 74
0
 42
0.0000001
 43
0.0000001
 44
0.0000000001
 40
0.0
 40
0.0
 40
0.0
 40
0.0
 40
0.2310501384
 40
0.4704292892
 40
0.7252381106
 40
1.0
 40
1.0
 40
1.0
 40
1.0
 10
66.2538569133
 20
135.0675895861
 30
0.0
 10
66.2722542995
 20
135.078208385
 30
0.0
 10
66.3124827329
 20
135.0953537489
 30
0.0
 10
66.3787100113
 20
135.1067371441
 30
0.0
 10
66.4497896171
 20
135.1040162799
 30
0.0
 10
66.4975763828
 20
135.0934330383
 30
0.0
 10
66.5217713618
 20
135.0861730799
 30
0.0
  0
SPLINE
  5
378
100
AcDbEntity
  8
0
100
AcDbSpline
 62
7
  6
CONTINUOUS
 70
0
 71
3
 72
15
 73
11
 74
0
 42
0.0000001
 43
0.0000001
 44
0.0000000001
 40
0.0
 40
0.0
 40
0.0
 40
0.0
 40
0.1141527168
 40
0.2373150593
 40
0.3669511855
 40
0.4999671722
 40
0.6329917929
 40
0.7626498762
 40
0.8858369861
 40
1.0
 40
1.0
 40
1.0
 40
1.0
 10
74.3966773499
 20
134.0979960941
 30
0.0
 10
74.3966773499
 20
134.1427118565
 30
0.0
 10
74.3884877966
 20
134.2357594787
 30
0.0
 10
74.3558398933
 20
134.3761295582
 30
0.0
 10
74.3035415234
 20
134.5183126773
 30
0.0
 10
74.2335435283
 20
134.656967656
 30
0.0
 10
74.1484649833
 20
134.7869261889
 30
0.0
 10
74.0514715826
 20
134.9033309684
 30
0.0
 10
73.9462159935
 20
135.0018063642
 30
0.0
 10
73.8697182682
 20
135.0554311128
 30
0.0
 10
73.8309895698
 20
135.0777906314
 30
0.0
  0
SPLINE
  5
379
100
AcDbEntity
  8
0
100
AcDbSpline
 62
7
  6
CONTINUOUS
 70
0
 71
3
 72
12
 73
8
 74
0
 42
0.0000001
 43
0.0000001
 44
0.0000000001
 40
0.0
 40
0.0
 40
0.0
 40
0.0
 40
0.2895706353
 40
0.5486531839
 40
0.7816290543
 40
0.8918354874
 40
1.0
 40
1.0
 40
1.0
 40
1.0
 10
73.8309895698
 20
135.0777906314
 30
0.0
 10
73.861713974
 20
135.0955292685
 30
0.0
 10
73.9228257587
 20
135.1245976279
 30
0.0
 10
74.0166819669
 20
135.1473034929
 30
0.0
 10
74.0916277955
 20
135.14529734
 30
0.0
 10
74.1451373566
 20
135.1304974977
 30
0.0
 10
74.1695053622
 20
135.1190832687
 30
0.0
 10
74.1809823197
 20
135.1124578787
 30
0.0
  0
SPLINE
  5
37A
100
AcDbEntity
  8
0
100
AcDbSpline
 62
7
  6
CONTINUOUS
 70
0
 71
3
 72
11
 73
7
 74
0
 42
0.0000001
 43
0.0000001
 44
0.0000000001
 40
0.0
 40
0.0
 40
0.0
 40
0.0
 40
0.2780057927
 40
0.536631859
 40
0.7765448673
 40
1.0
 40
1.0
 40
1.0
 40
1.0
 10
66.8659870395
 20
134.8955959441
 30
0.0
 10
66.9403369601
 20
134.8526709685
 30
0.0
 10
67.0885463447
 20
134.7775084158
 30
0.0
 10
67.3153241998
 20
134.6972260312
 30
0.0
 10
67.5351413809
 20
134.6548373669
 30
0.0
 10
67.6792212095
 20
134.6525936265
 30
0.0
 10
67.7479646057
 20
134.658602701
 30
0.0
  0
SPLINE
  5
37B
100
AcDbEntity
  8
0
100
AcDbSpline
 62
7
  6
CONTINUOUS
 70
0
 71
3
 72
9
 73
5
 74
0
 42
0.0000001
 43
0.0000001
 44
0.0000000001
 40
0.0
 40
0.0
 40
0.0
 40
0.0
 40
0.4844229471
 40
1.0
 40
1.0
 40
1.0
 40
1.0
 10
67.7479646057
 20
134.658602701
 30
0.0
 10
67.8791163489
 20
134.6023792975
 30
0.0
 10
68.1426384309
 20
134.4690648835
 30
0.0
 10
68.3901529253
 20
134.3083637969
 30
0.0
 10
68.5135543381
 20
134.2198359877
 30
0.0
  0
SPLINE
  5
37C
100
AcDbEntity
  8
0
100
AcDbSpline
 62
7
  6
CONTINUOUS
 70
0
 71
3
 72
10
 73
6
 74
0
 42
0.0000001
 43
0.0000001
 44
0.0000000001
 40
0.0
 40
0.0
 40
0.0
 40
0.0
 40
0.2729562742
 40
0.530565851
 40
1.0
 40
1.0
 40
1.0
 40
1.0
 10
68.5135543381
 20
134.2198359877
 30
0.0
 10
68.5745335329
 20
134.1846304949
 30
0.0
 10
68.696287059
 20
134.1214307221
 30
0.0
 10
68.9362922116
 20
134.0264972832
 30
0.0
 10
69.1225342451
 20
133.9870724643
 30
0.0
 10
69.2434550187
 20
133.9805593259
 30
0.0
  0
SPLINE
  5
37D
100
AcDbEntity
  8
0
100
AcDbSpline
 62
7
  6
CONTINUOUS
 70
0
 71
3
 72
9
 73
5
 74
0
 42
0.0000001
 43
0.0000001
 44
0.0000000001
 40
0.0
 40
0.0
 40
0.0
 40
0.0
 40
0.5167741583
 40
1.0
 40
1.0
 40
1.0
 40
1.0
 10
69.5808667936
 20
133.8043617461
 30
0.0
 10
69.6703323377
 20
133.7173011589
 30
0.0
 10
69.8525215598
 20
133.557820825
 30
0.0
 10
70.0529552685
 20
133.4215294051
 30
0.0
 10
70.1540472611
 20
133.3631652363
 30
0.0
  0
SPLINE
  5
37E
100
AcDbEntity
  8
0
100
AcDbSpline
 62
7
  6
CONTINUOUS
 70
0
 71
3
 72
9
 73
5
 74
0
 42
0.0000001
 43
0.0000001
 44
0.0000000001
 40
0.0
 40
0.0
 40
0.0
 40
0.0
 40
0.523183609
 40
1.0
 40
1.0
 40
1.0
 40
1.0
 10
70.1540472611
 20
133.3631652363
 30
0.0
 10
70.2471469029
 20
133.3094153491
 30
0.0
 10
70.432384443
 20
133.2185363395
 30
0.0
 10
70.6308293588
 20
133.1600266068
 30
0.0
 10
70.7272277286
 20
133.1425249244
 30
0.0
  0
SPLINE
  5
37F
100
AcDbEntity
  8
0
100
AcDbSpline
 62
7
  6
CONTINUOUS
 70
0
 71
3
 72
10
 73
6
 74
0
 42
0.0000001
 43
0.0000001
 44
0.0000000001
 40
0.0
 40
0.0
 40
0.0
 40
0.0
 40
0.5198242519
 40
0.7655715441
 40
1.0
 40
1.0
 40
1.0
 40
1.0
 10
71.0646395036
 20
132.92912176
 30
0.0
 10
71.1753566402
 20
132.8072430563
 30
0.0
 10
71.3503762972
 20
132.6377879498
 30
0.0
 10
71.6020317365
 20
132.445027704
 30
0.0
 10
71.7302320534
 20
132.3627282795
 30
0.0
 10
71.7945412696
 20
132.3256001529
 30
0.0
  0
SPLINE
  5
380
100
AcDbEntity
  8
0
100
AcDbSpline
 62
7
  6
CONTINUOUS
 70
0
 71
3
 72
11
 73
7
 74
0
 42
0.0000001
 43
0.0000001
 44
0.0000000001
 40
0.0
 40
0.0
 40
0.0
 40
0.0
 40
0.265710275
 40
0.5224912809
 40
0.7679075499
 40
1.0
 40
1.0
 40
1.0
 40
1.0
 10
72.5601299166
 20
131.8803606157
 30
0.0
 10
72.6259194554
 20
131.7986442496
 30
0.0
 10
72.7615964203
 20
131.6429007269
 30
0.0
 10
72.9793124737
 20
131.4313664894
 30
0.0
 10
73.2048567609
 20
131.2485730755
 30
0.0
 10
73.3627483142
 20
131.1447739282
 30
0.0
 10
73.442107483
 20
131.0989569272
 30
0.0
  0
SPLINE
  5
381
100
AcDbEntity
  8
0
100
AcDbSpline
 62
7
  6
CONTINUOUS
 70
0
 71
3
 72
9
 73
5
 74
0
 42
0.0000001
 43
0.0000001
 44
0.0000000001
 40
0.0
 40
0.0
 40
0.0
 40
0.0
 40
0.4737854743
 40
1.0
 40
1.0
 40
1.0
 40
1.0
 10
73.442107483
 20
131.0989569272
 30
0.0
 10
73.5022285492
 20
131.0779334522
 30
0.0
 10
73.6238985371
 20
131.0182297785
 30
0.0
 10
73.7325470307
 20
130.9380348535
 30
0.0
 10
73.7863231604
 20
130.8920770266
 30
0.0
  0
SPLINE
  5
382
100
AcDbEntity
  8
0
100
AcDbSpline
 62
7
  6
CONTINUOUS
 70
0
 71
3
 72
15
 73
11
 74
0
 42
0.0000001
 43
0.0000001
 44
0.0000000001
 40
0.0
 40
0.0
 40
0.0
 40
0.0
 40
0.1224525538
 40
0.2502409642
 40
0.3811151466
 40
0.5127130462
 40
0.6425969109
 40
0.7684279969
 40
0.8881386444
 40
1.0
 40
1.0
 40
1.0
 40
1.0
 10
73.7863231604
 20
130.8920770266
 30
0.0
 10
73.8177555352
 20
130.8652144828
 30
0.0
 10
73.878726735
 20
130.8064153699
 30
0.0
 10
73.9615930616
 20
130.7076912677
 30
0.0
 10
74.0360796143
 20
130.5987336373
 30
0.0
 10
74.1001512614
 20
130.4825442158
 30
0.0
 10
74.1520535789
 20
130.3622770823
 30
0.0
 10
74.1903889975
 20
130.2411980631
 30
0.0
 10
74.2140914597
 20
130.1226180522
 30
0.0
 10
74.2199281807
 20
130.0443648735
 30
0.0
 10
74.2199281807
 20
130.0065938918
 30
0.0
  0
SPLINE
  5
383
100
AcDbEntity
  8
0
100
AcDbSpline
 62
7
  6
CONTINUOUS
 70
0
 71
3
 72
11
 73
7
 74
0
 42
0.0000001
 43
0.0000001
 44
0.0000000001
 40
0.0
 40
0.0
 40
0.0
 40
0.0
 40
0.2395400717
 40
0.490043593
 40
0.7456224684
 40
1.0
 40
1.0
 40
1.0
 40
1.0
 10
64.677038467
 20
35.8753609009
 30
0.0
 10
64.5134802562
 20
36.0167688533
 30
0.0
 10
64.1986197989
 20
36.3294382878
 30
0.0
 10
63.7800560948
 20
36.8582321489
 30
0.0
 10
63.416070874
 20
37.4417704492
 30
0.0
 10
63.2164460432
 20
37.8577902431
 30
0.0
 10
63.1292475283
 20
38.070191962
 30
0.0
  0
SPLINE
  5
384
100
AcDbEntity
  8
0
100
AcDbSpline
 62
7
  6
CONTINUOUS
 70
0
 71
3
 72
11
 73
7
 74
0
 42
0.0000001
 43
0.0000001
 44
0.0000000001
 40
0.0
 40
0.0
 40
0.0
 40
0.0
 40
0.2497223774
 40
0.5000310024
 40
0.7503210913
 40
1.0
 40
1.0
 40
1.0
 40
1.0
 10
95.3942753858
 20
122.865237515
 30
0.0
 10
95.4575360259
 20
122.8287147936
 30
0.0
 10
95.574570392
 20
122.7375467154
 30
0.0
 10
95.7084883453
 20
122.5608250765
 30
0.0
 10
95.7945598274
 20
122.3564959768
 30
0.0
 10
95.8149922967
 20
122.2095759536
 30
0.0
 10
95.8149922967
 20
122.1365419866
 30
0.0
  0
SPLINE
  5
385
100
AcDbEntity
  8
0
100
AcDbSpline
 62
7
  6
CONTINUOUS
 70
0
 71
3
 72
11
 73
7
 74
0
 42
0.0000001
 43
0.0000001
 44
0.0000000001
 40
0.0
 40
0.0
 40
0.0
 40
0.0
 40
0.2501193974
 40
0.5001768638
 40
0.7501357843
 40
1.0
 40
1.0
 40
1.0
 40
1.0
 10
94.0785953348
 20
123.1967800226
 30
0.0
 10
94.135159616
 20
123.2294372306
 30
0.0
 10
94.2576844191
 20
123.2797792819
 30
0.0
 10
94.4543411349
 20
123.3038789262
 30
0.0
 10
94.6503608204
 20
123.2759355592
 30
0.0
 10
94.7720807984
 20
123.2244536009
 30
0.0
 10
94.8285876056
 20
123.1918301186
 30
0.0
  0
SPLINE
  5
386
100
AcDbEntity
  8
0
100
AcDbSpline
 62
7
  6
CONTINUOUS
 70
0
 71
3
 72
11
 73
7
 74
0
 42
0.0000001
 43
0.0000001
 44
0.0000000001
 40
0.0
 40
0.0
 40
0.0
 40
0.0
 40
0.2761467541
 40
0.5323922289
 40
0.7720358039
 40
1.0
 40
1.0
 40
1.0
 40
1.0
 10
95.6896935117
 20
121.228033244
 30
0.0
 10
95.7064432583
 20
121.2419383206
 30
0.0
 10
95.7370369938
 20
121.2709236487
 30
0.0
 10
95.7742311174
 20
121.3194661955
 30
0.0
 10
95.8002276376
 20
121.370655874
 30
0.0
 10
95.8098248557
 20
121.4066047753
 30
0.0
 10
95.8124541863
 20
121.424382394
 30
0.0
  0
SPLINE
  5
387
100
AcDbEntity
  8
0
100
AcDbSpline
 62
7
  6
CONTINUOUS
 70
0
 71
3
 72
15
 73
11
 74
0
 42
0.0000001
 43
0.0000001
 44
0.0000000001
 40
0.0
 40
0.0
 40
0.0
 40
0.0
 40
0.1118613556
 40
0.2315720031
 40
0.3574030891
 40
0.4872869538
 40
0.6188848534
 40
0.7497590358
 40
0.8775474462
 40
1.0
 40
1.0
 40
1.0
 40
1.0
 10
97.7666625979
 20
119.1065769639
 30
0.0
 10
97.7666625979
 20
119.1443479457
 30
0.0
 10
97.7608258769
 20
119.2226011243
 30
0.0
 10
97.7371234147
 20
119.3411811353
 30
0.0
 10
97.6987879961
 20
119.4622601545
 30
0.0
 10
97.6468856786
 20
119.582527288
 30
0.0
 10
97.5828140315
 20
119.6987167095
 30
0.0
 10
97.5083274788
 20
119.8076743399
 30
0.0
 10
97.4254611522
 20
119.906398442
 30
0.0
 10
97.3644899525
 20
119.9651975549
 30
0.0
 10
97.3330575776
 20
119.9920600988
 30
0.0
  0
SPLINE
  5
388
100
AcDbEntity
  8
0
100
AcDbSpline
 62
7
  6
CONTINUOUS
 70
0
 71
3
 72
9
 73
5
 74
0
 42
0.0000001
 43
0.0000001
 44
0.0000000001
 40
0.0
 40
0.0
 40
0.0
 40
0.0
 40
0.5262145257
 40
1.0
 40
1.0
 40
1.0
 40
1.0
 10
97.3330575776
 20
119.9920600988
 30
0.0
 10
97.2792814479
 20
120.0380179256
 30
0.0
 10
97.1706329543
 20
120.1182128506
 30
0.0
 10
97.0489629664
 20
120.1779165243
 30
0.0
 10
96.9888419002
 20
120.1989399994
 30
0.0
  0
SPLINE
  5
389
100
AcDbEntity
  8
0
100
AcDbSpline
 62
7
  6
CONTINUOUS
 70
0
 71
3
 72
11
 73
7
 74
0
 42
0.0000001
 43
0.0000001
 44
0.0000000001
 40
0.0
 40
0.0
 40
0.0
 40
0.0
 40
0.2320924501
 40
0.4775087191
 40
0.734289725
 40
1.0
 40
1.0
 40
1.0
 40
1.0
 10
96.9888419002
 20
120.1989399994
 30
0.0
 10
96.9094827314
 20
120.2447570004
 30
0.0
 10
96.7515911781
 20
120.3485561476
 30
0.0
 10
96.5260468909
 20
120.5313495616
 30
0.0
 10
96.3083308375
 20
120.7428837991
 30
0.0
 10
96.1726538726
 20
120.8986273218
 30
0.0
 10
96.1068643338
 20
120.9803436878
 30
0.0
  0
SPLINE
  5
38A
100
AcDbEntity
  8
0
100
AcDbSpline
 62
7
  6
CONTINUOUS
 70
0
 71
3
 72
10
 73
6
 74
0
 42
0.0000001
 43
0.0000001
 44
0.0000000001
 40
0.0
 40
0.0
 40
0.0
 40
0.0
 40
0.2344284559
 40
0.4801757481
 40
1.0
 40
1.0
 40
1.0
 40
1.0
 10
95.3412756868
 20
121.4255832251
 30
0.0
 10
95.2769664707
 20
121.4627113517
 30
0.0
 10
95.1487661538
 20
121.5450107761
 30
0.0
 10
94.8971107144
 20
121.7377710219
 30
0.0
 10
94.7220910574
 20
121.9072261284
 30
0.0
 10
94.6113739208
 20
122.0291048321
 30
0.0
  0
SPLINE
  5
38B
100
AcDbEntity
  8
0
100
AcDbSpline
 62
7
  6
CONTINUOUS
 70
0
 71
3
 72
9
 73
5
 74
0
 42
0.0000001
 43
0.0000001
 44
0.0000000001
 40
0.0
 40
0.0
 40
0.0
 40
0.0
 40
0.476816391
 40
1.0
 40
1.0
 40
1.0
 40
1.0
 10
94.2739621458
 20
122.2425079966
 30
0.0
 10
94.177563776
 20
122.260009679
 30
0.0
 10
93.9791188602
 20
122.3185194117
 30
0.0
 10
93.7938813201
 20
122.4093984213
 30
0.0
 10
93.7007816783
 20
122.4631483085
 30
0.0
  0
SPLINE
  5
38C
100
AcDbEntity
  8
0
100
AcDbSpline
 62
7
  6
CONTINUOUS
 70
0
 71
3
 72
9
 73
5
 74
0
 42
0.0000001
 43
0.0000001
 44
0.0000000001
 40
0.0
 40
0.0
 40
0.0
 40
0.0
 40
0.4832258417
 40
1.0
 40
1.0
 40
1.0
 40
1.0
 10
93.7007816783
 20
122.4631483085
 30
0.0
 10
93.5996896858
 20
122.5215124773
 30
0.0
 10
93.399255977
 20
122.6578038972
 30
0.0
 10
93.2170667549
 20
122.8172842311
 30
0.0
 10
93.1276012108
 20
122.9043448182
 30
0.0
  0
SPLINE
  5
38D
100
AcDbEntity
  8
0
100
AcDbSpline
 62
7
  6
CONTINUOUS
 70
0
 71
3
 72
10
 73
6
 74
0
 42
0.0000001
 43
0.0000001
 44
0.0000000001
 40
0.0
 40
0.0
 40
0.0
 40
0.0
 40
0.469434149
 40
0.7270437258
 40
1.0
 40
1.0
 40
1.0
 40
1.0
 10
92.7901894359
 20
123.080542398
 30
0.0
 10
92.6692686623
 20
123.0870555364
 30
0.0
 10
92.4830266288
 20
123.1264803554
 30
0.0
 10
92.2430214763
 20
123.2214137943
 30
0.0
 10
92.1212679501
 20
123.2846135671
 30
0.0
 10
92.0602887553
 20
123.3198190599
 30
0.0
  0
SPLINE
  5
38E
100
AcDbEntity
  8
0
100
AcDbSpline
 62
7
  6
CONTINUOUS
 70
0
 71
3
 72
9
 73
5
 74
0
 42
0.0000001
 43
0.0000001
 44
0.0000000001
 40
0.0
 40
0.0
 40
0.0
 40
0.0
 40
0.5155770529
 40
1.0
 40
1.0
 40
1.0
 40
1.0
 10
92.0602887553
 20
123.3198190599
 30
0.0
 10
91.9368873426
 20
123.408346869
 30
0.0
 10
91.6893728481
 20
123.5690479557
 30
0.0
 10
91.4258507661
 20
123.7023623697
 30
0.0
 10
91.2946990229
 20
123.7585857732
 30
0.0
  0
SPLINE
  5
38F
100
AcDbEntity
  8
0
100
AcDbSpline
 62
7
  6
CONTINUOUS
 70
0
 71
3
 72
11
 73
7
 74
0
 42
0.0000001
 43
0.0000001
 44
0.0000000001
 40
0.0
 40
0.0
 40
0.0
 40
0.0
 40
0.2234551327
 40
0.463368141
 40
0.7219942073
 40
1.0
 40
1.0
 40
1.0
 40
1.0
 10
91.2946990229
 20
123.7585857732
 30
0.0
 10
91.2259556267
 20
123.7525766987
 30
0.0
 10
91.081875798
 20
123.7548204391
 30
0.0
 10
90.8620586169
 20
123.7972091034
 30
0.0
 10
90.6352807618
 20
123.877491488
 30
0.0
 10
90.4870713771
 20
123.9526540408
 30
0.0
 10
90.4127214565
 20
123.9955790164
 30
0.0
  0
SPLINE
  5
390
100
AcDbEntity
  8
0
100
AcDbSpline
 62
7
  6
CONTINUOUS
 70
0
 71
3
 72
11
 73
7
 74
0
 42
0.0000001
 43
0.0000001
 44
0.0000000001
 40
0.0
 40
0.0
 40
0.0
 40
0.0
 40
0.2747618894
 40
0.5295707108
 40
0.7689498616
 40
1.0
 40
1.0
 40
1.0
 40
1.0
 10
90.068505779
 20
124.1861561521
 30
0.0
 10
90.0443108
 20
124.1934161105
 30
0.0
 10
89.9965240343
 20
124.2039993521
 30
0.0
 10
89.9254444285
 20
124.2067202163
 30
0.0
 10
89.8592171501
 20
124.1953368211
 30
0.0
 10
89.8189887167
 20
124.1781914572
 30
0.0
 10
89.8005913305
 20
124.1675726583
 30
0.0
  0
SPLINE
  5
391
100
AcDbEntity
  8
0
100
AcDbSpline
 62
7
  6
CONTINUOUS
 70
0
 71
3
 72
15
 73
11
 74
0
 42
0.0000001
 43
0.0000001
 44
0.0000000001
 40
0.0
 40
0.0
 40
0.0
 40
0.0
 40
0.1141555516
 40
0.2373276756
 40
0.3669773296
 40
0.5000011
 40
0.6330247168
 40
0.7626739247
 40
0.885845342
 40
1.0
 40
1.0
 40
1.0
 40
1.0
 10
94.0190004848
 20
116.3598552236
 30
0.0
 10
94.0190004848
 20
116.4157512985
 30
0.0
 10
94.0087623235
 20
116.5320669393
 30
0.0
 10
93.9679480987
 20
116.7075417136
 30
0.0
 10
93.9025660654
 20
116.8852835874
 30
0.0
 10
93.8150596805
 20
117.0586088973
 30
0.0
 10
93.7087080959
 20
117.2210536157
 30
0.0
 10
93.5874697718
 20
117.3665459257
 30
0.0
 10
93.4559112158
 20
117.4896279518
 30
0.0
 10
93.3602980753
 20
117.5566510508
 30
0.0
 10
93.3118907597
 20
117.5845983953
 30
0.0
  0
SPLINE
  5
392
100
AcDbEntity
  8
0
100
AcDbSpline
 62
7
  6
CONTINUOUS
 70
0
 71
3
 72
13
 73
9
 74
0
 42
0.0000001
 43
0.0000001
 44
0.0000000001
 40
0.0
 40
0.0
 40
0.0
 40
0.0
 40
0.2894501207
 40
0.4228150777
 40
0.548836145
 40
0.7817340211
 40
0.8918863542
 40
1.0
 40
1.0
 40
1.0
 40
1.0
 10
89.4227872714
 20
119.8299225451
 30
0.0
 10
89.3788930442
 20
119.8552643157
 30
0.0
 10
89.3115135556
 20
119.8873418057
 30
0.0
 10
89.2190602557
 20
119.914282023
 30
0.0
 10
89.1339352338
 20
119.9286021291
 30
0.0
 10
89.0504299305
 20
119.9263742348
 30
0.0
 10
88.9740037071
 20
119.9052036577
 30
0.0
 10
88.9391854003
 20
119.8889109662
 30
0.0
 10
88.9227903634
 20
119.8794453457
 30
0.0
  0
SPLINE
  5
393
100
AcDbEntity
  8
0
100
AcDbSpline
 62
7
  6
CONTINUOUS
 70
0
 71
3
 72
23
 73
19
 74
0
 42
0.0000001
 43
0.0000001
 44
0.0000000001
 40
0.0
 40
0.0
 40
0.0
 40
0.0
 40
0.0623867207
 40
0.1287471202
 40
0.1983459083
 40
0.270334698
 40
0.3437222671
 40
0.4174664317
 40
0.4905031942
 40
0.5618013872
 40
0.6304101058
 40
0.6955084479
 40
0.7564655232
 40
0.8129114493
 40
0.8648203122
 40
0.9126032291
 40
0.9571853202
 40
1.0
 40
1.0
 40
1.0
 40
1.0
 10
92.4987145758
 20
118.054075263
 30
0.0
 10
92.4987145758
 20
118.1204461175
 30
0.0
 10
92.48971499
 20
118.2575059662
 30
0.0
 10
92.4527228052
 20
118.465608207
 30
0.0
 10
92.392549656
 20
118.6788485732
 30
0.0
 10
92.3105285002
 20
118.8926570836
 30
0.0
 10
92.208372936
 20
119.102511959
 30
0.0
 10
92.0882713243
 20
119.3039311678
 30
0.0
 10
91.9527855078
 20
119.4926212435
 30
0.0
 10
91.8048034433
 20
119.6645595576
 30
0.0
 10
91.6474655525
 20
119.8160919015
 30
0.0
 10
91.4840809721
 20
119.9440040869
 30
0.0
 10
91.3180413544
 20
120.0455827186
 30
0.0
 10
91.1527218478
 20
120.1186438327
 30
0.0
 10
90.9914122677
 20
120.1615025469
 30
0.0
 10
90.8372798658
 20
120.1728508397
 30
0.0
 10
90.6937419391
 20
120.1518200827
 30
0.0
 10
90.6067935547
 20
120.1156698808
 30
0.0
 10
90.5673448381
 20
120.0928992504
 30
0.0
  0
SPLINE
  5
394
100
AcDbEntity
  8
0
100
AcDbSpline
 62
7
  6
CONTINUOUS
 70
0
 71
3
 72
12
 73
8
 74
0
 42
0.0000001
 43
0.0000001
 44
0.0000000001
 40
0.0
 40
0.0
 40
0.0
 40
0.0
 40
0.2895856793
 40
0.5486339854
 40
0.78163705
 40
0.8918373471
 40
1.0
 40
1.0
 40
1.0
 40
1.0
 10
87.3014580959
 20
122.4541399332
 30
0.0
 10
87.3014580959
 20
122.494689312
 30
0.0
 10
87.3076012957
 20
122.5717875878
 30
0.0
 10
87.3387775108
 20
122.6776533118
 30
0.0
 10
87.383572387
 20
122.7506996893
 30
0.0
 10
87.4288160031
 20
122.7951910732
 30
0.0
 10
87.4540313479
 20
122.8127957565
 30
0.0
 10
87.4671486677
 20
122.8203669505
 30
0.0
  0
SPLINE
  5
395
100
AcDbEntity
  8
0
100
AcDbSpline
 62
7
  6
CONTINUOUS
 70
0
 71
3
 72
14
 73
10
 74
0
 42
0.0000001
 43
0.0000001
 44
0.0000000001
 40
0.0
 40
0.0
 40
0.0
 40
0.0
 40
0.1080451608
 40
0.218127025
 40
0.3321042291
 40
0.4514992254
 40
0.5774451356
 40
0.7107195457
 40
1.0
 40
1.0
 40
1.0
 40
1.0
 10
90.5673448381
 20
120.0928992504
 30
0.0
 10
90.5411110895
 20
120.077756578
 30
0.0
 10
90.4906780441
 20
120.0425601185
 30
0.0
 10
90.4240314484
 20
119.9769790112
 30
0.0
 10
90.3667242844
 20
119.8991306239
 30
0.0
 10
90.3192626698
 20
119.8099170819
 30
0.0
 10
90.2820309042
 20
119.7102142547
 30
0.0
 10
90.245430825
 20
119.5605912408
 30
0.0
 10
90.2359634553
 20
119.4415453677
 30
0.0
 10
90.2359634553
 20
119.3604456774
 30
0.0
  0
SPLINE
  5
396
100
AcDbEntity
  8
0
100
AcDbSpline
 62
7
  6
CONTINUOUS
 70
0
 71
3
 72
12
 73
8
 74
0
 42
0.0000001
 43
0.0000001
 44
0.0000000001
 40
0.0
 40
0.0
 40
0.0
 40
0.0
 40
0.1081508643
 40
0.2183547805
 40
0.4513288564
 40
0.7104433135
 40
1.0
 40
1.0
 40
1.0
 40
1.0
 10
95.8149896737
 20
122.1365419866
 30
0.0
 10
95.8149902672
 20
122.1232916262
 30
0.0
 10
95.8126912554
 20
122.0964829144
 30
0.0
 10
95.798750627
 20
122.0427456741
 30
0.0
 10
95.7630196696
 20
121.9768315887
 30
0.0
 10
95.6964223496
 20
121.9069037822
 30
0.0
 10
95.6406920303
 20
121.8685112422
 30
0.0
 10
95.6099691043
 20
121.8507734585
 30
0.0
  0
SPLINE
  5
397
100
AcDbEntity
  8
0
100
AcDbSpline
 62
7
  6
CONTINUOUS
 70
0
 71
3
 72
13
 73
9
 74
0
 42
0.0000001
 43
0.0000001
 44
0.0000000001
 40
0.0
 40
0.0
 40
0.0
 40
0.0
 40
0.1081131453
 40
0.2182650547
 40
0.4511625307
 40
0.5771836882
 40
0.7105489075
 40
1.0
 40
1.0
 40
1.0
 40
1.0
 10
88.9227903634
 20
119.8794453457
 30
0.0
 10
88.9063949635
 20
119.8699795156
 30
0.0
 10
88.8748751381
 20
119.8479719199
 30
0.0
 10
88.8183264291
 20
119.7923688051
 30
0.0
 10
88.7746436062
 20
119.7211629794
 30
0.0
 10
88.7444824579
 20
119.6402801171
 30
0.0
 10
88.7215868348
 20
119.5467401762
 30
0.0
 10
88.7156775462
 20
119.4723468107
 30
0.0
 10
88.7156775462
 20
119.4216608825
 30
0.0
  0
SPLINE
  5
398
100
AcDbEntity
  8
0
100
AcDbSpline
 62
7
  6
CONTINUOUS
 70
0
 71
3
 72
12
 73
8
 74
0
 42
0.0000001
 43
0.0000001
 44
0.0000000001
 40
0.0
 40
0.0
 40
0.0
 40
0.0
 40
0.2895912563
 40
0.5486401214
 40
0.7816344028
 40
0.8918356837
 40
1.0
 40
1.0
 40
1.0
 40
1.0
 10
94.4785935441
 20
123.1571605994
 30
0.0
 10
94.4434767559
 20
123.1774348279
 30
0.0
 10
94.3736365963
 20
123.2106624117
 30
0.0
 10
94.2663691582
 20
123.2365945378
 30
0.0
 10
94.1807146425
 20
123.2343244163
 30
0.0
 10
94.1195651529
 20
123.2173865948
 30
0.0
 10
94.0917112984
 20
123.2043532736
 30
0.0
 10
94.0785954512
 20
123.1967798212
 30
0.0
  0
SPLINE
  5
399
100
AcDbEntity
  8
0
100
AcDbSpline
 62
7
  6
CONTINUOUS
 70
0
 71
3
 72
12
 73
8
 74
0
 42
0.0000001
 43
0.0000001
 44
0.0000000001
 40
0.0
 40
0.0
 40
0.0
 40
0.0
 40
0.108151798
 40
0.2183565172
 40
0.4513314193
 40
0.7104452966
 40
1.0
 40
1.0
 40
1.0
 40
1.0
 10
94.8285862942
 20
123.1918278472
 30
0.0
 10
94.8171113073
 20
123.1984534697
 30
0.0
 10
94.7927445669
 20
123.2098667019
 30
0.0
 10
94.7392362408
 20
123.2246622823
 30
0.0
 10
94.6642875971
 20
123.2266756444
 30
0.0
 10
94.5704299922
 20
123.2039652523
 30
0.0
 10
94.5093161823
 20
123.174898217
 30
0.0
 10
94.4785935441
 20
123.1571605994
 30
0.0
  0
SPLINE
  5
39A
100
AcDbEntity
  8
0
100
AcDbSpline
 62
7
  6
CONTINUOUS
 70
0
 71
3
 72
11
 73
7
 74
0
 42
0.0000001
 43
0.0000001
 44
0.0000000001
 40
0.0
 40
0.0
 40
0.0
 40
0.0
 40
0.2310501384
 40
0.4704292892
 40
0.7252381106
 40
1.0
 40
1.0
 40
1.0
 40
1.0
 10
87.4671486677
 20
122.8203669505
 30
0.0
 10
87.4855460539
 20
122.8309857494
 30
0.0
 10
87.5257744873
 20
122.8481311133
 30
0.0
 10
87.5920017657
 20
122.8595145085
 30
0.0
 10
87.6630813715
 20
122.8567936443
 30
0.0
 10
87.7108681372
 20
122.8462104027
 30
0.0
 10
87.7350631162
 20
122.8389504443
 30
0.0
  0
SPLINE
  5
39B
100
AcDbEntity
  8
0
100
AcDbSpline
 62
7
  6
CONTINUOUS
 70
0
 71
3
 72
15
 73
11
 74
0
 42
0.0000001
 43
0.0000001
 44
0.0000000001
 40
0.0
 40
0.0
 40
0.0
 40
0.0
 40
0.1141527168
 40
0.2373150593
 40
0.3669511855
 40
0.4999671722
 40
0.6329917929
 40
0.7626498762
 40
0.8858369861
 40
1.0
 40
1.0
 40
1.0
 40
1.0
 10
95.6099691043
 20
121.8507734585
 30
0.0
 10
95.6099691043
 20
121.8954892209
 30
0.0
 10
95.601779551
 20
121.9885368431
 30
0.0
 10
95.5691316477
 20
122.1289069226
 30
0.0
 10
95.5168332778
 20
122.2710900417
 30
0.0
 10
95.4468352827
 20
122.4097450203
 30
0.0
 10
95.3617567377
 20
122.5397035532
 30
0.0
 10
95.264763337
 20
122.6561083328
 30
0.0
 10
95.1595077479
 20
122.7545837286
 30
0.0
 10
95.0830100226
 20
122.8082084772
 30
0.0
 10
95.0442813242
 20
122.8305679958
 30
0.0
  0
SPLINE
  5
39C
100
AcDbEntity
  8
0
100
AcDbSpline
 62
7
  6
CONTINUOUS
 70
0
 71
3
 72
12
 73
8
 74
0
 42
0.0000001
 43
0.0000001
 44
0.0000000001
 40
0.0
 40
0.0
 40
0.0
 40
0.0
 40
0.2895706353
 40
0.5486531839
 40
0.7816290543
 40
0.8918354874
 40
1.0
 40
1.0
 40
1.0
 40
1.0
 10
95.0442813242
 20
122.8305679958
 30
0.0
 10
95.0750057284
 20
122.8483066329
 30
0.0
 10
95.1361175131
 20
122.8773749923
 30
0.0
 10
95.2299737213
 20
122.9000808573
 30
0.0
 10
95.3049195499
 20
122.8980747044
 30
0.0
 10
95.358429111
 20
122.8832748621
 30
0.0
 10
95.3827971166
 20
122.8718606331
 30
0.0
 10
95.3942740742
 20
122.8652352431
 30
0.0
  0
SPLINE
  5
39D
100
AcDbEntity
  8
0
100
AcDbSpline
 62
7
  6
CONTINUOUS
 70
0
 71
3
 72
11
 73
7
 74
0
 42
0.0000001
 43
0.0000001
 44
0.0000000001
 40
0.0
 40
0.0
 40
0.0
 40
0.0
 40
0.2780057927
 40
0.536631859
 40
0.7765448673
 40
1.0
 40
1.0
 40
1.0
 40
1.0
 10
88.0792787939
 20
122.6483733085
 30
0.0
 10
88.1536287145
 20
122.6054483329
 30
0.0
 10
88.3018380991
 20
122.5302857802
 30
0.0
 10
88.5286159542
 20
122.4500033956
 30
0.0
 10
88.7484331353
 20
122.4076147313
 30
0.0
 10
88.8925129639
 20
122.4053709909
 30
0.0
 10
88.9612563601
 20
122.4113800654
 30
0.0
  0
SPLINE
  5
39E
100
AcDbEntity
  8
0
100
AcDbSpline
 62
7
  6
CONTINUOUS
 70
0
 71
3
 72
9
 73
5
 74
0
 42
0.0000001
 43
0.0000001
 44
0.0000000001
 40
0.0
 40
0.0
 40
0.0
 40
0.0
 40
0.4844229471
 40
1.0
 40
1.0
 40
1.0
 40
1.0
 10
88.9612563601
 20
122.4113800654
 30
0.0
 10
89.0924081033
 20
122.3551566619
 30
0.0
 10
89.3559301853
 20
122.2218422479
 30
0.0
 10
89.6034446798
 20
122.0611411613
 30
0.0
 10
89.7268460925
 20
121.9726133521
 30
0.0
  0
SPLINE
  5
39F
100
AcDbEntity
  8
0
100
AcDbSpline
 62
7
  6
CONTINUOUS
 70
0
 71
3
 72
10
 73
6
 74
0
 42
0.0000001
 43
0.0000001
 44
0.0000000001
 40
0.0
 40
0.0
 40
0.0
 40
0.0
 40
0.2729562742
 40
0.530565851
 40
1.0
 40
1.0
 40
1.0
 40
1.0
 10
89.7268460925
 20
121.9726133521
 30
0.0
 10
89.7878252873
 20
121.9374078593
 30
0.0
 10
89.9095788135
 20
121.8742080865
 30
0.0
 10
90.149583966
 20
121.7792746476
 30
0.0
 10
90.3358259995
 20
121.7398498287
 30
0.0
 10
90.4567467731
 20
121.7333366903
 30
0.0
  0
SPLINE
  5
3A0
100
AcDbEntity
  8
0
100
AcDbSpline
 62
7
  6
CONTINUOUS
 70
0
 71
3
 72
9
 73
5
 74
0
 42
0.0000001
 43
0.0000001
 44
0.0000000001
 40
0.0
 40
0.0
 40
0.0
 40
0.0
 40
0.5167741583
 40
1.0
 40
1.0
 40
1.0
 40
1.0
 10
90.794158548
 20
121.5571391105
 30
0.0
 10
90.8836240921
 20
121.4700785233
 30
0.0
 10
91.0658133142
 20
121.3105981894
 30
0.0
 10
91.2662470229
 20
121.1743067695
 30
0.0
 10
91.3673390155
 20
121.1159426007
 30
0.0
  0
SPLINE
  5
3A1
100
AcDbEntity
  8
0
100
AcDbSpline
 62
7
  6
CONTINUOUS
 70
0
 71
3
 72
9
 73
5
 74
0
 42
0.0000001
 43
0.0000001
 44
0.0000000001
 40
0.0
 40
0.0
 40
0.0
 40
0.0
 40
0.523183609
 40
1.0
 40
1.0
 40
1.0
 40
1.0
 10
91.3673390155
 20
121.1159426007
 30
0.0
 10
91.4604386573
 20
121.0621927135
 30
0.0
 10
91.6456761974
 20
120.9713137039
 30
0.0
 10
91.8441211132
 20
120.9128039712
 30
0.0
 10
91.940519483
 20
120.8953022888
 30
0.0
  0
SPLINE
  5
3A2
100
AcDbEntity
  8
0
100
AcDbSpline
 62
7
  6
CONTINUOUS
 70
0
 71
3
 72
10
 73
6
 74
0
 42
0.0000001
 43
0.0000001
 44
0.0000000001
 40
0.0
 40
0.0
 40
0.0
 40
0.0
 40
0.5198242519
 40
0.7655715441
 40
1.0
 40
1.0
 40
1.0
 40
1.0
 10
92.277931258
 20
120.6818991243
 30
0.0
 10
92.3886483946
 20
120.5600204207
 30
0.0
 10
92.5636680516
 20
120.3905653141
 30
0.0
 10
92.8153234909
 20
120.1978050684
 30
0.0
 10
92.9435238078
 20
120.1155056439
 30
0.0
 10
93.007833024
 20
120.0783775173
 30
0.0
  0
SPLINE
  5
3A3
100
AcDbEntity
  8
0
100
AcDbSpline
 62
7
  6
CONTINUOUS
 70
0
 71
3
 72
11
 73
7
 74
0
 42
0.0000001
 43
0.0000001
 44
0.0000000001
 40
0.0
 40
0.0
 40
0.0
 40
0.0
 40
0.265710275
 40
0.5224912809
 40
0.7679075499
 40
1.0
 40
1.0
 40
1.0
 40
1.0
 10
93.773421671
 20
119.63313798
 30
0.0
 10
93.8392112098
 20
119.551421614
 30
0.0
 10
93.9748881747
 20
119.3956780913
 30
0.0
 10
94.1926042281
 20
119.1841438538
 30
0.0
 10
94.4181485153
 20
119.0013504398
 30
0.0
 10
94.5760400686
 20
118.8975512926
 30
0.0
 10
94.6553992374
 20
118.8517342916
 30
0.0
  0
SPLINE
  5
3A4
100
AcDbEntity
  8
0
100
AcDbSpline
 62
7
  6
CONTINUOUS
 70
0
 71
3
 72
9
 73
5
 74
0
 42
0.0000001
 43
0.0000001
 44
0.0000000001
 40
0.0
 40
0.0
 40
0.0
 40
0.0
 40
0.4737854743
 40
1.0
 40
1.0
 40
1.0
 40
1.0
 10
94.6553992374
 20
118.8517342916
 30
0.0
 10
94.7155203036
 20
118.8307108166
 30
0.0
 10
94.8371902915
 20
118.7710071428
 30
0.0
 10
94.9458387851
 20
118.6908122179
 30
0.0
 10
94.9996149148
 20
118.644854391
 30
0.0
  0
SPLINE
  5
3A5
100
AcDbEntity
  8
0
100
AcDbSpline
 62
7
  6
CONTINUOUS
 70
0
 71
3
 72
15
 73
11
 74
0
 42
0.0000001
 43
0.0000001
 44
0.0000000001
 40
0.0
 40
0.0
 40
0.0
 40
0.0
 40
0.1224525538
 40
0.2502409642
 40
0.3811151466
 40
0.5127130462
 40
0.6425969109
 40
0.7684279969
 40
0.8881386444
 40
1.0
 40
1.0
 40
1.0
 40
1.0
 10
94.9996149148
 20
118.644854391
 30
0.0
 10
95.0310472897
 20
118.6179918472
 30
0.0
 10
95.0920184894
 20
118.5591927343
 30
0.0
 10
95.174884816
 20
118.4604686321
 30
0.0
 10
95.2493713687
 20
118.3515110017
 30
0.0
 10
95.3134430158
 20
118.2353215802
 30
0.0
 10
95.3653453333
 20
118.1150544467
 30
0.0
 10
95.4036807519
 20
117.9939754275
 30
0.0
 10
95.4273832141
 20
117.8753954166
 30
0.0
 10
95.4332199351
 20
117.7971422379
 30
0.0
 10
95.4332199351
 20
117.7593712562
 30
0.0
  0
SPLINE
  5
3A6
100
AcDbEntity
  8
0
100
AcDbSpline
 62
7
  6
CONTINUOUS
 70
0
 71
3
 72
15
 73
11
 74
0
 42
0.0000001
 43
0.0000001
 44
0.0000000001
 40
0.0
 40
0.0
 40
0.0
 40
0.0
 40
0.1208451951
 40
0.2462782988
 40
0.3746843839
 40
0.5043174859
 40
0.633379241
 40
0.7600978563
 40
0.8828029321
 40
1.0
 40
1.0
 40
1.0
 40
1.0
 10
64.6538678871
 20
88.9681841102
 30
0.0
 10
64.5324166978
 20
89.0745895585
 30
0.0
 10
64.2958975558
 20
89.3042477847
 30
0.0
 10
63.9697361089
 20
89.6848721115
 30
0.0
 10
63.670714813
 20
90.1017210178
 30
0.0
 10
63.4050247305
 20
90.5461894168
 30
0.0
 10
63.1781150326
 20
91.0091499976
 30
0.0
 10
62.994642336
 20
91.4811126788
 30
0.0
 10
62.8583914263
 20
91.952327801
 30
0.0
 10
62.79931858
 20
92.2680649922
 30
0.0
 10
62.7790483072
 20
92.423342844
 30
0.0
  0
SPLINE
  5
3A7
100
AcDbEntity
  8
0
100
AcDbSpline
 62
7
  6
CONTINUOUS
 70
0
 71
3
 72
12
 73
8
 74
0
 42
0.0000001
 43
0.0000001
 44
0.0000000001
 40
0.0
 40
0.0
 40
0.0
 40
0.0
 40
0.105235348
 40
0.2123527571
 40
0.44114535
 40
0.7018426025
 40
1.0
 40
1.0
 40
1.0
 40
1.0
 10
64.2689540581
 20
33.6258564205
 30
0.0
 10
64.3222460647
 20
33.6566168986
 30
0.0
 10
64.4241319876
 20
33.7291224235
 30
0.0
 10
64.6036108749
 20
33.9162070093
 30
0.0
 10
64.772155086
 20
34.2291973305
 30
0.0
 10
64.8709660151
 20
34.6831122506
 30
0.0
 10
64.8738170086
 20
35.0119578339
 30
0.0
 10
64.8621531304
 20
35.1859037056
 30
0.0
  0
SPLINE
  5
3A8
100
AcDbEntity
  8
0
100
AcDbSpline
 62
7
  6
CONTINUOUS
 70
0
 71
3
 72
11
 73
7
 74
0
 42
0.0000001
 43
0.0000001
 44
0.0000000001
 40
0.0
 40
0.0
 40
0.0
 40
0.0
 40
0.2373323032
 40
0.5000473222
 40
0.7627473497
 40
1.0
 40
1.0
 40
1.0
 40
1.0
 10
67.8472788032
 20
39.7253845878
 30
0.0
 10
67.8472456765
 20
39.6557929479
 30
0.0
 10
67.820874188
 20
39.5091183184
 30
0.0
 10
67.7299557438
 20
39.3029898713
 30
0.0
 10
67.5968945891
 20
39.121207129
 30
0.0
 10
67.4830026726
 20
39.0251379518
 30
0.0
 10
67.4227556813
 20
38.9903522186
 30
0.0
  0
SPLINE
  5
3A9
100
AcDbEntity
  8
0
100
AcDbSpline
 62
7
  6
CONTINUOUS
 70
0
 71
3
 72
11
 73
7
 74
0
 42
0.0000001
 43
0.0000001
 44
0.0000000001
 40
0.0
 40
0.0
 40
0.0
 40
0.0
 40
0.2894569211
 40
0.5491739543
 40
0.7823501511
 40
1.0
 40
1.0
 40
1.0
 40
1.0
 10
67.4227556813
 20
38.9903522186
 30
0.0
 10
67.3964414851
 20
38.9751587859
 30
0.0
 10
67.3440263761
 20
38.9502726519
 30
0.0
 10
67.2635054518
 20
38.9307309772
 30
0.0
 10
67.1879142961
 20
38.9326638739
 30
0.0
 10
67.1424339218
 20
38.9491695285
 30
0.0
 10
67.122649171
 20
38.9605965269
 30
0.0
  0
SPLINE
  5
3AA
100
AcDbEntity
  8
0
100
AcDbSpline
 62
7
  6
CONTINUOUS
 70
0
 71
3
 72
11
 73
7
 74
0
 42
0.0000001
 43
0.0000001
 44
0.0000000001
 40
0.0
 40
0.0
 40
0.0
 40
0.0
 40
0.2895960905
 40
0.5491070775
 40
0.7822346764
 40
1.0
 40
1.0
 40
1.0
 40
1.0
 10
52.4722476794
 20
31.9100953656
 30
0.0
 10
52.4283861836
 20
31.8847720704
 30
0.0
 10
52.3410835573
 20
31.8432748405
 30
0.0
 10
52.2069366657
 20
31.8108340235
 30
0.0
 10
52.0810169126
 20
31.8139908728
 30
0.0
 10
52.0052659138
 20
31.8415732252
 30
0.0
 10
51.9722766934
 20
31.860603202
 30
0.0
  0
SPLINE
  5
3AB
100
AcDbEntity
  8
0
100
AcDbSpline
 62
7
  6
CONTINUOUS
 70
0
 71
3
 72
11
 73
7
 74
0
 42
0.0000001
 43
0.0000001
 44
0.0000000001
 40
0.0
 40
0.0
 40
0.0
 40
0.0
 40
0.2896296323
 40
0.5490999972
 40
0.7822244126
 40
1.0
 40
1.0
 40
1.0
 40
1.0
 10
70.4018108322
 20
26.7491116011
 30
0.0
 10
70.3579438448
 20
26.7237858282
 30
0.0
 10
70.2706455338
 20
26.682280614
 30
0.0
 10
70.1364949598
 20
26.6498552744
 30
0.0
 10
70.0105837939
 20
26.6530194058
 30
0.0
 10
69.9348271133
 20
26.6805874457
 30
0.0
 10
69.9018336192
 20
26.699613799
 30
0.0
  0
SPLINE
  5
3AC
100
AcDbEntity
  8
0
100
AcDbSpline
 62
7
  6
CONTINUOUS
 70
0
 71
3
 72
11
 73
7
 74
0
 42
0.0000001
 43
0.0000001
 44
0.0000000001
 40
0.0
 40
0.0
 40
0.0
 40
0.0
 40
0.2336518312
 40
0.4922079518
 40
0.7549399248
 40
1.0
 40
1.0
 40
1.0
 40
1.0
 10
57.7622254539
 20
103.2858206047
 30
0.0
 10
57.6708984633
 20
103.2330911186
 30
0.0
 10
57.4964117191
 20
103.0906017029
 30
0.0
 10
57.2858195349
 20
102.819956452
 30
0.0
 10
57.130812025
 20
102.5083009245
 30
0.0
 10
57.0734637256
 20
102.2836826307
 30
0.0
 10
57.0614468243
 20
102.1737321424
 30
0.0
  0
SPLINE
  5
3AD
100
AcDbEntity
  8
0
100
AcDbSpline
 62
7
  6
CONTINUOUS
 70
0
 71
3
 72
9
 73
5
 74
0
 42
0.0000001
 43
0.0000001
 44
0.0000000001
 40
0.0
 40
0.0
 40
0.0
 40
0.0
 40
0.2558229438
 40
1.0
 40
1.0
 40
1.0
 40
1.0
 10
57.0614468243
 20
102.1737321424
 30
0.0
 10
56.9202096
 20
100.8813246803
 30
0.0
 10
56.4323650545
 20
95.8226870505
 30
0.0
 10
56.2065658241
 20
90.7377058511
 30
0.0
 10
56.2065658241
 20
86.9557697794
 30
0.0
  0
SPLINE
  5
3AE
100
AcDbEntity
  8
0
100
AcDbSpline
 62
7
  6
CONTINUOUS
 70
0
 71
3
 72
11
 73
7
 74
0
 42
0.0000001
 43
0.0000001
 44
0.0000000001
 40
0.0
 40
0.0
 40
0.0
 40
0.0
 40
0.2320163165
 40
0.4885099326
 40
0.7511206533
 40
1.0
 40
1.0
 40
1.0
 40
1.0
 10
54.7830501586
 20
85.9696212167
 30
0.0
 10
54.7312267142
 20
85.9397011157
 30
0.0
 10
54.6317341458
 20
85.8597911709
 30
0.0
 10
54.5094933887
 20
85.7080212429
 30
0.0
 10
54.4163060002
 20
85.5319391999
 30
0.0
 10
54.3783356425
 20
85.4042860748
 30
0.0
 10
54.3678883739
 20
85.3409522625
 30
0.0
  0
SPLINE
  5
3AF
100
AcDbEntity
  8
0
100
AcDbSpline
 62
7
  6
CONTINUOUS
 70
0
 71
3
 72
11
 73
7
 74
0
 42
0.0000001
 43
0.0000001
 44
0.0000000001
 40
0.0
 40
0.0
 40
0.0
 40
0.0
 40
0.2340062058
 40
0.4929972126
 40
0.755746981
 40
1.0
 40
1.0
 40
1.0
 40
1.0
 10
40.4200979825
 20
76.1258618179
 30
0.0
 10
40.3277782061
 20
76.0725612883
 30
0.0
 10
40.1515713567
 20
75.9281908131
 30
0.0
 10
39.9396700725
 20
75.6540000625
 30
0.0
 10
39.7848606442
 20
75.3387601426
 30
0.0
 10
39.7288482452
 20
75.1118464711
 30
0.0
 10
39.718011407
 20
75.0011059704
 30
0.0
  0
SPLINE
  5
3B0
100
AcDbEntity
  8
0
100
AcDbSpline
 62
7
  6
CONTINUOUS
 70
0
 71
3
 72
9
 73
5
 74
0
 42
0.0000001
 43
0.0000001
 44
0.0000000001
 40
0.0
 40
0.0
 40
0.0
 40
0.0
 40
0.5122148748
 40
1.0
 40
1.0
 40
1.0
 40
1.0
 10
39.718011407
 20
75.0011059704
 30
0.0
 10
39.1279179678
 20
68.9710036386
 30
0.0
 10
38.4187576658
 20
57.149520149
 30
0.0
 10
38.7095342059
 20
45.3061624391
 30
0.0
 10
39.1278405959
 20
39.5514148484
 30
0.0
  0
SPLINE
  5
3B1
100
AcDbEntity
  8
0
100
AcDbSpline
 62
7
  6
CONTINUOUS
 70
0
 71
3
 72
11
 73
7
 74
0
 42
0.0000001
 43
0.0000001
 44
0.0000000001
 40
0.0
 40
0.0
 40
0.0
 40
0.0
 40
0.2847234982
 40
0.5426338724
 40
0.7777664846
 40
1.0
 40
1.0
 40
1.0
 40
1.0
 10
39.1278405959
 20
39.5514148484
 30
0.0
 10
39.1310108162
 20
39.5078013194
 30
0.0
 10
39.1436410556
 20
39.4249011655
 30
0.0
 10
39.1849563422
 20
39.3117904041
 30
0.0
 10
39.2474913375
 20
39.2199033162
 30
0.0
 10
39.3031254978
 20
39.174961284
 30
0.0
 10
39.3326903517
 20
39.1579066813
 30
0.0
  0
SPLINE
  5
3B2
100
AcDbEntity
  8
0
100
AcDbSpline
 62
7
  6
CONTINUOUS
 70
0
 71
3
 72
9
 73
5
 74
0
 42
0.0000001
 43
0.0000001
 44
0.0000000001
 40
0.0
 40
0.0
 40
0.0
 40
0.0
 40
0.5364246083
 40
1.0
 40
1.0
 40
1.0
 40
1.0
 10
57.0614629
 20
34.3491920071
 30
0.0
 10
57.0695995971
 20
34.2841596008
 30
0.0
 10
57.0999604769
 20
34.1634193914
 30
0.0
 10
57.1755274104
 20
34.0615509098
 30
0.0
 10
57.2196701243
 20
34.0260631515
 30
0.0
  0
SPLINE
  5
3B3
100
AcDbEntity
  8
0
100
AcDbSpline
 62
7
  6
CONTINUOUS
 70
0
 71
3
 72
11
 73
7
 74
0
 42
0.0000001
 43
0.0000001
 44
0.0000000001
 40
0.0
 40
0.0
 40
0.0
 40
0.0
 40
0.2329926502
 40
0.483357202
 40
0.7421861497
 40
1.0
 40
1.0
 40
1.0
 40
1.0
 10
62.3537281236
 20
33.301175663
 30
0.0
 10
62.1037807161
 20
33.4667325249
 30
0.0
 10
61.6134070723
 20
33.8535269544
 30
0.0
 10
60.9453755868
 20
34.5391448167
 30
0.0
 10
60.3448065944
 20
35.3251535095
 30
0.0
 10
60.0052395809
 20
35.8989222865
 30
0.0
 10
59.8546864457
 20
36.1945359334
 30
0.0
  0
SPLINE
  5
3B4
100
AcDbEntity
  8
0
100
AcDbSpline
 62
7
  6
CONTINUOUS
 70
0
 71
3
 72
11
 73
7
 74
0
 42
0.0000001
 43
0.0000001
 44
0.0000000001
 40
0.0
 40
0.0
 40
0.0
 40
0.0
 40
0.2664694284
 40
0.5246786982
 40
0.7702308162
 40
1.0
 40
1.0
 40
1.0
 40
1.0
 10
82.5375606385
 20
106.4142200138
 30
0.0
 10
82.8582201266
 20
106.4387087323
 30
0.0
 10
83.4877720415
 20
106.5167547956
 30
0.0
 10
84.3960257089
 20
106.7221157297
 30
0.0
 10
85.235190441
 20
107.0095780345
 30
0.0
 10
85.753314061
 20
107.2603216837
 30
0.0
 10
85.9934717
 20
107.3989582602
 30
0.0
  0
SPLINE
  5
3B5
100
AcDbEntity
  8
0
100
AcDbSpline
 62
7
  6
CONTINUOUS
 70
0
 71
3
 72
9
 73
5
 74
0
 42
0.0000001
 43
0.0000001
 44
0.0000000001
 40
0.0
 40
0.0
 40
0.0
 40
0.0
 40
0.2593592447
 40
1.0
 40
1.0
 40
1.0
 40
1.0
 10
85.4471235977
 20
107.1245371833
 30
0.0
 10
85.485122999
 20
107.1541486961
 30
0.0
 10
85.6292091162
 20
107.2713637338
 30
0.0
 10
85.7631603525
 20
107.4013176034
 30
0.0
 10
85.8539107154
 20
107.5047097314
 30
0.0
  0
SPLINE
  5
3B6
100
AcDbEntity
  8
0
100
AcDbSpline
 62
7
  6
CONTINUOUS
 70
0
 71
3
 72
10
 73
6
 74
0
 42
0.0000001
 43
0.0000001
 44
0.0000000001
 40
0.0
 40
0.0
 40
0.0
 40
0.0
 40
0.5219872892
 40
0.7641447902
 40
1.0
 40
1.0
 40
1.0
 40
1.0
 10
85.8539107154
 20
107.5047097314
 30
0.0
 10
86.0059068341
 20
107.6778793104
 30
0.0
 10
86.1968167067
 20
107.9659723434
 30
0.0
 10
86.3289310229
 20
108.3894917593
 30
0.0
 10
86.3507230048
 20
108.6011438313
 30
0.0
 10
86.3507230034
 20
108.7052542153
 30
0.0
  0
SPLINE
  5
3B7
100
AcDbEntity
  8
0
100
AcDbSpline
 62
7
  6
CONTINUOUS
 70
0
 71
3
 72
11
 73
7
 74
0
 42
0.0000001
 43
0.0000001
 44
0.0000000001
 40
0.0
 40
0.0
 40
0.0
 40
0.0
 40
0.2183764969
 40
0.4527771824
 40
0.7123209787
 40
1.0
 40
1.0
 40
1.0
 40
1.0
 10
63.9323207302
 20
86.5041801071
 30
0.0
 10
64.0564445819
 20
86.5758208467
 30
0.0
 10
64.2897134131
 20
86.7694911721
 30
0.0
 10
64.5463954345
 20
87.1669387261
 30
0.0
 10
64.7118595367
 20
87.6568370614
 30
0.0
 10
64.757838442
 20
88.0152229979
 30
0.0
 10
64.7673049163
 20
88.2037817312
 30
0.0
  0
SPLINE
  5
3B8
100
AcDbEntity
  8
0
100
AcDbSpline
 62
7
  6
CONTINUOUS
 70
0
 71
3
 72
9
 73
5
 74
0
 42
0.0000001
 43
0.0000001
 44
0.0000000001
 40
0.0
 40
0.0
 40
0.0
 40
0.0
 40
0.2488668872
 40
1.0
 40
1.0
 40
1.0
 40
1.0
 10
60.3293595165
 20
87.6118190792
 30
0.0
 10
60.254616482
 20
87.7165194389
 30
0.0
 10
59.9657672083
 20
88.145308732
 30
0.0
 10
59.722654335
 20
88.6049078566
 30
0.0
 10
59.5691985098
 20
88.9615636014
 30
0.0
  0
SPLINE
  5
3B9
100
AcDbEntity
  8
0
100
AcDbSpline
 62
7
  6
CONTINUOUS
 70
0
 71
3
 72
11
 73
7
 74
0
 42
0.0000001
 43
0.0000001
 44
0.0000000001
 40
0.0
 40
0.0
 40
0.0
 40
0.0
 40
0.2182430982
 40
0.4540511569
 40
0.7143121597
 40
1.0
 40
1.0
 40
1.0
 40
1.0
 10
55.0552848024
 20
86.0126254828
 30
0.0
 10
55.0360068571
 20
86.0201135848
 30
0.0
 10
54.993316593
 20
86.0295557464
 30
0.0
 10
54.9250731185
 20
86.0259840723
 30
0.0
 10
54.8532981171
 20
86.0058078432
 30
0.0
 10
54.8064955587
 20
85.9831573439
 30
0.0
 10
54.7830501586
 20
85.9696212167
 30
0.0
  0
SPLINE
  5
3BA
100
AcDbEntity
  8
0
100
AcDbSpline
 62
7
  6
CONTINUOUS
 70
0
 71
3
 72
18
 73
14
 74
0
 42
0.0000001
 43
0.0000001
 44
0.0000000001
 40
0.0
 40
0.0
 40
0.0
 40
0.0
 40
0.1300709572
 40
0.2714702148
 40
0.4170369852
 40
0.5589494512
 40
0.6263883913
 40
0.6904770366
 40
0.8066683824
 40
0.8590163602
 40
0.9080004668
 40
0.9545630359
 40
1.0
 40
1.0
 40
1.0
 40
1.0
 10
64.7673049163
 20
88.2037817312
 30
0.0
 10
64.7830995602
 20
88.5183886236
 30
0.0
 10
64.7317124922
 20
89.1801298888
 30
0.0
 10
64.4597101075
 20
90.1580267852
 30
0.0
 10
64.008662038
 20
91.0994672995
 30
0.0
 10
63.502097221
 20
91.8008759728
 30
0.0
 10
63.035208313
 20
92.2724455829
 30
0.0
 10
62.5675421201
 20
92.6490479142
 30
0.0
 10
62.0635689854
 20
92.9217954549
 30
0.0
 10
61.5493886513
 20
93.0478467448
 30
0.0
 10
61.1890668232
 20
93.0651395169
 30
0.0
 10
60.8497069642
 20
93.007393827
 30
0.0
 10
60.6426231597
 20
92.9186726794
 30
0.0
 10
60.5473217767
 20
92.8636629395
 30
0.0
  0
SPLINE
  5
3BB
100
AcDbEntity
  8
0
100
AcDbSpline
 62
7
  6
CONTINUOUS
 70
0
 71
3
 72
11
 73
7
 74
0
 42
0.0000001
 43
0.0000001
 44
0.0000000001
 40
0.0
 40
0.0
 40
0.0
 40
0.0
 40
0.2238047595
 40
0.4721623471
 40
0.7348782638
 40
1.0
 40
1.0
 40
1.0
 40
1.0
 10
64.8621531304
 20
35.1859037056
 30
0.0
 10
64.845004454
 20
35.4416455304
 30
0.0
 10
64.7491806103
 20
35.9775871524
 30
0.0
 10
64.4699402007
 20
36.7744116176
 30
0.0
 10
64.0614292136
 20
37.5669090389
 30
0.0
 10
63.7143630237
 20
38.0645619513
 30
0.0
 10
63.5234583424
 20
38.3006756264
 30
0.0
  0
SPLINE
  5
3BC
100
AcDbEntity
  8
0
100
AcDbSpline
 62
7
  6
CONTINUOUS
 70
0
 71
3
 72
10
 73
6
 74
0
 42
0.0000001
 43
0.0000001
 44
0.0000000001
 40
0.0
 40
0.0
 40
0.0
 40
0.0
 40
0.5207286092
 40
0.7671435893
 40
1.0
 40
1.0
 40
1.0
 40
1.0
 10
59.5691985098
 20
88.9615636014
 30
0.0
 10
59.3876875179
 20
89.3834240161
 30
0.0
 10
59.1781112299
 20
90.0336637299
 30
0.0
 10
59.0513481209
 20
90.9078324593
 30
0.0
 10
59.042025893
 20
91.3319653942
 30
0.0
 10
59.0526283338
 20
91.537057205
 30
0.0
  0
SPLINE
  5
3BD
100
AcDbEntity
  8
0
100
AcDbSpline
 62
7
  6
CONTINUOUS
 70
0
 71
3
 72
11
 73
7
 74
0
 42
0.0000001
 43
0.0000001
 44
0.0000000001
 40
0.0
 40
0.0
 40
0.0
 40
0.0
 40
0.2488793467
 40
0.5114900674
 40
0.7679836835
 40
1.0
 40
1.0
 40
1.0
 40
1.0
 10
67.0074747109
 20
78.0436487754
 30
0.0
 10
67.0179219795
 20
78.1069825877
 30
0.0
 10
67.0558923372
 20
78.2346357128
 30
0.0
 10
67.1490797257
 20
78.4107177558
 30
0.0
 10
67.2713204828
 20
78.5624876838
 30
0.0
 10
67.3708130512
 20
78.6423976286
 30
0.0
 10
67.4226364956
 20
78.6723177296
 30
0.0
  0
SPLINE
  5
3BE
100
AcDbEntity
  8
0
100
AcDbSpline
 62
7
  6
CONTINUOUS
 70
0
 71
3
 72
10
 73
6
 74
0
 42
0.0000001
 43
0.0000001
 44
0.0000000001
 40
0.0
 40
0.0
 40
0.0
 40
0.0
 40
0.2326781319
 40
0.4792639425
 40
1.0
 40
1.0
 40
1.0
 40
1.0
 10
66.4681377532
 20
87.7569647606
 30
0.0
 10
66.4803100278
 20
87.9929148195
 30
0.0
 10
66.4726058601
 20
88.4809783844
 30
0.0
 10
66.3449112526
 20
89.4895718459
 30
0.0
 10
66.1296770681
 20
90.2450679112
 30
0.0
 10
65.9402991312
 20
90.7387520799
 30
0.0
  0
SPLINE
  5
3BF
100
AcDbEntity
  8
0
100
AcDbSpline
 62
7
  6
CONTINUOUS
 70
0
 71
3
 72
22
 73
18
 74
0
 42
0.0000001
 43
0.0000001
 44
0.0000000001
 40
0.0
 40
0.0
 40
0.0
 40
0.0
 40
0.1569000016
 40
0.3082035712
 40
0.3792358427
 40
0.4460964304
 40
0.5083950249
 40
0.5661653705
 40
0.6199276695
 40
0.6707305724
 40
0.7200967161
 40
0.7698085185
 40
0.8215648529
 40
0.8766953549
 40
0.9058471456
 40
0.9361239822
 40
1.0
 40
1.0
 40
1.0
 40
1.0
 10
65.9402991312
 20
90.7387520799
 30
0.0
 10
65.7387626175
 20
91.2641321106
 30
0.0
 10
65.2439078256
 20
92.2608189198
 30
0.0
 10
64.4085851465
 20
93.3480230854
 30
0.0
 10
63.6416071427
 20
94.0497600817
 30
0.0
 10
63.051798878
 20
94.4632175078
 30
0.0
 10
62.4494340535
 20
94.7638884498
 30
0.0
 10
61.8488296206
 20
94.9438566197
 30
0.0
 10
61.2646184237
 20
94.9974329421
 30
0.0
 10
60.7124528666
 20
94.9210935686
 30
0.0
 10
60.2094226466
 20
94.7155832135
 30
0.0
 10
59.7721764583
 20
94.3874811025
 30
0.0
 10
59.4138685482
 20
93.9486092352
 30
0.0
 10
59.1925201857
 20
93.5098758407
 30
0.0
 10
59.0594925702
 20
93.1207151513
 30
0.0
 10
58.9532993546
 20
92.6909701256
 30
0.0
 10
58.9131935143
 20
92.3539010841
 30
0.0
 10
58.9021681159
 20
92.1250805475
 30
0.0
  0
SPLINE
  5
3C0
100
AcDbEntity
  8
0
100
AcDbSpline
 62
7
  6
CONTINUOUS
 70
0
 71
3
 72
10
 73
6
 74
0
 42
0.0000001
 43
0.0000001
 44
0.0000000001
 40
0.0
 40
0.0
 40
0.0
 40
0.0
 40
0.2328605827
 40
0.4792717754
 40
1.0
 40
1.0
 40
1.0
 40
1.0
 10
58.9021681159
 20
92.1250805475
 30
0.0
 10
58.8897194879
 20
91.8833518731
 30
0.0
 10
58.9010849916
 20
91.3834547505
 30
0.0
 10
59.0517453882
 20
90.3533303182
 30
0.0
 10
59.2996822244
 20
89.5872913121
 30
0.0
 10
59.5140059338
 20
89.0902554918
 30
0.0
  0
SPLINE
  5
3C1
100
AcDbEntity
  8
0
100
AcDbSpline
 62
7
  6
CONTINUOUS
 70
0
 71
3
 72
11
 73
7
 74
0
 42
0.0000001
 43
0.0000001
 44
0.0000000001
 40
0.0
 40
0.0
 40
0.0
 40
0.0
 40
0.2222336252
 40
0.4573662407
 40
0.7152764588
 40
1.0
 40
1.0
 40
1.0
 40
1.0
 10
51.9722766934
 20
31.860603202
 30
0.0
 10
51.9427118302
 20
31.8776578232
 30
0.0
 10
51.8870776329
 20
31.9225998394
 30
0.0
 10
51.8245426796
 20
32.0144869521
 30
0.0
 10
51.7832273496
 20
32.1275976776
 30
0.0
 10
51.7705971537
 20
32.2104978253
 30
0.0
 10
51.7674269329
 20
32.2541113614
 30
0.0
  0
SPLINE
  5
3C2
100
AcDbEntity
  8
0
100
AcDbSpline
 62
7
  6
CONTINUOUS
 70
0
 71
3
 72
9
 73
5
 74
0
 42
0.0000001
 43
0.0000001
 44
0.0000000001
 40
0.0
 40
0.0
 40
0.0
 40
0.0
 40
0.2441700349
 40
1.0
 40
1.0
 40
1.0
 40
1.0
 10
68.8461521611
 20
79.6584662924
 30
0.0
 10
68.8461521611
 20
80.8993540314
 30
0.0
 10
68.9204330598
 20
85.9812725385
 30
0.0
 10
69.283739244
 20
91.057932679
 30
0.0
 10
69.7010273517
 20
94.876375495
 30
0.0
  0
SPLINE
  5
3C3
100
AcDbEntity
  8
0
100
AcDbSpline
 62
7
  6
CONTINUOUS
 70
0
 71
3
 72
11
 73
7
 74
0
 42
0.0000001
 43
0.0000001
 44
0.0000000001
 40
0.0
 40
0.0
 40
0.0
 40
0.0
 40
0.2450566634
 40
0.507789159
 40
0.7663468965
 40
1.0
 40
1.0
 40
1.0
 40
1.0
 10
69.7010273517
 20
94.876375495
 30
0.0
 10
69.7130445601
 20
94.9863287926
 30
0.0
 10
69.7703789476
 20
95.2109580495
 30
0.0
 10
69.9253901954
 20
95.5226279415
 30
0.0
 10
70.1359867722
 20
95.7932883971
 30
0.0
 10
70.310480981
 20
95.9357854264
 30
0.0
 10
70.4018120738
 20
95.988517281
 30
0.0
  0
SPLINE
  5
3C4
100
AcDbEntity
  8
0
100
AcDbSpline
 62
7
  6
CONTINUOUS
 70
0
 71
3
 72
19
 73
15
 74
0
 42
0.0000001
 43
0.0000001
 44
0.0000000001
 40
0.0
 40
0.0
 40
0.0
 40
0.0
 40
0.1577697736
 40
0.2959792806
 40
0.4151543796
 40
0.469174295
 40
0.5207587604
 40
0.5713029476
 40
0.6223222374
 40
0.6752593145
 40
0.7313191851
 40
0.791412681
 40
0.8561226122
 40
1.0
 40
1.0
 40
1.0
 40
1.0
 10
62.81783268
 20
32.9936182324
 30
0.0
 10
63.0637766938
 20
32.8307162972
 30
0.0
 10
63.5472299232
 20
32.5556270225
 30
0.0
 10
64.28402877
 20
32.2964588595
 30
0.0
 10
64.8727015723
 20
32.2399133175
 30
0.0
 10
65.2898035541
 20
32.3066577272
 30
0.0
 10
65.5663331119
 20
32.4059221994
 30
0.0
 10
65.8130343038
 20
32.5551181344
 30
0.0
 10
66.0266356455
 20
32.752412282
 30
0.0
 10
66.2048158434
 20
32.9948340796
 30
0.0
 10
66.3462038761
 20
33.2791537105
 30
0.0
 10
66.449967994
 20
33.6022015476
 30
0.0
 10
66.541121688
 20
34.0972659648
 30
0.0
 10
66.5457803876
 20
34.4907104874
 30
0.0
 10
66.5274243268
 20
34.7591081268
 30
0.0
  0
SPLINE
  5
3C5
100
AcDbEntity
  8
0
100
AcDbSpline
 62
7
  6
CONTINUOUS
 70
0
 71
3
 72
9
 73
5
 74
0
 42
0.0000001
 43
0.0000001
 44
0.0000000001
 40
0.0
 40
0.0
 40
0.0
 40
0.0
 40
0.243381061
 40
1.0
 40
1.0
 40
1.0
 40
1.0
 10
69.701017891
 20
27.0521381678
 30
0.0
 10
69.5574368593
 20
28.2001975071
 30
0.0
 10
69.0470514455
 20
32.9271113553
 30
0.0
 10
68.8461521611
 20
37.685981514
 30
0.0
 10
68.8461521611
 20
41.2828526873
 30
0.0
  0
SPLINE
  5
3C6
100
AcDbEntity
  8
0
100
AcDbSpline
 62
7
  6
CONTINUOUS
 70
0
 71
3
 72
11
 73
7
 74
0
 42
0.0000001
 43
0.0000001
 44
0.0000000001
 40
0.0
 40
0.0
 40
0.0
 40
0.0
 40
0.22525588
 40
0.461818234
 40
0.7186818242
 40
1.0
 40
1.0
 40
1.0
 40
1.0
 10
69.9018336192
 20
26.699613799
 30
0.0
 10
69.8745300394
 20
26.7153589503
 30
0.0
 10
69.8229867957
 20
26.7559769207
 30
0.0
 10
69.763086795
 20
26.8380487271
 30
0.0
 10
69.7210844206
 20
26.9388681825
 30
0.0
 10
69.7059047301
 20
27.0130801932
 30
0.0
 10
69.701017891
 20
27.0521381678
 30
0.0
  0
SPLINE
  5
3C7
100
AcDbEntity
  8
0
100
AcDbSpline
 62
7
  6
CONTINUOUS
 70
0
 71
3
 72
11
 73
7
 74
0
 42
0.0000001
 43
0.0000001
 44
0.0000000001
 40
0.0
 40
0.0
 40
0.0
 40
0.0
 40
0.2277275023
 40
0.4753951817
 40
0.735727257
 40
1.0
 40
1.0
 40
1.0
 40
1.0
 10
85.9933673866
 20
112.2978228796
 30
0.0
 10
85.6520031297
 20
112.4949051666
 30
0.0
 10
84.89618147
 20
112.8332326434
 30
0.0
 10
83.6618509808
 20
113.1632859097
 30
0.0
 10
82.3311005302
 20
113.3261193797
 30
0.0
 10
81.4200268886
 20
113.3173280367
 30
0.0
 10
80.9639279656
 20
113.2824958282
 30
0.0
  0
SPLINE
  5
3C8
100
AcDbEntity
  8
0
100
AcDbSpline
 62
7
  6
CONTINUOUS
 70
0
 71
3
 72
17
 73
13
 74
0
 42
0.0000001
 43
0.0000001
 44
0.0000000001
 40
0.0
 40
0.0
 40
0.0
 40
0.0
 40
0.1432782609
 40
0.2740087149
 40
0.393782885
 40
0.4508800686
 40
0.5068819653
 40
0.5625504666
 40
0.6186938875
 40
0.7350790213
 40
0.8612997289
 40
1.0
 40
1.0
 40
1.0
 40
1.0
 10
59.0526283338
 20
91.537057205
 30
0.0
 10
59.0641341243
 20
91.7738757088
 30
0.0
 10
59.125017806
 20
92.2264001884
 30
0.0
 10
59.3420385241
 20
92.8461875553
 30
0.0
 10
59.6273240286
 20
93.2761549238
 30
0.0
 10
59.9066879876
 20
93.5434974795
 30
0.0
 10
60.1364070197
 20
93.7043167931
 30
0.0
 10
60.3871248071
 20
93.8264585354
 30
0.0
 10
60.7497889596
 20
93.9366126087
 30
0.0
 10
61.2509799115
 20
93.9672125234
 30
0.0
 10
61.8739451008
 20
93.8344278044
 30
0.0
 10
62.275036507
 20
93.6486924038
 30
0.0
 10
62.4737472744
 20
93.5338253063
 30
0.0
  0
SPLINE
  5
3C9
100
AcDbEntity
  8
0
100
AcDbSpline
 62
7
  6
CONTINUOUS
 70
0
 71
3
 72
15
 73
11
 74
0
 42
0.0000001
 43
0.0000001
 44
0.0000000001
 40
0.0
 40
0.0
 40
0.0
 40
0.0
 40
0.1133653644
 40
0.235324998
 40
0.3637170752
 40
0.4958519965
 40
0.6286284043
 40
0.7588267343
 40
0.8834989409
 40
1.0
 40
1.0
 40
1.0
 40
1.0
 10
62.4737472744
 20
93.5338253063
 30
0.0
 10
62.6910271777
 20
93.4082241013
 30
0.0
 10
63.1167819103
 20
93.1025986875
 30
0.0
 10
63.6916945033
 20
92.535188261
 30
0.0
 10
64.209258633
 20
91.8619055483
 30
0.0
 10
64.6506292967
 20
91.1088899892
 30
0.0
 10
65.0012031195
 20
90.305330575
 30
0.0
 10
65.2501776389
 20
89.4818285393
 30
0.0
 10
65.3893372189
 20
88.6694722003
 30
0.0
 10
65.4075912746
 20
88.1334403344
 30
0.0
 10
65.394115371
 20
87.8758802134
 30
0.0
  0
SPLINE
  5
3CA
100
AcDbEntity
  8
0
100
AcDbSpline
 62
7
  6
CONTINUOUS
 70
0
 71
3
 72
20
 73
16
 74
0
 42
0.0000001
 43
0.0000001
 44
0.0000000001
 40
0.0
 40
0.0
 40
0.0
 40
0.0
 40
0.1311002102
 40
0.1900374394
 40
0.2449524631
 40
0.296783584
 40
0.3468646072
 40
0.3968321166
 40
0.4483709425
 40
0.5028826005
 40
0.5613443644
 40
0.6916069043
 40
0.7636431844
 40
0.8395666224
 40
1.0
 40
1.0
 40
1.0
 40
1.0
 10
65.394115371
 20
87.8758802134
 30
0.0
 10
65.3785152311
 20
87.5580783429
 30
0.0
 10
65.3069533795
 20
87.0953657035
 30
0.0
 10
65.0871192289
 20
86.5407039815
 30
0.0
 10
64.8757505372
 20
86.195841666
 30
0.0
 10
64.6149977715
 20
85.9147676823
 30
0.0
 10
64.3087847928
 20
85.7039072712
 30
0.0
 10
63.9630591675
 20
85.5688953889
 30
0.0
 10
63.5856660317
 20
85.51266902
 30
0.0
 10
63.1845800809
 20
85.5344334964
 30
0.0
 10
62.6074339187
 20
85.6696040473
 30
0.0
 10
62.0330492187
 20
85.9561485676
 30
0.0
 10
61.4864970878
 20
86.3535689229
 30
0.0
 10
60.9279131763
 20
86.8534582295
 30
0.0
 10
60.5555942887
 20
87.2949084509
 30
0.0
 10
60.3293595165
 20
87.6118190792
 30
0.0
  0
SPLINE
  5
3CB
100
AcDbEntity
  8
0
100
AcDbSpline
 62
7
  6
CONTINUOUS
 70
0
 71
3
 72
15
 73
11
 74
0
 42
0.0000001
 43
0.0000001
 44
0.0000000001
 40
0.0
 40
0.0
 40
0.0
 40
0.0
 40
0.1527841207
 40
0.3008213846
 40
0.4416081992
 40
0.5733466852
 40
0.6947639772
 40
0.8055142567
 40
0.9065168555
 40
1.0
 40
1.0
 40
1.0
 40
1.0
 10
80.9639279656
 20
113.2824958282
 30
0.0
 10
80.6432662921
 20
113.2580069427
 30
0.0
 10
80.013722121
 20
113.179969198
 30
0.0
 10
79.105532848
 20
112.9746285382
 30
0.0
 10
78.2662677575
 20
112.6870964218
 30
0.0
 10
77.5177525451
 20
112.324940287
 30
0.0
 10
76.8791501778
 20
111.8966789087
 30
0.0
 10
76.3667502863
 20
111.4120225915
 30
0.0
 10
75.9953711481
 20
110.8816797824
 30
0.0
 10
75.8464938379
 20
110.4943949431
 30
0.0
 10
75.8025513837
 20
110.3025914636
 30
0.0
  0
SPLINE
  5
3CC
100
AcDbEntity
  8
0
100
AcDbSpline
 62
7
  6
CONTINUOUS
 70
0
 71
3
 72
17
 73
13
 74
0
 42
0.0000001
 43
0.0000001
 44
0.0000000001
 40
0.0
 40
0.0
 40
0.0
 40
0.0
 40
0.1303515206
 40
0.271980444
 40
0.418233428
 40
0.5613013836
 40
0.6937866071
 40
0.8103769507
 40
0.8623670338
 40
0.910562488
 40
0.9559562293
 40
1.0
 40
1.0
 40
1.0
 40
1.0
 10
59.6761148952
 20
91.1431151637
 30
0.0
 10
59.6603748673
 20
90.8295940466
 30
0.0
 10
59.7163636095
 20
90.1699133236
 30
0.0
 10
60.0062322705
 20
89.1995885128
 30
0.0
 10
60.4797200698
 20
88.2698395644
 30
0.0
 10
61.0962887791
 20
87.4553232253
 30
0.0
 10
61.8032894601
 20
86.8201485051
 30
0.0
 10
62.4491238612
 20
86.468107362
 30
0.0
 10
62.9570263289
 20
86.3368623331
 30
0.0
 10
63.3093913499
 20
86.314550632
 30
0.0
 10
63.6396617614
 20
86.3663310267
 30
0.0
 10
63.840456578
 20
86.4511587439
 30
0.0
 10
63.9323207302
 20
86.5041801071
 30
0.0
  0
SPLINE
  5
3CD
100
AcDbEntity
  8
0
100
AcDbSpline
 62
7
  6
CONTINUOUS
 70
0
 71
3
 72
12
 73
8
 74
0
 42
0.0000001
 43
0.0000001
 44
0.0000000001
 40
0.0
 40
0.0
 40
0.0
 40
0.0
 40
0.1081616939
 40
0.2183692802
 40
0.4513505072
 40
0.7104461785
 40
1.0
 40
1.0
 40
1.0
 40
1.0
 10
86.3507230034
 20
108.7052542153
 30
0.0
 10
86.3507230023
 20
108.7923379958
 30
0.0
 10
86.3356221893
 20
108.9685236308
 30
0.0
 10
86.2440106598
 20
109.321679245
 30
0.0
 10
86.009173963
 20
109.754811844
 30
0.0
 10
85.5715482534
 20
110.2143429992
 30
0.0
 10
85.205317175
 20
110.4666158493
 30
0.0
 10
85.0034218699
 20
110.5831774817
 30
0.0
  0
SPLINE
  5
3CE
100
AcDbEntity
  8
0
100
AcDbSpline
 62
7
  6
CONTINUOUS
 70
0
 71
3
 72
15
 73
11
 74
0
 42
0.0000001
 43
0.0000001
 44
0.0000000001
 40
0.0
 40
0.0
 40
0.0
 40
0.0
 40
0.1141448016
 40
0.2373325024
 40
0.3669747613
 40
0.5000005267
 40
0.6330262188
 40
0.7626682638
 40
0.8858556272
 40
1.0
 40
1.0
 40
1.0
 40
1.0
 10
85.0034218699
 20
110.5831774817
 30
0.0
 10
84.7807681145
 20
110.7117237359
 30
0.0
 10
84.2938327493
 20
110.9384402513
 30
0.0
 10
83.5009385137
 20
111.1794818207
 30
0.0
 10
82.642455789
 20
111.3277664462
 30
0.0
 10
81.7507252724
 20
111.3778546266
 30
0.0
 10
80.8589954759
 20
111.3277621719
 30
0.0
 10
80.0005148788
 20
111.1794734267
 30
0.0
 10
79.2076240936
 20
110.9384280492
 30
0.0
 10
78.7206917335
 20
110.7117090906
 30
0.0
 10
78.4980397575
 20
110.5831616863
 30
0.0
  0
SPLINE
  5
3CF
100
AcDbEntity
  8
0
100
AcDbSpline
 62
7
  6
CONTINUOUS
 70
0
 71
3
 72
10
 73
6
 74
0
 42
0.0000001
 43
0.0000001
 44
0.0000000001
 40
0.0
 40
0.0
 40
0.0
 40
0.0
 40
0.2769972106
 40
0.5359485385
 40
1.0
 40
1.0
 40
1.0
 40
1.0
 10
78.4980397575
 20
110.5831616863
 30
0.0
 10
78.3672848628
 20
110.5076707671
 30
0.0
 10
78.1215102838
 20
110.3480083451
 30
0.0
 10
77.7033644701
 20
109.9978623684
 30
0.0
 10
77.4534171207
 20
109.6813910439
 30
0.0
 10
77.3384240305
 20
109.4561018857
 30
0.0
  0
SPLINE
  5
3D0
100
AcDbEntity
  8
0
100
AcDbSpline
 62
7
  6
CONTINUOUS
 70
0
 71
3
 72
9
 73
5
 74
0
 42
0.0000001
 43
0.0000001
 44
0.0000000001
 40
0.0
 40
0.0
 40
0.0
 40
0.0
 40
0.509000793
 40
1.0
 40
1.0
 40
1.0
 40
1.0
 10
77.3384240305
 20
109.4561018857
 30
0.0
 10
77.2889583544
 20
109.3591910147
 30
0.0
 10
77.2077982354
 20
109.159989008
 30
0.0
 10
77.1665100198
 20
108.9485967064
 30
0.0
 10
77.157069971
 20
108.8440649644
 30
0.0
  0
SPLINE
  5
3D1
100
AcDbEntity
  8
0
100
AcDbSpline
 62
7
  6
CONTINUOUS
 70
0
 71
3
 72
15
 73
11
 74
0
 42
0.0000001
 43
0.0000001
 44
0.0000000001
 40
0.0
 40
0.0
 40
0.0
 40
0.0
 40
0.1204900632
 40
0.2488917893
 40
0.3821665852
 40
0.5167442864
 40
0.6489796324
 40
0.7754093768
 40
0.8930947378
 40
1.0
 40
1.0
 40
1.0
 40
1.0
 10
78.8568484941
 20
107.6505447211
 30
0.0
 10
79.1083884139
 20
107.7680671427
 30
0.0
 10
79.6483255806
 20
107.9685578804
 30
0.0
 10
80.5096415137
 20
108.1620355311
 30
0.0
 10
81.4203445928
 20
108.2530925705
 30
0.0
 10
82.3441818515
 20
108.2378380508
 30
0.0
 10
83.2443935346
 20
108.1170189091
 30
0.0
 10
84.0854090826
 20
107.8952371322
 30
0.0
 10
84.8338351521
 20
107.5813604662
 30
0.0
 10
85.2747201525
 20
107.3035984844
 30
0.0
 10
85.4678443955
 20
107.1506772057
 30
0.0
  0
SPLINE
  5
3D2
100
AcDbEntity
  8
0
100
AcDbSpline
 62
7
  6
CONTINUOUS
 70
0
 71
3
 72
18
 73
14
 74
0
 42
0.0000001
 43
0.0000001
 44
0.0000000001
 40
0.0
 40
0.0
 40
0.0
 40
0.0
 40
0.1447449638
 40
0.2742286085
 40
0.3339721302
 40
0.3910013989
 40
0.4460856186
 40
0.5001492314
 40
0.5542138613
 40
0.6093008125
 40
0.7257574678
 40
0.8552650727
 40
1.0
 40
1.0
 40
1.0
 40
1.0
 10
85.9934717
 20
107.3989582602
 30
0.0
 10
86.2568382713
 20
107.5509927321
 30
0.0
 10
86.7343866872
 20
107.8796116605
 30
0.0
 10
87.222653209
 20
108.3934559638
 30
0.0
 10
87.4976578098
 20
108.8335578674
 30
0.0
 10
87.6429164875
 20
109.1656479549
 30
0.0
 10
87.7310465971
 20
109.5050859457
 30
0.0
 10
87.7604579319
 20
109.8483865827
 30
0.0
 10
87.7310135036
 20
110.1917145421
 30
0.0
 10
87.6115222397
 20
110.6524516632
 30
0.0
 10
87.3051930172
 20
111.2173309734
 30
0.0
 10
86.7343959313
 20
111.816742039
 30
0.0
 10
86.2567084013
 20
112.1457863134
 30
0.0
 10
85.9933673866
 20
112.2978228796
 30
0.0
  0
SPLINE
  5
3D3
100
AcDbEntity
  8
0
100
AcDbSpline
 62
7
  6
CONTINUOUS
 70
0
 71
3
 72
11
 73
7
 74
0
 42
0.0000001
 43
0.0000001
 44
0.0000000001
 40
0.0
 40
0.0
 40
0.0
 40
0.0
 40
0.2661199876
 40
0.5285466668
 40
0.7762510329
 40
1.0
 40
1.0
 40
1.0
 40
1.0
 10
63.9156648429
 20
38.531081059
 30
0.0
 10
64.1361518587
 20
38.2440843245
 30
0.0
 10
64.5356976712
 20
37.6436464812
 30
0.0
 10
65.004778338
 20
36.6946210029
 30
0.0
 10
65.3240802637
 20
35.7459565832
 30
0.0
 10
65.434903945
 20
35.1103563728
 30
0.0
 10
65.4549871937
 20
34.8067290797
 30
0.0
  0
SPLINE
  5
3D4
100
AcDbEntity
  8
0
100
AcDbSpline
 62
7
  6
CONTINUOUS
 70
0
 71
3
 72
19
 73
15
 74
0
 42
0.0000001
 43
0.0000001
 44
0.0000000001
 40
0.0
 40
0.0
 40
0.0
 40
0.0
 40
0.1439022688
 40
0.208730187
 40
0.2689942296
 40
0.3252506369
 40
0.3783803909
 40
0.4295558051
 40
0.4801863396
 40
0.5317763689
 40
0.5857366005
 40
0.704646769
 40
0.8424965194
 40
1.0
 40
1.0
 40
1.0
 40
1.0
 10
65.4549871937
 20
34.8067290797
 30
0.0
 10
65.4705900934
 20
34.5815419341
 30
0.0
 10
65.4670278182
 20
34.2512941067
 30
0.0
 10
65.3917032091
 20
33.8352919522
 30
0.0
 10
65.3056592697
 20
33.5631848073
 30
0.0
 10
65.1881655705
 20
33.3231581376
 30
0.0
 10
65.039857335
 20
33.1179092923
 30
0.0
 10
64.8618855085
 20
32.9501260822
 30
0.0
 10
64.6560564418
 20
32.8223821077
 30
0.0
 10
64.4249488051
 20
32.7365076308
 30
0.0
 10
64.0760490011
 20
32.677242506
 30
0.0
 10
63.5828288076
 20
32.7211115791
 30
0.0
 10
62.9649027759
 20
32.9350809312
 30
0.0
 10
62.5597040694
 20
33.1647440369
 30
0.0
 10
62.3537281236
 20
33.301175663
 30
0.0
  0
SPLINE
  5
3D5
100
AcDbEntity
  8
0
100
AcDbSpline
 62
7
  6
CONTINUOUS
 70
0
 71
3
 72
17
 73
13
 74
0
 42
0.0000001
 43
0.0000001
 44
0.0000000001
 40
0.0
 40
0.0
 40
0.0
 40
0.0
 40
0.1513519542
 40
0.303953774
 40
0.4522912713
 40
0.5911101354
 40
0.7160908999
 40
0.824715374
 40
0.8730185246
 40
0.9177690178
 40
0.9597316023
 40
1.0
 40
1.0
 40
1.0
 40
1.0
 10
60.2620943104
 20
36.4215683083
 30
0.0
 10
60.3788647982
 20
36.1809741553
 30
0.0
 10
60.644660072
 20
35.7124473492
 30
0.0
 10
61.1193233696
 20
35.0673259594
 30
0.0
 10
61.6521666719
 20
34.4990793035
 30
0.0
 10
62.2164647611
 20
34.0349339463
 30
0.0
 10
62.7843487226
 20
33.6970253709
 30
0.0
 10
63.2582297284
 20
33.5277262071
 30
0.0
 10
63.6125191533
 20
33.4793625554
 30
0.0
 10
63.8522169524
 20
33.4848587723
 30
0.0
 10
64.0731262337
 20
33.5312921306
 30
0.0
 10
64.207329971
 20
33.5902866135
 30
0.0
 10
64.2689540581
 20
33.6258564205
 30
0.0
  0
SPLINE
  5
3D6
100
AcDbEntity
  8
0
100
AcDbSpline
 62
7
  6
CONTINUOUS
 70
0
 71
3
 72
9
 73
5
 74
0
 42
0.0000001
 43
0.0000001
 44
0.0000000001
 40
0.0
 40
0.0
 40
0.0
 40
0.0
 40
0.4877851252
 40
1.0
 40
1.0
 40
1.0
 40
1.0
 10
51.7674269329
 20
32.2541113614
 30
0.0
 10
51.3491205429
 20
38.0088589521
 30
0.0
 10
51.0583440028
 20
49.852216662
 30
0.0
 10
51.7675043048
 20
61.6737001516
 30
0.0
 10
52.357597744
 20
67.7038024835
 30
0.0
  0
SPLINE
  5
3D7
100
AcDbEntity
  8
0
100
AcDbSpline
 62
7
  6
CONTINUOUS
 70
0
 71
3
 72
11
 73
7
 74
0
 42
0.0000001
 43
0.0000001
 44
0.0000000001
 40
0.0
 40
0.0
 40
0.0
 40
0.0
 40
0.2442532003
 40
0.5070030289
 40
0.7659939703
 40
1.0
 40
1.0
 40
1.0
 40
1.0
 10
52.357597744
 20
67.7038024835
 30
0.0
 10
52.3684345902
 20
67.8145430663
 30
0.0
 10
52.4244470396
 20
68.0414568439
 30
0.0
 10
52.5792565556
 20
68.3566968105
 30
0.0
 10
52.7911578363
 20
68.6308874594
 30
0.0
 10
52.9673646126
 20
68.7752578413
 30
0.0
 10
53.0596843195
 20
68.8285583308
 30
0.0
  0
SPLINE
  5
3D8
100
AcDbEntity
  8
0
100
AcDbSpline
 62
7
  6
CONTINUOUS
 70
0
 71
3
 72
11
 73
7
 74
0
 42
0.0000001
 43
0.0000001
 44
0.0000000001
 40
0.0
 40
0.0
 40
0.0
 40
0.0
 40
0.2221674753
 40
0.4582601613
 40
0.7164724219
 40
1.0
 40
1.0
 40
1.0
 40
1.0
 10
60.5473217767
 20
92.8636629395
 30
0.0
 10
60.4186789827
 20
92.789407914
 30
0.0
 10
60.1770527917
 20
92.5917265958
 30
0.0
 10
59.907963231
 20
92.188566613
 30
0.0
 10
59.7337796418
 20
91.6938892673
 30
0.0
 10
59.6856195643
 20
91.33243595
 30
0.0
 10
59.6761148952
 20
91.1431151637
 30
0.0
  0
SPLINE
  5
3D9
100
AcDbEntity
  8
0
100
AcDbSpline
 62
7
  6
CONTINUOUS
 70
0
 71
3
 72
22
 73
18
 74
0
 42
0.0000001
 43
0.0000001
 44
0.0000000001
 40
0.0
 40
0.0
 40
0.0
 40
0.0
 40
0.1605787024
 40
0.2366014946
 40
0.3087511924
 40
0.3765157401
 40
0.4396549968
 40
0.4982559283
 40
0.5528229976
 40
0.6043182468
 40
0.6541470212
 40
0.7039959329
 40
0.7555468516
 40
0.8101835116
 40
0.8688806927
 40
0.9321539748
 40
1.0
 40
1.0
 40
1.0
 40
1.0
 10
60.4143631162
 20
87.4926638678
 30
0.0
 10
60.6844994135
 20
87.1135199306
 30
0.0
 10
61.1291565815
 20
86.585098537
 30
0.0
 10
61.7959354699
 20
85.9863528236
 30
0.0
 10
62.302399976
 20
85.6162841178
 30
0.0
 10
62.8149939496
 20
85.3239904799
 30
0.0
 10
63.3248957187
 20
85.1147673074
 30
0.0
 10
63.8235942449
 20
84.9929836031
 30
0.0
 10
64.3027721365
 20
84.9618403366
 30
0.0
 10
64.7539056375
 20
85.0239456481
 30
0.0
 10
65.1676443696
 20
85.1797930538
 30
0.0
 10
65.5346944333
 20
85.4265399407
 30
0.0
 10
65.8473204966
 20
85.7582126451
 30
0.0
 10
66.1007313447
 20
86.1668338236
 30
0.0
 10
66.2917071827
 20
86.6442703248
 30
0.0
 10
66.4190037826
 20
87.1813413182
 30
0.0
 10
66.4586778059
 20
87.5604990138
 30
0.0
 10
66.4681377532
 20
87.7569647606
 30
0.0
  0
SPLINE
  5
3DA
100
AcDbEntity
  8
0
100
AcDbSpline
 62
7
  6
CONTINUOUS
 70
0
 71
3
 72
10
 73
6
 74
0
 42
0.0000001
 43
0.0000001
 44
0.0000000001
 40
0.0
 40
0.0
 40
0.0
 40
0.0
 40
0.2273431834
 40
0.4722610656
 40
1.0
 40
1.0
 40
1.0
 40
1.0
 10
66.5274243268
 20
34.7591081268
 30
0.0
 10
66.5133451275
 20
34.9752794546
 30
0.0
 10
66.4544981153
 20
35.4226690354
 30
0.0
 10
66.2331349682
 20
36.3505208938
 30
0.0
 10
65.9628463152
 20
37.0406100082
 30
0.0
 10
65.7441890679
 20
37.4934518841
 30
0.0
  0
SPLINE
  5
3DB
100
AcDbEntity
  8
0
100
AcDbSpline
 62
7
  6
CONTINUOUS
 70
0
 71
3
 72
9
 73
5
 74
0
 42
0.0000001
 43
0.0000001
 44
0.0000000001
 40
0.0
 40
0.0
 40
0.0
 40
0.0
 40
0.4500022444
 40
1.0
 40
1.0
 40
1.0
 40
1.0
 10
71.5308808747
 20
122.4671191585
 30
0.0
 10
71.5308727375
 20
122.4827325619
 30
0.0
 10
71.544649778
 20
122.5174529276
 30
0.0
 10
71.5729560205
 20
122.5393214364
 30
0.0
 10
71.5894773354
 20
122.5488714307
 30
0.0
  0
SPLINE
  5
3DC
100
AcDbEntity
  8
0
100
AcDbSpline
 62
7
  6
CONTINUOUS
 70
0
 71
3
 72
9
 73
5
 74
0
 42
0.0000001
 43
0.0000001
 44
0.0000000001
 40
0.0
 40
0.0
 40
0.0
 40
0.0
 40
0.4500022444
 40
1.0
 40
1.0
 40
1.0
 40
1.0
 10
75.1371405584
 20
120.3850913599
 30
0.0
 10
75.1371324212
 20
120.4007047632
 30
0.0
 10
75.1509094616
 20
120.4354251289
 30
0.0
 10
75.1792157042
 20
120.4572936378
 30
0.0
 10
75.1957370191
 20
120.4668436321
 30
0.0
  0
SPLINE
  5
3DD
100
AcDbEntity
  8
0
100
AcDbSpline
 62
7
  6
CONTINUOUS
 70
0
 71
3
 72
9
 73
5
 74
0
 42
0.0000001
 43
0.0000001
 44
0.0000000001
 40
0.0
 40
0.0
 40
0.0
 40
0.0
 40
0.4500022444
 40
1.0
 40
1.0
 40
1.0
 40
1.0
 10
78.7434002421
 20
118.3030635612
 30
0.0
 10
78.7433921049
 20
118.3186769646
 30
0.0
 10
78.7571691453
 20
118.3533973303
 30
0.0
 10
78.7854753879
 20
118.3752658391
 30
0.0
 10
78.8019967028
 20
118.3848158334
 30
0.0
  0
SPLINE
  5
3DE
100
AcDbEntity
  8
0
100
AcDbSpline
 62
7
  6
CONTINUOUS
 70
0
 71
3
 72
11
 73
7
 74
0
 42
0.0000001
 43
0.0000001
 44
0.0000000001
 40
0.0
 40
0.0
 40
0.0
 40
0.0
 40
0.2337036975
 40
0.4922809673
 40
0.7549953338
 40
1.0
 40
1.0
 40
1.0
 40
1.0
 10
32.4550641716
 20
117.8643580823
 30
0.0
 10
32.36373862
 20
117.8115660478
 30
0.0
 10
32.1892774218
 20
117.6689744751
 30
0.0
 10
31.9787547837
 20
117.3982167299
 30
0.0
 10
31.8238553359
 20
117.0865080721
 30
0.0
 10
31.7666114528
 20
116.8618808292
 30
0.0
 10
31.7546478318
 20
116.751942691
 30
0.0
  0
SPLINE
  5
3DF
100
AcDbEntity
  8
0
100
AcDbSpline
 62
7
  6
CONTINUOUS
 70
0
 71
3
 72
9
 73
5
 74
0
 42
0.0000001
 43
0.0000001
 44
0.0000000001
 40
0.0
 40
0.0
 40
0.0
 40
0.0
 40
0.2558272743
 40
1.0
 40
1.0
 40
1.0
 40
1.0
 10
31.7546478318
 20
116.751942691
 30
0.0
 10
31.6140422723
 20
115.4598135995
 30
0.0
 10
31.1286955179
 20
110.4023777519
 30
0.0
 10
30.9054681147
 20
105.3187130602
 30
0.0
 10
30.9074365703
 20
101.5378676942
 30
0.0
  0
SPLINE
  5
3E0
100
AcDbEntity
  8
0
100
AcDbSpline
 62
7
  6
CONTINUOUS
 70
0
 71
3
 72
11
 73
7
 74
0
 42
0.0000001
 43
0.0000001
 44
0.0000000001
 40
0.0
 40
0.0
 40
0.0
 40
0.0
 40
0.2320640526
 40
0.4885763544
 40
0.7511703637
 40
1.0
 40
1.0
 40
1.0
 40
1.0
 10
29.4840066701
 20
100.5507807685
 30
0.0
 10
29.4321862341
 20
100.5208264414
 30
0.0
 10
29.3327115377
 20
100.4408616411
 30
0.0
 10
29.2105113817
 20
100.2890335756
 30
0.0
 10
29.1173853791
 20
100.1129248479
 30
0.0
 10
29.0794655457
 20
99.9852687092
 30
0.0
 10
29.0690474159
 20
99.9219406958
 30
0.0
  0
SPLINE
  5
3E1
100
AcDbEntity
  8
0
100
AcDbSpline
 62
7
  6
CONTINUOUS
 70
0
 71
3
 72
11
 73
7
 74
0
 42
0.0000001
 43
0.0000001
 44
0.0000000001
 40
0.0
 40
0.0
 40
0.0
 40
0.0
 40
0.2340571645
 40
0.4930677654
 40
0.7557992442
 40
1.0
 40
1.0
 40
1.0
 40
1.0
 10
15.1218645409
 20
90.6975215495
 30
0.0
 10
15.0295504996
 20
90.6441602659
 30
0.0
 10
14.8533773742
 20
90.4996947966
 30
0.0
 10
14.6415515183
 20
90.2254068052
 30
0.0
 10
14.48685491
 20
89.9101294644
 30
0.0
 10
14.430935719
 20
89.6832189775
 30
0.0
 10
14.4201525316
 20
89.5724948441
 30
0.0
  0
SPLINE
  5
3E2
100
AcDbEntity
  8
0
100
AcDbSpline
 62
7
  6
CONTINUOUS
 70
0
 71
3
 72
9
 73
5
 74
0
 42
0.0000001
 43
0.0000001
 44
0.0000000001
 40
0.0
 40
0.0
 40
0.0
 40
0.0
 40
0.5122226113
 40
1.0
 40
1.0
 40
1.0
 40
1.0
 10
14.4201525316
 20
89.5724948441
 30
0.0
 10
13.8330305472
 20
83.5437975369
 30
0.0
 10
13.1298040235
 20
71.7254269906
 30
0.0
 10
13.4268226627
 20
59.8856802221
 30
0.0
 10
13.8482554236
 20
54.1329507533
 30
0.0
  0
SPLINE
  5
3E3
100
AcDbEntity
  8
0
100
AcDbSpline
 62
7
  6
CONTINUOUS
 70
0
 71
3
 72
11
 73
7
 74
0
 42
0.0000001
 43
0.0000001
 44
0.0000000001
 40
0.0
 40
0.0
 40
0.0
 40
0.0
 40
0.2846855681
 40
0.5425842985
 40
0.7777327267
 40
1.0
 40
1.0
 40
1.0
 40
1.0
 10
13.8482554236
 20
54.1329507533
 30
0.0
 10
13.8514466553
 20
54.0893891366
 30
0.0
 10
13.8641088612
 20
54.0065880431
 30
0.0
 10
13.9054356645
 20
53.8936180834
 30
0.0
 10
13.9679434141
 20
53.8018440055
 30
0.0
 10
14.0235314797
 20
53.7569515537
 30
0.0
 10
14.0530708652
 20
53.7399118308
 30
0.0
  0
SPLINE
  5
3E4
100
AcDbEntity
  8
0
100
AcDbSpline
 62
7
  6
CONTINUOUS
 70
0
 71
3
 72
11
 73
7
 74
0
 42
0.0000001
 43
0.0000001
 44
0.0000000001
 40
0.0
 40
0.0
 40
0.0
 40
0.0
 40
0.2222673831
 40
0.4574158143
 40
0.7153143887
 40
1.0
 40
1.0
 40
1.0
 40
1.0
 10
39.332243544
 20
39.1453048645
 30
0.0
 10
39.3027041492
 20
39.1623446059
 30
0.0
 10
39.2471160465
 20
39.2072370415
 30
0.0
 10
39.184608339
 20
39.2990111442
 30
0.0
 10
39.1432814922
 20
39.411981068
 30
0.0
 10
39.1306193298
 20
39.4947821554
 30
0.0
 10
39.1274280976
 20
39.5383437792
 30
0.0
  0
SPLINE
  5
3E5
100
AcDbEntity
  8
0
100
AcDbSpline
 62
7
  6
CONTINUOUS
 70
0
 71
3
 72
9
 73
5
 74
0
 42
0.0000001
 43
0.0000001
 44
0.0000000001
 40
0.0
 40
0.0
 40
0.0
 40
0.0
 40
0.4877773887
 40
1.0
 40
1.0
 40
1.0
 40
1.0
 10
39.1274280976
 20
39.5383437792
 30
0.0
 10
38.7059953367
 20
45.291073248
 30
0.0
 10
38.4089766975
 20
57.1308200165
 30
0.0
 10
39.1122032212
 20
68.9491905628
 30
0.0
 10
39.6993252056
 20
74.97788787
 30
0.0
  0
SPLINE
  5
3E6
100
AcDbEntity
  8
0
100
AcDbSpline
 62
7
  6
CONTINUOUS
 70
0
 71
3
 72
9
 73
5
 74
0
 42
0.0000001
 43
0.0000001
 44
0.0000000001
 40
0.0
 40
0.0
 40
0.0
 40
0.0
 40
0.5499460028
 40
1.0
 40
1.0
 40
1.0
 40
1.0
 10
78.801997957
 20
118.2214207216
 30
0.0
 10
78.7854881606
 20
118.2309524413
 30
0.0
 10
78.7571970311
 20
118.2527867896
 30
0.0
 10
78.7434083728
 20
118.2874625358
 30
0.0
 10
78.7434002421
 20
118.3030635612
 30
0.0
  0
SPLINE
  5
3E7
100
AcDbEntity
  8
0
100
AcDbSpline
 62
7
  6
CONTINUOUS
 70
0
 71
3
 72
9
 73
5
 74
0
 42
0.0000001
 43
0.0000001
 44
0.0000000001
 40
0.0
 40
0.0
 40
0.0
 40
0.0
 40
0.4851146688
 40
1.0
 40
1.0
 40
1.0
 40
1.0
 10
39.7019506241
 20
75.0020999441
 30
0.0
 10
39.7177865382
 20
75.1347866771
 30
0.0
 10
39.7961430718
 20
75.4031451313
 30
0.0
 10
39.9360215208
 20
75.64374942
 30
0.0
 10
40.022000768
 20
75.7565457629
 30
0.0
  0
SPLINE
  5
3E8
100
AcDbEntity
  8
0
100
AcDbSpline
 62
7
  6
CONTINUOUS
 70
0
 71
3
 72
9
 73
5
 74
0
 42
0.0000001
 43
0.0000001
 44
0.0000000001
 40
0.0
 40
0.0
 40
0.0
 40
0.0
 40
0.5234582975
 40
1.0
 40
1.0
 40
1.0
 40
1.0
 10
40.022000768
 20
75.7565457629
 30
0.0
 10
40.0765693146
 20
75.8281343461
 30
0.0
 10
40.1920681888
 20
75.9567516197
 30
0.0
 10
40.3300903617
 20
76.0619043986
 30
0.0
 10
40.4010372149
 20
76.1029145754
 30
0.0
  0
SPLINE
  5
3E9
100
AcDbEntity
  8
0
100
AcDbSpline
 62
7
  6
CONTINUOUS
 70
0
 71
3
 72
13
 73
9
 74
0
 42
0.0000001
 43
0.0000001
 44
0.0000000001
 40
0.0
 40
0.0
 40
0.0
 40
0.0
 40
0.3001606171
 40
0.5720270442
 40
0.6935963289
 40
0.804666751
 40
0.9061311029
 40
1.0
 40
1.0
 40
1.0
 40
1.0
 10
82.5282231385
 20
120.1302371971
 30
0.0
 10
82.3733752765
 20
120.1429622157
 30
0.0
 10
82.0797179588
 20
120.1938871562
 30
0.0
 10
81.7425972074
 20
120.3280944436
 30
0.0
 10
81.5247074152
 20
120.4737119212
 30
0.0
 10
81.3979002215
 20
120.5927203816
 30
0.0
 10
81.3052247988
 20
120.72285371
 30
0.0
 10
81.2670909926
 20
120.8179029299
 30
0.0
 10
81.2554255387
 20
120.8650704277
 30
0.0
  0
SPLINE
  5
3EA
100
AcDbEntity
  8
0
100
AcDbSpline
 62
7
  6
CONTINUOUS
 70
0
 71
3
 72
11
 73
7
 74
0
 42
0.0000001
 43
0.0000001
 44
0.0000000001
 40
0.0
 40
0.0
 40
0.0
 40
0.0
 40
0.2370812903
 40
0.5000356424
 40
0.7629712323
 40
1.0
 40
1.0
 40
1.0
 40
1.0
 10
78.2363089071
 20
118.711408428
 30
0.0
 10
78.2162512073
 20
118.6998142576
 30
0.0
 10
78.1695431789
 20
118.6829645694
 30
0.0
 10
78.0948912149
 20
118.674652687
 30
0.0
 10
78.0202385674
 20
118.6829111708
 30
0.0
 10
77.9735256044
 20
118.6997286058
 30
0.0
 10
77.9534662358
 20
118.711309627
 30
0.0
  0
SPLINE
  5
3EB
100
AcDbEntity
  8
0
100
AcDbSpline
 62
7
  6
CONTINUOUS
 70
0
 71
3
 72
9
 73
5
 74
0
 42
0.0000001
 43
0.0000001
 44
0.0000000001
 40
0.0
 40
0.0
 40
0.0
 40
0.0
 40
0.5499460028
 40
1.0
 40
1.0
 40
1.0
 40
1.0
 10
75.1957382733
 20
120.3034485202
 30
0.0
 10
75.1792284769
 20
120.31298024
 30
0.0
 10
75.1509373474
 20
120.3348145882
 30
0.0
 10
75.1371486891
 20
120.3694903344
 30
0.0
 10
75.1371405584
 20
120.3850913599
 30
0.0
  0
SPLINE
  5
3EC
100
AcDbEntity
  8
0
100
AcDbSpline
 62
7
  6
CONTINUOUS
 70
0
 71
3
 72
11
 73
7
 74
0
 42
0.0000001
 43
0.0000001
 44
0.0000000001
 40
0.0
 40
0.0
 40
0.0
 40
0.0
 40
0.2505039061
 40
0.5129595485
 40
0.7685999537
 40
1.0
 40
1.0
 40
1.0
 40
1.0
 10
54.3512628137
 20
85.3445587306
 30
0.0
 10
54.3629711483
 20
85.4066238989
 30
0.0
 10
54.4022018322
 20
85.531057537
 30
0.0
 10
54.4952440869
 20
85.7022772891
 30
0.0
 10
54.6155016441
 20
85.8494441822
 30
0.0
 10
54.7126677638
 20
85.9269760393
 30
0.0
 10
54.7631793441
 20
85.9561737944
 30
0.0
  0
SPLINE
  5
3ED
100
AcDbEntity
  8
0
100
AcDbSpline
 62
7
  6
CONTINUOUS
 70
0
 71
3
 72
13
 73
9
 74
0
 42
0.0000001
 43
0.0000001
 44
0.0000000001
 40
0.0
 40
0.0
 40
0.0
 40
0.0
 40
0.3001606171
 40
0.5720270442
 40
0.6935963289
 40
0.804666751
 40
0.9061311029
 40
1.0
 40
1.0
 40
1.0
 40
1.0
 10
78.9219634548
 20
122.2122649958
 30
0.0
 10
78.7671155928
 20
122.2249900143
 30
0.0
 10
78.4734582751
 20
122.2759149549
 30
0.0
 10
78.1363375237
 20
122.4101222423
 30
0.0
 10
77.9184477315
 20
122.5557397198
 30
0.0
 10
77.7916405378
 20
122.6747481803
 30
0.0
 10
77.6989651151
 20
122.8048815087
 30
0.0
 10
77.6608313089
 20
122.8999307286
 30
0.0
 10
77.649165855
 20
122.9470982263
 30
0.0
  0
SPLINE
  5
3EE
100
AcDbEntity
  8
0
100
AcDbSpline
 62
7
  6
CONTINUOUS
 70
0
 71
3
 72
11
 73
7
 74
0
 42
0.0000001
 43
0.0000001
 44
0.0000000001
 40
0.0
 40
0.0
 40
0.0
 40
0.0
 40
0.2370812903
 40
0.5000356424
 40
0.7629712323
 40
1.0
 40
1.0
 40
1.0
 40
1.0
 10
74.6300492234
 20
120.7934362267
 30
0.0
 10
74.6099915236
 20
120.7818420562
 30
0.0
 10
74.5632834952
 20
120.7649923681
 30
0.0
 10
74.4886315312
 20
120.7566804857
 30
0.0
 10
74.4139788837
 20
120.7649389695
 30
0.0
 10
74.3672659207
 20
120.7817564045
 30
0.0
 10
74.3472065521
 20
120.7933374256
 30
0.0
  0
SPLINE
  5
3EF
100
AcDbEntity
  8
0
100
AcDbSpline
 62
7
  6
CONTINUOUS
 70
0
 71
3
 72
9
 73
5
 74
0
 42
0.0000001
 43
0.0000001
 44
0.0000000001
 40
0.0
 40
0.0
 40
0.0
 40
0.0
 40
0.5499460028
 40
1.0
 40
1.0
 40
1.0
 40
1.0
 10
71.5894785896
 20
122.3854763189
 30
0.0
 10
71.5729687932
 20
122.3950080387
 30
0.0
 10
71.5446776637
 20
122.4168423869
 30
0.0
 10
71.5308890054
 20
122.4515181331
 30
0.0
 10
71.5308808747
 20
122.4671191585
 30
0.0
  0
SPLINE
  5
3F0
100
AcDbEntity
  8
0
100
AcDbSpline
 62
7
  6
CONTINUOUS
 70
0
 71
3
 72
9
 73
5
 74
0
 42
0.0000001
 43
0.0000001
 44
0.0000000001
 40
0.0
 40
0.0
 40
0.0
 40
0.0
 40
0.2441714814
 40
1.0
 40
1.0
 40
1.0
 40
1.0
 10
56.1866032518
 20
86.9559947036
 30
0.0
 10
56.1860819758
 20
88.195507836
 30
0.0
 10
56.258116783
 20
93.2717980149
 30
0.0
 10
56.6187518571
 20
98.3429611088
 30
0.0
 10
57.0338205058
 20
102.1573357169
 30
0.0
  0
SPLINE
  5
3F1
100
AcDbEntity
  8
0
100
AcDbSpline
 62
7
  6
CONTINUOUS
 70
0
 71
3
 72
13
 73
9
 74
0
 42
0.0000001
 43
0.0000001
 44
0.0000000001
 40
0.0
 40
0.0
 40
0.0
 40
0.0
 40
0.3001606171
 40
0.5720270442
 40
0.6935963289
 40
0.804666751
 40
0.9061311029
 40
1.0
 40
1.0
 40
1.0
 40
1.0
 10
75.3157037711
 20
124.2942927944
 30
0.0
 10
75.1608559091
 20
124.307017813
 30
0.0
 10
74.8671985914
 20
124.3579427535
 30
0.0
 10
74.53007784
 20
124.492150041
 30
0.0
 10
74.3121880478
 20
124.6377675185
 30
0.0
 10
74.1853808541
 20
124.7567759789
 30
0.0
 10
74.0927054314
 20
124.8869093074
 30
0.0
 10
74.0545716252
 20
124.9819585272
 30
0.0
 10
74.0429061713
 20
125.029126025
 30
0.0
  0
SPLINE
  5
3F2
100
AcDbEntity
  8
0
100
AcDbSpline
 62
7
  6
CONTINUOUS
 70
0
 71
3
 72
11
 73
7
 74
0
 42
0.0000001
 43
0.0000001
 44
0.0000000001
 40
0.0
 40
0.0
 40
0.0
 40
0.0
 40
0.2370812903
 40
0.5000356424
 40
0.7629712323
 40
1.0
 40
1.0
 40
1.0
 40
1.0
 10
71.0237895397
 20
122.8754640253
 30
0.0
 10
71.0037318399
 20
122.8638698549
 30
0.0
 10
70.9570238115
 20
122.8470201667
 30
0.0
 10
70.8823718475
 20
122.8387082844
 30
0.0
 10
70.8077192
 20
122.8469667681
 30
0.0
 10
70.761006237
 20
122.8637842031
 30
0.0
 10
70.7409468684
 20
122.8753652243
 30
0.0
  0
SPLINE
  5
3F3
100
AcDbEntity
  8
0
100
AcDbSpline
 62
7
  6
CONTINUOUS
 70
0
 71
3
 72
11
 73
7
 74
0
 42
0.0000001
 43
0.0000001
 44
0.0000000001
 40
0.0
 40
0.0
 40
0.0
 40
0.0
 40
0.2463447628
 40
0.5090093265
 40
0.7668712445
 40
1.0
 40
1.0
 40
1.0
 40
1.0
 10
57.0363017599
 20
102.1783168225
 30
0.0
 10
57.0501585871
 20
102.2869068528
 30
0.0
 10
57.1094598024
 20
102.5077212136
 30
0.0
 10
57.2646208584
 20
102.8134894622
 30
0.0
 10
57.4729274104
 20
103.0784063782
 30
0.0
 10
57.6445463903
 20
103.2179042643
 30
0.0
 10
57.7342368456
 20
103.2697511082
 30
0.0
  0
ELLIPSE
  5
3F4
100
AcDbEntity
  8
0
100
AcDbEllipse
 62
7
  6
CONTINUOUS
 10
101.9109416504
 20
45.7573416731
 30
0.0
 11
0.4999833101
 21
0.8660356089
 31
0.0
 40
0.5773888861
 41
-2.3561869978
 42
-0.9599871123
  0
ELLIPSE
  5
3F5
100
AcDbEntity
  8
0
100
AcDbEllipse
 62
7
  6
CONTINUOUS
 10
99.8879577825
 20
68.1371838108
 30
0.0
 11
0.500029595
 21
0.8660962537
 31
0.0
 40
0.5773080272
 41
-0.0000128016
 42
0.7853472855
  0
ELLIPSE
  5
3F6
100
AcDbEntity
  8
0
100
AcDbEllipse
 62
7
  6
CONTINUOUS
 10
102.9992405731
 20
113.9920055546
 30
0.0
 11
0.500029595
 21
0.8660962537
 31
0.0
 40
0.5773080272
 41
5.4978124184
 42
7.0685325927
  0
ELLIPSE
  5
3F7
100
AcDbEntity
  8
0
100
AcDbEllipse
 62
7
  6
CONTINUOUS
 10
102.9992405731
 20
66.3409244909
 30
0.0
 11
0.500029595
 21
0.8660962537
 31
0.0
 40
0.5773080272
 41
5.4978124184
 42
7.0685325927
  0
ELLIPSE
  5
3F8
100
AcDbEntity
  8
0
100
AcDbEllipse
 62
7
  6
CONTINUOUS
 10
65.0529117745
 20
135.890710836
 30
0.0
 11
0.5000295263
 21
0.8660962933
 31
0.0
 40
0.5773080272
 41
-0.0000000495
 42
0.7859482022
  0
ENDSEC
  0
SECTION
  2
OBJECTS
  0
DICTIONARY
  5
C
100
AcDbDictionary
280
0
281
1
  3
ACAD_GROUP
350
D
  3
ACAD_MLINESTYLE
350
17
  3
ACAD_LAYOUT
350
1A
  3
ACAD_PLOTSETTINGS
350
19
  3
ACAD_PLOTSTYLENAME
350
E
  0
DICTIONARY
  5
D
102
{ACAD_REACTORS
330
C
102
}
100
AcDbDictionary
280
0
281
1
  0
ACDBDICTIONARYWDFLT
  5
E
102
{ACAD_REACTORS
330
C
102
}
100
AcDbDictionary
281
1
  3
Normal
350
F
100
AcDbDictionaryWithDefault
340
F
  0
DICTIONARY
  5
17
102
{ACAD_REACTORS
330
C
102
}
100
AcDbDictionary
280
0
281
1
  3
Standard
350
18
  0
DICTIONARY
  5
19
102
{ACAD_REACTORS
330
C
102
}
100
AcDbDictionary
281
1
  0
DICTIONARY
  5
1A
102
{ACAD_REACTORS
330
C
102
}
100
AcDbDictionary
281
1
  3
Model
350
3F9
  3
Layout1
350
3FA
  0
ACDBPLACEHOLDER
  5
F
102
{ACAD_REACTORS
330
E
102
}
  0
MLINESTYLE
  5
18
102
{ACAD_REACTORS
330
17
102
}
100
AcDbMlineStyle
  2
STANDARD
 70
0
  3

 62
256
 51
90.0
 52
90.0
 71
2
 49
0.5
 62
256
  6
BYLAYER
 49
-0.5
 62
256
  6
BYLAYER
  0
LAYOUT
  5
3F9
102
{ACAD_REACTORS
330
1A
102
}
100
AcDbPlotSettings
  1

  2
none_device
  4

  6

 40
0.0
 41
0.0
 42
0.0
 43
0.0
 44
210.0
 45
297.0
 46
0.0
 47
0.0
 48
0.0
 49
0.0
140
0.0
141
0.0
142
1.0
143
1.0
 70
1024
 72
1
 73
0
 74
0
  7

 75
0
147
1.0
148
0.0
149
0.0
100
AcDbLayout
  1
Model
 70
0
 71
0
 10
0.0
 20
0.0
 11
210.0
 21
297.0
 12
0.0
 22
0.0
 32
0.0
 14
0.0
 24
0.0
 34
0.0
 15
0.0
 25
0.0
 35
0.0
146
0.0
 13
0.0
 23
0.0
 33
0.0
 16
1.0
 26
0.0
 36
0.0
 17
0.0
 27
1.0
 37
0.0
 76
0
330
210
345
0
346
0
  0
LAYOUT
  5
3FA
102
{ACAD_REACTORS
330
1A
102
}
100
AcDbPlotSettings
  1

  2
none_device
  4

  6

 40
0.0
 41
0.0
 42
0.0
 43
0.0
 44
210.0
 45
297.0
 46
0.0
 47
0.0
 48
0.0
 49
0.0
140
0.0
141
0.0
142
1.0
143
1.0
 70
0
 72
1
 73
0
 74
0
  7

 75
0
147
1.0
148
0.0
149
0.0
100
AcDbLayout
  1
Layout1
 70
0
 71
1
 10
0.0
 20
0.0
 11
210.0
 21
297.0
 12
0.0
 22
0.0
 32
0.0
 14
0.0
 24
0.0
 34
0.0
 15
0.0
 25
0.0
 35
0.0
146
0.0
 13
0.0
 23
0.0
 33
0.0
 16
1.0
 26
0.0
 36
0.0
 17
0.0
 27
1.0
 37
0.0
 76
0
330
211
345
0
346
0
  0
ENDSEC
  0
EOF
