999
DXF file: C:\Users\sesa63760\Documents\7-Dev\_Creo\CAD\MCADFD0001135_3D-CAD\drw0001_1.dxf
999
Pro/ENGINEER 2019471 by Parametric Technology Corporation
  0
SECTION
  2
HEADER
  9
$ACADVER
  1
AC1024
  9
$DWGCODEPAGE
  3
ANSI_1252
  9
$EXTMAX
 10
131.4484820441
 20
185.9057103196
 30
0.0
  9
$EXTMIN
 10
0.0
 20
0.0
 30
0.0
  9
$LIMMIN
 10
0.0
 20
0.0
  9
$LIMMAX
 10
131.4484820441
 20
185.9057103196
  9
$VIEWCTR
 10
65.7242410221
 20
92.9528551598
  9
$VIEWSIZE
 40
185.9057103196
  9
$CLAYER
  8
0
  9
$LTSCALE
 40
12.1182981542
  9
$CELTYPE
  6
BYLAYER
  9
$DIMSCALE
 40
1.0
  9
$DIMASZ
 40
1.5648628815
  9
$DIMEXO
 40
1.0
  9
$DIMDLI
 40
8.3726423611
  9
$DIMEXE
 40
1.0
  9
$DIMCEN
 40
1.9829942434
  9
$DIMLFAC
 40
1.0
  9
$DIMBLK
  1
_FILLED
  9
$DIMALT
 70
0
  9
$DIMALTF
 40
0.0393700787
  9
$DIMTXT
 40
2.1908080341
  9
$DIMTOL
 70
1
  9
$DIMLIM
 70
0
  9
$DIMTFAC
 40
1.0
  9
$DIMTP
 40
0.01
  9
$DIMTM
 40
0.01
  9
$DIMGAP
 40
0.625
  9
$DIMDSEP
 70
46
  9
$AUNITS
 70
0
  9
$PDMODE
 70
3
  9
$PDSIZE
 40
0.3125
  9
$HANDSEED
  5
43F
  9
$TILEMODE
 70
1
  9
$MEASUREMENT
 70
1
  9
$INSUNITS
 70
4
  0
ENDSEC
  0
SECTION
  2
CLASSES
  0
CLASS
  1
ACDBDICTIONARYWDFLT
  2
AcDbDictionaryWithDefault
  3
AutoCAD 2000
 90
0
 91
1
280
0
281
0
  0
CLASS
  1
ACDBPLACEHOLDER
  2
AcDbPlaceHolder
  3
AutoCAD 2000
 90
0
 91
1
280
0
281
0
  0
CLASS
  1
LAYOUT
  2
AcDbLayout
  3
AutoCAD 2000
 90
0
 91
0
280
0
281
0
  0
ENDSEC
  0
SECTION
  2
TABLES
  0
TABLE
  2
VPORT
  5
8
100
AcDbSymbolTable
 70
2
  0
VPORT
  5
1F4
100
AcDbSymbolTableRecord
100
AcDbViewportTableRecord
  2
*ACTIVE
 70
0
 10
0.0
 20
0.0
 11
1.0
 21
1.0
 12
65.7242410221
 22
92.9528551598
 13
0.0
 23
0.0
 14
1.0
 24
1.0
 15
0.0
 25
0.0
 16
0.0
 26
0.0
 36
1.0
 17
0.0
 27
0.0
 37
0.0
 40
185.9057103196
 41
0.7070707071
 42
50.0
 43
0.0
 44
0.0
 50
0.0
 51
0.0
 71
0
 72
100
 73
1
 74
1
 75
0
 76
0
 77
0
 78
0
  0
ENDTAB
  0
TABLE
  2
LTYPE
  5
5
100
AcDbSymbolTable
 70
6
  0
LTYPE
  5
14
100
AcDbSymbolTableRecord
100
AcDbLinetypeTableRecord
  2
BYBLOCK
 70
0
  3

 72
65
 73
0
 40
0.0
  0
LTYPE
  5
15
100
AcDbSymbolTableRecord
100
AcDbLinetypeTableRecord
  2
BYLAYER
 70
0
  3

 72
65
 73
0
 40
0.0
  0
LTYPE
  5
16
100
AcDbSymbolTableRecord
100
AcDbLinetypeTableRecord
  2
CONTINUOUS
 70
64
  3
Solid line
 72
65
 73
0
 40
0.0
  0
LTYPE
  5
1F5
100
AcDbSymbolTableRecord
100
AcDbLinetypeTableRecord
  2
CENTER
 70
64
  3
____ _ ____ _ ____ _ ____ _ ____ _ ____ _ ____
 72
65
 73
4
 40
0.6
 49
0.375
 74
0
 49
-0.075
 74
0
 49
0.075
 74
0
 49
-0.075
 74
0
  0
LTYPE
  5
1F6
100
AcDbSymbolTableRecord
100
AcDbLinetypeTableRecord
  2
HIDDEN
 70
64
  3
- - - - - - - - - - - - - - - - - - - -
 72
65
 73
2
 40
0.2
 49
0.1
 74
0
 49
-0.1
 74
0
  0
LTYPE
  5
1F7
100
AcDbSymbolTableRecord
100
AcDbLinetypeTableRecord
  2
PHANTOM
 70
64
  3
_____ _ _ _____ _ _ _____ _ _ _____
 72
65
 73
6
 40
0.8
 49
0.45
 74
0
 49
-0.05
 74
0
 49
0.1
 74
0
 49
-0.05
 74
0
 49
0.1
 74
0
 49
-0.05
 74
0
  0
LTYPE
  5
1F8
100
AcDbSymbolTableRecord
100
AcDbLinetypeTableRecord
  2
DOT
 70
64
  3
. . . . . . . . . . . . . . . . . . . .
 72
65
 73
2
 40
0.2
 49
0.1
 74
0
 49
-0.1
 74
0
  0
LTYPE
  5
1F9
100
AcDbSymbolTableRecord
100
AcDbLinetypeTableRecord
  2
DASHED
 70
64
  3
- - - - - - - - - - - - - - - - - - - -
 72
65
 73
2
 40
0.2
 49
0.1
 74
0
 49
-0.1
 74
0
  0
ENDTAB
  0
TABLE
  2
LAYER
  5
2
100
AcDbSymbolTable
 70
36
  0
LAYER
  5
10
100
AcDbSymbolTableRecord
100
AcDbLayerTableRecord
  2
0
 70
0
 62
7
  6
CONTINUOUS
370
-3
390
F
  0
LAYER
  5
1FA
100
AcDbSymbolTableRecord
100
AcDbLayerTableRecord
  2
DEFAULT_1
 70
0
 62
7
  6
CENTER
370
-3
390
F
  0
LAYER
  5
1FB
100
AcDbSymbolTableRecord
100
AcDbLayerTableRecord
  2
DEFAULT_2
 70
0
 62
8
  6
HIDDEN
370
-3
390
F
  0
LAYER
  5
1FC
100
AcDbSymbolTableRecord
100
AcDbLayerTableRecord
  2
DEFAULT_3
 70
0
 62
7
  6
PHANTOM
370
-3
390
F
  0
LAYER
  5
1FD
100
AcDbSymbolTableRecord
100
AcDbLayerTableRecord
  2
00_COMPONENTS
 70
0
 62
7
  6
CONTINUOUS
370
-3
390
F
  0
LAYER
  5
1FE
100
AcDbSymbolTableRecord
100
AcDbLayerTableRecord
  2
01_1_DEFAULT_DATUMS
 70
0
 62
7
  6
CONTINUOUS
370
-3
390
F
  0
LAYER
  5
1FF
100
AcDbSymbolTableRecord
100
AcDbLayerTableRecord
  2
01_PLANES
 70
0
 62
7
  6
CONTINUOUS
370
-3
390
F
  0
LAYER
  5
200
100
AcDbSymbolTableRecord
100
AcDbLayerTableRecord
  2
02_COORD_SYS
 70
0
 62
7
  6
CONTINUOUS
370
-3
390
F
  0
LAYER
  5
201
100
AcDbSymbolTableRecord
100
AcDbLayerTableRecord
  2
03_AXES
 70
0
 62
7
  6
CONTINUOUS
370
-3
390
F
  0
LAYER
  5
202
100
AcDbSymbolTableRecord
100
AcDbLayerTableRecord
  2
04_POINTS
 70
0
 62
7
  6
CONTINUOUS
370
-3
390
F
  0
LAYER
  5
203
100
AcDbSymbolTableRecord
100
AcDbLayerTableRecord
  2
05_CURVES
 70
0
 62
7
  6
CONTINUOUS
370
-3
390
F
  0
LAYER
  5
204
100
AcDbSymbolTableRecord
100
AcDbLayerTableRecord
  2
06_SURFS
 70
0
 62
7
  6
CONTINUOUS
370
-3
390
F
  0
LAYER
  5
205
100
AcDbSymbolTableRecord
100
AcDbLayerTableRecord
  2
07_COSMETICS
 70
0
 62
7
  6
CONTINUOUS
370
-3
390
F
  0
LAYER
  5
206
100
AcDbSymbolTableRecord
100
AcDbLayerTableRecord
  2
10_NOTES
 70
0
 62
7
  6
CONTINUOUS
370
-3
390
F
  0
LAYER
  5
207
100
AcDbSymbolTableRecord
100
AcDbLayerTableRecord
  2
11_NOTES_PUB
 70
0
 62
7
  6
CONTINUOUS
370
-3
390
F
  0
LAYER
  5
208
100
AcDbSymbolTableRecord
100
AcDbLayerTableRecord
  2
13_REF_GTOL
 70
0
 62
7
  6
CONTINUOUS
370
-3
390
F
  0
LAYER
  5
209
100
AcDbSymbolTableRecord
100
AcDbLayerTableRecord
  2
16_MISC
 70
0
 62
7
  6
CONTINUOUS
370
-3
390
F
  0
LAYER
  5
20A
100
AcDbSymbolTableRecord
100
AcDbLayerTableRecord
  2
17_NO_PRINT
 70
0
 62
7
  6
CONTINUOUS
370
-3
390
F
  0
LAYER
  5
20B
100
AcDbSymbolTableRecord
100
AcDbLayerTableRecord
  2
18_DATUM_CAMS_JOINTS
 70
0
 62
7
  6
CONTINUOUS
370
-3
390
F
  0
LAYER
  5
20C
100
AcDbSymbolTableRecord
100
AcDbLayerTableRecord
  2
19_DATUM_FUNCTIONAL
 70
0
 62
7
  6
CONTINUOUS
370
-3
390
F
  0
LAYER
  5
20D
100
AcDbSymbolTableRecord
100
AcDbLayerTableRecord
  2
20_DATUM_KINEMATIC_SCHEME
 70
0
 62
7
  6
CONTINUOUS
370
-3
390
F
  0
ENDTAB
  0
TABLE
  2
STYLE
  5
3
100
AcDbSymbolTable
 70
1
  0
STYLE
  5
11
100
AcDbSymbolTableRecord
100
AcDbTextStyleTableRecord
  2
STANDARD
 70
0
 40
0.0
 41
0.8
 50
0.0
 71
0
 42
0.2
  3
txt
  4

  0
STYLE
  5
20E
100
AcDbSymbolTableRecord
100
AcDbTextStyleTableRecord
  2
TEXTSTYLE_1
 70
0
 40
0.0
 41
0.8
 50
0.0
 71
0
 42
0.2
  3
gdt
  4

  0
ENDTAB
  0
TABLE
  2
VIEW
  5
6
100
AcDbSymbolTable
 70
0
  0
ENDTAB
  0
TABLE
  2
UCS
  5
7
100
AcDbSymbolTable
 70
0
  0
ENDTAB
  0
TABLE
  2
APPID
  5
9
100
AcDbSymbolTable
 70
1
  0
APPID
  5
20F
100
AcDbSymbolTableRecord
100
AcDbRegAppTableRecord
  2
ACAD
 70
0
  0
ENDTAB
  0
TABLE
  2
BLOCK_RECORD
  5
1
100
AcDbSymbolTable
 70
0
  0
BLOCK_RECORD
  5
210
100
AcDbSymbolTableRecord
100
AcDbBlockTableRecord
  2
*Model_Space
  0
BLOCK_RECORD
  5
211
100
AcDbSymbolTableRecord
100
AcDbBlockTableRecord
  2
*Paper_Space
  0
BLOCK_RECORD
  5
212
100
AcDbSymbolTableRecord
100
AcDbBlockTableRecord
  2
_FILLED
  0
ENDTAB
  0
TABLE
  2
DIMSTYLE
  5
A
100
AcDbSymbolTable
 70
1
100
AcDbDimStyleTable
 71
0
  0
DIMSTYLE
105
213
100
AcDbSymbolTableRecord
100
AcDbDimStyleTableRecord
  2
STANDARD
 70
0
  3

  4

 40
1.0
 41
1.5648628815
 42
1.0
 43
0.38
 44
1.0
 45
0.0
 46
0.0
 47
0.01
 48
0.01
140
2.1908080341
141
0.09
142
0.0
143
25.4
144
1.0
145
0.0
146
1.0
147
0.625
 71
1
 72
0
 73
0
 74
0
 75
0
 76
0
 77
1
 78
8
 79
2
170
0
171
1
172
0
173
0
174
0
175
0
176
0
177
0
178
0
270
2
179
2
271
2
272
2
273
2
274
2
275
0
280
0
281
0
282
0
283
1
284
8
285
0
286
0
287
3
288
0
340
11
278
46
341
212
342
212
343
212
344
212
  0
ENDTAB
  0
ENDSEC
  0
SECTION
  2
BLOCKS
  0
BLOCK
  5
20
100
AcDbEntity
  8
0
100
AcDbBlockBegin
  2
*Model_Space
 70
0
 10
0.0
 20
0.0
 30
0.0
  3
*Model_Space
  1

  0
ENDBLK
  5
21
100
AcDbEntity
  8
0
100
AcDbBlockEnd
  0
BLOCK
  5
1C
100
AcDbEntity
  8
0
100
AcDbBlockBegin
  2
*Paper_Space
 70
0
 10
0.0
 20
0.0
 30
0.0
  3
*Paper_Space
  1

  0
ENDBLK
  5
1D
100
AcDbEntity
  8
0
100
AcDbBlockEnd
  0
BLOCK
  5
214
100
AcDbEntity
  8
0
100
AcDbBlockBegin
  2
_FILLED
 70
64
 10
0.0
 20
0.0
  3
_FILLED
  1

  0
SOLID
  5
215
100
AcDbEntity
  8
0
  6
BYBLOCK
 62
0
100
AcDbTrace
 10
0.0
 20
0.0
 11
-1.0
 21
0.25
 12
-1.0
 22
-0.25
 13
-1.0
 23
-0.25
  0
ENDBLK
  5
216
100
AcDbEntity
  8
0
  6
BYBLOCK
 62
0
100
AcDbBlockEnd
  0
ENDSEC
  0
SECTION
  2
ENTITIES
  0
LINE
  5
217
100
AcDbEntity
  8
0
100
AcDbLine
 62
7
  6
CONTINUOUS
 10
18.4889565741
 20
98.4220889695
 11
18.4926234924
 21
98.4693314102
  0
LINE
  5
218
100
AcDbEntity
  8
0
100
AcDbLine
 62
7
  6
CONTINUOUS
 10
18.7707825853
 20
101.7468718442
 11
18.7822748939
 21
101.8747284495
  0
LINE
  5
219
100
AcDbEntity
  8
0
100
AcDbLine
 62
7
  6
CONTINUOUS
 10
18.7704912959
 20
101.7467413178
 11
18.7822748939
 21
101.8747284495
  0
LINE
  5
21A
100
AcDbEntity
  8
0
100
AcDbLine
 62
7
  6
CONTINUOUS
 10
18.5534570402
 20
98.464528798
 11
18.8722294057
 21
101.737753362
  0
LINE
  5
21B
100
AcDbEntity
  8
0
100
AcDbLine
 62
7
  6
CONTINUOUS
 10
66.9454646537
 20
151.7856341251
 11
34.3479820586
 21
132.9655811113
  0
LINE
  5
21C
100
AcDbEntity
  8
0
100
AcDbLine
 62
7
  6
CONTINUOUS
 10
54.4778814093
 20
143.8407476811
 11
64.4513436981
 21
149.5988944467
  0
LINE
  5
21D
100
AcDbEntity
  8
0
100
AcDbLine
 62
7
  6
CONTINUOUS
 10
79.9891593355
 20
42.6248249802
 11
81.0616722181
 21
42.5773019531
  0
LINE
  5
21E
100
AcDbEntity
  8
0
100
AcDbLine
 62
7
  6
CONTINUOUS
 10
15.9184263938
 20
68.8376314533
 11
28.5580127308
 21
61.5403279662
  0
LINE
  5
21F
100
AcDbEntity
  8
0
100
AcDbLine
 62
7
  6
CONTINUOUS
 10
28.5872982946
 20
61.5580700532
 11
53.8664709687
 21
46.9634630791
  0
LINE
  5
220
100
AcDbEntity
  8
0
100
AcDbLine
 62
7
  6
CONTINUOUS
 10
53.8669177173
 20
46.9760647944
 11
66.5065040543
 21
39.6787613073
  0
LINE
  5
221
100
AcDbEntity
  8
0
100
AcDbLine
 62
7
  6
CONTINUOUS
 10
15.7135971637
 20
69.2311753336
 11
28.3531835007
 21
61.9338718465
  0
LINE
  5
222
100
AcDbEntity
  8
0
100
AcDbLine
 62
7
  6
CONTINUOUS
 10
28.3825033149
 20
61.9511445795
 11
53.6616759889
 21
47.3565376054
  0
LINE
  5
223
100
AcDbEntity
  8
0
100
AcDbLine
 62
7
  6
CONTINUOUS
 10
66.3016748242
 20
40.0723051876
 11
53.6620884872
 21
47.3696086746
  0
LINE
  5
224
100
AcDbEntity
  8
0
100
AcDbLine
 62
7
  6
CONTINUOUS
 10
72.302787102
 20
147.7846742026
 11
74.6362297648
 21
149.1318799103
  0
LINE
  5
225
100
AcDbEntity
  8
0
100
AcDbLine
 62
7
  6
CONTINUOUS
 10
74.9041452142
 20
149.1504616682
 11
72.5707025514
 21
147.8032559604
  0
LINE
  5
226
100
AcDbEntity
  8
0
100
AcDbLine
 62
7
  6
CONTINUOUS
 10
72.9149182289
 20
147.6126788247
 11
75.2483608917
 21
148.9598845325
  0
LINE
  5
227
100
AcDbEntity
  8
0
100
AcDbLine
 62
7
  6
CONTINUOUS
 10
73.7968957953
 20
147.3756855815
 11
76.1303384581
 21
148.7228912893
  0
LINE
  5
228
100
AcDbEntity
  8
0
100
AcDbLine
 62
7
  6
CONTINUOUS
 10
74.5624855276
 20
146.9369188682
 11
76.8959281904
 21
148.284124576
  0
LINE
  5
229
100
AcDbEntity
  8
0
100
AcDbLine
 62
7
  6
CONTINUOUS
 10
77.6258288711
 20
148.0448479141
 11
75.2923862083
 21
146.6976422064
  0
LINE
  5
22A
100
AcDbEntity
  8
0
100
AcDbLine
 62
7
  6
CONTINUOUS
 10
75.6297979832
 20
146.5214446266
 11
77.963240646
 21
147.8686503343
  0
LINE
  5
22B
100
AcDbEntity
  8
0
100
AcDbLine
 62
7
  6
CONTINUOUS
 10
78.1365497726
 20
147.7120915763
 11
78.91423477
 21
148.1610855387
  0
LINE
  5
22C
100
AcDbEntity
  8
0
100
AcDbLine
 62
7
  6
CONTINUOUS
 10
79.3142329793
 20
148.1214661155
 11
78.3360229033
 21
147.556699636
  0
LINE
  5
22D
100
AcDbEntity
  8
0
100
AcDbLine
 62
7
  6
CONTINUOUS
 10
71.7964805723
 20
41.815085692
 11
84.4360669093
 21
34.5177822049
  0
LINE
  5
22E
100
AcDbEntity
  8
0
100
AcDbLine
 62
7
  6
CONTINUOUS
 10
71.2164251032
 20
42.1588786321
 11
71.7559478189
 21
41.8473920937
  0
LINE
  5
22F
100
AcDbEntity
  8
0
100
AcDbLine
 62
7
  6
CONTINUOUS
 10
84.2352820354
 20
34.8702019375
 11
71.5956956984
 21
42.1675054245
  0
LINE
  5
230
100
AcDbEntity
  8
0
100
AcDbLine
 62
7
  6
CONTINUOUS
 10
71.4209780158
 20
42.2769766062
 11
71.6033620373
 21
42.1716795244
  0
LINE
  5
231
100
AcDbEntity
  8
0
100
AcDbLine
 62
7
  6
CONTINUOUS
 10
28.3531835007
 20
61.9338718466
 11
28.352021774
 21
61.9498638944
  0
LINE
  5
232
100
AcDbEntity
  8
0
100
AcDbLine
 62
7
  6
CONTINUOUS
 10
28.3531835007
 20
61.9338718466
 11
28.3527416736
 21
61.9503464097
  0
LINE
  5
233
100
AcDbEntity
  8
0
100
AcDbLine
 62
7
  6
CONTINUOUS
 10
25.9249140366
 20
94.3496305633
 11
25.9084541208
 21
94.1385369706
  0
LINE
  5
234
100
AcDbEntity
  8
0
100
AcDbLine
 62
7
  6
CONTINUOUS
 10
25.9253586657
 20
94.3498385644
 11
25.9084541208
 21
94.1385369706
  0
LINE
  5
235
100
AcDbEntity
  8
0
100
AcDbLine
 62
7
  6
CONTINUOUS
 10
26.1051243981
 20
97.5619339608
 11
25.7863520326
 21
94.2887093968
  0
LINE
  5
236
100
AcDbEntity
  8
0
100
AcDbLine
 62
7
  6
CONTINUOUS
 10
30.9536449418
 20
115.0207127476
 11
30.741721264
 21
113.7359813099
  0
LINE
  5
237
100
AcDbEntity
  8
0
100
AcDbLine
 62
7
  6
CONTINUOUS
 10
77.3064138518
 20
143.2070741478
 11
46.9893120814
 21
125.6825519193
  0
LINE
  5
238
100
AcDbEntity
  8
0
100
AcDbLine
 62
7
  6
CONTINUOUS
 10
78.9366516572
 20
147.2502800926
 11
79.8799207594
 21
147.7948735119
  0
LINE
  5
239
100
AcDbEntity
  8
0
100
AcDbLine
 62
7
  6
CONTINUOUS
 10
79.109601581
 20
147.2068135127
 11
76.7761589182
 21
145.8596078049
  0
LINE
  5
23A
100
AcDbEntity
  8
0
100
AcDbLine
 62
7
  6
CONTINUOUS
 10
77.1135706932
 20
145.6462046405
 11
79.447013356
 21
146.9934103482
  0
LINE
  5
23B
100
AcDbEntity
  8
0
100
AcDbLine
 62
7
  6
CONTINUOUS
 10
76.1981787354
 20
144.9751761784
 11
75.0716028905
 21
144.3247511935
  0
LINE
  5
23C
100
AcDbEntity
  8
0
100
AcDbLine
 62
7
  6
CONTINUOUS
 10
80.4456085395
 20
146.8150789746
 11
79.958549063
 21
146.5338767333
  0
LINE
  5
23D
100
AcDbEntity
  8
0
100
AcDbLine
 62
7
  6
CONTINUOUS
 10
77.8434724591
 20
145.0426830334
 11
80.176915122
 21
146.3898887412
  0
LINE
  5
23E
100
AcDbEntity
  8
0
100
AcDbLine
 62
7
  6
CONTINUOUS
 10
78.6090611061
 20
144.5974434962
 11
80.9425037689
 21
145.9446492039
  0
LINE
  5
23F
100
AcDbEntity
  8
0
100
AcDbLine
 62
7
  6
CONTINUOUS
 10
79.4910386726
 20
143.8160398077
 11
81.8244813354
 21
145.1632455155
  0
LINE
  5
240
100
AcDbEntity
  8
0
100
AcDbLine
 62
7
  6
CONTINUOUS
 10
79.8352543499
 20
143.6091599071
 11
82.1686970128
 21
144.9563656149
  0
LINE
  5
241
100
AcDbEntity
  8
0
100
AcDbLine
 62
7
  6
CONTINUOUS
 10
82.6023020331
 20
144.0708824801
 11
80.2688593703
 21
142.7236767723
  0
LINE
  5
242
100
AcDbEntity
  8
0
100
AcDbLine
 62
7
  6
CONTINUOUS
 10
17.0058545504
 20
105.8056223031
 11
30.741721264
 21
113.7359813099
  0
LINE
  5
243
100
AcDbEntity
  8
0
100
AcDbLine
 62
7
  6
CONTINUOUS
 10
76.8879833334
 20
41.1191449591
 11
77.3520838279
 21
40.8117871502
  0
LINE
  5
244
100
AcDbEntity
  8
0
100
AcDbLine
 62
7
  6
CONTINUOUS
 10
32.7923223919
 20
115.0304480964
 11
32.7923223919
 21
116.6355302646
  0
LINE
  5
245
100
AcDbEntity
  8
0
100
AcDbLine
 62
7
  6
CONTINUOUS
 10
31.1570572248
 20
91.1242511298
 11
31.1597999975
 21
91.1598185901
  0
LINE
  5
246
100
AcDbEntity
  8
0
100
AcDbLine
 62
7
  6
CONTINUOUS
 10
31.436264888
 20
94.4374020891
 11
31.4486665952
 21
94.5761069209
  0
LINE
  5
247
100
AcDbEntity
  8
0
100
AcDbLine
 62
7
  6
CONTINUOUS
 10
31.4359521426
 20
94.437261707
 11
31.4486665952
 21
94.5761069209
  0
LINE
  5
248
100
AcDbEntity
  8
0
100
AcDbLine
 62
7
  6
CONTINUOUS
 10
31.5319065723
 20
94.4288506915
 11
31.2131342068
 21
91.1556261275
  0
LINE
  5
249
100
AcDbEntity
  8
0
100
AcDbLine
 62
7
  6
CONTINUOUS
 10
73.5618542505
 20
134.2291165273
 11
80.4631852089
 21
138.2183675012
  0
LINE
  5
24A
100
AcDbEntity
  8
0
100
AcDbLine
 62
7
  6
CONTINUOUS
 10
81.6760132598
 20
137.5181567405
 11
76.6265712281
 21
134.5993731515
  0
LINE
  5
24B
100
AcDbEntity
  8
0
100
AcDbLine
 62
7
  6
CONTINUOUS
 10
80.4636138934
 20
137.3949859739
 11
74.2164809457
 21
133.8511761787
  0
LINE
  5
24C
100
AcDbEntity
  8
0
100
AcDbLine
 62
7
  6
CONTINUOUS
 10
80.437620675
 20
47.4827065987
 11
81.6568894771
 21
46.7787773527
  0
LINE
  5
24D
100
AcDbEntity
  8
0
100
AcDbLine
 62
7
  6
CONTINUOUS
 10
80.5350593554
 20
47.5389625112
 11
81.5417226022
 21
46.9577783628
  0
LINE
  5
24E
100
AcDbEntity
  8
0
100
AcDbLine
 62
7
  6
CONTINUOUS
 10
38.5923159923
 20
87.0441249526
 11
38.5765547715
 21
86.8406991308
  0
LINE
  5
24F
100
AcDbEntity
  8
0
100
AcDbLine
 62
7
  6
CONTINUOUS
 10
38.5927480891
 20
87.0443274143
 11
38.5765547715
 21
86.8406991308
  0
LINE
  5
250
100
AcDbEntity
  8
0
100
AcDbLine
 62
7
  6
CONTINUOUS
 10
38.4460291992
 20
86.9798067262
 11
38.7648015647
 21
90.2530312903
  0
LINE
  5
251
100
AcDbEntity
  8
0
100
AcDbLine
 62
7
  6
CONTINUOUS
 10
78.5088766665
 20
135.0379241877
 11
81.6439432418
 21
136.850120627
  0
LINE
  5
252
100
AcDbEntity
  8
0
100
AcDbLine
 62
7
  6
CONTINUOUS
 10
79.1940500912
 20
134.3678247501
 11
79.4316548578
 21
134.5051700031
  0
LINE
  5
253
100
AcDbEntity
  8
0
100
AcDbLine
 62
7
  6
CONTINUOUS
 10
79.9973426379
 20
134.1785773995
 11
79.7597378713
 21
134.0412321465
  0
LINE
  5
254
100
AcDbEntity
  8
0
100
AcDbLine
 62
7
  6
CONTINUOUS
 10
80.9201208292
 20
133.6458232148
 11
84.0551875622
 21
135.4580197452
  0
LINE
  5
255
100
AcDbEntity
  8
0
100
AcDbLine
 62
7
  6
CONTINUOUS
 10
82.1151362647
 20
132.9558963397
 11
85.25020284
 21
134.7680927789
  0
LINE
  5
256
100
AcDbEntity
  8
0
100
AcDbLine
 62
7
  6
CONTINUOUS
 10
82.8003096895
 20
132.285796902
 11
83.037914456
 21
132.423142155
  0
LINE
  5
257
100
AcDbEntity
  8
0
100
AcDbLine
 62
7
  6
CONTINUOUS
 10
81.1057654825
 20
134.1213906884
 11
81.2638580341
 21
134.2126649208
  0
LINE
  5
258
100
AcDbEntity
  8
0
100
AcDbLine
 62
7
  6
CONTINUOUS
 10
81.421951902
 20
134.1213914484
 11
81.2638593505
 21
134.0301172161
  0
LINE
  5
259
100
AcDbEntity
  8
0
100
AcDbLine
 62
7
  6
CONTINUOUS
 10
18.9558411138
 20
101.7745222127
 11
18.8722294057
 21
101.737753362
  0
LINE
  5
25A
100
AcDbEntity
  8
0
100
AcDbLine
 62
7
  6
CONTINUOUS
 10
83.3105416262
 20
49.1413783823
 11
83.3804000524
 21
49.1010465135
  0
LINE
  5
25B
100
AcDbEntity
  8
0
100
AcDbLine
 62
7
  6
CONTINUOUS
 10
45.4425206908
 20
107.7499022342
 11
45.4416844616
 21
109.3560615204
  0
LINE
  5
25C
100
AcDbEntity
  8
0
100
AcDbLine
 62
7
  6
CONTINUOUS
 10
45.4319087289
 20
107.7560289146
 11
45.4319099754
 21
109.3560437729
  0
LINE
  5
25D
100
AcDbEntity
  8
0
100
AcDbLine
 62
7
  6
CONTINUOUS
 10
45.4319087289
 20
109.3382267776
 11
45.4322530659
 21
109.3562417911
  0
LINE
  5
25E
100
AcDbEntity
  8
0
100
AcDbLine
 62
7
  6
CONTINUOUS
 10
43.7815255902
 20
83.8356758102
 11
43.7844580526
 21
83.8737004807
  0
LINE
  5
25F
100
AcDbEntity
  8
0
100
AcDbLine
 62
7
  6
CONTINUOUS
 10
44.0609484782
 20
87.151233915
 11
44.0731349606
 21
87.2875316013
  0
LINE
  5
260
100
AcDbEntity
  8
0
100
AcDbLine
 62
7
  6
CONTINUOUS
 10
44.0606404316
 20
87.1510956468
 11
44.0731349606
 21
87.2875316013
  0
LINE
  5
261
100
AcDbEntity
  8
0
100
AcDbLine
 62
7
  6
CONTINUOUS
 10
43.8326297142
 20
83.8699218239
 11
44.1514020797
 21
87.1431463879
  0
LINE
  5
262
100
AcDbEntity
  8
0
100
AcDbLine
 62
7
  6
CONTINUOUS
 10
43.6032953072
 20
107.740134522
 11
43.391976665
 21
106.4556055361
  0
LINE
  5
263
100
AcDbEntity
  8
0
100
AcDbLine
 62
7
  6
CONTINUOUS
 10
43.381307601
 20
106.4386778228
 11
43.5932312788
 21
107.7234092606
  0
LINE
  5
264
100
AcDbEntity
  8
0
100
AcDbLine
 62
7
  6
CONTINUOUS
 10
83.6036022362
 20
132.0965495514
 11
83.3659974696
 21
131.9592042984
  0
LINE
  5
265
100
AcDbEntity
  8
0
100
AcDbLine
 62
7
  6
CONTINUOUS
 10
84.5263804275
 20
131.5637953668
 11
87.6614471604
 21
133.3759918972
  0
LINE
  5
266
100
AcDbEntity
  8
0
100
AcDbLine
 62
7
  6
CONTINUOUS
 10
29.6561124322
 20
98.5157153758
 11
43.391976665
 21
106.4556055361
  0
LINE
  5
267
100
AcDbEntity
  8
0
100
AcDbLine
 62
7
  6
CONTINUOUS
 10
85.721395863
 20
130.8738684916
 11
88.8564624383
 21
132.6860649309
  0
LINE
  5
268
100
AcDbEntity
  8
0
100
AcDbLine
 62
7
  6
CONTINUOUS
 10
86.4065692877
 20
130.203769054
 11
86.6441740543
 21
130.341114307
  0
LINE
  5
269
100
AcDbEntity
  8
0
100
AcDbLine
 62
7
  6
CONTINUOUS
 10
87.2098618344
 20
130.0145217034
 11
86.9722570678
 21
129.8771764504
  0
LINE
  5
26A
100
AcDbEntity
  8
0
100
AcDbLine
 62
7
  6
CONTINUOUS
 10
88.1326400257
 20
129.4817675187
 11
91.2677067587
 21
131.2939640491
  0
LINE
  5
26B
100
AcDbEntity
  8
0
100
AcDbLine
 62
7
  6
CONTINUOUS
 10
87.4029234393
 20
128.3777840526
 11
92.452365471
 21
131.2965676416
  0
LINE
  5
26C
100
AcDbEntity
  8
0
100
AcDbLine
 62
7
  6
CONTINUOUS
 10
84.6374955291
 20
132.0498543051
 11
84.8237665413
 21
132.1573972822
  0
LINE
  5
26D
100
AcDbEntity
  8
0
100
AcDbLine
 62
7
  6
CONTINUOUS
 10
84.9818604092
 20
132.0661238099
 11
84.795589397
 21
131.9585808328
  0
LINE
  5
26E
100
AcDbEntity
  8
0
100
AcDbLine
 62
7
  6
CONTINUOUS
 10
29.6454408874
 20
98.508318816
 11
43.381307601
 21
106.4386778228
  0
LINE
  5
26F
100
AcDbEntity
  8
0
100
AcDbLine
 62
7
  6
CONTINUOUS
 10
88.2725469892
 20
129.9837410625
 11
88.4306395407
 21
130.0750152948
  0
LINE
  5
270
100
AcDbEntity
  8
0
100
AcDbLine
 62
7
  6
CONTINUOUS
 10
88.5887334087
 20
129.9837418225
 11
88.4306408571
 21
129.8924675901
  0
LINE
  5
271
100
AcDbEntity
  8
0
100
AcDbLine
 62
7
  6
CONTINUOUS
 10
26.1887361063
 20
97.5987028114
 11
26.1051243981
 21
97.5619339608
  0
LINE
  5
272
100
AcDbEntity
  8
0
100
AcDbLine
 62
7
  6
CONTINUOUS
 10
18.558654811
 20
98.4526902107
 11
18.4889565741
 21
98.4220889695
  0
LINE
  5
273
100
AcDbEntity
  8
0
100
AcDbLine
 62
7
  6
CONTINUOUS
 10
79.9082363198
 20
133.2365631608
 11
80.22289597
 21
133.6104393552
  0
LINE
  5
274
100
AcDbEntity
  8
0
100
AcDbLine
 62
7
  6
CONTINUOUS
 10
93.6049660176
 20
130.63112846
 11
86.7036350592
 21
126.641877486
  0
LINE
  5
275
100
AcDbEntity
  8
0
100
AcDbLine
 62
7
  6
CONTINUOUS
 10
97.7587372073
 20
133.0880070398
 11
100.0921798701
 21
134.4352127476
  0
LINE
  5
276
100
AcDbEntity
  8
0
100
AcDbLine
 62
7
  6
CONTINUOUS
 10
100.3600953195
 20
134.4537945055
 11
98.0266526567
 21
133.1065887977
  0
LINE
  5
277
100
AcDbEntity
  8
0
100
AcDbLine
 62
7
  6
CONTINUOUS
 10
98.3708683342
 20
132.9160116619
 11
100.7043109969
 21
134.2632173698
  0
LINE
  5
278
100
AcDbEntity
  8
0
100
AcDbLine
 62
7
  6
CONTINUOUS
 10
99.2528459005
 20
132.6790184188
 11
101.5862885634
 21
134.0262241266
  0
LINE
  5
279
100
AcDbEntity
  8
0
100
AcDbLine
 62
7
  6
CONTINUOUS
 10
100.0184356329
 20
132.2402517055
 11
102.3518782957
 21
133.5874574133
  0
LINE
  5
27A
100
AcDbEntity
  8
0
100
AcDbLine
 62
7
  6
CONTINUOUS
 10
103.0817789764
 20
133.3481807514
 11
100.7483363136
 21
132.0009750436
  0
LINE
  5
27B
100
AcDbEntity
  8
0
100
AcDbLine
 62
7
  6
CONTINUOUS
 10
101.0857480885
 20
131.8247774638
 11
103.4191907513
 21
133.1719831716
  0
LINE
  5
27C
100
AcDbEntity
  8
0
100
AcDbLine
 62
7
  6
CONTINUOUS
 10
103.5924998779
 20
133.0154244135
 11
104.3701848753
 21
133.464418376
  0
LINE
  5
27D
100
AcDbEntity
  8
0
100
AcDbLine
 62
7
  6
CONTINUOUS
 10
104.7701830846
 20
133.4247989528
 11
103.7919730086
 21
132.8600324733
  0
LINE
  5
27E
100
AcDbEntity
  8
0
100
AcDbLine
 62
7
  6
CONTINUOUS
 10
104.3926017625
 20
132.5536129299
 11
105.3358708647
 21
133.0982063492
  0
LINE
  5
27F
100
AcDbEntity
  8
0
100
AcDbLine
 62
7
  6
CONTINUOUS
 10
104.5655516863
 20
132.51014635
 11
102.2321090235
 21
131.1629406422
  0
LINE
  5
280
100
AcDbEntity
  8
0
100
AcDbLine
 62
7
  6
CONTINUOUS
 10
92.4527941556
 20
130.4731861142
 11
87.4033238159
 21
127.6087741352
  0
LINE
  5
281
100
AcDbEntity
  8
0
100
AcDbLine
 62
7
  6
CONTINUOUS
 10
25.9253586657
 20
94.3498385644
 11
25.7863520326
 21
94.2887093968
  0
LINE
  5
282
100
AcDbEntity
  8
0
100
AcDbLine
 62
7
  6
CONTINUOUS
 10
31.6294380233
 20
94.4717408493
 11
31.5319065723
 21
94.4288506915
  0
LINE
  5
283
100
AcDbEntity
  8
0
100
AcDbLine
 62
7
  6
CONTINUOUS
 10
18.4889565741
 20
98.4220889695
 11
25.9084541208
 21
94.1385369706
  0
LINE
  5
284
100
AcDbEntity
  8
0
100
AcDbLine
 62
7
  6
CONTINUOUS
 10
31.1570572248
 20
91.1242511298
 11
38.5765547715
 21
86.8406991309
  0
LINE
  5
285
100
AcDbEntity
  8
0
100
AcDbLine
 62
7
  6
CONTINUOUS
 10
43.7815255902
 20
83.8356758103
 11
51.2010231369
 21
79.5521238113
  0
LINE
  5
286
100
AcDbEntity
  8
0
100
AcDbLine
 62
7
  6
CONTINUOUS
 10
56.4374478976
 20
76.5605223106
 11
63.8569454443
 21
72.2769703117
  0
LINE
  5
287
100
AcDbEntity
  8
0
100
AcDbLine
 62
7
  6
CONTINUOUS
 10
51.0655247066
 20
79.6941024227
 11
43.8326297142
 21
83.8699218239
  0
LINE
  5
288
100
AcDbEntity
  8
0
100
AcDbLine
 62
7
  6
CONTINUOUS
 10
25.7863520326
 20
94.2887093968
 11
18.5534570402
 21
98.464528798
  0
LINE
  5
289
100
AcDbEntity
  8
0
100
AcDbLine
 62
7
  6
CONTINUOUS
 10
31.2131342068
 20
91.1556261275
 11
38.4460291993
 21
86.9798067262
  0
LINE
  5
28A
100
AcDbEntity
  8
0
100
AcDbLine
 62
7
  6
CONTINUOUS
 10
56.4886090755
 20
76.5948288033
 11
63.721504068
 21
72.4190094021
  0
LINE
  5
28B
100
AcDbEntity
  8
0
100
AcDbLine
 62
7
  6
CONTINUOUS
 10
38.7648015647
 20
90.2530312903
 11
31.5319065723
 21
94.4288506915
  0
LINE
  5
28C
100
AcDbEntity
  8
0
100
AcDbLine
 62
7
  6
CONTINUOUS
 10
18.8722294057
 20
101.737753362
 11
26.1051243981
 21
97.5619339608
  0
LINE
  5
28D
100
AcDbEntity
  8
0
100
AcDbLine
 62
7
  6
CONTINUOUS
 10
44.1514020797
 20
87.1431463879
 11
51.3842970721
 21
82.9673269867
  0
LINE
  5
28E
100
AcDbEntity
  8
0
100
AcDbLine
 62
7
  6
CONTINUOUS
 10
64.0418842411
 20
75.6929404452
 11
56.8089892486
 21
79.8687598465
  0
LINE
  5
28F
100
AcDbEntity
  8
0
100
AcDbLine
 62
7
  6
CONTINUOUS
 10
26.2017724406
 20
97.5911764505
 11
18.7822748939
 21
101.8747284495
  0
LINE
  5
290
100
AcDbEntity
  8
0
100
AcDbLine
 62
7
  6
CONTINUOUS
 10
51.4926325073
 20
83.0039796024
 11
44.0731349606
 21
87.2875316013
  0
LINE
  5
291
100
AcDbEntity
  8
0
100
AcDbLine
 62
7
  6
CONTINUOUS
 10
38.8681641419
 20
90.2925549219
 11
31.4486665952
 21
94.5761069209
  0
LINE
  5
292
100
AcDbEntity
  8
0
100
AcDbLine
 62
7
  6
CONTINUOUS
 10
64.1502637641
 20
75.7296097916
 11
56.7307662174
 21
80.0131617905
  0
LINE
  5
293
100
AcDbEntity
  8
0
100
AcDbLine
 62
7
  6
CONTINUOUS
 10
16.3037679749
 20
104.6808664557
 11
28.9433543119
 21
97.3835629686
  0
LINE
  5
294
100
AcDbEntity
  8
0
100
AcDbLine
 62
7
  6
CONTINUOUS
 10
28.9544004229
 20
97.3906886703
 11
54.2335730969
 21
82.7960816962
  0
LINE
  5
295
100
AcDbEntity
  8
0
100
AcDbLine
 62
7
  6
CONTINUOUS
 10
66.8918456354
 20
75.5219963097
 11
54.2522592984
 21
82.8192997967
  0
LINE
  5
296
100
AcDbEntity
  8
0
100
AcDbLine
 62
7
  6
CONTINUOUS
 10
54.4778814093
 20
143.8275697357
 11
54.4778814093
 21
143.8407476811
  0
LINE
  5
297
100
AcDbEntity
  8
0
100
AcDbLine
 62
7
  6
CONTINUOUS
 10
51.2171924945
 20
79.7607867454
 11
51.2010231369
 21
79.5521238113
  0
LINE
  5
298
100
AcDbEntity
  8
0
100
AcDbLine
 62
7
  6
CONTINUOUS
 10
51.2176332516
 20
79.7609932504
 11
51.2010231369
 21
79.5521238113
  0
LINE
  5
299
100
AcDbEntity
  8
0
100
AcDbLine
 62
7
  6
CONTINUOUS
 10
51.3842970721
 20
82.9673269867
 11
51.0655247066
 21
79.6941024227
  0
LINE
  5
29A
100
AcDbEntity
  8
0
100
AcDbLine
 62
7
  6
CONTINUOUS
 10
83.514495918
 20
131.1545353128
 11
83.8291555682
 21
131.5284115071
  0
LINE
  5
29B
100
AcDbEntity
  8
0
100
AcDbLine
 62
7
  6
CONTINUOUS
 10
102.734505522
 20
128.6985484319
 11
72.2684847273
 21
111.0879449321
  0
LINE
  5
29C
100
AcDbEntity
  8
0
100
AcDbLine
 62
7
  6
CONTINUOUS
 10
102.5695207984
 20
130.9495374777
 11
104.9029634612
 21
132.2967431855
  0
LINE
  5
29D
100
AcDbEntity
  8
0
100
AcDbLine
 62
7
  6
CONTINUOUS
 10
101.6541288407
 20
130.2785090157
 11
100.5275529958
 21
129.6280840308
  0
LINE
  5
29E
100
AcDbEntity
  8
0
100
AcDbLine
 62
7
  6
CONTINUOUS
 10
105.9015586448
 20
132.1184118118
 11
105.4144991683
 21
131.8372095706
  0
LINE
  5
29F
100
AcDbEntity
  8
0
100
AcDbLine
 62
7
  6
CONTINUOUS
 10
103.2994225644
 20
130.3460158707
 11
105.6328652272
 21
131.6932215785
  0
LINE
  5
2A0
100
AcDbEntity
  8
0
100
AcDbLine
 62
7
  6
CONTINUOUS
 10
104.0650112114
 20
129.9007763334
 11
106.3984538742
 21
131.2479820412
  0
LINE
  5
2A1
100
AcDbEntity
  8
0
100
AcDbLine
 62
7
  6
CONTINUOUS
 10
102.7374018964
 20
128.678987819
 11
72.2964733636
 21
111.1040144417
  0
LINE
  5
2A2
100
AcDbEntity
  8
0
100
AcDbLine
 62
7
  6
CONTINUOUS
 10
104.9469887779
 20
129.119372645
 11
107.2804314407
 21
130.4665783528
  0
LINE
  5
2A3
100
AcDbEntity
  8
0
100
AcDbLine
 62
7
  6
CONTINUOUS
 10
105.2912044552
 20
128.9124927444
 11
107.624647118
 21
130.2596984522
  0
LINE
  5
2A4
100
AcDbEntity
  8
0
100
AcDbLine
 62
7
  6
CONTINUOUS
 10
108.0582521384
 20
129.3742153173
 11
105.7248094756
 21
128.0270096095
  0
LINE
  5
2A5
100
AcDbEntity
  8
0
100
AcDbLine
 62
7
  6
CONTINUOUS
 10
31.2156085569
 20
91.1499994996
 11
31.1570572248
 21
91.1242511298
  0
LINE
  5
2A6
100
AcDbEntity
  8
0
100
AcDbLine
 62
7
  6
CONTINUOUS
 10
17.0058545504
 20
105.8056223031
 11
29.6454408874
 21
98.508318816
  0
LINE
  5
2A7
100
AcDbEntity
  8
0
100
AcDbLine
 62
7
  6
CONTINUOUS
 10
29.6561124322
 20
98.5157153758
 11
54.9352851062
 21
83.9211084017
  0
LINE
  5
2A8
100
AcDbEntity
  8
0
100
AcDbLine
 62
7
  6
CONTINUOUS
 10
54.9543458739
 20
83.9440556441
 11
67.5939322109
 21
76.6467521571
  0
LINE
  5
2A9
100
AcDbEntity
  8
0
100
AcDbLine
 62
7
  6
CONTINUOUS
 10
81.6569370346
 20
46.7788595796
 11
81.5417226022
 21
46.9577783628
  0
LINE
  5
2AA
100
AcDbEntity
  8
0
100
AcDbLine
 62
7
  6
CONTINUOUS
 10
56.4374478976
 20
76.5605223106
 11
56.4404052608
 21
76.5986329836
  0
LINE
  5
2AB
100
AcDbEntity
  8
0
100
AcDbLine
 62
7
  6
CONTINUOUS
 10
56.7185176793
 20
79.8768918253
 11
56.7307662174
 21
80.0131617905
  0
LINE
  5
2AC
100
AcDbEntity
  8
0
100
AcDbLine
 62
7
  6
CONTINUOUS
 10
56.7182097671
 20
79.8767538338
 11
56.7307662174
 21
80.0131617905
  0
LINE
  5
2AD
100
AcDbEntity
  8
0
100
AcDbLine
 62
7
  6
CONTINUOUS
 10
56.8089892486
 20
79.8687598465
 11
56.4886090755
 21
76.5948288033
  0
LINE
  5
2AE
100
AcDbEntity
  8
0
100
AcDbLine
 62
7
  6
CONTINUOUS
 10
87.1207555162
 20
129.0725074647
 11
87.4354151665
 21
129.4463836591
  0
LINE
  5
2AF
100
AcDbEntity
  8
0
100
AcDbLine
 62
7
  6
CONTINUOUS
 10
91.7243969451
 20
117.3196735149
 11
90.9471406297
 21
116.8709270507
  0
LINE
  5
2B0
100
AcDbEntity
  8
0
100
AcDbLine
 62
7
  6
CONTINUOUS
 10
38.8623330157
 20
90.295921448
 11
38.7648015647
 21
90.2530312903
  0
LINE
  5
2B1
100
AcDbEntity
  8
0
100
AcDbLine
 62
7
  6
CONTINUOUS
 10
38.5927480891
 20
87.0443274143
 11
38.4460291992
 21
86.9798067262
  0
LINE
  5
2B2
100
AcDbEntity
  8
0
100
AcDbLine
 62
7
  6
CONTINUOUS
 10
81.956884387
 20
86.4905115559
 11
82.2568727891
 21
86.5202170146
  0
LINE
  5
2B3
100
AcDbEntity
  8
0
100
AcDbLine
 62
7
  6
CONTINUOUS
 10
71.6033602467
 20
42.1716857229
 11
71.5828174988
 21
42.3704141176
  0
LINE
  5
2B4
100
AcDbEntity
  8
0
100
AcDbLine
 62
7
  6
CONTINUOUS
 10
71.5752898338
 20
42.3660680441
 11
71.5957100381
 21
42.1673918547
  0
LINE
  5
2B5
100
AcDbEntity
  8
0
100
AcDbLine
 62
7
  6
CONTINUOUS
 10
63.8732125016
 20
72.4856048146
 11
63.8569454443
 21
72.2769703117
  0
LINE
  5
2B6
100
AcDbEntity
  8
0
100
AcDbLine
 62
7
  6
CONTINUOUS
 10
63.8736531071
 20
72.4858109403
 11
63.8569454443
 21
72.2769703117
  0
LINE
  5
2B7
100
AcDbEntity
  8
0
100
AcDbLine
 62
7
  6
CONTINUOUS
 10
63.721504068
 20
72.4190094021
 11
64.0418842411
 21
75.6929404452
  0
LINE
  5
2B8
100
AcDbEntity
  8
0
100
AcDbLine
 62
7
  6
CONTINUOUS
 10
81.1057654825
 20
134.1213906884
 11
80.8882348972
 21
133.6608852867
  0
LINE
  5
2B9
100
AcDbEntity
  8
0
100
AcDbLine
 62
7
  6
CONTINUOUS
 10
84.6374955291
 20
132.0498543051
 11
84.4295095792
 21
131.6095545962
  0
LINE
  5
2BA
100
AcDbEntity
  8
0
100
AcDbLine
 62
7
  6
CONTINUOUS
 10
94.9084052289
 20
114.5856160582
 11
95.6842114059
 21
115.0335252896
  0
LINE
  5
2BB
100
AcDbEntity
  8
0
100
AcDbLine
 62
7
  6
CONTINUOUS
 10
77.3311211456
 20
100.2518278468
 11
77.3132961985
 21
100.2415366702
  0
LINE
  5
2BC
100
AcDbEntity
  8
0
100
AcDbLine
 62
7
  6
CONTINUOUS
 10
117.5335423142
 20
122.6267639791
 11
84.9360599551
 21
103.8067111047
  0
LINE
  5
2BD
100
AcDbEntity
  8
0
100
AcDbLine
 62
7
  6
CONTINUOUS
 10
44.2489335307
 20
87.1860365457
 11
44.1514020797
 21
87.1431463879
  0
LINE
  5
2BE
100
AcDbEntity
  8
0
100
AcDbLine
 62
7
  6
CONTINUOUS
 10
43.8369678639
 20
83.8600569492
 11
43.7815255902
 21
83.8356758102
  0
LINE
  5
2BF
100
AcDbEntity
  8
0
100
AcDbLine
 62
7
  6
CONTINUOUS
 10
30.741721264
 20
113.7359813099
 11
43.381307601
 21
106.4386778228
  0
LINE
  5
2C0
100
AcDbEntity
  8
0
100
AcDbLine
 62
7
  6
CONTINUOUS
 10
43.391976665
 20
106.4556055361
 11
68.671149339
 21
91.860998562
  0
LINE
  5
2C1
100
AcDbEntity
  8
0
100
AcDbLine
 62
7
  6
CONTINUOUS
 10
81.3297989245
 20
84.5771111639
 11
68.6902125875
 21
91.8744146509
  0
LINE
  5
2C2
100
AcDbEntity
  8
0
100
AcDbLine
 62
7
  6
CONTINUOUS
 10
71.6033602467
 20
42.1716857229
 11
71.5789333145
 21
42.3675735371
  0
LINE
  5
2C3
100
AcDbEntity
  8
0
100
AcDbLine
 62
7
  6
CONTINUOUS
 10
71.5714079321
 20
42.3632318635
 11
71.5957100381
 21
42.1673918547
  0
LINE
  5
2C4
100
AcDbEntity
  8
0
100
AcDbLine
 62
7
  6
CONTINUOUS
 10
70.7216805402
 20
93.1799277314
 11
70.7208511431
 21
94.7741885299
  0
LINE
  5
2C5
100
AcDbEntity
  8
0
100
AcDbLine
 62
7
  6
CONTINUOUS
 10
70.7408137154
 20
94.7739636057
 11
70.7408137154
 21
93.1688814375
  0
LINE
  5
2C6
100
AcDbEntity
  8
0
100
AcDbLine
 62
7
  6
CONTINUOUS
 10
72.1370975311
 20
147.4184454493
 11
72.1370975311
 21
145.1616227868
  0
LINE
  5
2C7
100
AcDbEntity
  8
0
100
AcDbLine
 62
7
  6
CONTINUOUS
 10
70.7208571356
 20
94.7614545463
 11
70.7210966841
 21
94.7743304299
  0
LINE
  5
2C8
100
AcDbEntity
  8
0
100
AcDbLine
 62
7
  6
CONTINUOUS
 10
68.671149339
 20
91.860998562
 11
68.8824665285
 21
93.1455187173
  0
LINE
  5
2C9
100
AcDbEntity
  8
0
100
AcDbLine
 62
7
  6
CONTINUOUS
 10
68.9021362652
 20
93.1591460887
 11
68.6902125875
 21
91.8744146509
  0
LINE
  5
2CA
100
AcDbEntity
  8
0
100
AcDbLine
 62
7
  6
CONTINUOUS
 10
88.2725469892
 20
129.9837410625
 11
88.0531623446
 21
129.5193106755
  0
LINE
  5
2CB
100
AcDbEntity
  8
0
100
AcDbLine
 62
7
  6
CONTINUOUS
 10
54.9352851062
 20
83.9211084017
 11
68.671149339
 21
91.860998562
  0
LINE
  5
2CC
100
AcDbEntity
  8
0
100
AcDbLine
 62
7
  6
CONTINUOUS
 10
68.6902125875
 20
91.8744146509
 11
54.9543458739
 21
83.9440556441
  0
LINE
  5
2CD
100
AcDbEntity
  8
0
100
AcDbLine
 62
7
  6
CONTINUOUS
 10
51.4818285231
 20
83.0102171445
 11
51.3842970721
 21
82.9673269867
  0
LINE
  5
2CE
100
AcDbEntity
  8
0
100
AcDbLine
 62
7
  6
CONTINUOUS
 10
79.9283090474
 20
95.6940166011
 11
81.0023856445
 21
95.5751585868
  0
LINE
  5
2CF
100
AcDbEntity
  8
0
100
AcDbLine
 62
7
  6
CONTINUOUS
 10
43.5932312788
 20
107.7234092606
 11
30.9536449418
 21
115.0207127477
  0
LINE
  5
2D0
100
AcDbEntity
  8
0
100
AcDbLine
 62
7
  6
CONTINUOUS
 10
68.8824679812
 20
93.1455275479
 11
43.6032953072
 21
107.740134522
  0
LINE
  5
2D1
100
AcDbEntity
  8
0
100
AcDbLine
 62
7
  6
CONTINUOUS
 10
81.5417226023
 20
85.8618426017
 11
68.9021362652
 21
93.1591460887
  0
LINE
  5
2D2
100
AcDbEntity
  8
0
100
AcDbLine
 62
7
  6
CONTINUOUS
 10
83.3804000524
 20
85.7610192101
 11
82.3239123466
 21
86.3709688726
  0
LINE
  5
2D3
100
AcDbEntity
  8
0
100
AcDbLine
 62
7
  6
CONTINUOUS
 10
31.6688016364
 20
115.6790984326
 11
44.2847469486
 21
108.3954437888
  0
LINE
  5
2D4
100
AcDbEntity
  8
0
100
AcDbLine
 62
7
  6
CONTINUOUS
 10
44.3185044564
 20
108.3988386288
 11
69.580942774
 21
93.8138930213
  0
LINE
  5
2D5
100
AcDbEntity
  8
0
100
AcDbLine
 62
7
  6
CONTINUOUS
 10
69.6172929599
 20
93.8175317737
 11
82.2568792969
 21
86.5202282866
  0
LINE
  5
2D6
100
AcDbEntity
  8
0
100
AcDbLine
 62
7
  6
CONTINUOUS
 10
45.4319087289
 20
109.3382267776
 11
32.7923223919
 21
116.6355302646
  0
LINE
  5
2D7
100
AcDbEntity
  8
0
100
AcDbLine
 62
7
  6
CONTINUOUS
 10
70.7208571356
 20
94.7614545463
 11
45.4416844616
 21
109.3560615204
  0
LINE
  5
2D8
100
AcDbEntity
  8
0
100
AcDbLine
 62
7
  6
CONTINUOUS
 10
83.3804000524
 20
87.4766601186
 11
70.7408137154
 21
94.7739636057
  0
LINE
  5
2D9
100
AcDbEntity
  8
0
100
AcDbLine
 62
7
  6
CONTINUOUS
 10
115.200072727
 20
71.5545455234
 11
114.3515481224
 21
72.0444303496
  0
LINE
  5
2DA
100
AcDbEntity
  8
0
100
AcDbLine
 62
7
  6
CONTINUOUS
 10
81.5417226022
 20
46.9577783628
 11
81.3297989245
 21
47.9978028765
  0
LINE
  5
2DB
100
AcDbEntity
  8
0
100
AcDbLine
 62
7
  6
CONTINUOUS
 10
76.6269716046
 20
133.830363234
 11
76.6265712281
 21
134.5993731515
  0
LINE
  5
2DC
100
AcDbEntity
  8
0
100
AcDbLine
 62
7
  6
CONTINUOUS
 10
51.2176332516
 20
79.7609932504
 11
51.0655247067
 21
79.6941024227
  0
LINE
  5
2DD
100
AcDbEntity
  8
0
100
AcDbLine
 62
7
  6
CONTINUOUS
 10
56.8089892486
 20
79.8687598465
 11
56.9066297485
 21
79.9116292305
  0
LINE
  5
2DE
100
AcDbEntity
  8
0
100
AcDbLine
 62
7
  6
CONTINUOUS
 10
56.4374478976
 20
76.5605223106
 11
56.4929688101
 21
76.5848989507
  0
LINE
  5
2DF
100
AcDbEntity
  8
0
100
AcDbLine
 62
7
  6
CONTINUOUS
 10
116.2370190676
 20
74.2271393381
 11
114.3515481224
 21
75.3156918695
  0
LINE
  5
2E0
100
AcDbEntity
  8
0
100
AcDbLine
 62
7
  6
CONTINUOUS
 10
117.5335423142
 20
74.9756829154
 11
114.4222595235
 21
76.7719422353
  0
LINE
  5
2E1
100
AcDbEntity
  8
0
100
AcDbLine
 62
7
  6
CONTINUOUS
 10
118.0335180589
 20
75.0252145711
 11
114.9222352683
 21
76.821473891
  0
LINE
  5
2E2
100
AcDbEntity
  8
0
100
AcDbLine
 62
7
  6
CONTINUOUS
 10
73.5867672954
 20
99.3552255653
 11
73.4364160072
 21
99.9432743738
  0
LINE
  5
2E3
100
AcDbEntity
  8
0
100
AcDbLine
 62
7
  6
CONTINUOUS
 10
82.3892312899
 20
85.3506465101
 11
82.3824417447
 21
86.2450993401
  0
LINE
  5
2E4
100
AcDbEntity
  8
0
100
AcDbLine
 62
7
  6
CONTINUOUS
 10
78.4483398831
 20
134.0794156936
 11
78.4480505598
 21
134.635123649
  0
LINE
  5
2E5
100
AcDbEntity
  8
0
100
AcDbLine
 62
7
  6
CONTINUOUS
 10
78.9114967531
 20
133.8120179994
 11
78.9112074298
 21
134.3677259548
  0
LINE
  5
2E6
100
AcDbEntity
  8
0
100
AcDbLine
 62
7
  6
CONTINUOUS
 10
79.1944245129
 20
133.6486732765
 11
79.1940500912
 21
134.3678247501
  0
LINE
  5
2E7
100
AcDbEntity
  8
0
100
AcDbLine
 62
7
  6
CONTINUOUS
 10
79.4321722466
 20
133.5114126636
 11
79.4316548578
 21
134.5051700031
  0
LINE
  5
2E8
100
AcDbEntity
  8
0
100
AcDbLine
 62
7
  6
CONTINUOUS
 10
79.7014740982
 20
133.3559346845
 11
79.701159869
 21
133.9594798825
  0
LINE
  5
2E9
100
AcDbEntity
  8
0
100
AcDbLine
 62
7
  6
CONTINUOUS
 10
79.7597391
 20
133.8778370494
 11
79.7600284232
 21
133.322129094
  0
LINE
  5
2EA
100
AcDbEntity
  8
0
100
AcDbLine
 62
7
  6
CONTINUOUS
 10
80.4636138934
 20
137.3949859739
 11
80.4631852089
 21
138.2183675012
  0
LINE
  5
2EB
100
AcDbEntity
  8
0
100
AcDbLine
 62
7
  6
CONTINUOUS
 10
81.6453932528
 20
134.0650602779
 11
81.6439432418
 21
136.850120627
  0
LINE
  5
2EC
100
AcDbEntity
  8
0
100
AcDbLine
 62
7
  6
CONTINUOUS
 10
82.0545994813
 20
131.9973878456
 11
82.0543101581
 21
132.553095801
  0
LINE
  5
2ED
100
AcDbEntity
  8
0
100
AcDbLine
 62
7
  6
CONTINUOUS
 10
82.2142744135
 20
134.3938968078
 11
82.2131667072
 21
136.5214867407
  0
LINE
  5
2EE
100
AcDbEntity
  8
0
100
AcDbLine
 62
7
  6
CONTINUOUS
 10
82.5177563513
 20
131.7299901514
 11
82.5174670281
 21
132.2856981067
  0
LINE
  5
2EF
100
AcDbEntity
  8
0
100
AcDbLine
 62
7
  6
CONTINUOUS
 10
82.8006841111
 20
131.5666454284
 11
82.8003096895
 21
132.285796902
  0
LINE
  5
2F0
100
AcDbEntity
  8
0
100
AcDbLine
 62
7
  6
CONTINUOUS
 10
83.0384318449
 20
131.4293848156
 11
83.037914456
 21
132.423142155
  0
LINE
  5
2F1
100
AcDbEntity
  8
0
100
AcDbLine
 62
7
  6
CONTINUOUS
 10
80.2688593703
 20
138.0282221233
 11
80.2688593703
 21
142.7236767723
  0
LINE
  5
2F2
100
AcDbEntity
  8
0
100
AcDbLine
 62
7
  6
CONTINUOUS
 10
80.4456085395
 20
146.2371227135
 11
80.4456085395
 21
146.8150789746
  0
LINE
  5
2F3
100
AcDbEntity
  8
0
100
AcDbLine
 62
7
  6
CONTINUOUS
 10
80.6506317319
 20
146.4500990358
 11
80.6506317319
 21
147.1008475028
  0
LINE
  5
2F4
100
AcDbEntity
  8
0
100
AcDbLine
 62
7
  6
CONTINUOUS
 10
81.2638593505
 20
134.0301172161
 11
81.2638596373
 21
133.8445182757
  0
LINE
  5
2F5
100
AcDbEntity
  8
0
100
AcDbLine
 62
7
  6
CONTINUOUS
 10
82.3892312899
 20
48.4475873509
 11
82.3892312899
 21
48.6094627867
  0
LINE
  5
2F6
100
AcDbEntity
  8
0
100
AcDbLine
 62
7
  6
CONTINUOUS
 10
82.3892312899
 20
85.1887710741
 11
82.3892312899
 21
85.3506465101
  0
LINE
  5
2F7
100
AcDbEntity
  8
0
100
AcDbLine
 62
7
  6
CONTINUOUS
 10
82.6023020331
 20
139.3754278311
 11
82.6023020331
 21
144.0708824801
  0
LINE
  5
2F8
100
AcDbEntity
  8
0
100
AcDbLine
 62
7
  6
CONTINUOUS
 10
82.3818691659
 20
47.5435800334
 11
82.3892312899
 21
48.4475873509
  0
LINE
  5
2F9
100
AcDbEntity
  8
0
100
AcDbLine
 62
7
  6
CONTINUOUS
 10
80.6480936214
 20
146.3886879101
 11
80.6506264183
 21
146.4501001541
  0
LINE
  5
2FA
100
AcDbEntity
  8
0
100
AcDbLine
 62
7
  6
CONTINUOUS
 10
81.3297989245
 20
84.5771111639
 11
81.5417226023
 21
85.8618426017
  0
LINE
  5
2FB
100
AcDbEntity
  8
0
100
AcDbLine
 62
7
  6
CONTINUOUS
 10
83.3804000524
 20
85.7610192101
 11
82.3892312899
 21
85.1887710741
  0
LINE
  5
2FC
100
AcDbEntity
  8
0
100
AcDbLine
 62
7
  6
CONTINUOUS
 10
81.3297989245
 20
84.5771111639
 11
67.5939322109
 21
76.6467521571
  0
LINE
  5
2FD
100
AcDbEntity
  8
0
100
AcDbLine
 62
7
  6
CONTINUOUS
 10
64.0418842411
 20
75.6929404452
 11
64.1395247409
 21
75.7358098293
  0
LINE
  5
2FE
100
AcDbEntity
  8
0
100
AcDbLine
 62
7
  6
CONTINUOUS
 10
77.3132961985
 20
100.2415366702
 11
77.3732150762
 21
100.2069432727
  0
LINE
  5
2FF
100
AcDbEntity
  8
0
100
AcDbLine
 62
7
  6
CONTINUOUS
 10
82.2568727891
 20
86.5202170146
 11
82.3818264491
 21
86.2420364554
  0
LINE
  5
300
100
AcDbEntity
  8
0
100
AcDbLine
 62
7
  6
CONTINUOUS
 10
83.3077336964
 20
131.2739068365
 11
83.3074194673
 21
131.8774520345
  0
LINE
  5
301
100
AcDbEntity
  8
0
100
AcDbLine
 62
7
  6
CONTINUOUS
 10
83.3659986982
 20
131.7958092013
 11
83.3662880215
 21
131.2401012459
  0
LINE
  5
302
100
AcDbEntity
  8
0
100
AcDbLine
 62
7
  6
CONTINUOUS
 10
83.485964307
 20
135.7866535102
 11
83.4863066116
 21
135.1291833367
  0
LINE
  5
303
100
AcDbEntity
  8
0
100
AcDbLine
 62
7
  6
CONTINUOUS
 10
85.251652851
 20
131.9830324298
 11
85.25020284
 21
134.7680927789
  0
LINE
  5
304
100
AcDbEntity
  8
0
100
AcDbLine
 62
7
  6
CONTINUOUS
 10
85.6608590796
 20
129.9153599975
 11
85.6605697563
 21
130.4710679529
  0
LINE
  5
305
100
AcDbEntity
  8
0
100
AcDbLine
 62
7
  6
CONTINUOUS
 10
85.8205340117
 20
132.3118689598
 11
85.8194263054
 21
134.4394588926
  0
LINE
  5
306
100
AcDbEntity
  8
0
100
AcDbLine
 62
7
  6
CONTINUOUS
 10
86.1240159495
 20
129.6479623033
 11
86.1237266263
 21
130.2036702587
  0
LINE
  5
307
100
AcDbEntity
  8
0
100
AcDbLine
 62
7
  6
CONTINUOUS
 10
86.4069437094
 20
129.4846175804
 11
86.4065692877
 21
130.203769054
  0
LINE
  5
308
100
AcDbEntity
  8
0
100
AcDbLine
 62
7
  6
CONTINUOUS
 10
86.6446914431
 20
129.3473569675
 11
86.6441740543
 21
130.341114307
  0
LINE
  5
309
100
AcDbEntity
  8
0
100
AcDbLine
 62
7
  6
CONTINUOUS
 10
86.9139932947
 20
129.1918789884
 11
86.9136790655
 21
129.7954241864
  0
LINE
  5
30A
100
AcDbEntity
  8
0
100
AcDbLine
 62
7
  6
CONTINUOUS
 10
86.9722582965
 20
129.7137813533
 11
86.9725476197
 21
129.1580733979
  0
LINE
  5
30B
100
AcDbEntity
  8
0
100
AcDbLine
 62
7
  6
CONTINUOUS
 10
87.0922239053
 20
133.7046256621
 11
87.0925662099
 21
133.0471554887
  0
LINE
  5
30C
100
AcDbEntity
  8
0
100
AcDbLine
 62
7
  6
CONTINUOUS
 10
87.4033238159
 20
127.6087741352
 11
87.4029234393
 21
128.3777840526
  0
LINE
  5
30D
100
AcDbEntity
  8
0
100
AcDbLine
 62
7
  6
CONTINUOUS
 10
83.3804000524
 20
87.4766601186
 11
83.3804000524
 21
85.7610192101
  0
LINE
  5
30E
100
AcDbEntity
  8
0
100
AcDbLine
 62
7
  6
CONTINUOUS
 10
83.3804000524
 20
49.1817109227
 11
83.3804000524
 21
49.1010465135
  0
LINE
  5
30F
100
AcDbEntity
  8
0
100
AcDbLine
 62
7
  6
CONTINUOUS
 10
84.795589397
 20
131.9585808328
 11
84.7955897666
 21
131.7194093527
  0
LINE
  5
310
100
AcDbEntity
  8
0
100
AcDbLine
 62
7
  6
CONTINUOUS
 10
114.3515481224
 20
100.2137888303
 11
118.2406192271
 21
102.4591316766
  0
LINE
  5
311
100
AcDbEntity
  8
0
100
AcDbLine
 62
7
  6
CONTINUOUS
 10
63.721504068
 20
72.4190094021
 11
63.8736531071
 21
72.4858109403
  0
LINE
  5
312
100
AcDbEntity
  8
0
100
AcDbLine
 62
7
  6
CONTINUOUS
 10
46.2867863859
 20
124.556158463
 11
33.6472000489
 21
131.85346195
  0
LINE
  5
313
100
AcDbEntity
  8
0
100
AcDbLine
 62
7
  6
CONTINUOUS
 10
46.2888968775
 20
124.5701471392
 11
71.5680695515
 21
109.9755401651
  0
LINE
  5
314
100
AcDbEntity
  8
0
100
AcDbLine
 62
7
  6
CONTINUOUS
 10
71.5956916053
 20
109.9918975215
 11
84.2352779423
 21
102.6945940344
  0
LINE
  5
315
100
AcDbEntity
  8
0
100
AcDbLine
 62
7
  6
CONTINUOUS
 10
34.3479821535
 20
132.9655811693
 11
46.9875686325
 21
125.6682777642
  0
LINE
  5
316
100
AcDbEntity
  8
0
100
AcDbLine
 62
7
  6
CONTINUOUS
 10
46.9893120533
 20
125.6825519062
 11
72.2684847273
 21
111.0879449321
  0
LINE
  5
317
100
AcDbEntity
  8
0
100
AcDbLine
 62
7
  6
CONTINUOUS
 10
84.9360599551
 20
103.8067111047
 11
72.2964734572
 21
111.1040144989
  0
LINE
  5
318
100
AcDbEntity
  8
0
100
AcDbLine
 62
7
  6
CONTINUOUS
 10
88.8579124493
 20
129.9010045818
 11
88.8564624383
 21
132.6860649309
  0
LINE
  5
319
100
AcDbEntity
  8
0
100
AcDbLine
 62
7
  6
CONTINUOUS
 10
89.42679361
 20
130.2298411117
 11
89.4256859037
 21
132.3574310446
  0
LINE
  5
31A
100
AcDbEntity
  8
0
100
AcDbLine
 62
7
  6
CONTINUOUS
 10
90.6984835035
 20
131.6225978141
 11
90.6988258081
 21
130.9651276406
  0
LINE
  5
31B
100
AcDbEntity
  8
0
100
AcDbLine
 62
7
  6
CONTINUOUS
 10
92.4527941556
 20
130.4731861142
 11
92.452365471
 21
131.2965676416
  0
LINE
  5
31C
100
AcDbEntity
  8
0
100
AcDbLine
 62
7
  6
CONTINUOUS
 10
88.4306408571
 20
129.8924675901
 11
88.4306412256
 21
129.6540243752
  0
LINE
  5
31D
100
AcDbEntity
  8
0
100
AcDbLine
 62
7
  6
CONTINUOUS
 10
91.7243971895
 20
116.4238623701
 11
91.7243969451
 21
117.3196735149
  0
LINE
  5
31E
100
AcDbEntity
  8
0
100
AcDbLine
 62
7
  6
CONTINUOUS
 10
31.6687951618
 20
115.6790872196
 11
31.3688067265
 21
115.6493817019
  0
LINE
  5
31F
100
AcDbEntity
  8
0
100
AcDbLine
 62
7
  6
CONTINUOUS
 10
97.5930476364
 20
132.7217782865
 11
97.5930476364
 21
128.0263236375
  0
LINE
  5
320
100
AcDbEntity
  8
0
100
AcDbLine
 62
7
  6
CONTINUOUS
 10
85.6605697563
 20
130.4710679529
 11
85.0135685353
 21
130.2890649132
  0
LINE
  5
321
100
AcDbEntity
  8
0
100
AcDbLine
 62
7
  6
CONTINUOUS
 10
81.421951902
 20
134.1213914484
 11
81.4907790187
 21
133.9756869399
  0
LINE
  5
322
100
AcDbEntity
  8
0
100
AcDbLine
 62
7
  6
CONTINUOUS
 10
82.0543101581
 20
132.553095801
 11
81.4073089371
 21
132.3710927612
  0
LINE
  5
323
100
AcDbEntity
  8
0
100
AcDbLine
 62
7
  6
CONTINUOUS
 10
78.4480505598
 20
134.635123649
 11
77.8010493388
 21
134.4531206093
  0
LINE
  5
324
100
AcDbEntity
  8
0
100
AcDbLine
 62
7
  6
CONTINUOUS
 10
90.9471406297
 20
116.8709270507
 11
91.1147615535
 21
116.7758277062
  0
LINE
  5
325
100
AcDbEntity
  8
0
100
AcDbLine
 62
7
  6
CONTINUOUS
 10
91.1147615535
 20
116.7758277062
 11
94.9084052289
 21
114.5856160582
  0
LINE
  5
326
100
AcDbEntity
  8
0
100
AcDbLine
 62
7
  6
CONTINUOUS
 10
97.0718085299
 20
114.23241384
 11
95.6842114059
 21
115.0335252896
  0
LINE
  5
327
100
AcDbEntity
  8
0
100
AcDbLine
 62
7
  6
CONTINUOUS
 10
91.7243969451
 20
117.3196735149
 11
90.3367992699
 21
118.1207852806
  0
LINE
  5
328
100
AcDbEntity
  8
0
100
AcDbLine
 62
7
  6
CONTINUOUS
 10
84.9818604093
 20
132.0661238099
 11
85.0705587474
 21
131.8783526465
  0
LINE
  5
329
100
AcDbEntity
  8
0
100
AcDbLine
 62
7
  6
CONTINUOUS
 10
88.5887334087
 20
129.9837418225
 11
88.677168775
 21
129.7965273609
  0
LINE
  5
32A
100
AcDbEntity
  8
0
100
AcDbLine
 62
7
  6
CONTINUOUS
 10
105.7248094756
 20
123.3315549605
 11
105.7248094756
 21
128.0270096095
  0
LINE
  5
32B
100
AcDbEntity
  8
0
100
AcDbLine
 62
7
  6
CONTINUOUS
 10
105.9015586448
 20
131.5404555508
 11
105.9015586448
 21
132.1184118118
  0
LINE
  5
32C
100
AcDbEntity
  8
0
100
AcDbLine
 62
7
  6
CONTINUOUS
 10
106.1065818372
 20
131.753431873
 11
106.1065818372
 21
132.40418034
  0
LINE
  5
32D
100
AcDbEntity
  8
0
100
AcDbLine
 62
7
  6
CONTINUOUS
 10
108.0582521384
 20
124.6787606683
 11
108.0582521384
 21
129.3742153173
  0
LINE
  5
32E
100
AcDbEntity
  8
0
100
AcDbLine
 62
7
  6
CONTINUOUS
 10
106.1040437267
 20
131.6920207473
 11
106.1065765235
 21
131.7534329914
  0
LINE
  5
32F
100
AcDbEntity
  8
0
100
AcDbLine
 62
7
  6
CONTINUOUS
 10
114.4222595236
 20
76.7719422353
 11
114.3515481224
 21
76.7311172325
  0
LINE
  5
330
100
AcDbEntity
  8
0
100
AcDbLine
 62
7
  6
CONTINUOUS
 10
117.5335423142
 20
74.9756829154
 11
116.2370190676
 21
74.2271393381
  0
LINE
  5
331
100
AcDbEntity
  8
0
100
AcDbLine
 62
7
  6
CONTINUOUS
 10
54.4778814093
 20
143.8275697357
 11
66.4361485866
 21
136.9236171501
  0
LINE
  5
332
100
AcDbEntity
  8
0
100
AcDbLine
 62
7
  6
CONTINUOUS
 10
66.4593268232
 20
136.9234134371
 11
54.4778814093
 21
143.8407476811
  0
LINE
  5
333
100
AcDbEntity
  8
0
100
AcDbLine
 62
7
  6
CONTINUOUS
 10
86.7036350592
 20
126.641877486
 11
73.5618542505
 21
134.2291165273
  0
LINE
  5
334
100
AcDbEntity
  8
0
100
AcDbLine
 62
7
  6
CONTINUOUS
 10
76.6269716046
 20
133.830363234
 11
87.4033238159
 21
127.6087741352
  0
LINE
  5
335
100
AcDbEntity
  8
0
100
AcDbLine
 62
7
  6
CONTINUOUS
 10
76.6265712281
 20
134.5993731515
 11
87.4029234393
 21
128.3777840526
  0
LINE
  5
336
100
AcDbEntity
  8
0
100
AcDbLine
 62
7
  6
CONTINUOUS
 10
87.1207555162
 20
129.0725074647
 11
85.0135685353
 21
130.2890649132
  0
LINE
  5
337
100
AcDbEntity
  8
0
100
AcDbLine
 62
7
  6
CONTINUOUS
 10
83.514495918
 20
131.1545353128
 11
81.4073089371
 21
132.3710927612
  0
LINE
  5
338
100
AcDbEntity
  8
0
100
AcDbLine
 62
7
  6
CONTINUOUS
 10
79.9082363198
 20
133.2365631608
 11
77.8010493388
 21
134.4531206093
  0
LINE
  5
339
100
AcDbEntity
  8
0
100
AcDbLine
 62
7
  6
CONTINUOUS
 10
78.4480505598
 20
134.635123649
 11
78.9112074298
 21
134.3677259548
  0
LINE
  5
33A
100
AcDbEntity
  8
0
100
AcDbLine
 62
7
  6
CONTINUOUS
 10
79.7597391
 20
133.8778370494
 11
80.22289597
 21
133.6104393552
  0
LINE
  5
33B
100
AcDbEntity
  8
0
100
AcDbLine
 62
7
  6
CONTINUOUS
 10
82.0543101581
 20
132.553095801
 11
82.5174670281
 21
132.2856981067
  0
LINE
  5
33C
100
AcDbEntity
  8
0
100
AcDbLine
 62
7
  6
CONTINUOUS
 10
83.3659986982
 20
131.7958092013
 11
83.8291555682
 21
131.5284115071
  0
LINE
  5
33D
100
AcDbEntity
  8
0
100
AcDbLine
 62
7
  6
CONTINUOUS
 10
85.6605697563
 20
130.4710679529
 11
86.1237266263
 21
130.2036702587
  0
LINE
  5
33E
100
AcDbEntity
  8
0
100
AcDbLine
 62
7
  6
CONTINUOUS
 10
86.9722582965
 20
129.7137813533
 11
87.4354151665
 21
129.4463836591
  0
LINE
  5
33F
100
AcDbEntity
  8
0
100
AcDbLine
 62
7
  6
CONTINUOUS
 10
88.1326400257
 20
129.4817675187
 11
87.2098618344
 21
130.0145217034
  0
LINE
  5
340
100
AcDbEntity
  8
0
100
AcDbLine
 62
7
  6
CONTINUOUS
 10
86.6441740543
 20
130.341114307
 11
85.721395863
 21
130.8738684916
  0
LINE
  5
341
100
AcDbEntity
  8
0
100
AcDbLine
 62
7
  6
CONTINUOUS
 10
84.5263804275
 20
131.5637953668
 11
83.6036022362
 21
132.0965495514
  0
LINE
  5
342
100
AcDbEntity
  8
0
100
AcDbLine
 62
7
  6
CONTINUOUS
 10
83.037914456
 20
132.423142155
 11
82.1151362647
 21
132.9558963397
  0
LINE
  5
343
100
AcDbEntity
  8
0
100
AcDbLine
 62
7
  6
CONTINUOUS
 10
80.9201208292
 20
133.6458232148
 11
79.9973426379
 21
134.1785773995
  0
LINE
  5
344
100
AcDbEntity
  8
0
100
AcDbLine
 62
7
  6
CONTINUOUS
 10
79.4316548578
 20
134.5051700031
 11
78.5088766665
 21
135.0379241877
  0
LINE
  5
345
100
AcDbEntity
  8
0
100
AcDbLine
 62
7
  6
CONTINUOUS
 10
115.200072727
 20
71.5545455234
 11
114.3515481224
 21
71.0646525388
  0
LINE
  5
346
100
AcDbEntity
  8
0
100
AcDbLine
 62
7
  6
CONTINUOUS
 10
67.0064955708
 20
39.7282891919
 11
81.3297989245
 21
47.9978028765
  0
LINE
  5
347
100
AcDbEntity
  8
0
100
AcDbLine
 62
7
  6
CONTINUOUS
 10
82.3892312899
 20
48.6094627867
 11
83.3804000524
 21
49.1817109227
  0
LINE
  5
348
100
AcDbEntity
  8
0
100
AcDbLine
 62
7
  6
CONTINUOUS
 10
84.795589397
 20
131.9585808328
 11
84.6374955291
 21
132.0498543051
  0
LINE
  5
349
100
AcDbEntity
  8
0
100
AcDbLine
 62
7
  6
CONTINUOUS
 10
88.4306408571
 20
129.8924675901
 11
88.2725469892
 21
129.9837410625
  0
LINE
  5
34A
100
AcDbEntity
  8
0
100
AcDbLine
 62
7
  6
CONTINUOUS
 10
81.2638593505
 20
134.0301172161
 11
81.1057654825
 21
134.1213906884
  0
LINE
  5
34B
100
AcDbEntity
  8
0
100
AcDbLine
 62
7
  6
CONTINUOUS
 10
81.2638580341
 20
134.2126649208
 11
81.421951902
 21
134.1213914484
  0
LINE
  5
34C
100
AcDbEntity
  8
0
100
AcDbLine
 62
7
  6
CONTINUOUS
 10
84.8237665413
 20
132.1573972822
 11
84.9818604092
 21
132.0661238099
  0
LINE
  5
34D
100
AcDbEntity
  8
0
100
AcDbLine
 62
7
  6
CONTINUOUS
 10
88.4306395407
 20
130.0750152948
 11
88.5887334087
 21
129.9837418225
  0
LINE
  5
34E
100
AcDbEntity
  8
0
100
AcDbLine
 62
7
  6
CONTINUOUS
 10
80.4636138934
 20
137.3949859739
 11
80.963576278
 21
137.1063390866
  0
LINE
  5
34F
100
AcDbEntity
  8
0
100
AcDbLine
 62
7
  6
CONTINUOUS
 10
92.4527941556
 20
130.4731861142
 11
92.8925290358
 21
130.2193108062
  0
LINE
  5
350
100
AcDbEntity
  8
0
100
AcDbLine
 62
7
  6
CONTINUOUS
 10
81.6439432418
 20
136.850120627
 11
82.2131667072
 21
136.5214867407
  0
LINE
  5
351
100
AcDbEntity
  8
0
100
AcDbLine
 62
7
  6
CONTINUOUS
 10
83.485964307
 20
135.7866535102
 11
84.0551875622
 21
135.4580197452
  0
LINE
  5
352
100
AcDbEntity
  8
0
100
AcDbLine
 62
7
  6
CONTINUOUS
 10
85.25020284
 20
134.7680927789
 11
85.8194263054
 21
134.4394588926
  0
LINE
  5
353
100
AcDbEntity
  8
0
100
AcDbLine
 62
7
  6
CONTINUOUS
 10
87.0922239053
 20
133.7046256621
 11
87.6614471604
 21
133.3759918972
  0
LINE
  5
354
100
AcDbEntity
  8
0
100
AcDbLine
 62
7
  6
CONTINUOUS
 10
88.8564624383
 20
132.6860649309
 11
89.4256859037
 21
132.3574310446
  0
LINE
  5
355
100
AcDbEntity
  8
0
100
AcDbLine
 62
7
  6
CONTINUOUS
 10
90.6984835035
 20
131.6225978141
 11
91.2677067587
 21
131.2939640491
  0
LINE
  5
356
100
AcDbEntity
  8
0
100
AcDbLine
 62
7
  6
CONTINUOUS
 10
97.5930476364
 20
128.0263236375
 11
99.6000143429
 21
126.8676270825
  0
LINE
  5
357
100
AcDbEntity
  8
0
100
AcDbLine
 62
7
  6
CONTINUOUS
 10
80.4631852089
 20
138.2183675012
 11
81.6760132598
 21
137.5181567405
  0
LINE
  5
358
100
AcDbEntity
  8
0
100
AcDbLine
 62
7
  6
CONTINUOUS
 10
92.452365471
 20
131.2965676416
 11
93.6049660176
 21
130.63112846
  0
LINE
  5
359
100
AcDbEntity
  8
0
100
AcDbLine
 62
7
  6
CONTINUOUS
 10
114.3515481224
 20
71.0646525388
 11
114.3515481224
 21
100.2137888303
  0
LINE
  5
35A
100
AcDbEntity
  8
0
100
AcDbLine
 62
7
  6
CONTINUOUS
 10
118.2406192271
 20
61.6676336494
 11
118.2406192271
 21
74.5674401973
  0
LINE
  5
35B
100
AcDbEntity
  8
0
100
AcDbLine
 62
7
  6
CONTINUOUS
 10
118.2406192271
 20
102.4591316766
 11
118.2406192271
 21
122.218521261
  0
LINE
  5
35C
100
AcDbEntity
  8
0
100
AcDbLine
 62
7
  6
CONTINUOUS
 10
100.7483363136
 20
132.0009750436
 11
101.0857480885
 21
131.8247774638
  0
LINE
  5
35D
100
AcDbEntity
  8
0
100
AcDbLine
 62
7
  6
CONTINUOUS
 10
75.2923862083
 20
146.6976422064
 11
75.6297979832
 21
146.5214446266
  0
LINE
  5
35E
100
AcDbEntity
  8
0
100
AcDbLine
 62
7
  6
CONTINUOUS
 10
103.4191907513
 20
133.1719831716
 11
103.0817789764
 21
133.3481807514
  0
LINE
  5
35F
100
AcDbEntity
  8
0
100
AcDbLine
 62
7
  6
CONTINUOUS
 10
98.0266526567
 20
133.1065887977
 11
98.3708683346
 21
132.9160116617
  0
LINE
  5
360
100
AcDbEntity
  8
0
100
AcDbLine
 62
7
  6
CONTINUOUS
 10
72.5707025514
 20
147.8032559604
 11
72.9149182293
 21
147.6126788245
  0
LINE
  5
361
100
AcDbEntity
  8
0
100
AcDbLine
 62
7
  6
CONTINUOUS
 10
100.704310997
 20
134.2632173697
 11
100.3600953195
 21
134.4537945055
  0
LINE
  5
362
100
AcDbEntity
  8
0
100
AcDbLine
 62
7
  6
CONTINUOUS
 10
64.4513436981
 20
149.5988944467
 11
76.4150259317
 21
142.6918155476
  0
LINE
  5
363
100
AcDbEntity
  8
0
100
AcDbLine
 62
7
  6
CONTINUOUS
 10
74.2584267065
 20
144.7942280612
 11
75.0716028905
 21
144.3247511935
  0
LINE
  5
364
100
AcDbEntity
  8
0
100
AcDbLine
 62
7
  6
CONTINUOUS
 10
77.3343540109
 20
143.0183807791
 11
78.1475301948
 21
142.5489039114
  0
LINE
  5
365
100
AcDbEntity
  8
0
100
AcDbLine
 62
7
  6
CONTINUOUS
 10
99.7143768118
 20
130.0975608985
 11
100.5275529958
 21
129.6280840308
  0
LINE
  5
366
100
AcDbEntity
  8
0
100
AcDbLine
 62
7
  6
CONTINUOUS
 10
102.7903041162
 20
128.3217136164
 11
103.6034803001
 21
127.8522367487
  0
LINE
  5
367
100
AcDbEntity
  8
0
100
AcDbLine
 62
7
  6
CONTINUOUS
 10
73.0891306497
 20
148.2386671516
 11
66.9454646537
 21
151.7856341251
  0
LINE
  5
368
100
AcDbEntity
  8
0
100
AcDbLine
 62
7
  6
CONTINUOUS
 10
98.577900372
 20
133.5609482904
 11
82.6023020331
 21
142.7842556328
  0
LINE
  5
369
100
AcDbEntity
  8
0
100
AcDbLine
 62
7
  6
CONTINUOUS
 10
117.5335423142
 20
122.6267639791
 11
108.0582521384
 21
128.0972015549
  0
LINE
  5
36A
100
AcDbEntity
  8
0
100
AcDbLine
 62
7
  6
CONTINUOUS
 10
73.3820127259
 20
148.4077616877
 11
67.4454403984
 21
151.8351657808
  0
LINE
  5
36B
100
AcDbEntity
  8
0
100
AcDbLine
 62
7
  6
CONTINUOUS
 10
98.8712075349
 20
133.7302882491
 11
82.6023020331
 21
143.1229327299
  0
LINE
  5
36C
100
AcDbEntity
  8
0
100
AcDbLine
 62
7
  6
CONTINUOUS
 10
118.0335180589
 20
122.6762956348
 11
108.0582521384
 21
128.4353878112
  0
LINE
  5
36D
100
AcDbEntity
  8
0
100
AcDbLine
 62
7
  6
CONTINUOUS
 10
76.7761589182
 20
145.8596078049
 11
77.1135706932
 21
145.6462046405
  0
LINE
  5
36E
100
AcDbEntity
  8
0
100
AcDbLine
 62
7
  6
CONTINUOUS
 10
102.2321090235
 20
131.1629406422
 11
102.5695207984
 21
130.9495374777
  0
LINE
  5
36F
100
AcDbEntity
  8
0
100
AcDbLine
 62
7
  6
CONTINUOUS
 10
79.447013356
 20
146.9934103482
 11
79.109601581
 21
147.2068135127
  0
LINE
  5
370
100
AcDbEntity
  8
0
100
AcDbLine
 62
7
  6
CONTINUOUS
 10
118.2406192271
 20
61.6676336494
 11
117.1415695528
 21
53.8357473472
  0
LINE
  5
371
100
AcDbEntity
  8
0
100
AcDbLine
 62
7
  6
CONTINUOUS
 10
115.200072727
 20
71.5545455234
 11
116.2370190676
 21
74.2271393381
  0
LINE
  5
372
100
AcDbEntity
  8
0
100
AcDbLine
 62
7
  6
CONTINUOUS
 10
77.963240646
 20
147.8686503343
 11
77.6258288711
 21
148.0448479141
  0
LINE
  5
373
100
AcDbEntity
  8
0
100
AcDbLine
 62
7
  6
CONTINUOUS
 10
75.2483608917
 20
148.9598845325
 11
74.9041452142
 21
149.1504616682
  0
LINE
  5
374
100
AcDbEntity
  8
0
100
AcDbLine
 62
7
  6
CONTINUOUS
 10
105.3358708647
 20
133.0982063492
 11
104.7701830846
 21
133.4247989528
  0
LINE
  5
375
100
AcDbEntity
  8
0
100
AcDbLine
 62
7
  6
CONTINUOUS
 10
79.8799207594
 20
147.7948735119
 11
79.3142329793
 21
148.1214661155
  0
LINE
  5
376
100
AcDbEntity
  8
0
100
AcDbLine
 62
7
  6
CONTINUOUS
 10
105.6858649262
 20
133.1328758684
 11
105.1201771461
 21
133.459468472
  0
LINE
  5
377
100
AcDbEntity
  8
0
100
AcDbLine
 62
7
  6
CONTINUOUS
 10
80.2299148209
 20
147.8295430311
 11
79.6642270408
 21
148.1561356347
  0
LINE
  5
378
100
AcDbEntity
  8
0
100
AcDbLine
 62
7
  6
CONTINUOUS
 10
104.9029634612
 20
132.2967431855
 11
104.5655516863
 21
132.51014635
  0
LINE
  5
379
100
AcDbEntity
  8
0
100
AcDbLine
 62
7
  6
CONTINUOUS
 10
84.9360587827
 20
34.5673054614
 11
116.4452345514
 21
52.7590279334
  0
ARC
  5
37A
100
AcDbEntity
  8
0
100
AcDbCircle
 62
7
  6
CONTINUOUS
 10
261.2877279975
 20
75.8800361298
 40
236.0863827376
100
AcDbArc
 50
174.7234703395
 51
175.5130311645
  0
ARC
  5
37B
100
AcDbEntity
  8
0
100
AcDbCircle
 62
7
  6
CONTINUOUS
 10
299.2344727783
 20
54.0186259144
 40
236.084629209
100
AcDbArc
 50
174.7234691658
 51
175.5136344885
  0
ARC
  5
37C
100
AcDbEntity
  8
0
100
AcDbCircle
 62
7
  6
CONTINUOUS
 10
286.3992879109
 20
61.4203801049
 40
235.8961392651
100
AcDbArc
 50
174.7503119792
 51
175.5408789281
  0
ARC
  5
37D
100
AcDbEntity
  8
0
100
AcDbCircle
 62
7
  6
CONTINUOUS
 10
273.7710989338
 20
68.7092869172
 40
235.8924039294
100
AcDbArc
 50
174.7503094728
 51
175.5421648364
  0
ARC
  5
37E
100
AcDbEntity
  8
0
100
AcDbCircle
 62
7
  6
CONTINUOUS
 10
252.6996133345
 20
80.2631044242
 40
234.9135602556
100
AcDbArc
 50
174.7527760479
 51
175.5550157504
  0
ARC
  5
37F
100
AcDbEntity
  8
0
100
AcDbCircle
 62
7
  6
CONTINUOUS
 10
290.6331106893
 20
58.4027928075
 40
234.898513992
100
AcDbArc
 50
174.7548090365
 51
175.5572716185
  0
ARC
  5
380
100
AcDbEntity
  8
0
100
AcDbCircle
 62
7
  6
CONTINUOUS
 10
277.7977259814
 20
65.8040017869
 40
234.7098710698
100
AcDbArc
 50
174.7816811149
 51
175.5845787996
  0
ARC
  5
381
100
AcDbEntity
  8
0
100
AcDbCircle
 62
7
  6
CONTINUOUS
 10
265.1691211669
 20
73.0929209488
 40
234.7057203916
100
AcDbArc
 50
174.7822634521
 51
175.5851863809
  0
ARC
  5
382
100
AcDbEntity
  8
0
100
AcDbCircle
 62
7
  6
CONTINUOUS
 10
66.0015193425
 20
121.1344852003
 40
28.9616514294
100
AcDbArc
 50
58.943134434
 51
60.6952999187
  0
ARC
  5
383
100
AcDbEntity
  8
0
100
AcDbCircle
 62
7
  6
CONTINUOUS
 10
91.4574694479
 20
106.4378180377
 40
28.9616514293
100
AcDbArc
 50
58.943134434
 51
60.6952999187
  0
ARC
  5
384
100
AcDbEntity
  8
0
100
AcDbCircle
 62
7
  6
CONTINUOUS
 10
63.7966050904
 20
120.0082838819
 40
28.7060206882
100
AcDbArc
 50
58.9353321903
 51
60.7031021625
  0
ARC
  5
385
100
AcDbEntity
  8
0
100
AcDbCircle
 62
7
  6
CONTINUOUS
 10
89.2525551958
 20
105.3116167193
 40
28.7060206881
100
AcDbArc
 50
58.9353321903
 51
60.7031021625
  0
ARC
  5
386
100
AcDbEntity
  8
0
100
AcDbCircle
 62
7
  6
CONTINUOUS
 10
72.7017375489
 20
109.8521020538
 40
1.1403684014
100
AcDbArc
 50
172.7249219895
 51
173.7864375655
  0
ARC
  5
387
100
AcDbEntity
  8
0
100
AcDbCircle
 62
7
  6
CONTINUOUS
 10
55.3504050856
 20
82.6872272166
 40
1.1221243196
100
AcDbArc
 50
173.189582783
 51
174.4331248958
  0
ARC
  5
388
100
AcDbEntity
  8
0
100
AcDbCircle
 62
7
  6
CONTINUOUS
 10
74.5210317801
 20
144.386110595
 40
0.9697148094
100
AcDbArc
 50
180.0085198673
 51
182.4734684153
  0
ARC
  5
389
100
AcDbEntity
  8
0
100
AcDbCircle
 62
7
  6
CONTINUOUS
 10
69.6201913802
 20
93.0240869814
 40
0.7476520737
100
AcDbArc
 50
169.3116762115
 51
170.6527589644
  0
ARC
  5
38A
100
AcDbEntity
  8
0
100
AcDbCircle
 62
7
  6
CONTINUOUS
 10
44.3305451997
 20
107.6017218438
 40
0.7472881943
100
AcDbArc
 50
169.3362535535
 51
170.6282985485
  0
ARC
  5
38B
100
AcDbEntity
  8
0
100
AcDbCircle
 62
7
  6
CONTINUOUS
 10
44.2795970096
 20
107.8824087523
 40
0.5423476601
100
AcDbArc
 50
118.6046098648
 51
120.003673836
  0
ARC
  5
38C
100
AcDbEntity
  8
0
100
AcDbCircle
 62
7
  6
CONTINUOUS
 10
69.5639787473
 20
93.3134579782
 40
0.5324238393
100
AcDbArc
 50
117.4131019578
 51
120.0431095031
  0
ARC
  5
38D
100
AcDbEntity
  8
0
100
AcDbCircle
 62
7
  6
CONTINUOUS
 10
54.036274225
 20
47.2584329757
 40
0.340312251
100
AcDbArc
 50
240.0725530063
 51
251.5372489884
  0
ARC
  5
38E
100
AcDbEntity
  8
0
100
AcDbCircle
 62
7
  6
CONTINUOUS
 10
28.7270591247
 20
61.8329940441
 40
0.3379382611
100
AcDbArc
 50
229.3311961795
 51
239.9888925674
  0
ARC
  5
38F
100
AcDbEntity
  8
0
100
AcDbCircle
 62
7
  6
CONTINUOUS
 10
28.7563076244
 20
61.8506832265
 40
0.3378740469
100
AcDbArc
 50
229.394570177
 51
239.9898477791
  0
ARC
  5
390
100
AcDbEntity
  8
0
100
AcDbCircle
 62
7
  6
CONTINUOUS
 10
71.9643287316
 20
42.1059488351
 40
0.3357905594
100
AcDbArc
 50
231.1989690233
 51
240.0120697909
  0
ARC
  5
391
100
AcDbEntity
  8
0
100
AcDbCircle
 62
7
  6
CONTINUOUS
 10
69.5162480971
 20
93.6423688959
 40
0.2021805929
100
AcDbArc
 50
64.8921102059
 51
68.7351259237
  0
ARC
  5
392
100
AcDbEntity
  8
0
100
AcDbCircle
 62
7
  6
CONTINUOUS
 10
44.2179453264
 20
108.2247989127
 40
0.2009571608
100
AcDbArc
 50
62.7337635693
 51
68.0992633255
  0
ARC
  5
393
100
AcDbEntity
  8
0
100
AcDbCircle
 62
7
  6
CONTINUOUS
 10
69.5177446642
 20
93.6455826914
 40
0.1986354384
100
AcDbArc
 50
59.9317044454
 51
64.8896486106
  0
ARC
  5
394
100
AcDbEntity
  8
0
100
AcDbCircle
 62
7
  6
CONTINUOUS
 10
44.2192832191
 20
108.2274787092
 40
0.1979622041
100
AcDbArc
 50
59.9281881314
 51
62.722635621
  0
SPLINE
  5
395
100
AcDbEntity
  8
0
100
AcDbSpline
 62
7
  6
CONTINUOUS
 70
0
 71
3
 72
11
 73
7
 74
0
 42
0.0000001
 43
0.0000001
 44
0.0000000001
 40
0.0
 40
0.0
 40
0.0
 40
0.0
 40
0.2497223774
 40
0.5000310024
 40
0.7503210913
 40
1.0
 40
1.0
 40
1.0
 40
1.0
 10
80.2299148209
 20
147.8295430311
 30
0.0
 10
80.293175461
 20
147.7930203098
 30
0.0
 10
80.4102098272
 20
147.7018522315
 30
0.0
 10
80.5441277805
 20
147.5251305926
 30
0.0
 10
80.6301992626
 20
147.320801493
 30
0.0
 10
80.6506317319
 20
147.1738814697
 30
0.0
 10
80.6506317319
 20
147.1008475028
 30
0.0
  0
SPLINE
  5
396
100
AcDbEntity
  8
0
100
AcDbSpline
 62
7
  6
CONTINUOUS
 70
0
 71
3
 72
11
 73
7
 74
0
 42
0.0000001
 43
0.0000001
 44
0.0000000001
 40
0.0
 40
0.0
 40
0.0
 40
0.0
 40
0.2501193974
 40
0.5001768638
 40
0.7501357843
 40
1.0
 40
1.0
 40
1.0
 40
1.0
 10
78.91423477
 20
148.1610855387
 30
0.0
 10
78.9707990511
 20
148.1937427467
 30
0.0
 10
79.0933238543
 20
148.244084798
 30
0.0
 10
79.2899805701
 20
148.2681844423
 30
0.0
 10
79.4860002556
 20
148.2402410753
 30
0.0
 10
79.6077202336
 20
148.188759117
 30
0.0
 10
79.6642270408
 20
148.1561356347
 30
0.0
  0
SPLINE
  5
397
100
AcDbEntity
  8
0
100
AcDbSpline
 62
7
  6
CONTINUOUS
 70
0
 71
3
 72
11
 73
7
 74
0
 42
0.0000001
 43
0.0000001
 44
0.0000000001
 40
0.0
 40
0.0
 40
0.0
 40
0.0
 40
0.2761467541
 40
0.5323922289
 40
0.7720358039
 40
1.0
 40
1.0
 40
1.0
 40
1.0
 10
80.5253329469
 20
146.1923387601
 30
0.0
 10
80.5420826935
 20
146.2062438367
 30
0.0
 10
80.572676429
 20
146.2352291648
 30
0.0
 10
80.6098705526
 20
146.2837717116
 30
0.0
 10
80.6358670727
 20
146.3349613901
 30
0.0
 10
80.6454642909
 20
146.3709102914
 30
0.0
 10
80.6480936214
 20
146.3886879101
 30
0.0
  0
SPLINE
  5
398
100
AcDbEntity
  8
0
100
AcDbSpline
 62
7
  6
CONTINUOUS
 70
0
 71
3
 72
15
 73
11
 74
0
 42
0.0000001
 43
0.0000001
 44
0.0000000001
 40
0.0
 40
0.0
 40
0.0
 40
0.0
 40
0.1118613556
 40
0.2315720031
 40
0.3574030891
 40
0.4872869538
 40
0.6188848534
 40
0.7497590358
 40
0.8775474462
 40
1.0
 40
1.0
 40
1.0
 40
1.0
 10
82.6023020331
 20
144.0708824801
 30
0.0
 10
82.6023020331
 20
144.1086534618
 30
0.0
 10
82.5964653121
 20
144.1869066405
 30
0.0
 10
82.5727628499
 20
144.3054866514
 30
0.0
 10
82.5344274312
 20
144.4265656706
 30
0.0
 10
82.4825251138
 20
144.5468328041
 30
0.0
 10
82.4184534667
 20
144.6630222256
 30
0.0
 10
82.343966914
 20
144.771979856
 30
0.0
 10
82.2611005873
 20
144.8707039581
 30
0.0
 10
82.2001293876
 20
144.929503071
 30
0.0
 10
82.1686970127
 20
144.9563656149
 30
0.0
  0
SPLINE
  5
399
100
AcDbEntity
  8
0
100
AcDbSpline
 62
7
  6
CONTINUOUS
 70
0
 71
3
 72
9
 73
5
 74
0
 42
0.0000001
 43
0.0000001
 44
0.0000000001
 40
0.0
 40
0.0
 40
0.0
 40
0.0
 40
0.5262145257
 40
1.0
 40
1.0
 40
1.0
 40
1.0
 10
82.1686970127
 20
144.9563656149
 30
0.0
 10
82.1149208831
 20
145.0023234417
 30
0.0
 10
82.0062723895
 20
145.0825183667
 30
0.0
 10
81.8846024016
 20
145.1422220404
 30
0.0
 10
81.8244813354
 20
145.1632455155
 30
0.0
  0
SPLINE
  5
39A
100
AcDbEntity
  8
0
100
AcDbSpline
 62
7
  6
CONTINUOUS
 70
0
 71
3
 72
11
 73
7
 74
0
 42
0.0000001
 43
0.0000001
 44
0.0000000001
 40
0.0
 40
0.0
 40
0.0
 40
0.0
 40
0.2320924501
 40
0.4775087191
 40
0.734289725
 40
1.0
 40
1.0
 40
1.0
 40
1.0
 10
81.8244813354
 20
145.1632455155
 30
0.0
 10
81.7451221666
 20
145.2090625165
 30
0.0
 10
81.5872306133
 20
145.3128616637
 30
0.0
 10
81.3616863261
 20
145.4956550777
 30
0.0
 10
81.1439702727
 20
145.7071893152
 30
0.0
 10
81.0082933078
 20
145.8629328379
 30
0.0
 10
80.9425037689
 20
145.9446492039
 30
0.0
  0
SPLINE
  5
39B
100
AcDbEntity
  8
0
100
AcDbSpline
 62
7
  6
CONTINUOUS
 70
0
 71
3
 72
10
 73
6
 74
0
 42
0.0000001
 43
0.0000001
 44
0.0000000001
 40
0.0
 40
0.0
 40
0.0
 40
0.0
 40
0.2344284559
 40
0.4801757481
 40
1.0
 40
1.0
 40
1.0
 40
1.0
 10
80.176915122
 20
146.3898887412
 30
0.0
 10
80.1126059058
 20
146.4270168678
 30
0.0
 10
79.9844055889
 20
146.5093162922
 30
0.0
 10
79.7327501496
 20
146.702076538
 30
0.0
 10
79.5577304925
 20
146.8715316446
 30
0.0
 10
79.447013356
 20
146.9934103482
 30
0.0
  0
SPLINE
  5
39C
100
AcDbEntity
  8
0
100
AcDbSpline
 62
7
  6
CONTINUOUS
 70
0
 71
3
 72
9
 73
5
 74
0
 42
0.0000001
 43
0.0000001
 44
0.0000000001
 40
0.0
 40
0.0
 40
0.0
 40
0.0
 40
0.476816391
 40
1.0
 40
1.0
 40
1.0
 40
1.0
 10
79.109601581
 20
147.2068135127
 30
0.0
 10
79.0132032111
 20
147.2243151951
 30
0.0
 10
78.8147582954
 20
147.2828249278
 30
0.0
 10
78.6295207552
 20
147.3737039374
 30
0.0
 10
78.5364211135
 20
147.4274538246
 30
0.0
  0
SPLINE
  5
39D
100
AcDbEntity
  8
0
100
AcDbSpline
 62
7
  6
CONTINUOUS
 70
0
 71
3
 72
9
 73
5
 74
0
 42
0.0000001
 43
0.0000001
 44
0.0000000001
 40
0.0
 40
0.0
 40
0.0
 40
0.0
 40
0.4832258417
 40
1.0
 40
1.0
 40
1.0
 40
1.0
 10
78.5364211135
 20
147.4274538246
 30
0.0
 10
78.4353291209
 20
147.4858179934
 30
0.0
 10
78.2348954121
 20
147.6221094133
 30
0.0
 10
78.0527061901
 20
147.7815897472
 30
0.0
 10
77.963240646
 20
147.8686503343
 30
0.0
  0
SPLINE
  5
39E
100
AcDbEntity
  8
0
100
AcDbSpline
 62
7
  6
CONTINUOUS
 70
0
 71
3
 72
10
 73
6
 74
0
 42
0.0000001
 43
0.0000001
 44
0.0000000001
 40
0.0
 40
0.0
 40
0.0
 40
0.0
 40
0.469434149
 40
0.7270437258
 40
1.0
 40
1.0
 40
1.0
 40
1.0
 10
77.6258288711
 20
148.0448479141
 30
0.0
 10
77.5049080975
 20
148.0513610526
 30
0.0
 10
77.318666064
 20
148.0907858715
 30
0.0
 10
77.0786609114
 20
148.1857193104
 30
0.0
 10
76.9569073853
 20
148.2489190832
 30
0.0
 10
76.8959281904
 20
148.284124576
 30
0.0
  0
SPLINE
  5
39F
100
AcDbEntity
  8
0
100
AcDbSpline
 62
7
  6
CONTINUOUS
 70
0
 71
3
 72
9
 73
5
 74
0
 42
0.0000001
 43
0.0000001
 44
0.0000000001
 40
0.0
 40
0.0
 40
0.0
 40
0.0
 40
0.5155770529
 40
1.0
 40
1.0
 40
1.0
 40
1.0
 10
76.8959281904
 20
148.284124576
 30
0.0
 10
76.7725267777
 20
148.3726523851
 30
0.0
 10
76.5250122832
 20
148.5333534718
 30
0.0
 10
76.2614902013
 20
148.6666678858
 30
0.0
 10
76.1303384581
 20
148.7228912893
 30
0.0
  0
SPLINE
  5
3A0
100
AcDbEntity
  8
0
100
AcDbSpline
 62
7
  6
CONTINUOUS
 70
0
 71
3
 72
11
 73
7
 74
0
 42
0.0000001
 43
0.0000001
 44
0.0000000001
 40
0.0
 40
0.0
 40
0.0
 40
0.0
 40
0.2234551327
 40
0.463368141
 40
0.7219942073
 40
1.0
 40
1.0
 40
1.0
 40
1.0
 10
76.1303384581
 20
148.7228912893
 30
0.0
 10
76.0615950619
 20
148.7168822148
 30
0.0
 10
75.9175152332
 20
148.7191259552
 30
0.0
 10
75.6976980521
 20
148.7615146196
 30
0.0
 10
75.4709201969
 20
148.8417970041
 30
0.0
 10
75.3227108123
 20
148.9169595569
 30
0.0
 10
75.2483608917
 20
148.9598845325
 30
0.0
  0
SPLINE
  5
3A1
100
AcDbEntity
  8
0
100
AcDbSpline
 62
7
  6
CONTINUOUS
 70
0
 71
3
 72
11
 73
7
 74
0
 42
0.0000001
 43
0.0000001
 44
0.0000000001
 40
0.0
 40
0.0
 40
0.0
 40
0.0
 40
0.2747618894
 40
0.5295707108
 40
0.7689498616
 40
1.0
 40
1.0
 40
1.0
 40
1.0
 10
74.9041452142
 20
149.1504616682
 30
0.0
 10
74.8799502351
 20
149.1577216266
 30
0.0
 10
74.8321634694
 20
149.1683048682
 30
0.0
 10
74.7610838637
 20
149.1710257324
 30
0.0
 10
74.6948565853
 20
149.1596423372
 30
0.0
 10
74.6546281519
 20
149.1424969733
 30
0.0
 10
74.6362307657
 20
149.1318781744
 30
0.0
  0
SPLINE
  5
3A2
100
AcDbEntity
  8
0
100
AcDbSpline
 62
7
  6
CONTINUOUS
 70
0
 71
3
 72
15
 73
11
 74
0
 42
0.0000001
 43
0.0000001
 44
0.0000000001
 40
0.0
 40
0.0
 40
0.0
 40
0.0
 40
0.1141555516
 40
0.2373276756
 40
0.3669773296
 40
0.5000011
 40
0.6330247168
 40
0.7626739247
 40
0.885845342
 40
1.0
 40
1.0
 40
1.0
 40
1.0
 10
78.85463992
 20
141.3241607397
 30
0.0
 10
78.85463992
 20
141.3800568147
 30
0.0
 10
78.8444017586
 20
141.4963724554
 30
0.0
 10
78.8035875339
 20
141.6718472297
 30
0.0
 10
78.7382055006
 20
141.8495891035
 30
0.0
 10
78.6506991156
 20
142.0229144134
 30
0.0
 10
78.5443475311
 20
142.1853591319
 30
0.0
 10
78.423109207
 20
142.3308514418
 30
0.0
 10
78.291550651
 20
142.4539334679
 30
0.0
 10
78.1959375105
 20
142.5209565669
 30
0.0
 10
78.1475301948
 20
142.5489039114
 30
0.0
  0
SPLINE
  5
3A3
100
AcDbEntity
  8
0
100
AcDbSpline
 62
7
  6
CONTINUOUS
 70
0
 71
3
 72
12
 73
8
 74
0
 42
0.0000001
 43
0.0000001
 44
0.0000000001
 40
0.0
 40
0.0
 40
0.0
 40
0.0
 40
0.2895802184
 40
0.5486333627
 40
0.7816359182
 40
0.8918377609
 40
1.0
 40
1.0
 40
1.0
 40
1.0
 10
74.2584267065
 20
144.7942280612
 30
0.0
 10
74.2145324794
 20
144.8195698318
 30
0.0
 10
74.1272335301
 20
144.8611035212
 30
0.0
 10
73.9931494733
 20
144.8935198883
 30
0.0
 10
73.8860791354
 20
144.8906818854
 30
0.0
 10
73.8096412917
 20
144.8695087694
 30
0.0
 10
73.7748248355
 20
144.8532164823
 30
0.0
 10
73.7584297986
 20
144.8437508618
 30
0.0
  0
SPLINE
  5
3A4
100
AcDbEntity
  8
0
100
AcDbSpline
 62
7
  6
CONTINUOUS
 70
0
 71
3
 72
23
 73
19
 74
0
 42
0.0000001
 43
0.0000001
 44
0.0000000001
 40
0.0
 40
0.0
 40
0.0
 40
0.0
 40
0.0623867207
 40
0.1287471202
 40
0.1983459083
 40
0.270334698
 40
0.3437222671
 40
0.4174664317
 40
0.4905031942
 40
0.5618013872
 40
0.6304101058
 40
0.6955084479
 40
0.7564655232
 40
0.8129114493
 40
0.8648203122
 40
0.9126032291
 40
0.9571853202
 40
1.0
 40
1.0
 40
1.0
 40
1.0
 10
77.3343540109
 20
143.0183807791
 30
0.0
 10
77.3343540109
 20
143.0847516336
 30
0.0
 10
77.3253544251
 20
143.2218114823
 30
0.0
 10
77.2883622404
 20
143.4299137231
 30
0.0
 10
77.2281890912
 20
143.6431540894
 30
0.0
 10
77.1461679354
 20
143.8569625997
 30
0.0
 10
77.0440123712
 20
144.0668174752
 30
0.0
 10
76.9239107595
 20
144.2682366839
 30
0.0
 10
76.7884249429
 20
144.4569267596
 30
0.0
 10
76.6404428784
 20
144.6288650737
 30
0.0
 10
76.4831049877
 20
144.7803974176
 30
0.0
 10
76.3197204073
 20
144.908309603
 30
0.0
 10
76.1536807896
 20
145.0098882347
 30
0.0
 10
75.9883612829
 20
145.0829493488
 30
0.0
 10
75.8270517028
 20
145.125808063
 30
0.0
 10
75.6729193009
 20
145.1371563558
 30
0.0
 10
75.5293813743
 20
145.1161255988
 30
0.0
 10
75.4424329899
 20
145.0799753969
 30
0.0
 10
75.4029842733
 20
145.0572047666
 30
0.0
  0
SPLINE
  5
3A5
100
AcDbEntity
  8
0
100
AcDbSpline
 62
7
  6
CONTINUOUS
 70
0
 71
3
 72
12
 73
8
 74
0
 42
0.0000001
 43
0.0000001
 44
0.0000000001
 40
0.0
 40
0.0
 40
0.0
 40
0.0
 40
0.2895856793
 40
0.5486339854
 40
0.78163705
 40
0.8918373471
 40
1.0
 40
1.0
 40
1.0
 40
1.0
 10
72.1370975311
 20
147.4184454493
 30
0.0
 10
72.1370975311
 20
147.4589948281
 30
0.0
 10
72.1432407309
 20
147.5360931039
 30
0.0
 10
72.1744169459
 20
147.6419588279
 30
0.0
 10
72.2192118222
 20
147.7150052055
 30
0.0
 10
72.2644554383
 20
147.7594965893
 30
0.0
 10
72.2896707831
 20
147.7771012726
 30
0.0
 10
72.3027881029
 20
147.7846724666
 30
0.0
  0
SPLINE
  5
3A6
100
AcDbEntity
  8
0
100
AcDbSpline
 62
7
  6
CONTINUOUS
 70
0
 71
3
 72
14
 73
10
 74
0
 42
0.0000001
 43
0.0000001
 44
0.0000000001
 40
0.0
 40
0.0
 40
0.0
 40
0.0
 40
0.1080451608
 40
0.218127025
 40
0.3321042291
 40
0.4514992254
 40
0.5774451356
 40
0.7107195457
 40
1.0
 40
1.0
 40
1.0
 40
1.0
 10
75.4029842733
 20
145.0572047666
 30
0.0
 10
75.3767505247
 20
145.0420620941
 30
0.0
 10
75.3263174793
 20
145.0068656346
 30
0.0
 10
75.2596708836
 20
144.9412845273
 30
0.0
 10
75.2023637196
 20
144.86343614
 30
0.0
 10
75.154902105
 20
144.774222598
 30
0.0
 10
75.1176703393
 20
144.6745197708
 30
0.0
 10
75.0810702602
 20
144.5248967569
 30
0.0
 10
75.0716028905
 20
144.4058508838
 30
0.0
 10
75.0716028905
 20
144.3247511935
 30
0.0
  0
SPLINE
  5
3A7
100
AcDbEntity
  8
0
100
AcDbSpline
 62
7
  6
CONTINUOUS
 70
0
 71
3
 72
12
 73
8
 74
0
 42
0.0000001
 43
0.0000001
 44
0.0000000001
 40
0.0
 40
0.0
 40
0.0
 40
0.0
 40
0.2895912563
 40
0.5486401214
 40
0.7816344028
 40
0.8918356837
 40
1.0
 40
1.0
 40
1.0
 40
1.0
 10
79.3142329793
 20
148.1214661155
 30
0.0
 10
79.2791161911
 20
148.141740344
 30
0.0
 10
79.2092760315
 20
148.1749679278
 30
0.0
 10
79.1020085934
 20
148.2009000539
 30
0.0
 10
79.0163540777
 20
148.1986299324
 30
0.0
 10
78.955204588
 20
148.181692111
 30
0.0
 10
78.9273507336
 20
148.1686587897
 30
0.0
 10
78.9142348863
 20
148.1610853373
 30
0.0
  0
SPLINE
  5
3A8
100
AcDbEntity
  8
0
100
AcDbSpline
 62
7
  6
CONTINUOUS
 70
0
 71
3
 72
12
 73
8
 74
0
 42
0.0000001
 43
0.0000001
 44
0.0000000001
 40
0.0
 40
0.0
 40
0.0
 40
0.0
 40
0.1081508643
 40
0.2183547805
 40
0.4513288564
 40
0.7104433135
 40
1.0
 40
1.0
 40
1.0
 40
1.0
 10
80.6506291089
 20
147.1008475027
 30
0.0
 10
80.6506297024
 20
147.0875971423
 30
0.0
 10
80.6483306906
 20
147.0607884305
 30
0.0
 10
80.6343900621
 20
147.0070511902
 30
0.0
 10
80.5986591048
 20
146.9411371048
 30
0.0
 10
80.5320617847
 20
146.8712092983
 30
0.0
 10
80.4763314655
 20
146.8328167583
 30
0.0
 10
80.4456085395
 20
146.8150789746
 30
0.0
  0
SPLINE
  5
3A9
100
AcDbEntity
  8
0
100
AcDbSpline
 62
7
  6
CONTINUOUS
 70
0
 71
3
 72
11
 73
7
 74
0
 42
0.0000001
 43
0.0000001
 44
0.0000000001
 40
0.0
 40
0.0
 40
0.0
 40
0.0
 40
0.2310501384
 40
0.4704292892
 40
0.7252381106
 40
1.0
 40
1.0
 40
1.0
 40
1.0
 10
72.3027881029
 20
147.7846724666
 30
0.0
 10
72.3211854891
 20
147.7952912656
 30
0.0
 10
72.3614139225
 20
147.8124366294
 30
0.0
 10
72.4276412009
 20
147.8238200246
 30
0.0
 10
72.4987208066
 20
147.8210991604
 30
0.0
 10
72.5465075724
 20
147.8105159188
 30
0.0
 10
72.5707025514
 20
147.8032559604
 30
0.0
  0
SPLINE
  5
3AA
100
AcDbEntity
  8
0
100
AcDbSpline
 62
7
  6
CONTINUOUS
 70
0
 71
3
 72
12
 73
8
 74
0
 42
0.0000001
 43
0.0000001
 44
0.0000000001
 40
0.0
 40
0.0
 40
0.0
 40
0.0
 40
0.108151798
 40
0.2183565172
 40
0.4513314193
 40
0.7104452966
 40
1.0
 40
1.0
 40
1.0
 40
1.0
 10
79.6642257294
 20
148.1561333633
 30
0.0
 10
79.6527507425
 20
148.1627589858
 30
0.0
 10
79.6283840021
 20
148.1741722181
 30
0.0
 10
79.574875676
 20
148.1889677984
 30
0.0
 10
79.4999270323
 20
148.1909811605
 30
0.0
 10
79.4060694274
 20
148.1682707684
 30
0.0
 10
79.3449556175
 20
148.1392037331
 30
0.0
 10
79.3142329793
 20
148.1214661155
 30
0.0
  0
SPLINE
  5
3AB
100
AcDbEntity
  8
0
100
AcDbSpline
 62
7
  6
CONTINUOUS
 70
0
 71
3
 72
15
 73
11
 74
0
 42
0.0000001
 43
0.0000001
 44
0.0000000001
 40
0.0
 40
0.0
 40
0.0
 40
0.0
 40
0.1224525538
 40
0.2502409642
 40
0.3811151466
 40
0.5127130462
 40
0.6425969109
 40
0.7684279969
 40
0.8881386444
 40
1.0
 40
1.0
 40
1.0
 40
1.0
 10
79.8352543499
 20
143.6091599071
 30
0.0
 10
79.8666867248
 20
143.5822973633
 30
0.0
 10
79.9276579245
 20
143.5234982504
 30
0.0
 10
80.0105242512
 20
143.4247741482
 30
0.0
 10
80.0850108039
 20
143.3158165178
 30
0.0
 10
80.149082451
 20
143.1996270963
 30
0.0
 10
80.2009847684
 20
143.0793599628
 30
0.0
 10
80.2393201871
 20
142.9582809436
 30
0.0
 10
80.2630226493
 20
142.8397009327
 30
0.0
 10
80.2688593703
 20
142.761447754
 30
0.0
 10
80.2688593703
 20
142.7236767723
 30
0.0
  0
SPLINE
  5
3AC
100
AcDbEntity
  8
0
100
AcDbSpline
 62
7
  6
CONTINUOUS
 70
0
 71
3
 72
12
 73
8
 74
0
 42
0.0000001
 43
0.0000001
 44
0.0000000001
 40
0.0
 40
0.0
 40
0.0
 40
0.0
 40
0.1081617394
 40
0.2183631591
 40
0.4513653165
 40
0.7104188067
 40
1.0
 40
1.0
 40
1.0
 40
1.0
 10
73.7584297986
 20
144.8437508618
 30
0.0
 10
73.7420343986
 20
144.8342850317
 30
0.0
 10
73.7105158489
 20
144.8122788366
 30
0.0
 10
73.6539591303
 20
144.7566669273
 30
0.0
 10
73.5979651677
 20
144.6653575879
 30
0.0
 10
73.558996533
 20
144.5330251703
 30
0.0
 10
73.5513169814
 20
144.4366523268
 30
0.0
 10
73.5513169814
 20
144.3859663986
 30
0.0
  0
SPLINE
  5
3AD
100
AcDbEntity
  8
0
100
AcDbSpline
 62
7
  6
CONTINUOUS
 70
0
 71
3
 72
15
 73
11
 74
0
 42
0.0000001
 43
0.0000001
 44
0.0000000001
 40
0.0
 40
0.0
 40
0.0
 40
0.0
 40
0.1141527168
 40
0.2373150593
 40
0.3669511855
 40
0.4999671722
 40
0.6329917929
 40
0.7626498762
 40
0.8858369861
 40
1.0
 40
1.0
 40
1.0
 40
1.0
 10
80.4456085395
 20
146.8150789746
 30
0.0
 10
80.4456085395
 20
146.859794737
 30
0.0
 10
80.4374189861
 20
146.9528423592
 30
0.0
 10
80.4047710828
 20
147.0932124387
 30
0.0
 10
80.352472713
 20
147.2353955578
 30
0.0
 10
80.2824747179
 20
147.3740505364
 30
0.0
 10
80.1973961729
 20
147.5040090694
 30
0.0
 10
80.1004027722
 20
147.6204138489
 30
0.0
 10
79.9951471831
 20
147.7188892447
 30
0.0
 10
79.9186494578
 20
147.7725139933
 30
0.0
 10
79.8799207594
 20
147.7948735119
 30
0.0
  0
SPLINE
  5
3AE
100
AcDbEntity
  8
0
100
AcDbSpline
 62
7
  6
CONTINUOUS
 70
0
 71
3
 72
12
 73
8
 74
0
 42
0.0000001
 43
0.0000001
 44
0.0000000001
 40
0.0
 40
0.0
 40
0.0
 40
0.0
 40
0.2895706353
 40
0.5486531839
 40
0.7816290543
 40
0.8918354874
 40
1.0
 40
1.0
 40
1.0
 40
1.0
 10
79.8799207594
 20
147.7948735119
 30
0.0
 10
79.9106451635
 20
147.812612149
 30
0.0
 10
79.9717569483
 20
147.8416805084
 30
0.0
 10
80.0656131565
 20
147.8643863734
 30
0.0
 10
80.1405589851
 20
147.8623802205
 30
0.0
 10
80.1940685462
 20
147.8475803782
 30
0.0
 10
80.2184365518
 20
147.8361661492
 30
0.0
 10
80.2299135093
 20
147.8295407592
 30
0.0
  0
SPLINE
  5
3AF
100
AcDbEntity
  8
0
100
AcDbSpline
 62
7
  6
CONTINUOUS
 70
0
 71
3
 72
9
 73
5
 74
0
 42
0.0000001
 43
0.0000001
 44
0.0000000001
 40
0.0
 40
0.0
 40
0.0
 40
0.0
 40
0.4737854743
 40
1.0
 40
1.0
 40
1.0
 40
1.0
 10
79.4910386726
 20
143.8160398077
 30
0.0
 10
79.5511597388
 20
143.7950163327
 30
0.0
 10
79.6728297267
 20
143.735312659
 30
0.0
 10
79.7814782203
 20
143.655117734
 30
0.0
 10
79.8352543499
 20
143.6091599071
 30
0.0
  0
SPLINE
  5
3B0
100
AcDbEntity
  8
0
100
AcDbSpline
 62
7
  6
CONTINUOUS
 70
0
 71
3
 72
11
 73
7
 74
0
 42
0.0000001
 43
0.0000001
 44
0.0000000001
 40
0.0
 40
0.0
 40
0.0
 40
0.0
 40
0.265710275
 40
0.5224912809
 40
0.7679075499
 40
1.0
 40
1.0
 40
1.0
 40
1.0
 10
78.6090611061
 20
144.5974434962
 30
0.0
 10
78.674850645
 20
144.5157271301
 30
0.0
 10
78.8105276099
 20
144.3599836074
 30
0.0
 10
79.0282436633
 20
144.1484493699
 30
0.0
 10
79.2537879505
 20
143.965655956
 30
0.0
 10
79.4116795038
 20
143.8618568087
 30
0.0
 10
79.4910386726
 20
143.8160398077
 30
0.0
  0
SPLINE
  5
3B1
100
AcDbEntity
  8
0
100
AcDbSpline
 62
7
  6
CONTINUOUS
 70
0
 71
3
 72
11
 73
7
 74
0
 42
0.0000001
 43
0.0000001
 44
0.0000000001
 40
0.0
 40
0.0
 40
0.0
 40
0.0
 40
0.2780057927
 40
0.536631859
 40
0.7765448673
 40
1.0
 40
1.0
 40
1.0
 40
1.0
 10
72.9149182293
 20
147.6126788245
 30
0.0
 10
72.9892681499
 20
147.5697538489
 30
0.0
 10
73.1374775344
 20
147.4945912962
 30
0.0
 10
73.3642553895
 20
147.4143089117
 30
0.0
 10
73.5840725705
 20
147.3719202474
 30
0.0
 10
73.7281523991
 20
147.369676507
 30
0.0
 10
73.7968957953
 20
147.3756855815
 30
0.0
  0
SPLINE
  5
3B2
100
AcDbEntity
  8
0
100
AcDbSpline
 62
7
  6
CONTINUOUS
 70
0
 71
3
 72
9
 73
5
 74
0
 42
0.0000001
 43
0.0000001
 44
0.0000000001
 40
0.0
 40
0.0
 40
0.0
 40
0.0
 40
0.4844229471
 40
1.0
 40
1.0
 40
1.0
 40
1.0
 10
73.7968957953
 20
147.3756855815
 30
0.0
 10
73.9280475384
 20
147.319462178
 30
0.0
 10
74.1915696204
 20
147.186147764
 30
0.0
 10
74.4390841149
 20
147.0254466774
 30
0.0
 10
74.5624855276
 20
146.9369188682
 30
0.0
  0
SPLINE
  5
3B3
100
AcDbEntity
  8
0
100
AcDbSpline
 62
7
  6
CONTINUOUS
 70
0
 71
3
 72
10
 73
6
 74
0
 42
0.0000001
 43
0.0000001
 44
0.0000000001
 40
0.0
 40
0.0
 40
0.0
 40
0.0
 40
0.2729562742
 40
0.530565851
 40
1.0
 40
1.0
 40
1.0
 40
1.0
 10
74.5624855276
 20
146.9369188682
 30
0.0
 10
74.6234647225
 20
146.9017133754
 30
0.0
 10
74.7452182486
 20
146.8385136026
 30
0.0
 10
74.9852234012
 20
146.7435801637
 30
0.0
 10
75.1714654347
 20
146.7041553448
 30
0.0
 10
75.2923862083
 20
146.6976422064
 30
0.0
  0
SPLINE
  5
3B4
100
AcDbEntity
  8
0
100
AcDbSpline
 62
7
  6
CONTINUOUS
 70
0
 71
3
 72
9
 73
5
 74
0
 42
0.0000001
 43
0.0000001
 44
0.0000000001
 40
0.0
 40
0.0
 40
0.0
 40
0.0
 40
0.5167741583
 40
1.0
 40
1.0
 40
1.0
 40
1.0
 10
75.6297979832
 20
146.5214446266
 30
0.0
 10
75.7192635273
 20
146.4343840394
 30
0.0
 10
75.9014527493
 20
146.2749037055
 30
0.0
 10
76.1018864581
 20
146.1386122856
 30
0.0
 10
76.2029784507
 20
146.0802481168
 30
0.0
  0
SPLINE
  5
3B5
100
AcDbEntity
  8
0
100
AcDbSpline
 62
7
  6
CONTINUOUS
 70
0
 71
3
 72
9
 73
5
 74
0
 42
0.0000001
 43
0.0000001
 44
0.0000000001
 40
0.0
 40
0.0
 40
0.0
 40
0.0
 40
0.523183609
 40
1.0
 40
1.0
 40
1.0
 40
1.0
 10
76.2029784507
 20
146.0802481168
 30
0.0
 10
76.2960780924
 20
146.0264982296
 30
0.0
 10
76.4813156326
 20
145.93561922
 30
0.0
 10
76.6797605483
 20
145.8771094873
 30
0.0
 10
76.7761589182
 20
145.8596078049
 30
0.0
  0
SPLINE
  5
3B6
100
AcDbEntity
  8
0
100
AcDbSpline
 62
7
  6
CONTINUOUS
 70
0
 71
3
 72
10
 73
6
 74
0
 42
0.0000001
 43
0.0000001
 44
0.0000000001
 40
0.0
 40
0.0
 40
0.0
 40
0.0
 40
0.5198242519
 40
0.7655715441
 40
1.0
 40
1.0
 40
1.0
 40
1.0
 10
77.1135706932
 20
145.6462046405
 30
0.0
 10
77.2242878297
 20
145.5243259368
 30
0.0
 10
77.3993074868
 20
145.3548708303
 30
0.0
 10
77.6509629261
 20
145.1621105845
 30
0.0
 10
77.779163243
 20
145.07981116
 30
0.0
 10
77.8434724592
 20
145.0426830334
 30
0.0
  0
SPLINE
  5
3B7
100
AcDbEntity
  8
0
100
AcDbSpline
 62
7
  6
CONTINUOUS
 70
0
 71
3
 72
11
 73
7
 74
0
 42
0.0000001
 43
0.0000001
 44
0.0000000001
 40
0.0
 40
0.0
 40
0.0
 40
0.0
 40
0.2497223774
 40
0.5000310024
 40
0.7503210913
 40
1.0
 40
1.0
 40
1.0
 40
1.0
 10
105.6858649262
 20
133.1328758684
 30
0.0
 10
105.7491255663
 20
133.096353147
 30
0.0
 10
105.8661599325
 20
133.0051850688
 30
0.0
 10
106.0000778858
 20
132.8284634299
 30
0.0
 10
106.0861493679
 20
132.6241343302
 30
0.0
 10
106.1065818372
 20
132.477214307
 30
0.0
 10
106.1065818372
 20
132.40418034
 30
0.0
  0
SPLINE
  5
3B8
100
AcDbEntity
  8
0
100
AcDbSpline
 62
7
  6
CONTINUOUS
 70
0
 71
3
 72
11
 73
7
 74
0
 42
0.0000001
 43
0.0000001
 44
0.0000000001
 40
0.0
 40
0.0
 40
0.0
 40
0.0
 40
0.2501193974
 40
0.5001768638
 40
0.7501357843
 40
1.0
 40
1.0
 40
1.0
 40
1.0
 10
104.3701848753
 20
133.464418376
 30
0.0
 10
104.4267491564
 20
133.497075584
 30
0.0
 10
104.5492739596
 20
133.5474176353
 30
0.0
 10
104.7459306753
 20
133.5715172795
 30
0.0
 10
104.9419503609
 20
133.5435739126
 30
0.0
 10
105.0636703389
 20
133.4920919543
 30
0.0
 10
105.1201771461
 20
133.459468472
 30
0.0
  0
SPLINE
  5
3B9
100
AcDbEntity
  8
0
100
AcDbSpline
 62
7
  6
CONTINUOUS
 70
0
 71
3
 72
11
 73
7
 74
0
 42
0.0000001
 43
0.0000001
 44
0.0000000001
 40
0.0
 40
0.0
 40
0.0
 40
0.0
 40
0.2761467541
 40
0.5323922289
 40
0.7720358039
 40
1.0
 40
1.0
 40
1.0
 40
1.0
 10
105.9812830522
 20
131.4956715974
 30
0.0
 10
105.9980327988
 20
131.509576674
 30
0.0
 10
106.0286265342
 20
131.5385620021
 30
0.0
 10
106.0658206579
 20
131.5871045489
 30
0.0
 10
106.091817178
 20
131.6382942273
 30
0.0
 10
106.1014143962
 20
131.6742431287
 30
0.0
 10
106.1040437267
 20
131.6920207473
 30
0.0
  0
SPLINE
  5
3BA
100
AcDbEntity
  8
0
100
AcDbSpline
 62
7
  6
CONTINUOUS
 70
0
 71
3
 72
15
 73
11
 74
0
 42
0.0000001
 43
0.0000001
 44
0.0000000001
 40
0.0
 40
0.0
 40
0.0
 40
0.0
 40
0.1118613556
 40
0.2315720031
 40
0.3574030891
 40
0.4872869538
 40
0.6188848534
 40
0.7497590358
 40
0.8775474462
 40
1.0
 40
1.0
 40
1.0
 40
1.0
 10
108.0582521384
 20
129.3742153173
 30
0.0
 10
108.0582521384
 20
129.4119862991
 30
0.0
 10
108.0524154174
 20
129.4902394777
 30
0.0
 10
108.0287129552
 20
129.6088194887
 30
0.0
 10
107.9903775365
 20
129.7298985078
 30
0.0
 10
107.9384752191
 20
129.8501656414
 30
0.0
 10
107.874403572
 20
129.9663550629
 30
0.0
 10
107.7999170193
 20
130.0753126932
 30
0.0
 10
107.7170506926
 20
130.1740367954
 30
0.0
 10
107.6560794929
 20
130.2328359083
 30
0.0
 10
107.624647118
 20
130.2596984522
 30
0.0
  0
SPLINE
  5
3BB
100
AcDbEntity
  8
0
100
AcDbSpline
 62
7
  6
CONTINUOUS
 70
0
 71
3
 72
9
 73
5
 74
0
 42
0.0000001
 43
0.0000001
 44
0.0000000001
 40
0.0
 40
0.0
 40
0.0
 40
0.0
 40
0.5262145257
 40
1.0
 40
1.0
 40
1.0
 40
1.0
 10
107.624647118
 20
130.2596984522
 30
0.0
 10
107.5708709884
 20
130.305656279
 30
0.0
 10
107.4622224948
 20
130.385851204
 30
0.0
 10
107.3405525069
 20
130.4455548777
 30
0.0
 10
107.2804314407
 20
130.4665783528
 30
0.0
  0
SPLINE
  5
3BC
100
AcDbEntity
  8
0
100
AcDbSpline
 62
7
  6
CONTINUOUS
 70
0
 71
3
 72
11
 73
7
 74
0
 42
0.0000001
 43
0.0000001
 44
0.0000000001
 40
0.0
 40
0.0
 40
0.0
 40
0.0
 40
0.2320924501
 40
0.4775087191
 40
0.734289725
 40
1.0
 40
1.0
 40
1.0
 40
1.0
 10
107.2804314407
 20
130.4665783528
 30
0.0
 10
107.2010722719
 20
130.5123953538
 30
0.0
 10
107.0431807186
 20
130.616194501
 30
0.0
 10
106.8176364314
 20
130.798987915
 30
0.0
 10
106.599920378
 20
131.0105221525
 30
0.0
 10
106.4642434131
 20
131.1662656752
 30
0.0
 10
106.3984538742
 20
131.2479820412
 30
0.0
  0
SPLINE
  5
3BD
100
AcDbEntity
  8
0
100
AcDbSpline
 62
7
  6
CONTINUOUS
 70
0
 71
3
 72
10
 73
6
 74
0
 42
0.0000001
 43
0.0000001
 44
0.0000000001
 40
0.0
 40
0.0
 40
0.0
 40
0.0
 40
0.2344284559
 40
0.4801757481
 40
1.0
 40
1.0
 40
1.0
 40
1.0
 10
105.6328652273
 20
131.6932215785
 30
0.0
 10
105.5685560111
 20
131.730349705
 30
0.0
 10
105.4403556942
 20
131.8126491295
 30
0.0
 10
105.1887002549
 20
132.0054093753
 30
0.0
 10
105.0136805978
 20
132.1748644818
 30
0.0
 10
104.9029634612
 20
132.2967431855
 30
0.0
  0
SPLINE
  5
3BE
100
AcDbEntity
  8
0
100
AcDbSpline
 62
7
  6
CONTINUOUS
 70
0
 71
3
 72
9
 73
5
 74
0
 42
0.0000001
 43
0.0000001
 44
0.0000000001
 40
0.0
 40
0.0
 40
0.0
 40
0.0
 40
0.476816391
 40
1.0
 40
1.0
 40
1.0
 40
1.0
 10
104.5655516863
 20
132.51014635
 30
0.0
 10
104.4691533164
 20
132.5276480323
 30
0.0
 10
104.2707084007
 20
132.5861577651
 30
0.0
 10
104.0854708605
 20
132.6770367747
 30
0.0
 10
103.9923712188
 20
132.7307866619
 30
0.0
  0
SPLINE
  5
3BF
100
AcDbEntity
  8
0
100
AcDbSpline
 62
7
  6
CONTINUOUS
 70
0
 71
3
 72
9
 73
5
 74
0
 42
0.0000001
 43
0.0000001
 44
0.0000000001
 40
0.0
 40
0.0
 40
0.0
 40
0.0
 40
0.4832258417
 40
1.0
 40
1.0
 40
1.0
 40
1.0
 10
103.9923712188
 20
132.7307866619
 30
0.0
 10
103.8912792262
 20
132.7891508306
 30
0.0
 10
103.6908455174
 20
132.9254422506
 30
0.0
 10
103.5086562954
 20
133.0849225844
 30
0.0
 10
103.4191907513
 20
133.1719831716
 30
0.0
  0
SPLINE
  5
3C0
100
AcDbEntity
  8
0
100
AcDbSpline
 62
7
  6
CONTINUOUS
 70
0
 71
3
 72
10
 73
6
 74
0
 42
0.0000001
 43
0.0000001
 44
0.0000000001
 40
0.0
 40
0.0
 40
0.0
 40
0.0
 40
0.469434149
 40
0.7270437258
 40
1.0
 40
1.0
 40
1.0
 40
1.0
 10
103.0817789764
 20
133.3481807514
 30
0.0
 10
102.9608582028
 20
133.3546938898
 30
0.0
 10
102.7746161693
 20
133.3941187087
 30
0.0
 10
102.5346110167
 20
133.4890521476
 30
0.0
 10
102.4128574905
 20
133.5522519205
 30
0.0
 10
102.3518782957
 20
133.5874574133
 30
0.0
  0
SPLINE
  5
3C1
100
AcDbEntity
  8
0
100
AcDbSpline
 62
7
  6
CONTINUOUS
 70
0
 71
3
 72
9
 73
5
 74
0
 42
0.0000001
 43
0.0000001
 44
0.0000000001
 40
0.0
 40
0.0
 40
0.0
 40
0.0
 40
0.5155770529
 40
1.0
 40
1.0
 40
1.0
 40
1.0
 10
102.3518782957
 20
133.5874574133
 30
0.0
 10
102.228476883
 20
133.6759852224
 30
0.0
 10
101.9809623885
 20
133.836686309
 30
0.0
 10
101.7174403065
 20
133.9700007231
 30
0.0
 10
101.5862885634
 20
134.0262241266
 30
0.0
  0
SPLINE
  5
3C2
100
AcDbEntity
  8
0
100
AcDbSpline
 62
7
  6
CONTINUOUS
 70
0
 71
3
 72
11
 73
7
 74
0
 42
0.0000001
 43
0.0000001
 44
0.0000000001
 40
0.0
 40
0.0
 40
0.0
 40
0.0
 40
0.2234551327
 40
0.463368141
 40
0.7219942073
 40
1.0
 40
1.0
 40
1.0
 40
1.0
 10
101.5862885634
 20
134.0262241266
 30
0.0
 10
101.5175451671
 20
134.0202150521
 30
0.0
 10
101.3734653385
 20
134.0224587925
 30
0.0
 10
101.1536481574
 20
134.0648474568
 30
0.0
 10
100.9268703022
 20
134.1451298414
 30
0.0
 10
100.7786609176
 20
134.2202923941
 30
0.0
 10
100.704310997
 20
134.2632173697
 30
0.0
  0
SPLINE
  5
3C3
100
AcDbEntity
  8
0
100
AcDbSpline
 62
7
  6
CONTINUOUS
 70
0
 71
3
 72
11
 73
7
 74
0
 42
0.0000001
 43
0.0000001
 44
0.0000000001
 40
0.0
 40
0.0
 40
0.0
 40
0.0
 40
0.2747618894
 40
0.5295707108
 40
0.7689498616
 40
1.0
 40
1.0
 40
1.0
 40
1.0
 10
100.3600953195
 20
134.4537945055
 30
0.0
 10
100.3359003404
 20
134.4610544638
 30
0.0
 10
100.2881135747
 20
134.4716377054
 30
0.0
 10
100.217033969
 20
134.4743585697
 30
0.0
 10
100.1508066906
 20
134.4629751745
 30
0.0
 10
100.1105782572
 20
134.4458298106
 30
0.0
 10
100.092180871
 20
134.4352110117
 30
0.0
  0
SPLINE
  5
3C4
100
AcDbEntity
  8
0
100
AcDbSpline
 62
7
  6
CONTINUOUS
 70
0
 71
3
 72
15
 73
11
 74
0
 42
0.0000001
 43
0.0000001
 44
0.0000000001
 40
0.0
 40
0.0
 40
0.0
 40
0.0
 40
0.1141555516
 40
0.2373276756
 40
0.3669773296
 40
0.5000011
 40
0.6330247168
 40
0.7626739247
 40
0.885845342
 40
1.0
 40
1.0
 40
1.0
 40
1.0
 10
104.3105900253
 20
126.627493577
 30
0.0
 10
104.3105900253
 20
126.6833896519
 30
0.0
 10
104.3003518639
 20
126.7997052927
 30
0.0
 10
104.2595376392
 20
126.9751800669
 30
0.0
 10
104.1941556058
 20
127.1529219407
 30
0.0
 10
104.1066492209
 20
127.3262472506
 30
0.0
 10
104.0002976364
 20
127.4886919691
 30
0.0
 10
103.8790593123
 20
127.6341842791
 30
0.0
 10
103.7475007563
 20
127.7572663051
 30
0.0
 10
103.6518876158
 20
127.8242894042
 30
0.0
 10
103.6034803001
 20
127.8522367487
 30
0.0
  0
SPLINE
  5
3C5
100
AcDbEntity
  8
0
100
AcDbSpline
 62
7
  6
CONTINUOUS
 70
0
 71
3
 72
12
 73
8
 74
0
 42
0.0000001
 43
0.0000001
 44
0.0000000001
 40
0.0
 40
0.0
 40
0.0
 40
0.0
 40
0.2895802184
 40
0.5486333627
 40
0.7816359182
 40
0.8918377609
 40
1.0
 40
1.0
 40
1.0
 40
1.0
 10
99.7143768118
 20
130.0975608985
 30
0.0
 10
99.6704825847
 20
130.1229026691
 30
0.0
 10
99.5831836354
 20
130.1644363585
 30
0.0
 10
99.4490995786
 20
130.1968527256
 30
0.0
 10
99.3420292407
 20
130.1940147227
 30
0.0
 10
99.2655913969
 20
130.1728416067
 30
0.0
 10
99.2307749408
 20
130.1565493195
 30
0.0
 10
99.2143799039
 20
130.147083699
 30
0.0
  0
SPLINE
  5
3C6
100
AcDbEntity
  8
0
100
AcDbSpline
 62
7
  6
CONTINUOUS
 70
0
 71
3
 72
23
 73
19
 74
0
 42
0.0000001
 43
0.0000001
 44
0.0000000001
 40
0.0
 40
0.0
 40
0.0
 40
0.0
 40
0.0623867207
 40
0.1287471202
 40
0.1983459083
 40
0.270334698
 40
0.3437222671
 40
0.4174664317
 40
0.4905031942
 40
0.5618013872
 40
0.6304101058
 40
0.6955084479
 40
0.7564655232
 40
0.8129114493
 40
0.8648203122
 40
0.9126032291
 40
0.9571853202
 40
1.0
 40
1.0
 40
1.0
 40
1.0
 10
102.7903041162
 20
128.3217136164
 30
0.0
 10
102.7903041162
 20
128.3880844708
 30
0.0
 10
102.7813045304
 20
128.5251443195
 30
0.0
 10
102.7443123457
 20
128.7332465604
 30
0.0
 10
102.6841391965
 20
128.9464869266
 30
0.0
 10
102.6021180407
 20
129.160295437
 30
0.0
 10
102.4999624765
 20
129.3701503124
 30
0.0
 10
102.3798608648
 20
129.5715695211
 30
0.0
 10
102.2443750482
 20
129.7602595969
 30
0.0
 10
102.0963929837
 20
129.932197911
 30
0.0
 10
101.939055093
 20
130.0837302549
 30
0.0
 10
101.7756705126
 20
130.2116424403
 30
0.0
 10
101.6096308948
 20
130.3132210719
 30
0.0
 10
101.4443113882
 20
130.386282186
 30
0.0
 10
101.2830018081
 20
130.4291409003
 30
0.0
 10
101.1288694062
 20
130.440489193
 30
0.0
 10
100.9853314795
 20
130.4194584361
 30
0.0
 10
100.8983830952
 20
130.3833082342
 30
0.0
 10
100.8589343786
 20
130.3605376038
 30
0.0
  0
SPLINE
  5
3C7
100
AcDbEntity
  8
0
100
AcDbSpline
 62
7
  6
CONTINUOUS
 70
0
 71
3
 72
12
 73
8
 74
0
 42
0.0000001
 43
0.0000001
 44
0.0000000001
 40
0.0
 40
0.0
 40
0.0
 40
0.0
 40
0.2895856793
 40
0.5486339854
 40
0.78163705
 40
0.8918373471
 40
1.0
 40
1.0
 40
1.0
 40
1.0
 10
97.5930476364
 20
132.7217782865
 30
0.0
 10
97.5930476364
 20
132.7623276654
 30
0.0
 10
97.5991908362
 20
132.8394259412
 30
0.0
 10
97.6303670512
 20
132.9452916652
 30
0.0
 10
97.6751619274
 20
133.0183380427
 30
0.0
 10
97.7204055435
 20
133.0628294265
 30
0.0
 10
97.7456208884
 20
133.0804341098
 30
0.0
 10
97.7587382082
 20
133.0880053039
 30
0.0
  0
SPLINE
  5
3C8
100
AcDbEntity
  8
0
100
AcDbSpline
 62
7
  6
CONTINUOUS
 70
0
 71
3
 72
14
 73
10
 74
0
 42
0.0000001
 43
0.0000001
 44
0.0000000001
 40
0.0
 40
0.0
 40
0.0
 40
0.0
 40
0.1080451608
 40
0.218127025
 40
0.3321042291
 40
0.4514992254
 40
0.5774451356
 40
0.7107195457
 40
1.0
 40
1.0
 40
1.0
 40
1.0
 10
100.8589343786
 20
130.3605376038
 30
0.0
 10
100.83270063
 20
130.3453949314
 30
0.0
 10
100.7822675846
 20
130.3101984718
 30
0.0
 10
100.7156209889
 20
130.2446173645
 30
0.0
 10
100.6583138248
 20
130.1667689773
 30
0.0
 10
100.6108522103
 20
130.0775554353
 30
0.0
 10
100.5736204446
 20
129.977852608
 30
0.0
 10
100.5370203655
 20
129.8282295942
 30
0.0
 10
100.5275529958
 20
129.7091837211
 30
0.0
 10
100.5275529958
 20
129.6280840308
 30
0.0
  0
SPLINE
  5
3C9
100
AcDbEntity
  8
0
100
AcDbSpline
 62
7
  6
CONTINUOUS
 70
0
 71
3
 72
12
 73
8
 74
0
 42
0.0000001
 43
0.0000001
 44
0.0000000001
 40
0.0
 40
0.0
 40
0.0
 40
0.0
 40
0.2895912563
 40
0.5486401214
 40
0.7816344028
 40
0.8918356837
 40
1.0
 40
1.0
 40
1.0
 40
1.0
 10
104.7701830846
 20
133.4247989528
 30
0.0
 10
104.7350662964
 20
133.4450731812
 30
0.0
 10
104.6652261367
 20
133.4783007651
 30
0.0
 10
104.5579586987
 20
133.5042328912
 30
0.0
 10
104.472304183
 20
133.5019627696
 30
0.0
 10
104.4111546933
 20
133.4850249482
 30
0.0
 10
104.3833008389
 20
133.471991627
 30
0.0
 10
104.3701849916
 20
133.4644181745
 30
0.0
  0
SPLINE
  5
3CA
100
AcDbEntity
  8
0
100
AcDbSpline
 62
7
  6
CONTINUOUS
 70
0
 71
3
 72
12
 73
8
 74
0
 42
0.0000001
 43
0.0000001
 44
0.0000000001
 40
0.0
 40
0.0
 40
0.0
 40
0.0
 40
0.1081508643
 40
0.2183547805
 40
0.4513288564
 40
0.7104433135
 40
1.0
 40
1.0
 40
1.0
 40
1.0
 10
106.1065792142
 20
132.40418034
 30
0.0
 10
106.1065798076
 20
132.3909299796
 30
0.0
 10
106.1042807959
 20
132.3641212677
 30
0.0
 10
106.0903401674
 20
132.3103840275
 30
0.0
 10
106.0546092101
 20
132.2444699421
 30
0.0
 10
105.98801189
 20
132.1745421356
 30
0.0
 10
105.9322815707
 20
132.1361495955
 30
0.0
 10
105.9015586448
 20
132.1184118119
 30
0.0
  0
SPLINE
  5
3CB
100
AcDbEntity
  8
0
100
AcDbSpline
 62
7
  6
CONTINUOUS
 70
0
 71
3
 72
11
 73
7
 74
0
 42
0.0000001
 43
0.0000001
 44
0.0000000001
 40
0.0
 40
0.0
 40
0.0
 40
0.0
 40
0.2310501384
 40
0.4704292892
 40
0.7252381106
 40
1.0
 40
1.0
 40
1.0
 40
1.0
 10
97.7587382082
 20
133.0880053039
 30
0.0
 10
97.7771355944
 20
133.0986241028
 30
0.0
 10
97.8173640278
 20
133.1157694667
 30
0.0
 10
97.8835913062
 20
133.1271528619
 30
0.0
 10
97.9546709119
 20
133.1244319977
 30
0.0
 10
98.0024576776
 20
133.1138487561
 30
0.0
 10
98.0266526567
 20
133.1065887977
 30
0.0
  0
SPLINE
  5
3CC
100
AcDbEntity
  8
0
100
AcDbSpline
 62
7
  6
CONTINUOUS
 70
0
 71
3
 72
12
 73
8
 74
0
 42
0.0000001
 43
0.0000001
 44
0.0000000001
 40
0.0
 40
0.0
 40
0.0
 40
0.0
 40
0.108151798
 40
0.2183565172
 40
0.4513314193
 40
0.7104452966
 40
1.0
 40
1.0
 40
1.0
 40
1.0
 10
105.1201758347
 20
133.4594662005
 30
0.0
 10
105.1087008477
 20
133.466091823
 30
0.0
 10
105.0843341074
 20
133.4775050553
 30
0.0
 10
105.0308257813
 20
133.4923006357
 30
0.0
 10
104.9558771376
 20
133.4943139978
 30
0.0
 10
104.8620195327
 20
133.4716036057
 30
0.0
 10
104.8009057228
 20
133.4425365704
 30
0.0
 10
104.7701830846
 20
133.4247989528
 30
0.0
  0
SPLINE
  5
3CD
100
AcDbEntity
  8
0
100
AcDbSpline
 62
7
  6
CONTINUOUS
 70
0
 71
3
 72
15
 73
11
 74
0
 42
0.0000001
 43
0.0000001
 44
0.0000000001
 40
0.0
 40
0.0
 40
0.0
 40
0.0
 40
0.1224525538
 40
0.2502409642
 40
0.3811151466
 40
0.5127130462
 40
0.6425969109
 40
0.7684279969
 40
0.8881386444
 40
1.0
 40
1.0
 40
1.0
 40
1.0
 10
105.2912044552
 20
128.9124927444
 30
0.0
 10
105.3226368301
 20
128.8856302005
 30
0.0
 10
105.3836080298
 20
128.8268310876
 30
0.0
 10
105.4664743565
 20
128.7281069855
 30
0.0
 10
105.5409609092
 20
128.6191493551
 30
0.0
 10
105.6050325562
 20
128.5029599336
 30
0.0
 10
105.6569348737
 20
128.3826928001
 30
0.0
 10
105.6952702924
 20
128.2616137809
 30
0.0
 10
105.7189727546
 20
128.1430337699
 30
0.0
 10
105.7248094756
 20
128.0647805913
 30
0.0
 10
105.7248094756
 20
128.0270096095
 30
0.0
  0
SPLINE
  5
3CE
100
AcDbEntity
  8
0
100
AcDbSpline
 62
7
  6
CONTINUOUS
 70
0
 71
3
 72
12
 73
8
 74
0
 42
0.0000001
 43
0.0000001
 44
0.0000000001
 40
0.0
 40
0.0
 40
0.0
 40
0.0
 40
0.1081617394
 40
0.2183631591
 40
0.4513653165
 40
0.7104188067
 40
1.0
 40
1.0
 40
1.0
 40
1.0
 10
99.2143799039
 20
130.147083699
 30
0.0
 10
99.1979845039
 20
130.137617869
 30
0.0
 10
99.1664659541
 20
130.1156116739
 30
0.0
 10
99.1099092356
 20
130.0599997645
 30
0.0
 10
99.053915273
 20
129.9686904251
 30
0.0
 10
99.0149466383
 20
129.8363580076
 30
0.0
 10
99.0072670867
 20
129.7399851641
 30
0.0
 10
99.0072670867
 20
129.6892992359
 30
0.0
  0
SPLINE
  5
3CF
100
AcDbEntity
  8
0
100
AcDbSpline
 62
7
  6
CONTINUOUS
 70
0
 71
3
 72
15
 73
11
 74
0
 42
0.0000001
 43
0.0000001
 44
0.0000000001
 40
0.0
 40
0.0
 40
0.0
 40
0.0
 40
0.1141527168
 40
0.2373150593
 40
0.3669511855
 40
0.4999671722
 40
0.6329917929
 40
0.7626498762
 40
0.8858369861
 40
1.0
 40
1.0
 40
1.0
 40
1.0
 10
105.9015586448
 20
132.1184118118
 30
0.0
 10
105.9015586448
 20
132.1631275743
 30
0.0
 10
105.8933690914
 20
132.2561751965
 30
0.0
 10
105.8607211881
 20
132.396545276
 30
0.0
 10
105.8084228183
 20
132.5387283951
 30
0.0
 10
105.7384248232
 20
132.6773833737
 30
0.0
 10
105.6533462782
 20
132.8073419066
 30
0.0
 10
105.5563528775
 20
132.9237466862
 30
0.0
 10
105.4510972884
 20
133.0222220819
 30
0.0
 10
105.3745995631
 20
133.0758468305
 30
0.0
 10
105.3358708647
 20
133.0982063492
 30
0.0
  0
SPLINE
  5
3D0
100
AcDbEntity
  8
0
100
AcDbSpline
 62
7
  6
CONTINUOUS
 70
0
 71
3
 72
12
 73
8
 74
0
 42
0.0000001
 43
0.0000001
 44
0.0000000001
 40
0.0
 40
0.0
 40
0.0
 40
0.0
 40
0.2895706353
 40
0.5486531839
 40
0.7816290543
 40
0.8918354874
 40
1.0
 40
1.0
 40
1.0
 40
1.0
 10
105.3358708647
 20
133.0982063492
 30
0.0
 10
105.3665952688
 20
133.1159449863
 30
0.0
 10
105.4277070536
 20
133.1450133457
 30
0.0
 10
105.5215632618
 20
133.1677192107
 30
0.0
 10
105.5965090904
 20
133.1657130578
 30
0.0
 10
105.6500186515
 20
133.1509132155
 30
0.0
 10
105.6743866571
 20
133.1394989865
 30
0.0
 10
105.6858636146
 20
133.1328735965
 30
0.0
  0
SPLINE
  5
3D1
100
AcDbEntity
  8
0
100
AcDbSpline
 62
7
  6
CONTINUOUS
 70
0
 71
3
 72
9
 73
5
 74
0
 42
0.0000001
 43
0.0000001
 44
0.0000000001
 40
0.0
 40
0.0
 40
0.0
 40
0.0
 40
0.4737854743
 40
1.0
 40
1.0
 40
1.0
 40
1.0
 10
104.9469887779
 20
129.119372645
 30
0.0
 10
105.0071098441
 20
129.0983491699
 30
0.0
 10
105.128779832
 20
129.0386454962
 30
0.0
 10
105.2374283256
 20
128.9584505712
 30
0.0
 10
105.2912044552
 20
128.9124927444
 30
0.0
  0
SPLINE
  5
3D2
100
AcDbEntity
  8
0
100
AcDbSpline
 62
7
  6
CONTINUOUS
 70
0
 71
3
 72
11
 73
7
 74
0
 42
0.0000001
 43
0.0000001
 44
0.0000000001
 40
0.0
 40
0.0
 40
0.0
 40
0.0
 40
0.265710275
 40
0.5224912809
 40
0.7679075499
 40
1.0
 40
1.0
 40
1.0
 40
1.0
 10
104.0650112114
 20
129.9007763334
 30
0.0
 10
104.1308007503
 20
129.8190599674
 30
0.0
 10
104.2664777152
 20
129.6633164447
 30
0.0
 10
104.4841937686
 20
129.4517822072
 30
0.0
 10
104.7097380558
 20
129.2689887932
 30
0.0
 10
104.867629609
 20
129.165189646
 30
0.0
 10
104.9469887779
 20
129.119372645
 30
0.0
  0
SPLINE
  5
3D3
100
AcDbEntity
  8
0
100
AcDbSpline
 62
7
  6
CONTINUOUS
 70
0
 71
3
 72
11
 73
7
 74
0
 42
0.0000001
 43
0.0000001
 44
0.0000000001
 40
0.0
 40
0.0
 40
0.0
 40
0.0
 40
0.2780057927
 40
0.536631859
 40
0.7765448673
 40
1.0
 40
1.0
 40
1.0
 40
1.0
 10
98.3708683346
 20
132.9160116617
 30
0.0
 10
98.4452182552
 20
132.8730866862
 30
0.0
 10
98.5934276397
 20
132.7979241335
 30
0.0
 10
98.8202054948
 20
132.717641749
 30
0.0
 10
99.0400226758
 20
132.6752530847
 30
0.0
 10
99.1841025044
 20
132.6730093443
 30
0.0
 10
99.2528459005
 20
132.6790184188
 30
0.0
  0
SPLINE
  5
3D4
100
AcDbEntity
  8
0
100
AcDbSpline
 62
7
  6
CONTINUOUS
 70
0
 71
3
 72
9
 73
5
 74
0
 42
0.0000001
 43
0.0000001
 44
0.0000000001
 40
0.0
 40
0.0
 40
0.0
 40
0.0
 40
0.4844229471
 40
1.0
 40
1.0
 40
1.0
 40
1.0
 10
99.2528459005
 20
132.6790184188
 30
0.0
 10
99.3839976437
 20
132.6227950153
 30
0.0
 10
99.6475197257
 20
132.4894806013
 30
0.0
 10
99.8950342202
 20
132.3287795146
 30
0.0
 10
100.0184356329
 20
132.2402517055
 30
0.0
  0
SPLINE
  5
3D5
100
AcDbEntity
  8
0
100
AcDbSpline
 62
7
  6
CONTINUOUS
 70
0
 71
3
 72
10
 73
6
 74
0
 42
0.0000001
 43
0.0000001
 44
0.0000000001
 40
0.0
 40
0.0
 40
0.0
 40
0.0
 40
0.2729562742
 40
0.530565851
 40
1.0
 40
1.0
 40
1.0
 40
1.0
 10
100.0184356329
 20
132.2402517055
 30
0.0
 10
100.0794148277
 20
132.2050462127
 30
0.0
 10
100.2011683539
 20
132.1418464399
 30
0.0
 10
100.4411735065
 20
132.046913001
 30
0.0
 10
100.62741554
 20
132.007488182
 30
0.0
 10
100.7483363136
 20
132.0009750436
 30
0.0
  0
SPLINE
  5
3D6
100
AcDbEntity
  8
0
100
AcDbSpline
 62
7
  6
CONTINUOUS
 70
0
 71
3
 72
9
 73
5
 74
0
 42
0.0000001
 43
0.0000001
 44
0.0000000001
 40
0.0
 40
0.0
 40
0.0
 40
0.0
 40
0.5167741583
 40
1.0
 40
1.0
 40
1.0
 40
1.0
 10
101.0857480885
 20
131.8247774638
 30
0.0
 10
101.1752136326
 20
131.7377168767
 30
0.0
 10
101.3574028546
 20
131.5782365428
 30
0.0
 10
101.5578365634
 20
131.4419451229
 30
0.0
 10
101.658928556
 20
131.3835809541
 30
0.0
  0
SPLINE
  5
3D7
100
AcDbEntity
  8
0
100
AcDbSpline
 62
7
  6
CONTINUOUS
 70
0
 71
3
 72
9
 73
5
 74
0
 42
0.0000001
 43
0.0000001
 44
0.0000000001
 40
0.0
 40
0.0
 40
0.0
 40
0.0
 40
0.523183609
 40
1.0
 40
1.0
 40
1.0
 40
1.0
 10
101.658928556
 20
131.3835809541
 30
0.0
 10
101.7520281977
 20
131.3298310669
 30
0.0
 10
101.9372657379
 20
131.2389520573
 30
0.0
 10
102.1357106536
 20
131.1804423246
 30
0.0
 10
102.2321090235
 20
131.1629406422
 30
0.0
  0
SPLINE
  5
3D8
100
AcDbEntity
  8
0
100
AcDbSpline
 62
7
  6
CONTINUOUS
 70
0
 71
3
 72
10
 73
6
 74
0
 42
0.0000001
 43
0.0000001
 44
0.0000000001
 40
0.0
 40
0.0
 40
0.0
 40
0.0
 40
0.5198242519
 40
0.7655715441
 40
1.0
 40
1.0
 40
1.0
 40
1.0
 10
102.5695207984
 20
130.9495374777
 30
0.0
 10
102.680237935
 20
130.8276587741
 30
0.0
 10
102.8552575921
 20
130.6582036675
 30
0.0
 10
103.1069130314
 20
130.4654434217
 30
0.0
 10
103.2351133483
 20
130.3831439973
 30
0.0
 10
103.2994225644
 20
130.3460158707
 30
0.0
  0
SPLINE
  5
3D9
100
AcDbEntity
  8
0
100
AcDbSpline
 62
7
  6
CONTINUOUS
 70
0
 71
3
 72
11
 73
7
 74
0
 42
0.0000001
 43
0.0000001
 44
0.0000000001
 40
0.0
 40
0.0
 40
0.0
 40
0.0
 40
0.2395329224
 40
0.490035744
 40
0.7456179694
 40
1.0
 40
1.0
 40
1.0
 40
1.0
 10
79.2117215678
 20
43.693178504
 30
0.0
 10
79.0481160726
 20
43.8345919882
 30
0.0
 10
78.7331624889
 20
44.1472923728
 30
0.0
 10
78.314477976
 20
44.6761686723
 30
0.0
 10
77.9503898722
 20
45.2598230283
 30
0.0
 10
77.7507139658
 20
45.6759352763
 30
0.0
 10
77.6634954197
 20
45.8883857883
 30
0.0
  0
SPLINE
  5
3DA
100
AcDbEntity
  8
0
100
AcDbSpline
 62
7
  6
CONTINUOUS
 70
0
 71
3
 72
15
 73
11
 74
0
 42
0.0000001
 43
0.0000001
 44
0.0000000001
 40
0.0
 40
0.0
 40
0.0
 40
0.0
 40
0.1208425412
 40
0.2462742206
 40
0.3746799366
 40
0.5043134818
 40
0.6333762022
 40
0.7600960035
 40
0.8828021778
 40
1.0
 40
1.0
 40
1.0
 40
1.0
 10
79.1883421135
 20
96.7861796533
 30
0.0
 10
79.066877673
 20
96.8925829673
 30
0.0
 10
78.8303316449
 20
97.1222413814
 30
0.0
 10
78.504132225
 20
97.5028750002
 30
0.0
 10
78.2050741527
 20
97.9197427855
 30
0.0
 10
77.9393502247
 20
98.3642379185
 30
0.0
 10
77.7124111446
 20
98.827231113
 30
0.0
 10
77.5289148805
 20
99.2992301298
 30
0.0
 10
77.3926472713
 20
99.7704830346
 30
0.0
 10
77.3335681217
 20
100.086246176
 30
0.0
 10
77.3132961985
 20
100.2415366702
 30
0.0
  0
SPLINE
  5
3DB
100
AcDbEntity
  8
0
100
AcDbSpline
 62
7
  6
CONTINUOUS
 70
0
 71
3
 72
9
 73
5
 74
0
 42
0.0000001
 43
0.0000001
 44
0.0000000001
 40
0.0
 40
0.0
 40
0.0
 40
0.0
 40
0.254113637
 40
1.0
 40
1.0
 40
1.0
 40
1.0
 10
28.6607222493
 20
61.5015498677
 30
0.0
 10
28.651595225
 20
61.5034416469
 30
0.0
 10
28.6159747346
 20
61.5122415842
 30
0.0
 10
28.5817323676
 20
61.5266927535
 30
0.0
 10
28.5580332613
 20
61.5403636871
 30
0.0
  0
SPLINE
  5
3DC
100
AcDbEntity
  8
0
100
AcDbSpline
 62
7
  6
CONTINUOUS
 70
0
 71
3
 72
11
 73
7
 74
0
 42
0.0000001
 43
0.0000001
 44
0.0000000001
 40
0.0
 40
0.0
 40
0.0
 40
0.0
 40
0.2336524929
 40
0.4922093739
 40
0.7549415628
 40
1.0
 40
1.0
 40
1.0
 40
1.0
 10
34.3479820586
 20
132.9655811113
 30
0.0
 10
34.2566532127
 20
132.912850554
 30
0.0
 10
34.0821631402
 20
132.7703576839
 30
0.0
 10
33.8715690152
 20
132.4997056237
 30
0.0
 10
33.7165599163
 20
132.1880437589
 30
0.0
 10
33.6592178229
 20
131.9634206439
 30
0.0
 10
33.6472009186
 20
131.8534689544
 30
0.0
  0
SPLINE
  5
3DD
100
AcDbEntity
  8
0
100
AcDbSpline
 62
7
  6
CONTINUOUS
 70
0
 71
3
 72
9
 73
5
 74
0
 42
0.0000001
 43
0.0000001
 44
0.0000000001
 40
0.0
 40
0.0
 40
0.0
 40
0.0
 40
0.25582294
 40
1.0
 40
1.0
 40
1.0
 40
1.0
 10
33.6472009186
 20
131.8534689544
 30
0.0
 10
33.5059639279
 20
130.5610635268
 30
0.0
 10
33.0181209408
 20
125.5024337059
 30
0.0
 10
32.7923223919
 20
120.4174604553
 30
0.0
 10
32.7923223919
 20
116.6355302646
 30
0.0
  0
SPLINE
  5
3DE
100
AcDbEntity
  8
0
100
AcDbSpline
 62
7
  6
CONTINUOUS
 70
0
 71
3
 72
11
 73
7
 74
0
 42
0.0000001
 43
0.0000001
 44
0.0000000001
 40
0.0
 40
0.0
 40
0.0
 40
0.0
 40
0.2320163165
 40
0.4885099326
 40
0.7511206533
 40
1.0
 40
1.0
 40
1.0
 40
1.0
 10
31.3688067265
 20
115.6493817019
 30
0.0
 10
31.316983282
 20
115.6194616009
 30
0.0
 10
31.2174907137
 20
115.5395516561
 30
0.0
 10
31.0952499565
 20
115.3877817281
 30
0.0
 10
31.002062568
 20
115.2116996851
 30
0.0
 10
30.9640922104
 20
115.0840465599
 30
0.0
 10
30.9536449418
 20
115.0207127476
 30
0.0
  0
SPLINE
  5
3DF
100
AcDbEntity
  8
0
100
AcDbSpline
 62
7
  6
CONTINUOUS
 70
0
 71
3
 72
11
 73
7
 74
0
 42
0.0000001
 43
0.0000001
 44
0.0000000001
 40
0.0
 40
0.0
 40
0.0
 40
0.0
 40
0.2340062057
 40
0.4929972126
 40
0.755746981
 40
1.0
 40
1.0
 40
1.0
 40
1.0
 10
17.0058545504
 20
105.8056223031
 30
0.0
 10
16.913534774
 20
105.7523217735
 30
0.0
 10
16.7373279245
 20
105.6079512983
 30
0.0
 10
16.5254266404
 20
105.3337605477
 30
0.0
 10
16.370617212
 20
105.0185206278
 30
0.0
 10
16.314604813
 20
104.7916069563
 30
0.0
 10
16.3037679749
 20
104.6808664557
 30
0.0
  0
SPLINE
  5
3E0
100
AcDbEntity
  8
0
100
AcDbSpline
 62
7
  6
CONTINUOUS
 70
0
 71
3
 72
9
 73
5
 74
0
 42
0.0000001
 43
0.0000001
 44
0.0000000001
 40
0.0
 40
0.0
 40
0.0
 40
0.0
 40
0.5122148748
 40
1.0
 40
1.0
 40
1.0
 40
1.0
 10
16.3037679749
 20
104.6808664557
 30
0.0
 10
15.7136745357
 20
98.6507641238
 30
0.0
 10
15.0045142336
 20
86.8292806342
 30
0.0
 10
15.2952907738
 20
74.9859229243
 30
0.0
 10
15.7135971637
 20
69.2311753336
 30
0.0
  0
SPLINE
  5
3E1
100
AcDbEntity
  8
0
100
AcDbSpline
 62
7
  6
CONTINUOUS
 70
0
 71
3
 72
11
 73
7
 74
0
 42
0.0000001
 43
0.0000001
 44
0.0000000001
 40
0.0
 40
0.0
 40
0.0
 40
0.0
 40
0.2847234982
 40
0.5426338724
 40
0.7777664846
 40
1.0
 40
1.0
 40
1.0
 40
1.0
 10
15.7135971637
 20
69.2311753336
 30
0.0
 10
15.7167673841
 20
69.1875618046
 30
0.0
 10
15.7293976235
 20
69.1046616508
 30
0.0
 10
15.77071291
 20
68.9915508893
 30
0.0
 10
15.8332479054
 20
68.8996638014
 30
0.0
 10
15.8888820656
 20
68.8547217692
 30
0.0
 10
15.9184469196
 20
68.8376671665
 30
0.0
  0
SPLINE
  5
3E2
100
AcDbEntity
  8
0
100
AcDbSpline
 62
7
  6
CONTINUOUS
 70
0
 71
3
 72
9
 73
5
 74
0
 42
0.0000001
 43
0.0000001
 44
0.0000000001
 40
0.0
 40
0.0
 40
0.0
 40
0.0
 40
0.2441776961
 40
1.0
 40
1.0
 40
1.0
 40
1.0
 10
45.4319099754
 20
109.3560437729
 30
0.0
 10
45.4320833926
 20
110.5955212212
 30
0.0
 10
45.5068849729
 20
115.6714946786
 30
0.0
 10
45.8699873799
 20
120.7421910124
 30
0.0
 10
46.2867839013
 20
124.5561358134
 30
0.0
  0
SPLINE
  5
3E3
100
AcDbEntity
  8
0
100
AcDbSpline
 62
7
  6
CONTINUOUS
 70
0
 71
3
 72
11
 73
7
 74
0
 42
0.0000001
 43
0.0000001
 44
0.0000000001
 40
0.0
 40
0.0
 40
0.0
 40
0.0
 40
0.2450566583
 40
0.5077891462
 40
0.766346892
 40
1.0
 40
1.0
 40
1.0
 40
1.0
 10
46.2867839013
 20
124.5561358134
 30
0.0
 10
46.2988009841
 20
124.6660891359
 30
0.0
 10
46.3561355366
 20
124.8907183989
 30
0.0
 10
46.5111466899
 20
125.2023883551
 30
0.0
 10
46.72174331
 20
125.4730488485
 30
0.0
 10
46.8962375365
 20
125.6155459046
 30
0.0
 10
46.9875686423
 20
125.6682777667
 30
0.0
  0
SPLINE
  5
3E4
100
AcDbEntity
  8
0
100
AcDbSpline
 62
7
  6
CONTINUOUS
 70
0
 71
3
 72
9
 73
5
 74
0
 42
0.0000001
 43
0.0000001
 44
0.0000000001
 40
0.0
 40
0.0
 40
0.0
 40
0.0
 40
0.4599959246
 40
1.0
 40
1.0
 40
1.0
 40
1.0
 10
28.5068296529
 20
61.5766714972
 30
0.0
 10
28.4607148686
 20
61.6162798353
 30
0.0
 10
28.3841030465
 20
61.7305496764
 30
0.0
 10
28.358357154
 20
61.8626965806
 30
0.0
 10
28.3531835007
 20
61.9338718466
 30
0.0
  0
SPLINE
  5
3E5
100
AcDbEntity
  8
0
100
AcDbSpline
 62
7
  6
CONTINUOUS
 70
0
 71
3
 72
9
 73
5
 74
0
 42
0.0000001
 43
0.0000001
 44
0.0000000001
 40
0.0
 40
0.0
 40
0.0
 40
0.0
 40
0.4877915508
 40
1.0
 40
1.0
 40
1.0
 40
1.0
 10
28.352021774
 20
61.9498638944
 30
0.0
 10
27.9344124827
 20
67.7021269612
 30
0.0
 10
27.6444905779
 20
79.540136416
 30
0.0
 10
28.3535346326
 20
91.3562581606
 30
0.0
 10
28.9433543119
 20
97.3835629687
 30
0.0
  0
SPLINE
  5
3E6
100
AcDbEntity
  8
0
100
AcDbSpline
 62
7
  6
CONTINUOUS
 70
0
 71
3
 72
11
 73
7
 74
0
 42
0.0000001
 43
0.0000001
 44
0.0000000001
 40
0.0
 40
0.0
 40
0.0
 40
0.0
 40
0.2442532003
 40
0.5070030289
 40
0.7659939703
 40
1.0
 40
1.0
 40
1.0
 40
1.0
 10
28.9433543119
 20
97.3835629687
 30
0.0
 10
28.9541911581
 20
97.4943035515
 30
0.0
 10
29.0102036074
 20
97.7212173291
 30
0.0
 10
29.1650131235
 20
98.0364572957
 30
0.0
 10
29.3769144041
 20
98.3106479446
 30
0.0
 10
29.5531211804
 20
98.4550183265
 30
0.0
 10
29.6454408874
 20
98.508318816
 30
0.0
  0
SPLINE
  5
3E7
100
AcDbEntity
  8
0
100
AcDbSpline
 62
7
  6
CONTINUOUS
 70
0
 71
3
 72
9
 73
5
 74
0
 42
0.0000001
 43
0.0000001
 44
0.0000000001
 40
0.0
 40
0.0
 40
0.0
 40
0.0
 40
0.2393942256
 40
1.0
 40
1.0
 40
1.0
 40
1.0
 10
43.5961626132
 20
107.7400036652
 30
0.0
 10
43.6018588798
 20
107.7702690101
 30
0.0
 10
43.633207286
 20
107.8952031968
 30
0.0
 10
43.690668226
 20
108.0131661274
 30
0.0
 10
43.7451786986
 20
108.0944236041
 30
0.0
  0
SPLINE
  5
3E8
100
AcDbEntity
  8
0
100
AcDbSpline
 62
7
  6
CONTINUOUS
 70
0
 71
3
 72
9
 73
5
 74
0
 42
0.0000001
 43
0.0000001
 44
0.0000000001
 40
0.0
 40
0.0
 40
0.0
 40
0.0
 40
0.5249516908
 40
1.0
 40
1.0
 40
1.0
 40
1.0
 10
43.7451786986
 20
108.0944236041
 30
0.0
 10
43.7813081712
 20
108.1482809571
 30
0.0
 10
43.8598518015
 20
108.2447120955
 30
0.0
 10
43.9575675308
 20
108.322734255
 30
0.0
 10
44.0083930635
 20
108.3520782148
 30
0.0
  0
SPLINE
  5
3E9
100
AcDbEntity
  8
0
100
AcDbSpline
 62
7
  6
CONTINUOUS
 70
0
 71
3
 72
10
 73
6
 74
0
 42
0.0000001
 43
0.0000001
 44
0.0000000001
 40
0.0
 40
0.0
 40
0.0
 40
0.0
 40
0.5243662219
 40
0.7700797659
 40
1.0
 40
1.0
 40
1.0
 40
1.0
 10
97.0718085299
 20
114.23241384
 30
0.0
 10
97.7023969644
 20
114.2805717872
 30
0.0
 10
98.6266122535
 20
114.4364072538
 30
0.0
 10
99.7693614599
 20
114.8277242243
 30
0.0
 10
100.2875619523
 20
115.0785155099
 30
0.0
 10
100.5277195913
 20
115.2171520864
 30
0.0
  0
SPLINE
  5
3EA
100
AcDbEntity
  8
0
100
AcDbSpline
 62
7
  6
CONTINUOUS
 70
0
 71
3
 72
11
 73
7
 74
0
 42
0.0000001
 43
0.0000001
 44
0.0000000001
 40
0.0
 40
0.0
 40
0.0
 40
0.0
 40
0.233651832
 40
0.4922079534
 40
0.7549399344
 40
1.0
 40
1.0
 40
1.0
 40
1.0
 10
72.2964733636
 20
111.1040144417
 30
0.0
 10
72.2051463651
 20
111.051284951
 30
0.0
 10
72.0306595979
 20
110.9087955281
 30
0.0
 10
71.820067423
 20
110.6381502406
 30
0.0
 10
71.6650598265
 20
110.3264946987
 30
0.0
 10
71.6077116986
 20
110.1018763626
 30
0.0
 10
71.5956947059
 20
109.9919258795
 30
0.0
  0
SPLINE
  5
3EB
100
AcDbEntity
  8
0
100
AcDbSpline
 62
7
  6
CONTINUOUS
 70
0
 71
3
 72
9
 73
5
 74
0
 42
0.0000001
 43
0.0000001
 44
0.0000000001
 40
0.0
 40
0.0
 40
0.0
 40
0.0
 40
0.2558229439
 40
1.0
 40
1.0
 40
1.0
 40
1.0
 10
71.5956947059
 20
109.9919258795
 30
0.0
 10
71.4544574745
 20
108.6995184255
 30
0.0
 10
70.9666129479
 20
103.6408808235
 30
0.0
 10
70.7408137154
 20
98.5558996548
 30
0.0
 10
70.7408137154
 20
94.7739636057
 30
0.0
  0
SPLINE
  5
3EC
100
AcDbEntity
  8
0
100
AcDbSpline
 62
7
  6
CONTINUOUS
 70
0
 71
3
 72
11
 73
7
 74
0
 42
0.0000001
 43
0.0000001
 44
0.0000000001
 40
0.0
 40
0.0
 40
0.0
 40
0.0
 40
0.2320163165
 40
0.4885099326
 40
0.7511206533
 40
1.0
 40
1.0
 40
1.0
 40
1.0
 10
69.31729805
 20
93.7878150429
 30
0.0
 10
69.2654746055
 20
93.7578949419
 30
0.0
 10
69.1659820372
 20
93.6779849971
 30
0.0
 10
69.04374128
 20
93.5262150691
 30
0.0
 10
68.9505538915
 20
93.3501330261
 30
0.0
 10
68.9125835339
 20
93.222479901
 30
0.0
 10
68.9021362652
 20
93.1591460887
 30
0.0
  0
SPLINE
  5
3ED
100
AcDbEntity
  8
0
100
AcDbSpline
 62
7
  6
CONTINUOUS
 70
0
 71
3
 72
11
 73
7
 74
0
 42
0.0000001
 43
0.0000001
 44
0.0000000001
 40
0.0
 40
0.0
 40
0.0
 40
0.0
 40
0.2340062057
 40
0.4929972126
 40
0.755746981
 40
1.0
 40
1.0
 40
1.0
 40
1.0
 10
54.9543458739
 20
83.9440556441
 30
0.0
 10
54.8620260975
 20
83.8907551145
 30
0.0
 10
54.685819248
 20
83.7463846393
 30
0.0
 10
54.4739179639
 20
83.4721938888
 30
0.0
 10
54.3191085355
 20
83.1569539688
 30
0.0
 10
54.2630961365
 20
82.9300402974
 30
0.0
 10
54.2522592984
 20
82.8192997967
 30
0.0
  0
SPLINE
  5
3EE
100
AcDbEntity
  8
0
100
AcDbSpline
 62
7
  6
CONTINUOUS
 70
0
 71
3
 72
9
 73
5
 74
0
 42
0.0000001
 43
0.0000001
 44
0.0000000001
 40
0.0
 40
0.0
 40
0.0
 40
0.0
 40
0.5122148748
 40
1.0
 40
1.0
 40
1.0
 40
1.0
 10
54.2522592984
 20
82.8192997967
 30
0.0
 10
53.6621658592
 20
76.7891974649
 30
0.0
 10
52.9530055571
 20
64.9677139753
 30
0.0
 10
53.2437820972
 20
53.1243562654
 30
0.0
 10
53.6620884872
 20
47.3696086747
 30
0.0
  0
SPLINE
  5
3EF
100
AcDbEntity
  8
0
100
AcDbSpline
 62
7
  6
CONTINUOUS
 70
0
 71
3
 72
11
 73
7
 74
0
 42
0.0000001
 43
0.0000001
 44
0.0000000001
 40
0.0
 40
0.0
 40
0.0
 40
0.0
 40
0.2847234982
 40
0.5426338724
 40
0.7777664846
 40
1.0
 40
1.0
 40
1.0
 40
1.0
 10
53.6620884872
 20
47.3696086747
 30
0.0
 10
53.6652587076
 20
47.3259951456
 30
0.0
 10
53.677888947
 20
47.2430949918
 30
0.0
 10
53.7192042335
 20
47.1299842303
 30
0.0
 10
53.7817392288
 20
47.0380971425
 30
0.0
 10
53.8373733891
 20
46.9931551103
 30
0.0
 10
53.8669382431
 20
46.9761005076
 30
0.0
  0
SPLINE
  5
3F0
100
AcDbEntity
  8
0
100
AcDbSpline
 62
7
  6
CONTINUOUS
 70
0
 71
3
 72
9
 73
5
 74
0
 42
0.0000001
 43
0.0000001
 44
0.0000000001
 40
0.0
 40
0.0
 40
0.0
 40
0.0
 40
0.2593592447
 40
1.0
 40
1.0
 40
1.0
 40
1.0
 10
99.981371489
 20
114.9427310096
 30
0.0
 10
100.0193708904
 20
114.9723425224
 30
0.0
 10
100.1634570075
 20
115.0895575601
 30
0.0
 10
100.2974082438
 20
115.2195114297
 30
0.0
 10
100.3881586068
 20
115.3229035576
 30
0.0
  0
SPLINE
  5
3F1
100
AcDbEntity
  8
0
100
AcDbSpline
 62
7
  6
CONTINUOUS
 70
0
 71
3
 72
10
 73
6
 74
0
 42
0.0000001
 43
0.0000001
 44
0.0000000001
 40
0.0
 40
0.0
 40
0.0
 40
0.0
 40
0.5219872892
 40
0.7641447902
 40
1.0
 40
1.0
 40
1.0
 40
1.0
 10
100.3881586068
 20
115.3229035576
 30
0.0
 10
100.5401547254
 20
115.4960731366
 30
0.0
 10
100.731064598
 20
115.7841661697
 30
0.0
 10
100.8631789142
 20
116.2076855856
 30
0.0
 10
100.8849708961
 20
116.4193376575
 30
0.0
 10
100.8849708948
 20
116.5234480416
 30
0.0
  0
SPLINE
  5
3F2
100
AcDbEntity
  8
0
100
AcDbSpline
 62
7
  6
CONTINUOUS
 70
0
 71
3
 72
9
 73
5
 74
0
 42
0.0000001
 43
0.0000001
 44
0.0000000001
 40
0.0
 40
0.0
 40
0.0
 40
0.0
 40
0.5364251262
 40
1.0
 40
1.0
 40
1.0
 40
1.0
 10
71.5957100381
 20
42.1673918547
 30
0.0
 10
71.6038466075
 20
42.1023586599
 30
0.0
 10
71.6342064053
 20
41.9816168784
 30
0.0
 10
71.7097734388
 20
41.8797466364
 30
0.0
 10
71.7539163784
 20
41.84425829
 30
0.0
  0
SPLINE
  5
3F3
100
AcDbEntity
  8
0
100
AcDbSpline
 62
7
  6
CONTINUOUS
 70
0
 71
3
 72
11
 73
7
 74
0
 42
0.0000001
 43
0.0000001
 44
0.0000000001
 40
0.0
 40
0.0
 40
0.0
 40
0.0
 40
0.2651264607
 40
0.5278447022
 40
0.7761969944
 40
1.0
 40
1.0
 40
1.0
 40
1.0
 10
78.0578131578
 20
46.1187513349
 30
0.0
 10
78.2487042003
 20
45.8826329299
 30
0.0
 10
78.5957678443
 20
45.3849926545
 30
0.0
 10
79.0042302893
 20
44.5925057478
 30
0.0
 10
79.2834910001
 20
43.7957160753
 30
0.0
 10
79.3791918009
 20
43.2597813795
 30
0.0
 10
79.3963397669
 20
43.0040502408
 30
0.0
  0
SPLINE
  5
3F4
100
AcDbEntity
  8
0
100
AcDbSpline
 62
7
  6
CONTINUOUS
 70
0
 71
3
 72
11
 73
7
 74
0
 42
0.0000001
 43
0.0000001
 44
0.0000000001
 40
0.0
 40
0.0
 40
0.0
 40
0.0
 40
0.2329885723
 40
0.4833566731
 40
0.7421873803
 40
1.0
 40
1.0
 40
1.0
 40
1.0
 10
76.8879754759
 20
41.1193930082
 30
0.0
 10
76.6380194254
 20
41.2849404217
 30
0.0
 10
76.1476335094
 20
41.6717459936
 30
0.0
 10
75.4795985449
 20
42.35739246
 30
0.0
 10
74.8789869012
 20
43.1434053911
 30
0.0
 10
74.5394307702
 20
43.717202692
 30
0.0
 10
74.3888905671
 20
44.0128301327
 30
0.0
  0
SPLINE
  5
3F5
100
AcDbEntity
  8
0
100
AcDbSpline
 62
7
  6
CONTINUOUS
 70
0
 71
3
 72
11
 73
7
 74
0
 42
0.0000001
 43
0.0000001
 44
0.0000000001
 40
0.0
 40
0.0
 40
0.0
 40
0.0
 40
0.2371403326
 40
0.4998258833
 40
0.762671213
 40
1.0
 40
1.0
 40
1.0
 40
1.0
 10
82.3815347134
 20
47.5458168425
 30
0.0
 10
82.3814741665
 20
47.4761028015
 30
0.0
 10
82.3556955701
 20
47.3290539286
 30
0.0
 10
82.2648821029
 20
47.1222046619
 30
0.0
 10
82.1316564283
 20
46.9397400695
 30
0.0
 10
82.0173676333
 20
46.8434299301
 30
0.0
 10
81.9569474982
 20
46.8085417366
 30
0.0
  0
SPLINE
  5
3F6
100
AcDbEntity
  8
0
100
AcDbSpline
 62
7
  6
CONTINUOUS
 70
0
 71
3
 72
11
 73
7
 74
0
 42
0.0000001
 43
0.0000001
 44
0.0000000001
 40
0.0
 40
0.0
 40
0.0
 40
0.0
 40
0.2894657916
 40
0.549182062
 40
0.7823507876
 40
1.0
 40
1.0
 40
1.0
 40
1.0
 10
81.9569474982
 20
46.8085417366
 30
0.0
 10
81.9306374598
 20
46.7933496205
 30
0.0
 10
81.8782331023
 20
46.7684628307
 30
0.0
 10
81.7977262769
 20
46.7489184883
 30
0.0
 10
81.7221484614
 20
46.7508599081
 30
0.0
 10
81.6766786679
 20
46.7673658459
 30
0.0
 10
81.6568973891
 20
46.7787909191
 30
0.0
  0
SPLINE
  5
3F7
100
AcDbEntity
  8
0
100
AcDbSpline
 62
7
  6
CONTINUOUS
 70
0
 71
3
 72
11
 73
7
 74
0
 42
0.0000001
 43
0.0000001
 44
0.0000000001
 40
0.0
 40
0.0
 40
0.0
 40
0.0
 40
0.2895960905
 40
0.5491070775
 40
0.7822346764
 40
1.0
 40
1.0
 40
1.0
 40
1.0
 10
67.0064955708
 20
39.7282891919
 30
0.0
 10
66.962634075
 20
39.7029658966
 30
0.0
 10
66.8753314486
 20
39.6614686668
 30
0.0
 10
66.741184557
 20
39.6290278497
 30
0.0
 10
66.615264804
 20
39.6321846991
 30
0.0
 10
66.5395138051
 20
39.6597670515
 30
0.0
 10
66.5065245848
 20
39.6787970282
 30
0.0
  0
SPLINE
  5
3F8
100
AcDbEntity
  8
0
100
AcDbSpline
 62
7
  6
CONTINUOUS
 70
0
 71
3
 72
11
 73
7
 74
0
 42
0.0000001
 43
0.0000001
 44
0.0000000001
 40
0.0
 40
0.0
 40
0.0
 40
0.0
 40
0.2896296304
 40
0.549099988
 40
0.7822244055
 40
1.0
 40
1.0
 40
1.0
 40
1.0
 10
84.9360587236
 20
34.5673054273
 30
0.0
 10
84.8921917365
 20
34.5419796543
 30
0.0
 10
84.804893427
 20
34.5004744402
 30
0.0
 10
84.6707428527
 20
34.4680491018
 30
0.0
 10
84.5448316887
 20
34.4712132351
 30
0.0
 10
84.4690750001
 20
34.4987812613
 30
0.0
 10
84.4360815061
 20
34.5178076175
 30
0.0
  0
SPLINE
  5
3F9
100
AcDbEntity
  8
0
100
AcDbSpline
 62
7
  6
CONTINUOUS
 70
0
 71
3
 72
11
 73
7
 74
0
 42
0.0000001
 43
0.0000001
 44
0.0000000001
 40
0.0
 40
0.0
 40
0.0
 40
0.0
 40
0.2876693934
 40
0.5472045571
 40
0.7816170308
 40
1.0
 40
1.0
 40
1.0
 40
1.0
 10
79.3015088124
 20
96.0219570039
 30
0.0
 10
79.2920427122
 20
95.8334057666
 30
0.0
 10
79.2461123251
 20
95.4750289556
 30
0.0
 10
79.0806624189
 20
94.985130813
 30
0.0
 10
78.8239844651
 20
94.5876751957
 30
0.0
 10
78.5907010027
 20
94.3940046574
 30
0.0
 10
78.4665721319
 20
94.322365919
 30
0.0
  0
SPLINE
  5
3FA
100
AcDbEntity
  8
0
100
AcDbSpline
 62
7
  6
CONTINUOUS
 70
0
 71
3
 72
17
 73
13
 74
0
 42
0.0000001
 43
0.0000001
 44
0.0000000001
 40
0.0
 40
0.0
 40
0.0
 40
0.0
 40
0.0454462248
 40
0.0920185778
 40
0.1410124265
 40
0.1933737773
 40
0.3095899833
 40
0.4409318494
 40
0.5828750605
 40
0.7284741912
 40
0.8699037539
 40
1.0
 40
1.0
 40
1.0
 40
1.0
 10
75.0815675228
 20
100.6818470165
 30
0.0
 10
75.1768715503
 20
100.7368513484
 30
0.0
 10
75.3839549688
 20
100.8255657496
 30
0.0
 10
75.7233088239
 20
100.8833454391
 30
0.0
 10
76.0836265937
 20
100.8660924902
 30
0.0
 10
76.597887263
 20
100.7399464473
 30
0.0
 10
77.2467228754
 20
100.3886861804
 30
0.0
 10
77.9452498432
 20
99.7447858982
 30
0.0
 10
78.5428773192
 20
98.9177921768
 30
0.0
 10
78.9939644337
 20
97.9761639164
 30
0.0
 10
79.2659983313
 20
96.99831448
 30
0.0
 10
79.3173031424
 20
96.3365596984
 30
0.0
 10
79.3015087023
 20
96.0219569403
 30
0.0
  0
SPLINE
  5
3FB
100
AcDbEntity
  8
0
100
AcDbSpline
 62
7
  6
CONTINUOUS
 70
0
 71
3
 72
9
 73
5
 74
0
 42
0.0000001
 43
0.0000001
 44
0.0000000001
 40
0.0
 40
0.0
 40
0.0
 40
0.0
 40
0.2488683236
 40
1.0
 40
1.0
 40
1.0
 40
1.0
 10
74.8636090951
 20
95.430014781
 30
0.0
 10
74.7888638802
 20
95.5347145264
 30
0.0
 10
74.5000031895
 20
95.9634960028
 30
0.0
 10
74.2568879932
 20
96.4230964913
 30
0.0
 10
74.1034452994
 20
96.7797571577
 30
0.0
  0
SPLINE
  5
3FC
100
AcDbEntity
  8
0
100
AcDbSpline
 62
7
  6
CONTINUOUS
 70
0
 71
3
 72
9
 73
5
 74
0
 42
0.0000001
 43
0.0000001
 44
0.0000000001
 40
0.0
 40
0.0
 40
0.0
 40
0.0
 40
0.4528630207
 40
1.0
 40
1.0
 40
1.0
 40
1.0
 10
69.5895749499
 20
93.8307837701
 30
0.0
 10
69.549825723
 20
93.8462580596
 30
0.0
 10
69.4505639607
 20
93.8511607702
 30
0.0
 10
69.3619284839
 20
93.8135822822
 30
0.0
 10
69.31729805
 20
93.7878150429
 30
0.0
  0
SPLINE
  5
3FD
100
AcDbEntity
  8
0
100
AcDbSpline
 62
7
  6
CONTINUOUS
 70
0
 71
3
 72
12
 73
8
 74
0
 42
0.0000001
 43
0.0000001
 44
0.0000000001
 40
0.0
 40
0.0
 40
0.0
 40
0.0
 40
0.2981432303
 40
0.55883283
 40
0.7876411822
 40
0.8947621504
 40
1.0
 40
1.0
 40
1.0
 40
1.0
 10
79.3963395247
 20
43.0040501009
 30
0.0
 10
79.4080026267
 20
42.8301158647
 30
0.0
 10
79.4052174205
 20
42.5012904354
 30
0.0
 10
79.3064198935
 20
42.047378893
 30
0.0
 10
79.1378679535
 20
41.7343933878
 30
0.0
 10
78.9583818497
 20
41.5473034672
 30
0.0
 10
78.8564853025
 20
41.4748102779
 30
0.0
 10
78.803190765
 20
41.444053644
 30
0.0
  0
SPLINE
  5
3FE
100
AcDbEntity
  8
0
100
AcDbSpline
 62
7
  6
CONTINUOUS
 70
0
 71
3
 72
11
 73
7
 74
0
 42
0.0000001
 43
0.0000001
 44
0.0000000001
 40
0.0
 40
0.0
 40
0.0
 40
0.0
 40
0.2277275023
 40
0.4753951817
 40
0.735727257
 40
1.0
 40
1.0
 40
1.0
 40
1.0
 10
100.527615278
 20
120.1160167058
 30
0.0
 10
100.186251021
 20
120.3130989928
 30
0.0
 10
99.4304293613
 20
120.6514264696
 30
0.0
 10
98.1960988722
 20
120.9814797359
 30
0.0
 10
96.8653484215
 20
121.1443132059
 30
0.0
 10
95.9542747799
 20
121.135521863
 30
0.0
 10
95.498175857
 20
121.1006896544
 30
0.0
  0
SPLINE
  5
3FF
100
AcDbEntity
  8
0
100
AcDbSpline
 62
7
  6
CONTINUOUS
 70
0
 71
3
 72
9
 73
5
 74
0
 42
0.0000001
 43
0.0000001
 44
0.0000000001
 40
0.0
 40
0.0
 40
0.0
 40
0.0
 40
0.4877851252
 40
1.0
 40
1.0
 40
1.0
 40
1.0
 10
66.3016748242
 20
40.0723051876
 30
0.0
 10
65.8833684342
 20
45.8270527784
 30
0.0
 10
65.5925918941
 20
57.6704104883
 30
0.0
 10
66.3017521962
 20
69.4918939779
 30
0.0
 10
66.8918456354
 20
75.5219963098
 30
0.0
  0
SPLINE
  5
400
100
AcDbEntity
  8
0
100
AcDbSpline
 62
7
  6
CONTINUOUS
 70
0
 71
3
 72
11
 73
7
 74
0
 42
0.0000001
 43
0.0000001
 44
0.0000000001
 40
0.0
 40
0.0
 40
0.0
 40
0.0
 40
0.2442532003
 40
0.5070030289
 40
0.7659939703
 40
1.0
 40
1.0
 40
1.0
 40
1.0
 10
66.8918456354
 20
75.5219963098
 30
0.0
 10
66.9026824816
 20
75.6327368926
 30
0.0
 10
66.9586949309
 20
75.8596506701
 30
0.0
 10
67.113504447
 20
76.1748906368
 30
0.0
 10
67.3254057276
 20
76.4490812857
 30
0.0
 10
67.5016125039
 20
76.5934516676
 30
0.0
 10
67.5939322109
 20
76.6467521571
 30
0.0
  0
SPLINE
  5
401
100
AcDbEntity
  8
0
100
AcDbSpline
 62
7
  6
CONTINUOUS
 70
0
 71
3
 72
10
 73
6
 74
0
 42
0.0000001
 43
0.0000001
 44
0.0000000001
 40
0.0
 40
0.0
 40
0.0
 40
0.0
 40
0.2326741867
 40
0.4792573991
 40
1.0
 40
1.0
 40
1.0
 40
1.0
 10
81.0023856445
 20
95.5751585868
 30
0.0
 10
81.0145575246
 20
95.8111009993
 30
0.0
 10
81.0068696684
 20
96.2991508285
 30
0.0
 10
80.8791459826
 20
97.3077264465
 30
0.0
 10
80.6639181943
 20
98.0632108865
 30
0.0
 10
80.4745626388
 20
98.5569020056
 30
0.0
  0
SPLINE
  5
402
100
AcDbEntity
  8
0
100
AcDbSpline
 62
7
  6
CONTINUOUS
 70
0
 71
3
 72
21
 73
17
 74
0
 42
0.0000001
 43
0.0000001
 44
0.0000000001
 40
0.0
 40
0.0
 40
0.0
 40
0.0
 40
0.1569092959
 40
0.3082207757
 40
0.3792571194
 40
0.4461220932
 40
0.5084241746
 40
0.5661963637
 40
0.6199612898
 40
0.6707682367
 40
0.7201373793
 40
0.7698523425
 40
0.8216132815
 40
0.8767469243
 40
0.9361204596
 40
1.0
 40
1.0
 40
1.0
 40
1.0
 10
80.4745626388
 20
98.5569020056
 30
0.0
 10
80.2730487473
 20
99.082292551
 30
0.0
 10
79.7781782368
 20
100.0789786203
 30
0.0
 10
78.9428232846
 20
101.166152129
 30
0.0
 10
78.1758604176
 20
101.8679041089
 30
0.0
 10
77.5860660363
 20
102.2813856039
 30
0.0
 10
76.9837086256
 20
102.5820681838
 30
0.0
 10
76.3830997317
 20
102.7620100155
 30
0.0
 10
75.7988927541
 20
102.8155513916
 30
0.0
 10
75.2467186441
 20
102.7392851108
 30
0.0
 10
74.7436570799
 20
102.5338119701
 30
0.0
 10
74.306423299
 20
102.2056892167
 30
0.0
 10
73.9481373214
 20
101.7667277947
 30
0.0
 10
73.6776841968
 20
101.2307474422
 30
0.0
 10
73.4998820293
 20
100.6130111426
 30
0.0
 10
73.4474413941
 20
100.1720946721
 30
0.0
 10
73.4364160072
 20
99.9432743738
 30
0.0
  0
SPLINE
  5
403
100
AcDbEntity
  8
0
100
AcDbSpline
 62
7
  6
CONTINUOUS
 70
0
 71
3
 72
10
 73
6
 74
0
 42
0.0000001
 43
0.0000001
 44
0.0000000001
 40
0.0
 40
0.0
 40
0.0
 40
0.0
 40
0.2328573013
 40
0.4792670974
 40
1.0
 40
1.0
 40
1.0
 40
1.0
 10
73.4364160072
 20
99.9432743738
 30
0.0
 10
73.4239675558
 20
99.701549129
 30
0.0
 10
73.435317244
 20
99.2016562472
 30
0.0
 10
73.586011326
 20
98.1715352055
 30
0.0
 10
73.8339439766
 20
97.4054962124
 30
0.0
 10
74.0482539189
 20
96.9084492176
 30
0.0
  0
SPLINE
  5
404
100
AcDbEntity
  8
0
100
AcDbSpline
 62
7
  6
CONTINUOUS
 70
0
 71
3
 72
15
 73
11
 74
0
 42
0.0000001
 43
0.0000001
 44
0.0000000001
 40
0.0
 40
0.0
 40
0.0
 40
0.0
 40
0.1433789869
 40
0.2741928432
 40
0.3940462595
 40
0.5068930418
 40
0.6184318111
 40
0.7348945938
 40
0.8612018586
 40
1.0
 40
1.0
 40
1.0
 40
1.0
 10
73.5868652889
 20
99.3552575704
 30
0.0
 10
73.5983713467
 20
99.5920813801
 30
0.0
 10
73.6591676841
 20
100.0445731311
 30
0.0
 10
73.8765323453
 20
100.6644714903
 30
0.0
 10
74.2126082916
 20
101.1717604909
 30
0.0
 10
74.6575370835
 20
101.5413588694
 30
0.0
 10
75.1917628638
 20
101.7496236833
 30
0.0
 10
75.7850339819
 20
101.7852049352
 30
0.0
 10
76.4082346887
 20
101.6526834699
 30
0.0
 10
76.8092794449
 20
101.4668890935
 30
0.0
 10
77.0079951839
 20
101.3520191221
 30
0.0
  0
SPLINE
  5
405
100
AcDbEntity
  8
0
100
AcDbSpline
 62
7
  6
CONTINUOUS
 70
0
 71
3
 72
15
 73
11
 74
0
 42
0.0000001
 43
0.0000001
 44
0.0000000001
 40
0.0
 40
0.0
 40
0.0
 40
0.0
 40
0.113365468
 40
0.2353250132
 40
0.3637144839
 40
0.4958467509
 40
0.6286219819
 40
0.7588187337
 40
0.8834951452
 40
1.0
 40
1.0
 40
1.0
 40
1.0
 10
77.0079951839
 20
101.3520191221
 30
0.0
 10
77.2252753193
 20
101.2264177828
 30
0.0
 10
77.6510503485
 20
100.9208172091
 30
0.0
 10
78.2259108331
 20
100.353360637
 30
0.0
 10
78.7435035286
 20
99.6801201722
 30
0.0
 10
79.1848815046
 20
98.927120521
 30
0.0
 10
79.5354001474
 20
98.1235491577
 30
0.0
 10
79.7843688376
 20
97.3000466515
 30
0.0
 10
79.9236063973
 20
96.4876881117
 30
0.0
 10
79.9418505519
 20
95.9516360441
 30
0.0
 10
79.9283741981
 20
95.6940674924
 30
0.0
  0
SPLINE
  5
406
100
AcDbEntity
  8
0
100
AcDbSpline
 62
7
  6
CONTINUOUS
 70
0
 71
3
 72
20
 73
16
 74
0
 42
0.0000001
 43
0.0000001
 44
0.0000000001
 40
0.0
 40
0.0
 40
0.0
 40
0.0
 40
0.131099215
 40
0.1900363301
 40
0.2449531301
 40
0.2967860338
 40
0.3468685807
 40
0.3968373352
 40
0.4483770443
 40
0.5028888364
 40
0.5613498748
 40
0.6916104601
 40
0.7636450803
 40
0.8395676916
 40
1.0
 40
1.0
 40
1.0
 40
1.0
 10
79.9283741981
 20
95.6940674924
 30
0.0
 10
79.912774227
 20
95.3762694537
 30
0.0
 10
79.8412224984
 20
94.9135559662
 30
0.0
 10
79.6213449909
 20
94.3589125581
 30
0.0
 10
79.4099838399
 20
94.0140420938
 30
0.0
 10
79.1492467428
 20
93.7329358611
 30
0.0
 10
78.843012721
 20
93.5220866063
 30
0.0
 10
78.4972765193
 20
93.3870800994
 30
0.0
 10
78.1198734041
 20
93.3308937003
 30
0.0
 10
77.7187905431
 20
93.3526617743
 30
0.0
 10
77.1416559913
 20
93.4878463476
 30
0.0
 10
76.5672846391
 20
93.7743818161
 30
0.0
 10
76.0207399275
 20
94.1717896965
 30
0.0
 10
75.4621650732
 20
94.6716711274
 30
0.0
 10
75.0898466006
 20
95.1131114278
 30
0.0
 10
74.8636090951
 20
95.430014781
 30
0.0
  0
SPLINE
  5
407
100
AcDbEntity
  8
0
100
AcDbSpline
 62
7
  6
CONTINUOUS
 70
0
 71
3
 72
11
 73
7
 74
0
 42
0.0000001
 43
0.0000001
 44
0.0000000001
 40
0.0
 40
0.0
 40
0.0
 40
0.0
 40
0.2835329791
 40
0.5417405609
 40
0.777831318
 40
1.0
 40
1.0
 40
1.0
 40
1.0
 10
74.2103187453
 20
98.961288508
 30
0.0
 10
74.219823699
 20
99.1506157838
 30
0.0
 10
74.2680169951
 20
99.5120711927
 30
0.0
 10
74.4421933785
 20
100.0067539545
 30
0.0
 10
74.711273869
 20
100.4099283089
 30
0.0
 10
74.9529180197
 20
100.6075974791
 30
0.0
 10
75.0815675228
 20
100.6818470165
 30
0.0
  0
SPLINE
  5
408
100
AcDbEntity
  8
0
100
AcDbSpline
 62
7
  6
CONTINUOUS
 70
0
 71
3
 72
11
 73
7
 74
0
 42
0.0000001
 43
0.0000001
 44
0.0000000001
 40
0.0
 40
0.0
 40
0.0
 40
0.0
 40
0.2488793467
 40
0.5114900674
 40
0.7679836835
 40
1.0
 40
1.0
 40
1.0
 40
1.0
 10
81.5417226023
 20
85.8618426017
 30
0.0
 10
81.5521698709
 20
85.925176414
 30
0.0
 10
81.5901402285
 20
86.0528295391
 30
0.0
 10
81.683327617
 20
86.2289115821
 30
0.0
 10
81.8055683742
 20
86.3806815101
 30
0.0
 10
81.9050609425
 20
86.4605914549
 30
0.0
 10
81.956884387
 20
86.4905115559
 30
0.0
  0
SPLINE
  5
409
100
AcDbEntity
  8
0
100
AcDbSpline
 62
7
  6
CONTINUOUS
 70
0
 71
3
 72
11
 73
7
 74
0
 42
0.0000001
 43
0.0000001
 44
0.0000000001
 40
0.0
 40
0.0
 40
0.0
 40
0.0
 40
0.2252558516
 40
0.4618182012
 40
0.7186817095
 40
1.0
 40
1.0
 40
1.0
 40
1.0
 10
84.4360815061
 20
34.5178076175
 30
0.0
 10
84.4087779256
 20
34.5335527717
 30
0.0
 10
84.3572346928
 20
34.5741707775
 30
0.0
 10
84.2973347358
 20
34.6562426003
 30
0.0
 10
84.2553321402
 20
34.7570619816
 30
0.0
 10
84.2401524717
 20
34.8312740448
 30
0.0
 10
84.2352657635
 20
34.8703320596
 30
0.0
  0
SPLINE
  5
40A
100
AcDbEntity
  8
0
100
AcDbSpline
 62
7
  6
CONTINUOUS
 70
0
 71
3
 72
17
 73
13
 74
0
 42
0.0000001
 43
0.0000001
 44
0.0000000001
 40
0.0
 40
0.0
 40
0.0
 40
0.0
 40
0.0440434096
 40
0.0894368912
 40
0.1376315793
 40
0.1896240689
 40
0.3062152178
 40
0.4387003264
 40
0.5817710544
 40
0.7280268716
 40
0.8696565944
 40
1.0
 40
1.0
 40
1.0
 40
1.0
 10
78.4665721319
 20
94.322365919
 30
0.0
 10
78.3747068254
 20
94.2693475147
 30
0.0
 10
78.1739145823
 20
94.1845212018
 30
0.0
 10
77.8436547725
 20
94.1327007485
 30
0.0
 10
77.4912785069
 20
94.1549798142
 30
0.0
 10
76.9833839089
 20
94.2862919545
 30
0.0
 10
76.3375333176
 20
94.6383029403
 30
0.0
 10
75.6305228958
 20
95.2734973345
 30
0.0
 10
75.0139678333
 20
96.0880391134
 30
0.0
 10
74.5404435072
 20
97.0177964174
 30
0.0
 10
74.2506411941
 20
97.9881277281
 30
0.0
 10
74.1945797008
 20
98.6477857479
 30
0.0
 10
74.2103187386
 20
98.9612885041
 30
0.0
  0
SPLINE
  5
40B
100
AcDbEntity
  8
0
100
AcDbSpline
 62
7
  6
CONTINUOUS
 70
0
 71
3
 72
9
 73
5
 74
0
 42
0.0000001
 43
0.0000001
 44
0.0000000001
 40
0.0
 40
0.0
 40
0.0
 40
0.0
 40
0.2441700349
 40
1.0
 40
1.0
 40
1.0
 40
1.0
 10
83.3804000524
 20
87.4766601186
 30
0.0
 10
83.3804000524
 20
88.7175478509
 30
0.0
 10
83.4546809535
 20
93.7994663297
 30
0.0
 10
83.8179871052
 20
98.8761264455
 30
0.0
 10
84.2352752339
 20
102.6945692379
 30
0.0
  0
SPLINE
  5
40C
100
AcDbEntity
  8
0
100
AcDbSpline
 62
7
  6
CONTINUOUS
 70
0
 71
3
 72
19
 73
15
 74
0
 42
0.0000001
 43
0.0000001
 44
0.0000000001
 40
0.0
 40
0.0
 40
0.0
 40
0.0
 40
0.1606969035
 40
0.3087909013
 40
0.4395133384
 40
0.4981564813
 40
0.5527645656
 40
0.6042995288
 40
0.654165793
 40
0.7040519821
 40
0.7556425178
 40
0.8103211669
 40
0.8690608875
 40
1.0
 40
1.0
 40
1.0
 40
1.0
 10
74.9486167116
 20
95.3108639324
 30
0.0
 10
75.218761889
 20
94.9317332461
 30
0.0
 10
75.7983931542
 20
94.2433683546
 30
0.0
 10
76.7854290165
 20
93.4279408041
 30
0.0
 10
77.6683728237
 20
92.9797225143
 30
0.0
 10
78.3578130434
 20
92.8112184622
 30
0.0
 10
78.83701261
 20
92.7800958169
 30
0.0
 10
79.2881503753
 20
92.8421433502
 30
0.0
 10
79.7019081867
 20
92.9979622197
 30
0.0
 10
80.068960703
 20
93.2447265635
 30
0.0
 10
80.3815403042
 20
93.5764249983
 30
0.0
 10
80.6349894685
 20
93.9851143405
 30
0.0
 10
80.8988216968
 20
94.6448101306
 30
0.0
 10
80.9841421145
 20
95.1962739439
 30
0.0
 10
81.0023856445
 20
95.5751585868
 30
0.0
  0
SPLINE
  5
40D
100
AcDbEntity
  8
0
100
AcDbSpline
 62
7
  6
CONTINUOUS
 70
0
 71
3
 72
11
 73
7
 74
0
 42
0.0000001
 43
0.0000001
 44
0.0000000001
 40
0.0
 40
0.0
 40
0.0
 40
0.0
 40
0.2450566534
 40
0.5077891563
 40
0.7663468942
 40
1.0
 40
1.0
 40
1.0
 40
1.0
 10
84.2352752339
 20
102.6945692379
 30
0.0
 10
84.2472925334
 20
102.8045225279
 30
0.0
 10
84.3046267494
 20
103.0291518219
 30
0.0
 10
84.4596380787
 20
103.3408217226
 30
0.0
 10
84.6702346415
 20
103.6114822094
 30
0.0
 10
84.8447288662
 20
103.7539792492
 30
0.0
 10
84.9360599656
 20
103.8067111076
 30
0.0
  0
SPLINE
  5
40E
100
AcDbEntity
  8
0
100
AcDbSpline
 62
7
  6
CONTINUOUS
 70
0
 71
3
 72
10
 73
6
 74
0
 42
0.0000001
 43
0.0000001
 44
0.0000000001
 40
0.0
 40
0.0
 40
0.0
 40
0.0
 40
0.5207308157
 40
0.7671441547
 40
1.0
 40
1.0
 40
1.0
 40
1.0
 10
74.1034452994
 20
96.7797571577
 30
0.0
 10
73.921948312
 20
97.2016269439
 30
0.0
 10
73.7123795709
 20
97.8518666774
 30
0.0
 10
73.5855799298
 20
98.7260330409
 30
0.0
 10
73.5762628446
 20
99.1501657541
 30
0.0
 10
73.5868652889
 20
99.3552575704
 30
0.0
  0
SPLINE
  5
40F
100
AcDbEntity
  8
0
100
AcDbSpline
 62
7
  6
CONTINUOUS
 70
0
 71
3
 72
17
 73
13
 74
0
 42
0.0000001
 43
0.0000001
 44
0.0000000001
 40
0.0
 40
0.0
 40
0.0
 40
0.0
 40
0.1447897023
 40
0.2743133684
 40
0.3908131668
 40
0.4459144122
 40
0.4999947353
 40
0.5540760757
 40
0.6091800534
 40
0.7256727037
 40
0.8552203374
 40
1.0
 40
1.0
 40
1.0
 40
1.0
 10
100.5277195913
 20
115.2171520864
 30
0.0
 10
100.7910861627
 20
115.3691865583
 30
0.0
 10
101.2687600726
 20
115.6982177457
 30
0.0
 10
101.839452848
 20
116.2976928084
 30
0.0
 10
102.1458105714
 20
116.8625103966
 30
0.0
 10
102.265264786
 20
117.3232670695
 30
0.0
 10
102.2947137007
 20
117.6665837777
 30
0.0
 10
102.265259291
 20
118.0099074686
 30
0.0
 10
102.145771429
 20
118.4706460446
 30
0.0
 10
101.839440406
 20
119.0355245847
 30
0.0
 10
101.2686439916
 20
119.6349359376
 30
0.0
 10
100.7909562926
 20
119.9639801396
 30
0.0
 10
100.527615278
 20
120.1160167058
 30
0.0
  0
SPLINE
  5
410
100
AcDbEntity
  8
0
100
AcDbSpline
 62
7
  6
CONTINUOUS
 70
0
 71
3
 72
15
 73
11
 74
0
 42
0.0000001
 43
0.0000001
 44
0.0000000001
 40
0.0
 40
0.0
 40
0.0
 40
0.0
 40
0.1527841208
 40
0.3008213846
 40
0.4416081992
 40
0.5733466853
 40
0.6947639772
 40
0.8055142567
 40
0.9065168554
 40
1.0
 40
1.0
 40
1.0
 40
1.0
 10
95.498175857
 20
121.1006896544
 30
0.0
 10
95.1775141833
 20
121.076200769
 30
0.0
 10
94.5479700118
 20
120.9981630242
 30
0.0
 10
93.6397807384
 20
120.7928223642
 30
0.0
 10
92.8005156475
 20
120.5052902476
 30
0.0
 10
92.0520004349
 20
120.1431341123
 30
0.0
 10
91.4133980674
 20
119.7148727338
 30
0.0
 10
90.9009981763
 20
119.2302164158
 30
0.0
 10
90.5296190382
 20
118.6998736065
 30
0.0
 10
90.3807417269
 20
118.3125887671
 30
0.0
 10
90.3367992729
 20
118.1207852875
 30
0.0
  0
SPLINE
  5
411
100
AcDbEntity
  8
0
100
AcDbSpline
 62
7
  6
CONTINUOUS
 70
0
 71
3
 72
17
 73
13
 74
0
 42
0.0000001
 43
0.0000001
 44
0.0000000001
 40
0.0
 40
0.0
 40
0.0
 40
0.0
 40
0.0402675684
 40
0.082230435
 40
0.126980329
 40
0.1752834626
 40
0.2839131102
 40
0.408892407
 40
0.5477094119
 40
0.6960463916
 40
0.8486478885
 40
1.0
 40
1.0
 40
1.0
 40
1.0
 10
78.803190765
 20
41.444053644
 30
0.0
 10
78.74156318
 20
41.4084879526
 30
0.0
 10
78.6073538433
 20
41.3494972177
 30
0.0
 10
78.3864408743
 20
41.3030623978
 30
0.0
 10
78.1467367421
 20
41.2975282258
 30
0.0
 10
77.7924230164
 20
41.3458923196
 30
0.0
 10
77.3185454467
 20
41.5152721353
 30
0.0
 10
76.750632709
 20
41.8531712678
 30
0.0
 10
76.186321167
 20
42.3173358912
 30
0.0
 10
75.6534978879
 20
42.8856299306
 30
0.0
 10
75.178816522
 20
43.530768569
 30
0.0
 10
74.9130116916
 20
43.9993121846
 30
0.0
 10
74.7962445936
 20
44.2399184761
 30
0.0
  0
SPLINE
  5
412
100
AcDbEntity
  8
0
100
AcDbSpline
 62
7
  6
CONTINUOUS
 70
0
 71
3
 72
11
 73
7
 74
0
 42
0.0000001
 43
0.0000001
 44
0.0000000001
 40
0.0
 40
0.0
 40
0.0
 40
0.0
 40
0.2222336252
 40
0.4573662407
 40
0.7152764588
 40
1.0
 40
1.0
 40
1.0
 40
1.0
 10
66.5065245848
 20
39.6787970282
 30
0.0
 10
66.4769597216
 20
39.6958516495
 30
0.0
 10
66.4213255242
 20
39.7407936656
 30
0.0
 10
66.3587905709
 20
39.8326807783
 30
0.0
 10
66.317475241
 20
39.9457915039
 30
0.0
 10
66.3048450451
 20
40.0286916515
 30
0.0
 10
66.3016748242
 20
40.0723051876
 30
0.0
  0
SPLINE
  5
413
100
AcDbEntity
  8
0
100
AcDbSpline
 62
7
  6
CONTINUOUS
 70
0
 71
3
 72
10
 73
6
 74
0
 42
0.0000001
 43
0.0000001
 44
0.0000000001
 40
0.0
 40
0.0
 40
0.0
 40
0.0
 40
0.2273399921
 40
0.4722566507
 40
1.0
 40
1.0
 40
1.0
 40
1.0
 10
81.0616722181
 20
42.5773019531
 30
0.0
 10
81.0475937412
 20
42.7934621901
 30
0.0
 10
80.9887630039
 20
43.2408327266
 30
0.0
 10
80.7673891222
 20
44.1686468781
 30
0.0
 10
80.4971114963
 20
44.8587102075
 30
0.0
 10
80.2784794853
 20
45.3115481284
 30
0.0
  0
SPLINE
  5
414
100
AcDbEntity
  8
0
100
AcDbSpline
 62
7
  6
CONTINUOUS
 70
0
 71
3
 72
9
 73
5
 74
0
 42
0.0000001
 43
0.0000001
 44
0.0000000001
 40
0.0
 40
0.0
 40
0.0
 40
0.0
 40
0.248593454
 40
1.0
 40
1.0
 40
1.0
 40
1.0
 10
80.2784794853
 20
45.3115481284
 30
0.0
 10
80.21328182
 20
45.4465877098
 30
0.0
 10
79.9383697655
 20
45.9835972704
 30
0.0
 10
79.6144030106
 20
46.4955607627
 30
0.0
 10
79.3458211902
 20
46.8606725621
 30
0.0
  0
SPLINE
  5
415
100
AcDbEntity
  8
0
100
AcDbSpline
 62
7
  6
CONTINUOUS
 70
0
 71
3
 72
20
 73
16
 74
0
 42
0.0000001
 43
0.0000001
 44
0.0000000001
 40
0.0
 40
0.0
 40
0.0
 40
0.0
 40
0.1577225928
 40
0.2958855848
 40
0.3577798131
 40
0.4153313656
 40
0.4693370063
 40
0.5209065536
 40
0.5714352819
 40
0.6224394135
 40
0.6753620909
 40
0.7314061261
 40
0.7914798979
 40
0.8561673485
 40
1.0
 40
1.0
 40
1.0
 40
1.0
 10
77.3520798753
 20
40.81183776
 30
0.0
 10
77.5980234108
 20
40.6489317947
 30
0.0
 10
78.0809970678
 20
40.3738594845
 30
0.0
 10
78.7177187659
 20
40.1503508082
 30
0.0
 10
79.1955264379
 20
40.0783953415
 30
0.0
 10
79.5212236364
 20
40.0764507891
 30
0.0
 10
79.8240560616
 20
40.1248510794
 30
0.0
 10
80.1005931074
 20
40.224094042
 30
0.0
 10
80.3473012031
 20
40.3732898851
 30
0.0
 10
80.5608867472
 20
40.5706090545
 30
0.0
 10
80.7390387974
 20
40.8130584855
 30
0.0
 10
80.8804240745
 20
41.0973803008
 30
0.0
 10
80.9842133822
 20
41.4204139946
 30
0.0
 10
81.0753894601
 20
41.9154666194
 30
0.0
 10
81.0800281743
 20
42.3089058426
 30
0.0
 10
81.0616722181
 20
42.5773019531
 30
0.0
  0
SPLINE
  5
416
100
AcDbEntity
  8
0
100
AcDbSpline
 62
7
  6
CONTINUOUS
 70
0
 71
3
 72
12
 73
8
 74
0
 42
0.0000001
 43
0.0000001
 44
0.0000000001
 40
0.0
 40
0.0
 40
0.0
 40
0.0
 40
0.1081616939
 40
0.2183692802
 40
0.4513505072
 40
0.7104461785
 40
1.0
 40
1.0
 40
1.0
 40
1.0
 10
100.8849708948
 20
116.5234480416
 30
0.0
 10
100.8849708936
 20
116.610531822
 30
0.0
 10
100.8698700806
 20
116.786717457
 30
0.0
 10
100.7782585511
 20
117.1398730713
 30
0.0
 10
100.5434218543
 20
117.5730056702
 30
0.0
 10
100.1057961447
 20
118.0325368255
 30
0.0
 10
99.7395650663
 20
118.2848096756
 30
0.0
 10
99.5376697613
 20
118.401371308
 30
0.0
  0
SPLINE
  5
417
100
AcDbEntity
  8
0
100
AcDbSpline
 62
7
  6
CONTINUOUS
 70
0
 71
3
 72
9
 73
5
 74
0
 42
0.0000001
 43
0.0000001
 44
0.0000000001
 40
0.0
 40
0.0
 40
0.0
 40
0.0
 40
0.2433810616
 40
1.0
 40
1.0
 40
1.0
 40
1.0
 10
84.2352657635
 20
34.8703320596
 30
0.0
 10
84.0916847612
 20
36.0183914001
 30
0.0
 10
83.5812993248
 20
40.7453052219
 30
0.0
 10
83.3804000524
 20
45.5041753602
 30
0.0
 10
83.3804000524
 20
49.1010465135
 30
0.0
  0
SPLINE
  5
418
100
AcDbEntity
  8
0
100
AcDbSpline
 62
7
  6
CONTINUOUS
 70
0
 71
3
 72
11
 73
7
 74
0
 42
0.0000001
 43
0.0000001
 44
0.0000000001
 40
0.0
 40
0.0
 40
0.0
 40
0.0
 40
0.2661161316
 40
0.5285381122
 40
0.7762434764
 40
1.0
 40
1.0
 40
1.0
 40
1.0
 10
78.4500046208
 20
46.3491616733
 30
0.0
 10
78.6704888113
 20
46.0621847671
 30
0.0
 10
79.0699965302
 20
45.4617599885
 30
0.0
 10
79.5389927493
 20
44.5127492927
 30
0.0
 10
79.8583469954
 20
43.5641343349
 30
0.0
 10
79.9691671542
 20
42.92854118
 30
0.0
 10
79.9892504018
 20
42.6249138691
 30
0.0
  0
SPLINE
  5
419
100
AcDbEntity
  8
0
100
AcDbSpline
 62
7
  6
CONTINUOUS
 70
0
 71
3
 72
18
 73
14
 74
0
 42
0.0000001
 43
0.0000001
 44
0.0000000001
 40
0.0
 40
0.0
 40
0.0
 40
0.0
 40
0.1439563497
 40
0.2088076437
 40
0.2690951373
 40
0.3781356893
 40
0.4293327875
 40
0.47998498
 40
0.5315969815
 40
0.5855799272
 40
0.7045362549
 40
0.8424390391
 40
1.0
 40
1.0
 40
1.0
 40
1.0
 10
79.9892504018
 20
42.6249138691
 30
0.0
 10
80.0048529657
 20
42.3997314634
 30
0.0
 10
80.0013546384
 20
42.0695573099
 30
0.0
 10
79.9258657235
 20
41.6534047477
 30
0.0
 10
79.8152502723
 20
41.3027241447
 30
0.0
 10
79.638281395
 20
40.9964170907
 30
0.0
 10
79.3961381056
 20
40.7683255992
 30
0.0
 10
79.190288906
 20
40.6405600657
 30
0.0
 10
78.9591707023
 20
40.5547055575
 30
0.0
 10
78.6102631178
 20
40.495470351
 30
0.0
 10
78.1170461036
 20
40.5393209693
 30
0.0
 10
77.4991427286
 20
40.7533294241
 30
0.0
 10
77.0939506038
 20
40.9829744275
 30
0.0
 10
76.8879754759
 20
41.1193930082
 30
0.0
  0
SPLINE
  5
41A
100
AcDbEntity
  8
0
100
AcDbSpline
 62
7
  6
CONTINUOUS
 70
0
 71
3
 72
15
 73
11
 74
0
 42
0.0000001
 43
0.0000001
 44
0.0000000001
 40
0.0
 40
0.0
 40
0.0
 40
0.0
 40
0.1204900632
 40
0.2488917893
 40
0.3821665852
 40
0.5167442864
 40
0.6489796324
 40
0.7754093768
 40
0.8930947378
 40
1.0
 40
1.0
 40
1.0
 40
1.0
 10
93.3910963854
 20
115.4687385473
 30
0.0
 10
93.6426363052
 20
115.586260969
 30
0.0
 10
94.1825734719
 20
115.7867517067
 30
0.0
 10
95.043889405
 20
115.9802293573
 30
0.0
 10
95.9545924841
 20
116.0712863968
 30
0.0
 10
96.8784297429
 20
116.056031877
 30
0.0
 10
97.7786414259
 20
115.9352127354
 30
0.0
 10
98.6196569739
 20
115.7134309584
 30
0.0
 10
99.3680830434
 20
115.3995542925
 30
0.0
 10
99.8089680438
 20
115.1217923106
 30
0.0
 10
100.0020922869
 20
114.968871032
 30
0.0
  0
SPLINE
  5
41B
100
AcDbEntity
  8
0
100
AcDbSpline
 62
7
  6
CONTINUOUS
 70
0
 71
3
 72
15
 73
11
 74
0
 42
0.0000001
 43
0.0000001
 44
0.0000000001
 40
0.0
 40
0.0
 40
0.0
 40
0.0
 40
0.1141448016
 40
0.2373325024
 40
0.3669747613
 40
0.5000005267
 40
0.6330262188
 40
0.7626682638
 40
0.8858556272
 40
1.0
 40
1.0
 40
1.0
 40
1.0
 10
99.5376697613
 20
118.401371308
 30
0.0
 10
99.3150160058
 20
118.5299175621
 30
0.0
 10
98.8280806406
 20
118.7566340776
 30
0.0
 10
98.035186405
 20
118.997675647
 30
0.0
 10
97.1767036804
 20
119.1459602725
 30
0.0
 10
96.2849731638
 20
119.1960484528
 30
0.0
 10
95.3932433673
 20
119.1459559981
 30
0.0
 10
94.5347627701
 20
118.997667253
 30
0.0
 10
93.7418719849
 20
118.7566218755
 30
0.0
 10
93.2549396248
 20
118.5299029169
 30
0.0
 10
93.0322876489
 20
118.4013555125
 30
0.0
  0
SPLINE
  5
41C
100
AcDbEntity
  8
0
100
AcDbSpline
 62
7
  6
CONTINUOUS
 70
0
 71
3
 72
10
 73
6
 74
0
 42
0.0000001
 43
0.0000001
 44
0.0000000001
 40
0.0
 40
0.0
 40
0.0
 40
0.0
 40
0.2769972106
 40
0.5359485384
 40
1.0
 40
1.0
 40
1.0
 40
1.0
 10
93.0322876489
 20
118.4013555125
 30
0.0
 10
92.901532754
 20
118.3258645933
 30
0.0
 10
92.6557581748
 20
118.166202171
 30
0.0
 10
92.2376123606
 20
117.816056194
 30
0.0
 10
91.9876650109
 20
117.4995848689
 30
0.0
 10
91.8726719211
 20
117.2742957102
 30
0.0
  0
SPLINE
  5
41D
100
AcDbEntity
  8
0
100
AcDbSpline
 62
7
  6
CONTINUOUS
 70
0
 71
3
 72
9
 73
5
 74
0
 42
0.0000001
 43
0.0000001
 44
0.0000000001
 40
0.0
 40
0.0
 40
0.0
 40
0.0
 40
0.509000799
 40
1.0
 40
1.0
 40
1.0
 40
1.0
 10
91.8726719211
 20
117.2742957102
 30
0.0
 10
91.8232061969
 20
117.1773847443
 30
0.0
 10
91.7420460152
 20
116.9781825358
 30
0.0
 10
91.7007578217
 20
116.7667900144
 30
0.0
 10
91.6913178061
 20
116.662258169
 30
0.0
  0
SPLINE
  5
41E
100
AcDbEntity
  8
0
100
AcDbSpline
 62
7
  6
CONTINUOUS
 70
0
 71
3
 72
9
 73
5
 74
0
 42
0.0000001
 43
0.0000001
 44
0.0000000001
 40
0.0
 40
0.0
 40
0.0
 40
0.0
 40
0.4500022444
 40
1.0
 40
1.0
 40
1.0
 40
1.0
 10
79.7011414106
 20
133.9594798742
 30
0.0
 10
79.7011332734
 20
133.9750932776
 30
0.0
 10
79.7149103139
 20
134.0098136433
 30
0.0
 10
79.7432165565
 20
134.0316821522
 30
0.0
 10
79.7597378714
 20
134.0412321465
 30
0.0
  0
SPLINE
  5
41F
100
AcDbEntity
  8
0
100
AcDbSpline
 62
7
  6
CONTINUOUS
 70
0
 71
3
 72
9
 73
5
 74
0
 42
0.0000001
 43
0.0000001
 44
0.0000000001
 40
0.0
 40
0.0
 40
0.0
 40
0.0
 40
0.4500022444
 40
1.0
 40
1.0
 40
1.0
 40
1.0
 10
83.3074010088
 20
131.8774520262
 30
0.0
 10
83.3073928717
 20
131.8930654296
 30
0.0
 10
83.3211699121
 20
131.9277857953
 30
0.0
 10
83.3494761547
 20
131.9496543041
 30
0.0
 10
83.3659974696
 20
131.9592042984
 30
0.0
  0
SPLINE
  5
420
100
AcDbEntity
  8
0
100
AcDbSpline
 62
7
  6
CONTINUOUS
 70
0
 71
3
 72
9
 73
5
 74
0
 42
0.0000001
 43
0.0000001
 44
0.0000000001
 40
0.0
 40
0.0
 40
0.0
 40
0.0
 40
0.4500022444
 40
1.0
 40
1.0
 40
1.0
 40
1.0
 10
86.9136606071
 20
129.7954241781
 30
0.0
 10
86.9136524699
 20
129.8110375815
 30
0.0
 10
86.9274295104
 20
129.8457579472
 30
0.0
 10
86.955735753
 20
129.8676264561
 30
0.0
 10
86.9722570678
 20
129.8771764504
 30
0.0
  0
SPLINE
  5
421
100
AcDbEntity
  8
0
100
AcDbSpline
 62
7
  6
CONTINUOUS
 70
0
 71
3
 72
10
 73
6
 74
0
 42
0.0000001
 43
0.0000001
 44
0.0000000001
 40
0.0
 40
0.0
 40
0.0
 40
0.0
 40
0.4514698432
 40
0.7128121268
 40
1.0
 40
1.0
 40
1.0
 40
1.0
 10
44.2929022895
 20
108.4112532882
 30
0.0
 10
44.2530115481
 20
108.42729751
 30
0.0
 10
44.1810530999
 20
108.4314654006
 30
0.0
 10
44.0893149181
 20
108.4054930853
 30
0.0
 10
44.0419339198
 20
108.3826622304
 30
0.0
 10
44.0182545614
 20
108.3689745947
 30
0.0
  0
SPLINE
  5
422
100
AcDbEntity
  8
0
100
AcDbSpline
 62
7
  6
CONTINUOUS
 70
0
 71
3
 72
11
 73
7
 74
0
 42
0.0000001
 43
0.0000001
 44
0.0000000001
 40
0.0
 40
0.0
 40
0.0
 40
0.0
 40
0.2337034287
 40
0.4922804114
 40
0.754994634
 40
1.0
 40
1.0
 40
1.0
 40
1.0
 10
46.9893120814
 20
125.6825519193
 30
0.0
 10
46.8979872417
 20
125.6297602963
 30
0.0
 10
46.7235273408
 20
125.4871700437
 30
0.0
 10
46.5130052793
 20
125.2164149659
 30
0.0
 10
46.3581069944
 20
124.9047085993
 30
0.0
 10
46.3008596074
 20
124.6800833483
 30
0.0
 10
46.2888965491
 20
124.5701455703
 30
0.0
  0
SPLINE
  5
423
100
AcDbEntity
  8
0
100
AcDbSpline
 62
7
  6
CONTINUOUS
 70
0
 71
3
 72
9
 73
5
 74
0
 42
0.0000001
 43
0.0000001
 44
0.0000000001
 40
0.0
 40
0.0
 40
0.0
 40
0.0
 40
0.2558272732
 40
1.0
 40
1.0
 40
1.0
 40
1.0
 10
46.2888965491
 20
124.5701455703
 30
0.0
 10
46.1482909515
 20
123.2780157095
 30
0.0
 10
45.6629437258
 20
118.2205768685
 30
0.0
 10
45.4397160049
 20
113.1369091461
 30
0.0
 10
45.4416844616
 20
109.3560615204
 30
0.0
  0
SPLINE
  5
424
100
AcDbEntity
  8
0
100
AcDbSpline
 62
7
  6
CONTINUOUS
 70
0
 71
3
 72
11
 73
7
 74
0
 42
0.0000001
 43
0.0000001
 44
0.0000000001
 40
0.0
 40
0.0
 40
0.0
 40
0.0
 40
0.2320640526
 40
0.4885763544
 40
0.7511703637
 40
1.0
 40
1.0
 40
1.0
 40
1.0
 10
44.0182545614
 20
108.3689745947
 30
0.0
 10
43.9664341254
 20
108.3390202676
 30
0.0
 10
43.8669594291
 20
108.2590554673
 30
0.0
 10
43.744759273
 20
108.1072274018
 30
0.0
 10
43.6516332704
 20
107.9311186742
 30
0.0
 10
43.6137134371
 20
107.8034625354
 30
0.0
 10
43.6032953072
 20
107.740134522
 30
0.0
  0
SPLINE
  5
425
100
AcDbEntity
  8
0
100
AcDbSpline
 62
7
  6
CONTINUOUS
 70
0
 71
3
 72
11
 73
7
 74
0
 42
0.0000001
 43
0.0000001
 44
0.0000000001
 40
0.0
 40
0.0
 40
0.0
 40
0.0
 40
0.2340571645
 40
0.4930677654
 40
0.7557992442
 40
1.0
 40
1.0
 40
1.0
 40
1.0
 10
29.6561124322
 20
98.5157153758
 30
0.0
 10
29.563798391
 20
98.4623540922
 30
0.0
 10
29.3876252655
 20
98.3178886229
 30
0.0
 10
29.1757994097
 20
98.0436006314
 30
0.0
 10
29.0211028013
 20
97.7283232906
 30
0.0
 10
28.9651836104
 20
97.5014128038
 30
0.0
 10
28.9544004229
 20
97.3906886703
 30
0.0
  0
SPLINE
  5
426
100
AcDbEntity
  8
0
100
AcDbSpline
 62
7
  6
CONTINUOUS
 70
0
 71
3
 72
9
 73
5
 74
0
 42
0.0000001
 43
0.0000001
 44
0.0000000001
 40
0.0
 40
0.0
 40
0.0
 40
0.0
 40
0.5122226113
 40
1.0
 40
1.0
 40
1.0
 40
1.0
 10
28.9544004229
 20
97.3906886703
 30
0.0
 10
28.3672784386
 20
91.3619913631
 30
0.0
 10
27.6640519148
 20
79.5436208168
 30
0.0
 10
27.961070554
 20
67.7038740484
 30
0.0
 10
28.3825033149
 20
61.9511445796
 30
0.0
  0
SPLINE
  5
427
100
AcDbEntity
  8
0
100
AcDbSpline
 62
7
  6
CONTINUOUS
 70
0
 71
3
 72
9
 73
5
 74
0
 42
0.0000001
 43
0.0000001
 44
0.0000000001
 40
0.0
 40
0.0
 40
0.0
 40
0.0
 40
0.5399855012
 40
1.0
 40
1.0
 40
1.0
 40
1.0
 10
28.3825033149
 20
61.9511445796
 30
0.0
 10
28.3877158396
 20
61.8799914869
 30
0.0
 10
28.4135421133
 20
61.7478873202
 30
0.0
 10
28.4902542296
 20
61.6337157767
 30
0.0
 10
28.5364035953
 20
61.5941659959
 30
0.0
  0
SPLINE
  5
428
100
AcDbEntity
  8
0
100
AcDbSpline
 62
7
  6
CONTINUOUS
 70
0
 71
3
 72
9
 73
5
 74
0
 42
0.0000001
 43
0.0000001
 44
0.0000000001
 40
0.0
 40
0.0
 40
0.0
 40
0.0
 40
0.2441714814
 40
1.0
 40
1.0
 40
1.0
 40
1.0
 10
70.7208511431
 20
94.7741885299
 30
0.0
 10
70.7203298671
 20
96.0137016558
 30
0.0
 10
70.7923646571
 20
101.0899918089
 30
0.0
 10
71.1529998746
 20
106.1611548586
 30
0.0
 10
71.568068388
 20
109.9755294598
 30
0.0
  0
SPLINE
  5
429
100
AcDbEntity
  8
0
100
AcDbSpline
 62
7
  6
CONTINUOUS
 70
0
 71
3
 72
11
 73
7
 74
0
 42
0.0000001
 43
0.0000001
 44
0.0000000001
 40
0.0
 40
0.0
 40
0.0
 40
0.0
 40
0.2463448165
 40
0.5090093292
 40
0.7668712517
 40
1.0
 40
1.0
 40
1.0
 40
1.0
 10
71.5705495486
 20
109.9965104984
 30
0.0
 10
71.5844060137
 20
110.1051006125
 30
0.0
 10
71.6437079458
 20
110.3259148858
 30
0.0
 10
71.7988686311
 20
110.6316832695
 30
0.0
 10
72.0071752986
 20
110.8966001734
 30
0.0
 10
72.1787942735
 20
111.0360980859
 30
0.0
 10
72.2684847371
 20
111.0879449346
 30
0.0
  0
SPLINE
  5
42A
100
AcDbEntity
  8
0
100
AcDbSpline
 62
7
  6
CONTINUOUS
 70
0
 71
3
 72
9
 73
5
 74
0
 42
0.0000001
 43
0.0000001
 44
0.0000000001
 40
0.0
 40
0.0
 40
0.0
 40
0.0
 40
0.5499460027
 40
1.0
 40
1.0
 40
1.0
 40
1.0
 10
86.972258322
 20
129.7137813385
 30
0.0
 10
86.9557485256
 20
129.7233130583
 30
0.0
 10
86.9274573961
 20
129.7451474065
 30
0.0
 10
86.9136687378
 20
129.7798231527
 30
0.0
 10
86.9136606071
 20
129.7954241781
 30
0.0
  0
SPLINE
  5
42B
100
AcDbEntity
  8
0
100
AcDbSpline
 62
7
  6
CONTINUOUS
 70
0
 71
3
 72
13
 73
9
 74
0
 42
0.0000001
 43
0.0000001
 44
0.0000000001
 40
0.0
 40
0.0
 40
0.0
 40
0.0
 40
0.3001606171
 40
0.5720270442
 40
0.6935963289
 40
0.804666751
 40
0.9061311029
 40
1.0
 40
1.0
 40
1.0
 40
1.0
 10
90.6984835035
 20
131.6225978141
 30
0.0
 10
90.5436356415
 20
131.6353228326
 30
0.0
 10
90.2499783238
 20
131.6862477732
 30
0.0
 10
89.9128575724
 20
131.8204550606
 30
0.0
 10
89.6949677802
 20
131.9660725381
 30
0.0
 10
89.5681605866
 20
132.0850809985
 30
0.0
 10
89.4754851639
 20
132.215214327
 30
0.0
 10
89.4373513576
 20
132.3102635468
 30
0.0
 10
89.4256859037
 20
132.3574310446
 30
0.0
  0
SPLINE
  5
42C
100
AcDbEntity
  8
0
100
AcDbSpline
 62
7
  6
CONTINUOUS
 70
0
 71
3
 72
11
 73
7
 74
0
 42
0.0000001
 43
0.0000001
 44
0.0000000001
 40
0.0
 40
0.0
 40
0.0
 40
0.0
 40
0.2370812885
 40
0.500035633
 40
0.7629712276
 40
1.0
 40
1.0
 40
1.0
 40
1.0
 10
86.4065693132
 20
130.2037690687
 30
0.0
 10
86.386511611
 20
130.1921749003
 30
0.0
 10
86.3398035839
 20
130.1753252065
 30
0.0
 10
86.2651516158
 20
130.1670133206
 30
0.0
 10
86.1904989641
 20
130.1752718034
 30
0.0
 10
86.143785997
 20
130.1920892376
 30
0.0
 10
86.1237266263
 20
130.2036702587
 30
0.0
  0
SPLINE
  5
42D
100
AcDbEntity
  8
0
100
AcDbSpline
 62
7
  6
CONTINUOUS
 70
0
 71
3
 72
9
 73
5
 74
0
 42
0.0000001
 43
0.0000001
 44
0.0000000001
 40
0.0
 40
0.0
 40
0.0
 40
0.0
 40
0.5499460027
 40
1.0
 40
1.0
 40
1.0
 40
1.0
 10
83.3659987238
 20
131.7958091866
 30
0.0
 10
83.3494889274
 20
131.8053409063
 30
0.0
 10
83.3211977979
 20
131.8271752546
 30
0.0
 10
83.3074091396
 20
131.8618510008
 30
0.0
 10
83.3074010088
 20
131.8774520262
 30
0.0
  0
SPLINE
  5
42E
100
AcDbEntity
  8
0
100
AcDbSpline
 62
7
  6
CONTINUOUS
 70
0
 71
3
 72
13
 73
9
 74
0
 42
0.0000001
 43
0.0000001
 44
0.0000000001
 40
0.0
 40
0.0
 40
0.0
 40
0.0
 40
0.3001606171
 40
0.5720270442
 40
0.6935963289
 40
0.804666751
 40
0.9061311029
 40
1.0
 40
1.0
 40
1.0
 40
1.0
 10
87.0922239053
 20
133.7046256621
 30
0.0
 10
86.9373760433
 20
133.7173506807
 30
0.0
 10
86.6437187255
 20
133.7682756212
 30
0.0
 10
86.3065979742
 20
133.9024829086
 30
0.0
 10
86.088708182
 20
134.0481003862
 30
0.0
 10
85.9619009883
 20
134.1671088466
 30
0.0
 10
85.8692255656
 20
134.297242175
 30
0.0
 10
85.8310917594
 20
134.3922913949
 30
0.0
 10
85.8194263054
 20
134.4394588926
 30
0.0
  0
SPLINE
  5
42F
100
AcDbEntity
  8
0
100
AcDbSpline
 62
7
  6
CONTINUOUS
 70
0
 71
3
 72
11
 73
7
 74
0
 42
0.0000001
 43
0.0000001
 44
0.0000000001
 40
0.0
 40
0.0
 40
0.0
 40
0.0
 40
0.2370812885
 40
0.500035633
 40
0.7629712276
 40
1.0
 40
1.0
 40
1.0
 40
1.0
 10
82.800309715
 20
132.2857969168
 30
0.0
 10
82.7802520128
 20
132.2742027483
 30
0.0
 10
82.7335439857
 20
132.2573530545
 30
0.0
 10
82.6588920175
 20
132.2490411687
 30
0.0
 10
82.5842393658
 20
132.2572996514
 30
0.0
 10
82.5375263987
 20
132.2741170857
 30
0.0
 10
82.5174670281
 20
132.2856981067
 30
0.0
  0
SPLINE
  5
430
100
AcDbEntity
  8
0
100
AcDbSpline
 62
7
  6
CONTINUOUS
 70
0
 71
3
 72
9
 73
5
 74
0
 42
0.0000001
 43
0.0000001
 44
0.0000000001
 40
0.0
 40
0.0
 40
0.0
 40
0.0
 40
0.4877773887
 40
1.0
 40
1.0
 40
1.0
 40
1.0
 10
53.6616759889
 20
47.3565376055
 30
0.0
 10
53.240243228
 20
53.1092670743
 30
0.0
 10
52.9432245889
 20
64.9490138427
 30
0.0
 10
53.6464511126
 20
76.7673843891
 30
0.0
 10
54.233573097
 20
82.7960816963
 30
0.0
  0
SPLINE
  5
431
100
AcDbEntity
  8
0
100
AcDbSpline
 62
7
  6
CONTINUOUS
 70
0
 71
3
 72
9
 73
5
 74
0
 42
0.0000001
 43
0.0000001
 44
0.0000000001
 40
0.0
 40
0.0
 40
0.0
 40
0.0
 40
0.5499460027
 40
1.0
 40
1.0
 40
1.0
 40
1.0
 10
79.7597391255
 20
133.8778370346
 30
0.0
 10
79.7432293291
 20
133.8873687544
 30
0.0
 10
79.7149381996
 20
133.9092031026
 30
0.0
 10
79.7011495413
 20
133.9438788488
 30
0.0
 10
79.7011414106
 20
133.9594798742
 30
0.0
  0
SPLINE
  5
432
100
AcDbEntity
  8
0
100
AcDbSpline
 62
7
  6
CONTINUOUS
 70
0
 71
3
 72
9
 73
5
 74
0
 42
0.0000001
 43
0.0000001
 44
0.0000000001
 40
0.0
 40
0.0
 40
0.0
 40
0.0
 40
0.4851146688
 40
1.0
 40
1.0
 40
1.0
 40
1.0
 10
54.2361985155
 20
82.8202937704
 30
0.0
 10
54.2520344295
 20
82.9529805034
 30
0.0
 10
54.3303909632
 20
83.2213389575
 30
0.0
 10
54.4702694121
 20
83.4619432462
 30
0.0
 10
54.5562486593
 20
83.5747395891
 30
0.0
  0
SPLINE
  5
433
100
AcDbEntity
  8
0
100
AcDbSpline
 62
7
  6
CONTINUOUS
 70
0
 71
3
 72
9
 73
5
 74
0
 42
0.0000001
 43
0.0000001
 44
0.0000000001
 40
0.0
 40
0.0
 40
0.0
 40
0.0
 40
0.5234582975
 40
1.0
 40
1.0
 40
1.0
 40
1.0
 10
54.5562486593
 20
83.5747395891
 30
0.0
 10
54.6108172059
 20
83.6463281724
 30
0.0
 10
54.7263160801
 20
83.7749454459
 30
0.0
 10
54.8643382531
 20
83.8800982249
 30
0.0
 10
54.9352851062
 20
83.9211084017
 30
0.0
  0
SPLINE
  5
434
100
AcDbEntity
  8
0
100
AcDbSpline
 62
7
  6
CONTINUOUS
 70
0
 71
3
 72
13
 73
9
 74
0
 42
0.0000001
 43
0.0000001
 44
0.0000000001
 40
0.0
 40
0.0
 40
0.0
 40
0.0
 40
0.3001606171
 40
0.5720270442
 40
0.6935963289
 40
0.804666751
 40
0.9061311029
 40
1.0
 40
1.0
 40
1.0
 40
1.0
 10
83.485964307
 20
135.7866535102
 30
0.0
 10
83.331116445
 20
135.7993785287
 30
0.0
 10
83.0374591273
 20
135.8503034693
 30
0.0
 10
82.7003383759
 20
135.9845107567
 30
0.0
 10
82.4824485837
 20
136.1301282342
 30
0.0
 10
82.3556413901
 20
136.2491366946
 30
0.0
 10
82.2629659674
 20
136.3792700231
 30
0.0
 10
82.2248321611
 20
136.4743192429
 30
0.0
 10
82.2131667072
 20
136.5214867407
 30
0.0
  0
SPLINE
  5
435
100
AcDbEntity
  8
0
100
AcDbSpline
 62
7
  6
CONTINUOUS
 70
0
 71
3
 72
11
 73
7
 74
0
 42
0.0000001
 43
0.0000001
 44
0.0000000001
 40
0.0
 40
0.0
 40
0.0
 40
0.0
 40
0.2370812885
 40
0.500035633
 40
0.7629712276
 40
1.0
 40
1.0
 40
1.0
 40
1.0
 10
79.1940501167
 20
134.3678247648
 30
0.0
 10
79.1739924145
 20
134.3562305964
 30
0.0
 10
79.1272843874
 20
134.3393809026
 30
0.0
 10
79.0526324193
 20
134.3310690167
 30
0.0
 10
78.9779797676
 20
134.3393274995
 30
0.0
 10
78.9312668005
 20
134.3561449337
 30
0.0
 10
78.9112074298
 20
134.3677259548
 30
0.0
  0
SPLINE
  5
436
100
AcDbEntity
  8
0
100
AcDbSpline
 62
7
  6
CONTINUOUS
 70
0
 71
3
 72
11
 73
7
 74
0
 42
0.0000001
 43
0.0000001
 44
0.0000000001
 40
0.0
 40
0.0
 40
0.0
 40
0.0
 40
0.2222673831
 40
0.4574158143
 40
0.7153143887
 40
1.0
 40
1.0
 40
1.0
 40
1.0
 10
53.8664914353
 20
46.9634986907
 30
0.0
 10
53.8369520406
 20
46.9805384321
 30
0.0
 10
53.7813639378
 20
47.0254308678
 30
0.0
 10
53.7188562303
 20
47.1172049704
 30
0.0
 10
53.6775293836
 20
47.2301748943
 30
0.0
 10
53.6648672211
 20
47.3129759816
 30
0.0
 10
53.6616759889
 20
47.3565376055
 30
0.0
  0
SPLINE
  5
437
100
AcDbEntity
  8
0
100
AcDbSpline
 62
7
  6
CONTINUOUS
 70
0
 71
3
 72
11
 73
7
 74
0
 42
0.0000001
 43
0.0000001
 44
0.0000000001
 40
0.0
 40
0.0
 40
0.0
 40
0.0
 40
0.2505040523
 40
0.5129614453
 40
0.7686025879
 40
1.0
 40
1.0
 40
1.0
 40
1.0
 10
68.8855106118
 20
93.1627512949
 30
0.0
 10
68.8972188823
 20
93.2248152228
 30
0.0
 10
68.9364451576
 20
93.3492479571
 30
0.0
 10
69.0294865255
 20
93.5204646113
 30
0.0
 10
69.1497415203
 20
93.6676295224
 30
0.0
 10
69.2469099841
 20
93.7451532833
 30
0.0
 10
69.2974199757
 20
93.7743501195
 30
0.0
  0
ELLIPSE
  5
438
100
AcDbEntity
  8
0
100
AcDbEllipse
 62
7
  6
CONTINUOUS
 10
66.945410804
 20
150.9690695269
 30
0.0
 11
0.500029595
 21
0.8660962537
 31
0.0
 40
0.5773080272
 41
-0.0000128016
 42
0.7853472855
  0
ELLIPSE
  5
439
100
AcDbEntity
  8
0
100
AcDbEllipse
 62
7
  6
CONTINUOUS
 10
116.4451895417
 20
53.5755354993
 30
0.0
 11
0.4999833101
 21
0.8660356089
 31
0.0
 40
0.5773888861
 41
-2.3561871483
 42
-0.9599871123
  0
ELLIPSE
  5
43A
100
AcDbEntity
  8
0
100
AcDbEllipse
 62
7
  6
CONTINUOUS
 10
114.4222056738
 20
75.9553776371
 30
0.0
 11
0.500029595
 21
0.8660962537
 31
0.0
 40
0.5773080272
 41
-0.0000128016
 42
0.7853472855
  0
ELLIPSE
  5
43B
100
AcDbEntity
  8
0
100
AcDbEllipse
 62
7
  6
CONTINUOUS
 10
117.5334884645
 20
121.8101993809
 30
0.0
 11
0.500029595
 21
0.8660962537
 31
0.0
 40
0.5773080272
 41
5.4978124184
 42
7.0685325927
  0
ELLIPSE
  5
43C
100
AcDbEntity
  8
0
100
AcDbEllipse
 62
7
  6
CONTINUOUS
 10
117.5334884645
 20
74.1591183172
 30
0.0
 11
0.500029595
 21
0.8660962537
 31
0.0
 40
0.5773080272
 41
5.4978124184
 42
7.0685325927
  0
ENDSEC
  0
SECTION
  2
OBJECTS
  0
DICTIONARY
  5
C
100
AcDbDictionary
280
0
281
1
  3
ACAD_GROUP
350
D
  3
ACAD_MLINESTYLE
350
17
  3
ACAD_LAYOUT
350
1A
  3
ACAD_PLOTSETTINGS
350
19
  3
ACAD_PLOTSTYLENAME
350
E
  0
DICTIONARY
  5
D
102
{ACAD_REACTORS
330
C
102
}
100
AcDbDictionary
280
0
281
1
  0
ACDBDICTIONARYWDFLT
  5
E
102
{ACAD_REACTORS
330
C
102
}
100
AcDbDictionary
281
1
  3
Normal
350
F
100
AcDbDictionaryWithDefault
340
F
  0
DICTIONARY
  5
17
102
{ACAD_REACTORS
330
C
102
}
100
AcDbDictionary
280
0
281
1
  3
Standard
350
18
  0
DICTIONARY
  5
19
102
{ACAD_REACTORS
330
C
102
}
100
AcDbDictionary
281
1
  0
DICTIONARY
  5
1A
102
{ACAD_REACTORS
330
C
102
}
100
AcDbDictionary
281
1
  3
Model
350
43D
  3
Layout1
350
43E
  0
ACDBPLACEHOLDER
  5
F
102
{ACAD_REACTORS
330
E
102
}
  0
MLINESTYLE
  5
18
102
{ACAD_REACTORS
330
17
102
}
100
AcDbMlineStyle
  2
STANDARD
 70
0
  3

 62
256
 51
90.0
 52
90.0
 71
2
 49
0.5
 62
256
  6
BYLAYER
 49
-0.5
 62
256
  6
BYLAYER
  0
LAYOUT
  5
43D
102
{ACAD_REACTORS
330
1A
102
}
100
AcDbPlotSettings
  1

  2
none_device
  4

  6

 40
0.0
 41
0.0
 42
0.0
 43
0.0
 44
210.0
 45
297.0
 46
0.0
 47
0.0
 48
0.0
 49
0.0
140
0.0
141
0.0
142
1.0
143
1.0
 70
1024
 72
1
 73
0
 74
0
  7

 75
0
147
1.0
148
0.0
149
0.0
100
AcDbLayout
  1
Model
 70
0
 71
0
 10
0.0
 20
0.0
 11
210.0
 21
297.0
 12
0.0
 22
0.0
 32
0.0
 14
0.0
 24
0.0
 34
0.0
 15
0.0
 25
0.0
 35
0.0
146
0.0
 13
0.0
 23
0.0
 33
0.0
 16
1.0
 26
0.0
 36
0.0
 17
0.0
 27
1.0
 37
0.0
 76
0
330
210
345
0
346
0
  0
LAYOUT
  5
43E
102
{ACAD_REACTORS
330
1A
102
}
100
AcDbPlotSettings
  1

  2
none_device
  4

  6

 40
0.0
 41
0.0
 42
0.0
 43
0.0
 44
210.0
 45
297.0
 46
0.0
 47
0.0
 48
0.0
 49
0.0
140
0.0
141
0.0
142
1.0
143
1.0
 70
0
 72
1
 73
0
 74
0
  7

 75
0
147
1.0
148
0.0
149
0.0
100
AcDbLayout
  1
Layout1
 70
0
 71
1
 10
0.0
 20
0.0
 11
210.0
 21
297.0
 12
0.0
 22
0.0
 32
0.0
 14
0.0
 24
0.0
 34
0.0
 15
0.0
 25
0.0
 35
0.0
146
0.0
 13
0.0
 23
0.0
 33
0.0
 16
1.0
 26
0.0
 36
0.0
 17
0.0
 27
1.0
 37
0.0
 76
0
330
211
345
0
346
0
  0
ENDSEC
  0
EOF
