999
DXF file: C:\Users\sesa63760\Documents\7-Dev\_Creo\CAD\MCADFD0001385_3D-CAD\drw0001_1.dxf
999
Pro/ENGINEER 2019471 by Parametric Technology Corporation
  0
SECTION
  2
HEADER
  9
$ACADVER
  1
AC1024
  9
$DWGCODEPAGE
  3
ANSI_1252
  9
$EXTMAX
 10
88.7958926269
 20
125.5827624294
 30
0.0
  9
$EXTMIN
 10
0.0
 20
0.0
 30
0.0
  9
$LIMMIN
 10
0.0
 20
0.0
  9
$LIMMAX
 10
88.7958926269
 20
125.5827624294
  9
$VIEWCTR
 10
44.3979463134
 20
62.7913812147
  9
$VIEWSIZE
 40
125.5827624294
  9
$CLAYER
  8
0
  9
$LTSCALE
 40
8.186135625
  9
$CELTYPE
  6
BYLAYER
  9
$DIMSCALE
 40
1.0
  9
$DIMASZ
 40
1.0570939598
  9
$DIMEXO
 40
1.0
  9
$DIMDLI
 40
5.6558755227
  9
$DIMEXE
 40
1.0
  9
$DIMCEN
 40
1.3395494659
  9
$DIMLFAC
 40
1.0
  9
$DIMBLK
  1
_FILLED
  9
$DIMALT
 70
0
  9
$DIMALTF
 40
0.0393700787
  9
$DIMTXT
 40
1.4799315438
  9
$DIMTOL
 70
1
  9
$DIMLIM
 70
0
  9
$DIMTFAC
 40
1.0
  9
$DIMTP
 40
0.01
  9
$DIMTM
 40
0.01
  9
$DIMGAP
 40
0.625
  9
$DIMDSEP
 70
46
  9
$AUNITS
 70
0
  9
$PDMODE
 70
3
  9
$PDSIZE
 40
0.3125
  9
$HANDSEED
  5
3A1
  9
$TILEMODE
 70
1
  9
$MEASUREMENT
 70
1
  9
$INSUNITS
 70
4
  0
ENDSEC
  0
SECTION
  2
CLASSES
  0
CLASS
  1
ACDBDICTIONARYWDFLT
  2
AcDbDictionaryWithDefault
  3
AutoCAD 2000
 90
0
 91
1
280
0
281
0
  0
CLASS
  1
ACDBPLACEHOLDER
  2
AcDbPlaceHolder
  3
AutoCAD 2000
 90
0
 91
1
280
0
281
0
  0
CLASS
  1
LAYOUT
  2
AcDbLayout
  3
AutoCAD 2000
 90
0
 91
0
280
0
281
0
  0
ENDSEC
  0
SECTION
  2
TABLES
  0
TABLE
  2
VPORT
  5
8
100
AcDbSymbolTable
 70
2
  0
VPORT
  5
1F4
100
AcDbSymbolTableRecord
100
AcDbViewportTableRecord
  2
*ACTIVE
 70
0
 10
0.0
 20
0.0
 11
1.0
 21
1.0
 12
44.3979463134
 22
62.7913812147
 13
0.0
 23
0.0
 14
1.0
 24
1.0
 15
0.0
 25
0.0
 16
0.0
 26
0.0
 36
1.0
 17
0.0
 27
0.0
 37
0.0
 40
125.5827624294
 41
0.7070707071
 42
50.0
 43
0.0
 44
0.0
 50
0.0
 51
0.0
 71
0
 72
100
 73
1
 74
1
 75
0
 76
0
 77
0
 78
0
  0
ENDTAB
  0
TABLE
  2
LTYPE
  5
5
100
AcDbSymbolTable
 70
6
  0
LTYPE
  5
14
100
AcDbSymbolTableRecord
100
AcDbLinetypeTableRecord
  2
BYBLOCK
 70
0
  3

 72
65
 73
0
 40
0.0
  0
LTYPE
  5
15
100
AcDbSymbolTableRecord
100
AcDbLinetypeTableRecord
  2
BYLAYER
 70
0
  3

 72
65
 73
0
 40
0.0
  0
LTYPE
  5
16
100
AcDbSymbolTableRecord
100
AcDbLinetypeTableRecord
  2
CONTINUOUS
 70
64
  3
Solid line
 72
65
 73
0
 40
0.0
  0
LTYPE
  5
1F5
100
AcDbSymbolTableRecord
100
AcDbLinetypeTableRecord
  2
CENTER
 70
64
  3
____ _ ____ _ ____ _ ____ _ ____ _ ____ _ ____
 72
65
 73
4
 40
0.6
 49
0.375
 74
0
 49
-0.075
 74
0
 49
0.075
 74
0
 49
-0.075
 74
0
  0
LTYPE
  5
1F6
100
AcDbSymbolTableRecord
100
AcDbLinetypeTableRecord
  2
HIDDEN
 70
64
  3
- - - - - - - - - - - - - - - - - - - -
 72
65
 73
2
 40
0.2
 49
0.1
 74
0
 49
-0.1
 74
0
  0
LTYPE
  5
1F7
100
AcDbSymbolTableRecord
100
AcDbLinetypeTableRecord
  2
PHANTOM
 70
64
  3
_____ _ _ _____ _ _ _____ _ _ _____
 72
65
 73
6
 40
0.8
 49
0.45
 74
0
 49
-0.05
 74
0
 49
0.1
 74
0
 49
-0.05
 74
0
 49
0.1
 74
0
 49
-0.05
 74
0
  0
LTYPE
  5
1F8
100
AcDbSymbolTableRecord
100
AcDbLinetypeTableRecord
  2
DOT
 70
64
  3
. . . . . . . . . . . . . . . . . . . .
 72
65
 73
2
 40
0.2
 49
0.1
 74
0
 49
-0.1
 74
0
  0
LTYPE
  5
1F9
100
AcDbSymbolTableRecord
100
AcDbLinetypeTableRecord
  2
DASHED
 70
64
  3
- - - - - - - - - - - - - - - - - - - -
 72
65
 73
2
 40
0.2
 49
0.1
 74
0
 49
-0.1
 74
0
  0
ENDTAB
  0
TABLE
  2
LAYER
  5
2
100
AcDbSymbolTable
 70
36
  0
LAYER
  5
10
100
AcDbSymbolTableRecord
100
AcDbLayerTableRecord
  2
0
 70
0
 62
7
  6
CONTINUOUS
370
-3
390
F
  0
LAYER
  5
1FA
100
AcDbSymbolTableRecord
100
AcDbLayerTableRecord
  2
DEFAULT_1
 70
0
 62
7
  6
CENTER
370
-3
390
F
  0
LAYER
  5
1FB
100
AcDbSymbolTableRecord
100
AcDbLayerTableRecord
  2
DEFAULT_2
 70
0
 62
8
  6
HIDDEN
370
-3
390
F
  0
LAYER
  5
1FC
100
AcDbSymbolTableRecord
100
AcDbLayerTableRecord
  2
DEFAULT_3
 70
0
 62
7
  6
PHANTOM
370
-3
390
F
  0
LAYER
  5
1FD
100
AcDbSymbolTableRecord
100
AcDbLayerTableRecord
  2
00_COMPONENTS
 70
0
 62
7
  6
CONTINUOUS
370
-3
390
F
  0
LAYER
  5
1FE
100
AcDbSymbolTableRecord
100
AcDbLayerTableRecord
  2
01_1_DEFAULT_DATUMS
 70
0
 62
7
  6
CONTINUOUS
370
-3
390
F
  0
LAYER
  5
1FF
100
AcDbSymbolTableRecord
100
AcDbLayerTableRecord
  2
01_PLANES
 70
0
 62
7
  6
CONTINUOUS
370
-3
390
F
  0
LAYER
  5
200
100
AcDbSymbolTableRecord
100
AcDbLayerTableRecord
  2
02_COORD_SYS
 70
0
 62
7
  6
CONTINUOUS
370
-3
390
F
  0
LAYER
  5
201
100
AcDbSymbolTableRecord
100
AcDbLayerTableRecord
  2
03_AXES
 70
0
 62
7
  6
CONTINUOUS
370
-3
390
F
  0
LAYER
  5
202
100
AcDbSymbolTableRecord
100
AcDbLayerTableRecord
  2
04_POINTS
 70
0
 62
7
  6
CONTINUOUS
370
-3
390
F
  0
LAYER
  5
203
100
AcDbSymbolTableRecord
100
AcDbLayerTableRecord
  2
05_CURVES
 70
0
 62
7
  6
CONTINUOUS
370
-3
390
F
  0
LAYER
  5
204
100
AcDbSymbolTableRecord
100
AcDbLayerTableRecord
  2
06_SURFS
 70
0
 62
7
  6
CONTINUOUS
370
-3
390
F
  0
LAYER
  5
205
100
AcDbSymbolTableRecord
100
AcDbLayerTableRecord
  2
07_COSMETICS
 70
0
 62
7
  6
CONTINUOUS
370
-3
390
F
  0
LAYER
  5
206
100
AcDbSymbolTableRecord
100
AcDbLayerTableRecord
  2
10_NOTES
 70
0
 62
7
  6
CONTINUOUS
370
-3
390
F
  0
LAYER
  5
207
100
AcDbSymbolTableRecord
100
AcDbLayerTableRecord
  2
11_NOTES_PUB
 70
0
 62
7
  6
CONTINUOUS
370
-3
390
F
  0
LAYER
  5
208
100
AcDbSymbolTableRecord
100
AcDbLayerTableRecord
  2
13_REF_GTOL
 70
0
 62
7
  6
CONTINUOUS
370
-3
390
F
  0
LAYER
  5
209
100
AcDbSymbolTableRecord
100
AcDbLayerTableRecord
  2
16_MISC
 70
0
 62
7
  6
CONTINUOUS
370
-3
390
F
  0
LAYER
  5
20A
100
AcDbSymbolTableRecord
100
AcDbLayerTableRecord
  2
17_NO_PRINT
 70
0
 62
7
  6
CONTINUOUS
370
-3
390
F
  0
LAYER
  5
20B
100
AcDbSymbolTableRecord
100
AcDbLayerTableRecord
  2
18_DATUM_CAMS_JOINTS
 70
0
 62
7
  6
CONTINUOUS
370
-3
390
F
  0
LAYER
  5
20C
100
AcDbSymbolTableRecord
100
AcDbLayerTableRecord
  2
19_DATUM_FUNCTIONAL
 70
0
 62
7
  6
CONTINUOUS
370
-3
390
F
  0
LAYER
  5
20D
100
AcDbSymbolTableRecord
100
AcDbLayerTableRecord
  2
20_DATUM_KINEMATIC_SCHEME
 70
0
 62
7
  6
CONTINUOUS
370
-3
390
F
  0
ENDTAB
  0
TABLE
  2
STYLE
  5
3
100
AcDbSymbolTable
 70
1
  0
STYLE
  5
11
100
AcDbSymbolTableRecord
100
AcDbTextStyleTableRecord
  2
STANDARD
 70
0
 40
0.0
 41
0.8
 50
0.0
 71
0
 42
0.2
  3
txt
  4

  0
STYLE
  5
20E
100
AcDbSymbolTableRecord
100
AcDbTextStyleTableRecord
  2
TEXTSTYLE_1
 70
0
 40
0.0
 41
0.8
 50
0.0
 71
0
 42
0.2
  3
gdt
  4

  0
ENDTAB
  0
TABLE
  2
VIEW
  5
6
100
AcDbSymbolTable
 70
0
  0
ENDTAB
  0
TABLE
  2
UCS
  5
7
100
AcDbSymbolTable
 70
0
  0
ENDTAB
  0
TABLE
  2
APPID
  5
9
100
AcDbSymbolTable
 70
1
  0
APPID
  5
20F
100
AcDbSymbolTableRecord
100
AcDbRegAppTableRecord
  2
ACAD
 70
0
  0
ENDTAB
  0
TABLE
  2
BLOCK_RECORD
  5
1
100
AcDbSymbolTable
 70
0
  0
BLOCK_RECORD
  5
210
100
AcDbSymbolTableRecord
100
AcDbBlockTableRecord
  2
*Model_Space
  0
BLOCK_RECORD
  5
211
100
AcDbSymbolTableRecord
100
AcDbBlockTableRecord
  2
*Paper_Space
  0
BLOCK_RECORD
  5
212
100
AcDbSymbolTableRecord
100
AcDbBlockTableRecord
  2
_FILLED
  0
ENDTAB
  0
TABLE
  2
DIMSTYLE
  5
A
100
AcDbSymbolTable
 70
1
100
AcDbDimStyleTable
 71
0
  0
DIMSTYLE
105
213
100
AcDbSymbolTableRecord
100
AcDbDimStyleTableRecord
  2
STANDARD
 70
0
  3

  4

 40
1.0
 41
1.0570939598
 42
1.0
 43
0.38
 44
1.0
 45
0.0
 46
0.0
 47
0.01
 48
0.01
140
1.4799315438
141
0.09
142
0.0
143
25.4
144
1.0
145
0.0
146
1.0
147
0.625
 71
1
 72
0
 73
0
 74
0
 75
0
 76
0
 77
1
 78
8
 79
2
170
0
171
1
172
0
173
0
174
0
175
0
176
0
177
0
178
0
270
2
179
2
271
2
272
2
273
2
274
2
275
0
280
0
281
0
282
0
283
1
284
8
285
0
286
0
287
3
288
0
340
11
278
46
341
212
342
212
343
212
344
212
  0
ENDTAB
  0
ENDSEC
  0
SECTION
  2
BLOCKS
  0
BLOCK
  5
20
100
AcDbEntity
  8
0
100
AcDbBlockBegin
  2
*Model_Space
 70
0
 10
0.0
 20
0.0
 30
0.0
  3
*Model_Space
  1

  0
ENDBLK
  5
21
100
AcDbEntity
  8
0
100
AcDbBlockEnd
  0
BLOCK
  5
1C
100
AcDbEntity
  8
0
100
AcDbBlockBegin
  2
*Paper_Space
 70
0
 10
0.0
 20
0.0
 30
0.0
  3
*Paper_Space
  1

  0
ENDBLK
  5
1D
100
AcDbEntity
  8
0
100
AcDbBlockEnd
  0
BLOCK
  5
214
100
AcDbEntity
  8
0
100
AcDbBlockBegin
  2
_FILLED
 70
64
 10
0.0
 20
0.0
  3
_FILLED
  1

  0
SOLID
  5
215
100
AcDbEntity
  8
0
  6
BYBLOCK
 62
0
100
AcDbTrace
 10
0.0
 20
0.0
 11
-1.0
 21
0.25
 12
-1.0
 22
-0.25
 13
-1.0
 23
-0.25
  0
ENDBLK
  5
216
100
AcDbEntity
  8
0
  6
BYBLOCK
 62
0
100
AcDbBlockEnd
  0
ENDSEC
  0
SECTION
  2
ENTITIES
  0
LINE
  5
217
100
AcDbEntity
  8
0
100
AcDbLine
 62
7
  6
CONTINUOUS
 10
26.1336869861
 20
25.6917299246
 11
45.0135166475
 21
14.7917017789
  0
LINE
  5
218
100
AcDbEntity
  8
0
100
AcDbLine
 62
7
  6
CONTINUOUS
 10
11.9949225787
 20
36.0978023176
 11
29.5312437624
 21
25.9734316055
  0
LINE
  5
219
100
AcDbEntity
  8
0
100
AcDbLine
 62
7
  6
CONTINUOUS
 10
29.5752958251
 20
26.0497337425
 11
33.9726591261
 21
23.5109722914
  0
LINE
  5
21A
100
AcDbEntity
  8
0
100
AcDbLine
 62
7
  6
CONTINUOUS
 10
10.3013451657
 20
37.8116689554
 11
27.8376663494
 21
27.6872982433
  0
LINE
  5
21B
100
AcDbEntity
  8
0
100
AcDbLine
 62
7
  6
CONTINUOUS
 10
29.9274020961
 20
26.5228746887
 11
33.5584344847
 21
24.4265445871
  0
LINE
  5
21C
100
AcDbEntity
  8
0
100
AcDbLine
 62
7
  6
CONTINUOUS
 10
10.3013451657
 20
37.8116689554
 11
11.9949225787
 21
36.0978023176
  0
LINE
  5
21D
100
AcDbEntity
  8
0
100
AcDbLine
 62
7
  6
CONTINUOUS
 10
58.2717080018
 20
22.9769896018
 11
57.9042860701
 21
23.0098104421
  0
LINE
  5
21E
100
AcDbEntity
  8
0
100
AcDbLine
 62
7
  6
CONTINUOUS
 10
33.5584344847
 20
29.1674546894
 11
32.7004228919
 21
29.4723269893
  0
LINE
  5
21F
100
AcDbEntity
  8
0
100
AcDbLine
 62
7
  6
CONTINUOUS
 10
31.5465307392
 20
29.7609851495
 11
31.8121068611
 21
29.6274140664
  0
LINE
  5
220
100
AcDbEntity
  8
0
100
AcDbLine
 62
7
  6
CONTINUOUS
 10
28.7048029609
 20
28.0612843715
 11
29.3193526065
 21
27.7064819948
  0
LINE
  5
221
100
AcDbEntity
  8
0
100
AcDbLine
 62
7
  6
CONTINUOUS
 10
30.1911109838
 20
27.5422790513
 11
28.874892279
 21
28.3021810836
  0
LINE
  5
222
100
AcDbEntity
  8
0
100
AcDbLine
 62
7
  6
CONTINUOUS
 10
36.6696913684
 20
24.5898140299
 11
36.3868498335
 21
24.7531173352
  0
LINE
  5
223
100
AcDbEntity
  8
0
100
AcDbLine
 62
7
  6
CONTINUOUS
 10
29.5701327749
 20
29.0182260882
 11
30.7516120656
 21
28.3361141331
  0
LINE
  5
224
100
AcDbEntity
  8
0
100
AcDbLine
 62
7
  6
CONTINUOUS
 10
29.8410758446
 20
29.6705823851
 11
30.5427449038
 21
29.2654827295
  0
LINE
  5
225
100
AcDbEntity
  8
0
100
AcDbLine
 62
7
  6
CONTINUOUS
 10
31.2150382521
 20
28.9924624911
 11
30.7401556313
 21
29.2666298976
  0
LINE
  5
226
100
AcDbEntity
  8
0
100
AcDbLine
 62
7
  6
CONTINUOUS
 10
39.427340987
 20
24.3446712093
 11
40.2758726571
 21
23.8547823039
  0
LINE
  5
227
100
AcDbEntity
  8
0
100
AcDbLine
 62
7
  6
CONTINUOUS
 10
30.0610071335
 20
29.9820700492
 11
30.4711115461
 21
29.7453015126
  0
LINE
  5
228
100
AcDbEntity
  8
0
100
AcDbLine
 62
7
  6
CONTINUOUS
 10
40.6055212272
 20
24.4809663359
 11
40.2758726571
 21
24.671284721
  0
LINE
  5
229
100
AcDbEntity
  8
0
100
AcDbLine
 62
7
  6
CONTINUOUS
 10
38.5433236957
 20
25.6715497013
 11
39.427340987
 21
25.1611736264
  0
LINE
  5
22A
100
AcDbEntity
  8
0
100
AcDbLine
 62
7
  6
CONTINUOUS
 10
31.3152061207
 20
29.9142933526
 11
31.8121068611
 21
29.6274140664
  0
LINE
  5
22B
100
AcDbEntity
  8
0
100
AcDbLine
 62
7
  6
CONTINUOUS
 10
30.0382794405
 20
30.8040163548
 11
26.396664356
 21
32.9064562406
  0
LINE
  5
22C
100
AcDbEntity
  8
0
100
AcDbLine
 62
7
  6
CONTINUOUS
 10
12.5019582569
 20
40.928387067
 11
16.1435733414
 21
38.8259471812
  0
LINE
  5
22D
100
AcDbEntity
  8
0
100
AcDbLine
 62
7
  6
CONTINUOUS
 10
40.4172863591
 20
24.9162130247
 11
40.5003579449
 21
24.8682527073
  0
LINE
  5
22E
100
AcDbEntity
  8
0
100
AcDbLine
 62
7
  6
CONTINUOUS
 10
30.6321179148
 20
30.6664121472
 11
32.7004123825
 21
29.4723087938
  0
LINE
  5
22F
100
AcDbEntity
  8
0
100
AcDbLine
 62
7
  6
CONTINUOUS
 10
29.5312437624
 20
25.9734316055
 11
27.8376663494
 21
27.6872982433
  0
LINE
  5
230
100
AcDbEntity
  8
0
100
AcDbLine
 62
7
  6
CONTINUOUS
 10
28.6470592582
 20
27.9795022333
 11
28.9837580913
 21
27.6387697149
  0
LINE
  5
231
100
AcDbEntity
  8
0
100
AcDbLine
 62
7
  6
CONTINUOUS
 10
29.3909859642
 20
27.2266632118
 11
29.7276847973
 21
26.8859306934
  0
LINE
  5
232
100
AcDbEntity
  8
0
100
AcDbLine
 62
7
  6
CONTINUOUS
 10
59.7918296375
 20
111.097546953
 11
53.7107366374
 21
107.5866472297
  0
LINE
  5
233
100
AcDbEntity
  8
0
100
AcDbLine
 62
7
  6
CONTINUOUS
 10
36.0331407071
 20
97.3805433829
 11
30.9525996367
 21
94.4473091373
  0
LINE
  5
234
100
AcDbEntity
  8
0
100
AcDbLine
 62
7
  6
CONTINUOUS
 10
41.5839114228
 20
100.0545500529
 11
40.7353868181
 21
99.5646570683
  0
LINE
  5
235
100
AcDbEntity
  8
0
100
AcDbLine
 62
7
  6
CONTINUOUS
 10
40.3679648864
 20
99.1075764582
 11
36.704894946
 21
96.9927146661
  0
LINE
  5
236
100
AcDbEntity
  8
0
100
AcDbLine
 62
7
  6
CONTINUOUS
 10
26.805441225
 20
91.2772965119
 11
28.7853319692
 21
92.4203801427
  0
LINE
  5
237
100
AcDbEntity
  8
0
100
AcDbLine
 62
7
  6
CONTINUOUS
 10
46.0386655972
 20
102.3815374972
 11
54.3824908763
 21
107.1988185129
  0
LINE
  5
238
100
AcDbEntity
  8
0
100
AcDbLine
 62
7
  6
CONTINUOUS
 10
43.3516763149
 20
100.3403240201
 11
42.2203101754
 21
99.6871333739
  0
LINE
  5
239
100
AcDbEntity
  8
0
100
AcDbLine
 62
7
  6
CONTINUOUS
 10
43.7190982466
 20
100.3075031798
 11
46.6750643498
 21
102.0141208181
  0
LINE
  5
23A
100
AcDbEntity
  8
0
100
AcDbLine
 62
7
  6
CONTINUOUS
 10
30.9525996367
 20
92.8959545448
 11
29.4571094246
 21
92.0325380222
  0
LINE
  5
23B
100
AcDbEntity
  8
0
100
AcDbLine
 62
7
  6
CONTINUOUS
 10
26.805441225
 20
90.5016058117
 11
26.1336869861
 21
90.1137706361
  0
LINE
  5
23C
100
AcDbEntity
  8
0
100
AcDbLine
 62
7
  6
CONTINUOUS
 10
49.7863318319
 20
102.3407222601
 11
45.8265503435
 21
100.0545549984
  0
LINE
  5
23D
100
AcDbEntity
  8
0
100
AcDbLine
 62
7
  6
CONTINUOUS
 10
30.4638197487
 20
30.919670553
 11
26.8222046642
 21
33.0221104388
  0
LINE
  5
23E
100
AcDbEntity
  8
0
100
AcDbLine
 62
7
  6
CONTINUOUS
 10
16.3248193052
 20
39.0826415941
 11
12.927498565
 21
41.0440412651
  0
LINE
  5
23F
100
AcDbEntity
  8
0
100
AcDbLine
 62
7
  6
CONTINUOUS
 10
39.5332690678
 20
26.2430915167
 11
39.8741407447
 21
26.0462936144
  0
LINE
  5
240
100
AcDbEntity
  8
0
100
AcDbLine
 62
7
  6
CONTINUOUS
 10
17.2054387173
 20
40.3298621867
 11
27.4585313548
 21
34.4103735447
  0
LINE
  5
241
100
AcDbEntity
  8
0
100
AcDbLine
 62
7
  6
CONTINUOUS
 10
16.7498258662
 20
41.3191614333
 11
27.4113577459
 21
35.163862384
  0
LINE
  5
242
100
AcDbEntity
  8
0
100
AcDbLine
 62
7
  6
CONTINUOUS
 10
16.5584365108
 20
41.5290806198
 11
16.792876797
 21
41.3937295195
  0
LINE
  5
243
100
AcDbEntity
  8
0
100
AcDbLine
 62
7
  6
CONTINUOUS
 10
27.4720006868
 20
35.5452569747
 11
16.4995106302
 21
41.8800837496
  0
LINE
  5
244
100
AcDbEntity
  8
0
100
AcDbLine
 62
7
  6
CONTINUOUS
 10
27.614298579
 20
36.4401945486
 11
16.8193774592
 21
42.6725041694
  0
LINE
  5
245
100
AcDbEntity
  8
0
100
AcDbLine
 62
7
  6
CONTINUOUS
 10
31.2150382521
 20
28.9924624911
 11
30.878339419
 21
29.3331950095
  0
LINE
  5
246
100
AcDbEntity
  8
0
100
AcDbLine
 62
7
  6
CONTINUOUS
 10
30.4711115461
 20
29.7453015126
 11
30.134412713
 21
30.086034031
  0
LINE
  5
247
100
AcDbEntity
  8
0
100
AcDbLine
 62
7
  6
CONTINUOUS
 10
14.6786048232
 20
68.8031718351
 11
14.6786048232
 21
50.1817206415
  0
LINE
  5
248
100
AcDbEntity
  8
0
100
AcDbLine
 62
7
  6
CONTINUOUS
 10
17.789861707
 20
72.2324509464
 11
17.5070201721
 21
71.742552318
  0
LINE
  5
249
100
AcDbEntity
  8
0
100
AcDbLine
 62
7
  6
CONTINUOUS
 10
31.649126356
 20
90.7670050869
 11
34.4881482625
 21
92.4061053647
  0
LINE
  5
24A
100
AcDbEntity
  8
0
100
AcDbLine
 62
7
  6
CONTINUOUS
 10
16.6474410685
 20
41.4312013314
 11
16.792876797
 21
41.3937295195
  0
LINE
  5
24B
100
AcDbEntity
  8
0
100
AcDbLine
 62
7
  6
CONTINUOUS
 10
18.4616418528
 20
47.9976326049
 11
18.4616418528
 21
48.2679281092
  0
LINE
  5
24C
100
AcDbEntity
  8
0
100
AcDbLine
 62
7
  6
CONTINUOUS
 10
40.7353868181
 20
99.5646570683
 11
40.3679648864
 21
99.1075764582
  0
LINE
  5
24D
100
AcDbEntity
  8
0
100
AcDbLine
 62
7
  6
CONTINUOUS
 10
32.2214521443
 20
83.3738321152
 11
31.2315067722
 21
82.8022902998
  0
LINE
  5
24E
100
AcDbEntity
  8
0
100
AcDbLine
 62
7
  6
CONTINUOUS
 10
53.6047573201
 20
95.5639066986
 11
57.5645388085
 21
97.8500739603
  0
LINE
  5
24F
100
AcDbEntity
  8
0
100
AcDbLine
 62
7
  6
CONTINUOUS
 10
33.1340644332
 20
82.9286265973
 11
33.2486051893
 21
82.994756339
  0
LINE
  5
250
100
AcDbEntity
  8
0
100
AcDbLine
 62
7
  6
CONTINUOUS
 10
30.0382794405
 20
30.8040163548
 11
30.4638197487
 21
30.919670553
  0
LINE
  5
251
100
AcDbEntity
  8
0
100
AcDbLine
 62
7
  6
CONTINUOUS
 10
26.8222046642
 20
33.0221104388
 11
26.396664356
 21
32.9064562406
  0
LINE
  5
252
100
AcDbEntity
  8
0
100
AcDbLine
 62
7
  6
CONTINUOUS
 10
14.6786048232
 20
50.1817206415
 11
18.4616418528
 21
47.9976326049
  0
LINE
  5
253
100
AcDbEntity
  8
0
100
AcDbLine
 62
7
  6
CONTINUOUS
 10
29.7753974551
 20
41.4657805325
 11
33.5584344847
 21
39.2816924958
  0
LINE
  5
254
100
AcDbEntity
  8
0
100
AcDbLine
 62
7
  6
CONTINUOUS
 10
18.4616418528
 20
48.2679281092
 11
29.7753974551
 21
41.7360760369
  0
LINE
  5
255
100
AcDbEntity
  8
0
100
AcDbLine
 62
7
  6
CONTINUOUS
 10
70.0590747991
 20
103.5124268333
 11
67.7468452514
 21
102.1774684501
  0
LINE
  5
256
100
AcDbEntity
  8
0
100
AcDbLine
 62
7
  6
CONTINUOUS
 10
33.1340644332
 20
81.7038729716
 11
33.8359584235
 21
82.109109237
  0
LINE
  5
257
100
AcDbEntity
  8
0
100
AcDbLine
 62
7
  6
CONTINUOUS
 10
26.1336869861
 20
77.0497319621
 11
17.789861707
 21
72.2324509464
  0
LINE
  5
258
100
AcDbEntity
  8
0
100
AcDbLine
 62
7
  6
CONTINUOUS
 10
17.2241786372
 20
71.9058556233
 11
16.0928124977
 21
71.2526649771
  0
LINE
  5
259
100
AcDbEntity
  8
0
100
AcDbLine
 62
7
  6
CONTINUOUS
 10
33.1340644332
 20
80.8873705545
 11
34.1240098053
 21
81.4589123699
  0
LINE
  5
25A
100
AcDbEntity
  8
0
100
AcDbLine
 62
7
  6
CONTINUOUS
 10
33.9825961033
 20
81.2139840662
 11
34.2344805317
 21
81.3594087406
  0
LINE
  5
25B
100
AcDbEntity
  8
0
100
AcDbLine
 62
7
  6
CONTINUOUS
 10
73.050136984
 20
103.4430328057
 11
71.6147161944
 21
102.6142971733
  0
LINE
  5
25C
100
AcDbEntity
  8
0
100
AcDbLine
 62
7
  6
CONTINUOUS
 10
71.6147161944
 20
101.1445928225
 11
73.2745636564
 21
102.1029004812
  0
LINE
  5
25D
100
AcDbEntity
  8
0
100
AcDbLine
 62
7
  6
CONTINUOUS
 10
63.5749867809
 20
26.283771481
 11
62.9385880282
 21
26.6511881601
  0
LINE
  5
25E
100
AcDbEntity
  8
0
100
AcDbLine
 62
7
  6
CONTINUOUS
 10
63.5749867809
 20
27.9167763153
 11
62.9385880282
 21
28.2841929943
  0
LINE
  5
25F
100
AcDbEntity
  8
0
100
AcDbLine
 62
7
  6
CONTINUOUS
 10
64.9891944553
 20
28.733264623
 11
64.3527957027
 21
29.1006813021
  0
LINE
  5
260
100
AcDbEntity
  8
0
100
AcDbLine
 62
7
  6
CONTINUOUS
 10
26.1336869861
 20
90.1137706361
 11
26.1336869861
 21
77.0497319621
  0
LINE
  5
261
100
AcDbEntity
  8
0
100
AcDbLine
 62
7
  6
CONTINUOUS
 10
26.1336869861
 20
27.934967549
 11
26.1336869861
 21
25.6917299246
  0
LINE
  5
262
100
AcDbEntity
  8
0
100
AcDbLine
 62
7
  6
CONTINUOUS
 10
26.805441225
 20
91.2772965119
 11
26.805441225
 21
89.7259419193
  0
LINE
  5
263
100
AcDbEntity
  8
0
100
AcDbLine
 62
7
  6
CONTINUOUS
 10
29.7753974551
 20
41.4657805325
 11
29.7753974551
 21
41.7360760369
  0
LINE
  5
264
100
AcDbEntity
  8
0
100
AcDbLine
 62
7
  6
CONTINUOUS
 10
32.8512276086
 20
76.1924984849
 11
32.6390964575
 21
75.8250745136
  0
LINE
  5
265
100
AcDbEntity
  8
0
100
AcDbLine
 62
7
  6
CONTINUOUS
 10
46.9933779521
 20
85.9906052558
 11
43.457858766
 21
83.9493844864
  0
LINE
  5
266
100
AcDbEntity
  8
0
100
AcDbLine
 62
7
  6
CONTINUOUS
 10
75.8785758846
 20
101.8100697876
 11
74.443155095
 21
100.9813341553
  0
LINE
  5
267
100
AcDbEntity
  8
0
100
AcDbLine
 62
7
  6
CONTINUOUS
 10
46.9933779521
 20
84.4392506632
 11
44.8013904603
 21
83.1737136491
  0
LINE
  5
268
100
AcDbEntity
  8
0
100
AcDbLine
 62
7
  6
CONTINUOUS
 10
59.6151999933
 20
90.9507866661
 11
58.4838338538
 21
90.2975960199
  0
LINE
  5
269
100
AcDbEntity
  8
0
100
AcDbLine
 62
7
  6
CONTINUOUS
 10
73.9694064168
 20
99.1973134916
 11
75.7513080866
 21
100.2260887594
  0
LINE
  5
26A
100
AcDbEntity
  8
0
100
AcDbLine
 62
7
  6
CONTINUOUS
 10
59.982621925
 20
90.9179658259
 11
62.9385880282
 21
92.6245834642
  0
LINE
  5
26B
100
AcDbEntity
  8
0
100
AcDbLine
 62
7
  6
CONTINUOUS
 10
59.1202326064
 20
89.9301793408
 11
58.2717080018
 21
89.4402863562
  0
LINE
  5
26C
100
AcDbEntity
  8
0
100
AcDbLine
 62
7
  6
CONTINUOUS
 10
57.9042860701
 20
88.9832057461
 11
54.2412161296
 21
86.868343954
  0
LINE
  5
26D
100
AcDbEntity
  8
0
100
AcDbLine
 62
7
  6
CONTINUOUS
 10
44.3417624086
 20
81.1529257998
 11
46.3216531528
 21
82.2960094306
  0
LINE
  5
26E
100
AcDbEntity
  8
0
100
AcDbLine
 62
7
  6
CONTINUOUS
 10
63.5749867809
 20
92.2571667851
 11
71.91881206
 21
97.0744478008
  0
LINE
  5
26F
100
AcDbEntity
  8
0
100
AcDbLine
 62
7
  6
CONTINUOUS
 10
78.6716592989
 20
100.1975188073
 11
72.5905662989
 21
96.686619084
  0
LINE
  5
270
100
AcDbEntity
  8
0
100
AcDbLine
 62
7
  6
CONTINUOUS
 10
54.9129703685
 20
86.4805152372
 11
50.5289265778
 21
83.9494014832
  0
LINE
  5
271
100
AcDbEntity
  8
0
100
AcDbLine
 62
7
  6
CONTINUOUS
 10
68.566312727
 20
31.6558434342
 11
68.8107060953
 21
31.5147460492
  0
LINE
  5
272
100
AcDbEntity
  8
0
100
AcDbLine
 62
7
  6
CONTINUOUS
 10
30.9525996367
 20
94.4473091373
 11
30.9525996367
 21
92.8959545448
  0
LINE
  5
273
100
AcDbEntity
  8
0
100
AcDbLine
 62
7
  6
CONTINUOUS
 10
32.6390964575
 20
75.8250745136
 11
32.6390964575
 21
76.3149759639
  0
LINE
  5
274
100
AcDbEntity
  8
0
100
AcDbLine
 62
7
  6
CONTINUOUS
 10
33.1340644332
 20
83.1113844043
 11
33.1340644332
 21
82.9286265973
  0
LINE
  5
275
100
AcDbEntity
  8
0
100
AcDbLine
 62
7
  6
CONTINUOUS
 10
33.1340644332
 20
81.7038729716
 11
33.1340644332
 21
80.8873705545
  0
LINE
  5
276
100
AcDbEntity
  8
0
100
AcDbLine
 62
7
  6
CONTINUOUS
 10
33.5584344847
 20
57.9031436894
 11
33.5584344847
 21
39.2816924958
  0
LINE
  5
277
100
AcDbEntity
  8
0
100
AcDbLine
 62
7
  6
CONTINUOUS
 10
33.5584344847
 20
29.1674546894
 11
33.5584344847
 21
24.4265445871
  0
LINE
  5
278
100
AcDbEntity
  8
0
100
AcDbLine
 62
7
  6
CONTINUOUS
 10
31.8121068611
 20
29.6274140664
 11
31.7856296401
 21
29.1001024895
  0
LINE
  5
279
100
AcDbEntity
  8
0
100
AcDbLine
 62
7
  6
CONTINUOUS
 10
12.5019582569
 20
40.928387067
 11
10.3013451657
 21
37.8116689554
  0
LINE
  5
27A
100
AcDbEntity
  8
0
100
AcDbLine
 62
7
  6
CONTINUOUS
 10
37.3767274944
 20
75.6210066953
 11
38.6273597351
 21
76.343055246
  0
LINE
  5
27B
100
AcDbEntity
  8
0
100
AcDbLine
 62
7
  6
CONTINUOUS
 10
46.3216531528
 20
80.7446548381
 11
44.3417624086
 21
79.6015712072
  0
LINE
  5
27C
100
AcDbEntity
  8
0
100
AcDbLine
 62
7
  6
CONTINUOUS
 10
64.9891944553
 20
91.4406502586
 11
63.5749867809
 21
90.6241619508
  0
LINE
  5
27D
100
AcDbEntity
  8
0
100
AcDbLine
 62
7
  6
CONTINUOUS
 10
36.8817548083
 20
75.1719353041
 11
37.3767274944
 21
75.4577062118
  0
LINE
  5
27E
100
AcDbEntity
  8
0
100
AcDbLine
 62
7
  6
CONTINUOUS
 10
69.9389213158
 20
93.7676327645
 11
71.91881206
 21
94.9107163954
  0
LINE
  5
27F
100
AcDbEntity
  8
0
100
AcDbLine
 62
7
  6
CONTINUOUS
 10
50.5289265778
 20
82.3980468906
 11
45.0135166475
 21
79.2137424904
  0
LINE
  5
280
100
AcDbEntity
  8
0
100
AcDbLine
 62
7
  6
CONTINUOUS
 10
60.5082773641
 20
87.9554416551
 11
64.3527957027
 21
90.1750621034
  0
LINE
  5
281
100
AcDbEntity
  8
0
100
AcDbLine
 62
7
  6
CONTINUOUS
 10
70.6106755547
 20
93.3798040477
 11
72.5905662989
 21
94.5228876786
  0
LINE
  5
282
100
AcDbEntity
  8
0
100
AcDbLine
 62
7
  6
CONTINUOUS
 10
54.9129703685
 20
83.9901694611
 11
60.8756929467
 21
87.4327283974
  0
LINE
  5
283
100
AcDbEntity
  8
0
100
AcDbLine
 62
7
  6
CONTINUOUS
 10
64.9891944553
 20
89.8076454243
 11
67.9688406876
 21
91.5279347099
  0
LINE
  5
284
100
AcDbEntity
  8
0
100
AcDbLine
 62
7
  6
CONTINUOUS
 10
47.5590904615
 20
79.0095914893
 11
45.0135166475
 21
77.5399125353
  0
LINE
  5
285
100
AcDbEntity
  8
0
100
AcDbLine
 62
7
  6
CONTINUOUS
 10
54.9129703685
 20
83.2145055687
 11
68.6405949265
 21
91.1401059931
  0
LINE
  5
286
100
AcDbEntity
  8
0
100
AcDbLine
 62
7
  6
CONTINUOUS
 10
12.927498565
 20
41.0440412651
 11
12.5019582569
 21
40.928387067
  0
LINE
  5
287
100
AcDbEntity
  8
0
100
AcDbLine
 62
7
  6
CONTINUOUS
 10
72.6612766826
 20
30.7540481953
 11
71.9895224437
 21
31.1418769121
  0
LINE
  5
288
100
AcDbEntity
  8
0
100
AcDbLine
 62
7
  6
CONTINUOUS
 10
33.9825961033
 20
80.3974816491
 11
33.9825961033
 21
81.2139840662
  0
LINE
  5
289
100
AcDbEntity
  8
0
100
AcDbLine
 62
7
  6
CONTINUOUS
 10
34.1240098053
 20
81.567226467
 11
34.1240098053
 21
81.4589123699
  0
LINE
  5
28A
100
AcDbEntity
  8
0
100
AcDbLine
 62
7
  6
CONTINUOUS
 10
34.4069590893
 20
59.1687139703
 11
34.4069590893
 21
52.432569029
  0
LINE
  5
28B
100
AcDbEntity
  8
0
100
AcDbLine
 62
7
  6
CONTINUOUS
 10
36.8817548083
 20
75.1719353041
 11
36.8817548083
 21
78.9278464229
  0
LINE
  5
28C
100
AcDbEntity
  8
0
100
AcDbLine
 62
7
  6
CONTINUOUS
 10
37.3767274944
 20
75.4577062118
 11
37.3767274944
 21
75.6210066953
  0
LINE
  5
28D
100
AcDbEntity
  8
0
100
AcDbLine
 62
7
  6
CONTINUOUS
 10
17.2054890537
 20
40.3299135296
 11
16.1435733414
 21
38.8259471812
  0
LINE
  5
28E
100
AcDbEntity
  8
0
100
AcDbLine
 62
7
  6
CONTINUOUS
 10
44.8013796084
 20
74.9270894082
 11
44.3064069224
 21
74.6413185005
  0
LINE
  5
28F
100
AcDbEntity
  8
0
100
AcDbLine
 62
7
  6
CONTINUOUS
 10
46.1448768991
 20
75.5394528171
 11
44.8013796084
 21
74.7637889248
  0
LINE
  5
290
100
AcDbEntity
  8
0
100
AcDbLine
 62
7
  6
CONTINUOUS
 10
45.3670626782
 20
74.0289311056
 11
46.2155872829
 21
74.5188240902
  0
LINE
  5
291
100
AcDbEntity
  8
0
100
AcDbLine
 62
7
  6
CONTINUOUS
 10
46.3570080503
 20
74.4371724376
 11
46.8519807364
 21
74.7229433453
  0
LINE
  5
292
100
AcDbEntity
  8
0
100
AcDbLine
 62
7
  6
CONTINUOUS
 10
46.8519807364
 20
73.7431404447
 11
46.3570080503
 21
73.457369537
  0
LINE
  5
293
100
AcDbEntity
  8
0
100
AcDbLine
 62
7
  6
CONTINUOUS
 10
46.2155872829
 20
73.2124202228
 11
45.3670626782
 21
72.7225272382
  0
LINE
  5
294
100
AcDbEntity
  8
0
100
AcDbLine
 62
7
  6
CONTINUOUS
 10
33.5584344847
 20
57.9031436894
 11
14.6786048232
 21
68.8031718351
  0
LINE
  5
295
100
AcDbEntity
  8
0
100
AcDbLine
 62
7
  6
CONTINUOUS
 10
68.8108008145
 20
31.5149099398
 11
68.5957397757
 21
31.6728330473
  0
LINE
  5
296
100
AcDbEntity
  8
0
100
AcDbLine
 62
7
  6
CONTINUOUS
 10
39.427340987
 20
25.1611736264
 11
39.427340987
 21
24.3446712093
  0
LINE
  5
297
100
AcDbEntity
  8
0
100
AcDbLine
 62
7
  6
CONTINUOUS
 10
40.2758726571
 20
23.8547823039
 11
40.2758726571
 21
24.671284721
  0
LINE
  5
298
100
AcDbEntity
  8
0
100
AcDbLine
 62
7
  6
CONTINUOUS
 10
40.4172863591
 20
25.0245271217
 11
40.4172863591
 21
24.9162130247
  0
LINE
  5
299
100
AcDbEntity
  8
0
100
AcDbLine
 62
7
  6
CONTINUOUS
 10
36.3868498335
 20
60.8425241723
 11
36.6696913684
 21
61.3324228007
  0
LINE
  5
29A
100
AcDbEntity
  8
0
100
AcDbLine
 62
7
  6
CONTINUOUS
 10
46.3570080503
 20
73.457369537
 11
46.2155872829
 21
73.2124202228
  0
LINE
  5
29B
100
AcDbEntity
  8
0
100
AcDbLine
 62
7
  6
CONTINUOUS
 10
57.9042860701
 20
88.9832057461
 11
58.2717080018
 21
89.4402863562
  0
LINE
  5
29C
100
AcDbEntity
  8
0
100
AcDbLine
 62
7
  6
CONTINUOUS
 10
45.5084893336
 20
70.9262380183
 11
46.8519866243
 21
71.7019019106
  0
LINE
  5
29D
100
AcDbEntity
  8
0
100
AcDbLine
 62
7
  6
CONTINUOUS
 10
45.0135166475
 20
70.4771666272
 11
45.5084893336
 21
70.7629375349
  0
LINE
  5
29E
100
AcDbEntity
  8
0
100
AcDbLine
 62
7
  6
CONTINUOUS
 10
16.0928124977
 20
71.2526649771
 11
34.9726421591
 21
60.3526368314
  0
LINE
  5
29F
100
AcDbEntity
  8
0
100
AcDbLine
 62
7
  6
CONTINUOUS
 10
17.2241786372
 20
71.9058556233
 11
36.3868498335
 21
60.8425241723
  0
LINE
  5
2A0
100
AcDbEntity
  8
0
100
AcDbLine
 62
7
  6
CONTINUOUS
 10
17.789861707
 20
72.2324509464
 11
36.6696913684
 21
61.3324228007
  0
LINE
  5
2A1
100
AcDbEntity
  8
0
100
AcDbLine
 62
7
  6
CONTINUOUS
 10
44.3064069224
 20
74.6413185005
 11
44.3064069224
 21
77.9481532898
  0
LINE
  5
2A2
100
AcDbEntity
  8
0
100
AcDbLine
 62
7
  6
CONTINUOUS
 10
44.3417624086
 20
81.1529257998
 11
44.3417624086
 21
79.6015712072
  0
LINE
  5
2A3
100
AcDbEntity
  8
0
100
AcDbLine
 62
7
  6
CONTINUOUS
 10
44.8013796084
 20
74.7637889248
 11
44.8013796084
 21
74.9270894082
  0
LINE
  5
2A4
100
AcDbEntity
  8
0
100
AcDbLine
 62
7
  6
CONTINUOUS
 10
45.0135166475
 20
79.2137424904
 11
45.0135166475
 21
77.5399125353
  0
LINE
  5
2A5
100
AcDbEntity
  8
0
100
AcDbLine
 62
7
  6
CONTINUOUS
 10
45.0135166475
 20
70.4771666272
 11
45.0135166475
 21
69.1707627597
  0
LINE
  5
2A6
100
AcDbEntity
  8
0
100
AcDbLine
 62
7
  6
CONTINUOUS
 10
45.0135166475
 20
68.6808613095
 11
45.0135166475
 21
66.1497038164
  0
LINE
  5
2A7
100
AcDbEntity
  8
0
100
AcDbLine
 62
7
  6
CONTINUOUS
 10
45.0135166475
 20
29.4070950455
 11
45.0135166475
 21
14.7917017789
  0
LINE
  5
2A8
100
AcDbEntity
  8
0
100
AcDbLine
 62
7
  6
CONTINUOUS
 10
45.5084893336
 20
70.7629375349
 11
45.5084893336
 21
70.9262380183
  0
LINE
  5
2A9
100
AcDbEntity
  8
0
100
AcDbLine
 62
7
  6
CONTINUOUS
 10
45.0135166475
 20
68.6808613095
 11
45.2256477987
 21
69.0482852808
  0
LINE
  5
2AA
100
AcDbEntity
  8
0
100
AcDbLine
 62
7
  6
CONTINUOUS
 10
45.0135166475
 20
66.1497038164
 11
36.6696913684
 21
61.3324228007
  0
LINE
  5
2AB
100
AcDbEntity
  8
0
100
AcDbLine
 62
7
  6
CONTINUOUS
 10
36.1040082986
 20
61.0058274776
 11
34.9726421591
 21
60.3526368314
  0
LINE
  5
2AC
100
AcDbEntity
  8
0
100
AcDbLine
 62
7
  6
CONTINUOUS
 10
49.8925331243
 20
68.1092609401
 11
34.4069590893
 21
59.1687139703
  0
LINE
  5
2AD
100
AcDbEntity
  8
0
100
AcDbLine
 62
7
  6
CONTINUOUS
 10
75.9846647175
 20
77.5253181298
 11
74.5241582729
 21
76.9794689473
  0
LINE
  5
2AE
100
AcDbEntity
  8
0
100
AcDbLine
 62
7
  6
CONTINUOUS
 10
74.9947111023
 20
74.7680255798
 11
74.1706042421
 21
74.4600241618
  0
LINE
  5
2AF
100
AcDbEntity
  8
0
100
AcDbLine
 62
7
  6
CONTINUOUS
 10
74.0311672925
 20
73.4663890595
 11
75.9846647175
 21
74.1964885235
  0
LINE
  5
2B0
100
AcDbEntity
  8
0
100
AcDbLine
 62
7
  6
CONTINUOUS
 10
45.8265503435
 20
100.0545549984
 11
45.8265609417
 21
98.8298328884
  0
LINE
  5
2B1
100
AcDbEntity
  8
0
100
AcDbLine
 62
7
  6
CONTINUOUS
 10
46.0386655972
 20
102.3815374972
 11
46.0386655972
 21
101.6466980202
  0
LINE
  5
2B2
100
AcDbEntity
  8
0
100
AcDbLine
 62
7
  6
CONTINUOUS
 10
46.3216531528
 20
82.2960094306
 11
46.3216531528
 21
80.7446548381
  0
LINE
  5
2B3
100
AcDbEntity
  8
0
100
AcDbLine
 62
7
  6
CONTINUOUS
 10
46.8519807364
 20
73.7431404447
 11
46.8519807364
 21
74.7229433453
  0
LINE
  5
2B4
100
AcDbEntity
  8
0
100
AcDbLine
 62
7
  6
CONTINUOUS
 10
46.8519807364
 20
75.1311945539
 11
46.8519807364
 21
78.601343936
  0
LINE
  5
2B5
100
AcDbEntity
  8
0
100
AcDbLine
 62
7
  6
CONTINUOUS
 10
46.9933779521
 20
85.9906052558
 11
46.9933779521
 21
84.4392506632
  0
LINE
  5
2B6
100
AcDbEntity
  8
0
100
AcDbLine
 62
7
  6
CONTINUOUS
 10
47.5590904615
 20
79.0095914893
 11
47.5590904615
 21
72.9266484816
  0
LINE
  5
2B7
100
AcDbEntity
  8
0
100
AcDbLine
 62
7
  6
CONTINUOUS
 10
48.9025848082
 20
61.3527045605
 11
48.9025848082
 21
67.537717425
  0
LINE
  5
2B8
100
AcDbEntity
  8
0
100
AcDbLine
 62
7
  6
CONTINUOUS
 10
49.2914898579
 20
61.7201206401
 11
49.2914898579
 21
67.7622505198
  0
LINE
  5
2B9
100
AcDbEntity
  8
0
100
AcDbLine
 62
7
  6
CONTINUOUS
 10
26.396664356
 20
32.9064562406
 11
27.4585801698
 21
34.410422731
  0
LINE
  5
2BA
100
AcDbEntity
  8
0
100
AcDbLine
 62
7
  6
CONTINUOUS
 10
75.9846647175
 20
79.9482856703
 11
76.5503477873
 21
80.2748809934
  0
LINE
  5
2BB
100
AcDbEntity
  8
0
100
AcDbLine
 62
7
  6
CONTINUOUS
 10
77.8376583238
 20
78.8951993572
 11
78.5396439363
 21
79.3004885203
  0
LINE
  5
2BC
100
AcDbEntity
  8
0
100
AcDbLine
 62
7
  6
CONTINUOUS
 10
48.9025848082
 20
61.4955875453
 11
49.2914898579
 21
61.7201206401
  0
LINE
  5
2BD
100
AcDbEntity
  8
0
100
AcDbLine
 62
7
  6
CONTINUOUS
 10
34.4069590893
 20
52.9837011059
 11
48.9025848082
 21
61.3527045605
  0
LINE
  5
2BE
100
AcDbEntity
  8
0
100
AcDbLine
 62
7
  6
CONTINUOUS
 10
34.4069590893
 20
52.432569029
 11
49.8925331243
 21
61.3731159988
  0
LINE
  5
2BF
100
AcDbEntity
  8
0
100
AcDbLine
 62
7
  6
CONTINUOUS
 10
49.8925331243
 20
61.3731159988
 11
49.2914898579
 21
61.7201206401
  0
LINE
  5
2C0
100
AcDbEntity
  8
0
100
AcDbLine
 62
7
  6
CONTINUOUS
 10
26.1336869861
 20
77.0497319621
 11
45.0135166475
 21
66.1497038164
  0
LINE
  5
2C1
100
AcDbEntity
  8
0
100
AcDbLine
 62
7
  6
CONTINUOUS
 10
49.7863318319
 20
96.5437098181
 11
49.7863318319
 21
102.3407222601
  0
LINE
  5
2C2
100
AcDbEntity
  8
0
100
AcDbLine
 62
7
  6
CONTINUOUS
 10
49.8925331243
 20
61.3731159988
 11
49.8925331243
 21
68.1092609401
  0
LINE
  5
2C3
100
AcDbEntity
  8
0
100
AcDbLine
 62
7
  6
CONTINUOUS
 10
50.5289265778
 20
83.9494014832
 11
50.5289265778
 21
82.3980468906
  0
LINE
  5
2C4
100
AcDbEntity
  8
0
100
AcDbLine
 62
7
  6
CONTINUOUS
 10
27.8376663494
 20
27.6872982433
 11
30.0382794405
 21
30.8040163548
  0
LINE
  5
2C5
100
AcDbEntity
  8
0
100
AcDbLine
 62
7
  6
CONTINUOUS
 10
30.134412713
 20
30.086034031
 11
29.6709865265
 21
29.429685673
  0
LINE
  5
2C6
100
AcDbEntity
  8
0
100
AcDbLine
 62
7
  6
CONTINUOUS
 10
29.1104854447
 20
28.6358505913
 11
28.6470592582
 21
27.9795022333
  0
LINE
  5
2C7
100
AcDbEntity
  8
0
100
AcDbLine
 62
7
  6
CONTINUOUS
 10
29.7276847973
 20
26.8859306934
 11
30.1911109838
 21
27.5422790513
  0
LINE
  5
2C8
100
AcDbEntity
  8
0
100
AcDbLine
 62
7
  6
CONTINUOUS
 10
30.7516120656
 20
28.3361141331
 11
31.2150382521
 21
28.9924624911
  0
LINE
  5
2C9
100
AcDbEntity
  8
0
100
AcDbLine
 62
7
  6
CONTINUOUS
 10
76.5503477873
 20
50.472500952
 11
77.9645554617
 21
49.6560262416
  0
LINE
  5
2CA
100
AcDbEntity
  8
0
100
AcDbLine
 62
7
  6
CONTINUOUS
 10
45.0135166475
 20
68.6808613095
 11
32.6390964575
 21
75.8250745136
  0
LINE
  5
2CB
100
AcDbEntity
  8
0
100
AcDbLine
 62
7
  6
CONTINUOUS
 10
75.9846647175
 20
51.2073838609
 11
76.5503477873
 21
50.8807939767
  0
LINE
  5
2CC
100
AcDbEntity
  8
0
100
AcDbLine
 62
7
  6
CONTINUOUS
 10
45.2256477987
 20
69.0482852808
 11
32.6390964575
 21
76.3149759639
  0
LINE
  5
2CD
100
AcDbEntity
  8
0
100
AcDbLine
 62
7
  6
CONTINUOUS
 10
75.9846647175
 20
52.3520078034
 11
78.2487573149
 21
51.0448629044
  0
LINE
  5
2CE
100
AcDbEntity
  8
0
100
AcDbLine
 62
7
  6
CONTINUOUS
 10
45.0135166475
 20
70.4771666272
 11
36.8817548083
 21
75.1719353041
  0
LINE
  5
2CF
100
AcDbEntity
  8
0
100
AcDbLine
 62
7
  6
CONTINUOUS
 10
75.9846647175
 20
53.0036222728
 11
79.8737358222
 21
50.7582854571
  0
LINE
  5
2D0
100
AcDbEntity
  8
0
100
AcDbLine
 62
7
  6
CONTINUOUS
 10
45.5084893336
 20
70.7629375349
 11
37.3767274944
 21
75.4577062118
  0
LINE
  5
2D1
100
AcDbEntity
  8
0
100
AcDbLine
 62
7
  6
CONTINUOUS
 10
45.5084893336
 20
70.9262380183
 11
37.3767274944
 21
75.6210066953
  0
LINE
  5
2D2
100
AcDbEntity
  8
0
100
AcDbLine
 62
7
  6
CONTINUOUS
 10
37.542417351
 20
76.969432853
 11
44.967069465
 21
72.6829049305
  0
LINE
  5
2D3
100
AcDbEntity
  8
0
100
AcDbLine
 62
7
  6
CONTINUOUS
 10
53.7107366374
 20
107.5866472297
 11
53.7107366374
 21
106.8109833373
  0
LINE
  5
2D4
100
AcDbEntity
  8
0
100
AcDbLine
 62
7
  6
CONTINUOUS
 10
54.0289725189
 20
102.3407324581
 11
54.0289725189
 21
95.8088259959
  0
LINE
  5
2D5
100
AcDbEntity
  8
0
100
AcDbLine
 62
7
  6
CONTINUOUS
 10
54.9129703685
 20
86.4805152372
 11
54.9129703685
 21
83.2145055687
  0
LINE
  5
2D6
100
AcDbEntity
  8
0
100
AcDbLine
 62
7
  6
CONTINUOUS
 10
54.9129703685
 20
20.5071199331
 11
54.9129703685
 21
23.7731296016
  0
LINE
  5
2D7
100
AcDbEntity
  8
0
100
AcDbLine
 62
7
  6
CONTINUOUS
 10
36.3868498335
 20
24.7531173352
 11
36.1040082986
 21
24.2632187068
  0
LINE
  5
2D8
100
AcDbEntity
  8
0
100
AcDbLine
 62
7
  6
CONTINUOUS
 10
31.7856296401
 20
29.1001024895
 11
29.5312437624
 21
25.9734316055
  0
LINE
  5
2D9
100
AcDbEntity
  8
0
100
AcDbLine
 62
7
  6
CONTINUOUS
 10
46.8519866243
 20
71.7019019106
 11
45.1574424377
 21
72.6802253203
  0
LINE
  5
2DA
100
AcDbEntity
  8
0
100
AcDbLine
 62
7
  6
CONTINUOUS
 10
33.1340644332
 20
80.8873705545
 11
33.9825961033
 21
80.3974816491
  0
LINE
  5
2DB
100
AcDbEntity
  8
0
100
AcDbLine
 62
7
  6
CONTINUOUS
 10
45.3670626782
 20
74.0289311056
 11
36.8817548083
 21
78.9278464229
  0
LINE
  5
2DC
100
AcDbEntity
  8
0
100
AcDbLine
 62
7
  6
CONTINUOUS
 10
46.4984197642
 20
73.5390131407
 11
47.5590904615
 21
72.9266484816
  0
LINE
  5
2DD
100
AcDbEntity
  8
0
100
AcDbLine
 62
7
  6
CONTINUOUS
 10
44.8013796084
 20
74.7637889248
 11
44.6599552196
 21
74.8454384866
  0
LINE
  5
2DE
100
AcDbEntity
  8
0
100
AcDbLine
 62
7
  6
CONTINUOUS
 10
34.3122446734
 20
81.0236656811
 11
33.9825961033
 21
81.2139840662
  0
LINE
  5
2DF
100
AcDbEntity
  8
0
100
AcDbLine
 62
7
  6
CONTINUOUS
 10
31.2315067722
 20
82.8022902998
 11
33.1340644332
 21
81.7038729716
  0
LINE
  5
2E0
100
AcDbEntity
  8
0
100
AcDbLine
 62
7
  6
CONTINUOUS
 10
34.1240098053
 20
81.4589123699
 11
34.2070813911
 21
81.4109520525
  0
LINE
  5
2E1
100
AcDbEntity
  8
0
100
AcDbLine
 62
7
  6
CONTINUOUS
 10
46.3570080503
 20
74.4371724376
 11
45.2963287552
 21
75.0495462421
  0
LINE
  5
2E2
100
AcDbEntity
  8
0
100
AcDbLine
 62
7
  6
CONTINUOUS
 10
46.8519807364
 20
74.7229433453
 11
45.7912978198
 21
75.335315059
  0
LINE
  5
2E3
100
AcDbEntity
  8
0
100
AcDbLine
 62
7
  6
CONTINUOUS
 10
32.2214521443
 20
83.3738321152
 11
33.5808641909
 21
82.5889929597
  0
LINE
  5
2E4
100
AcDbEntity
  8
0
100
AcDbLine
 62
7
  6
CONTINUOUS
 10
31.2315067722
 20
84.0270439255
 11
33.1340644332
 21
82.9286265973
  0
LINE
  5
2E5
100
AcDbEntity
  8
0
100
AcDbLine
 62
7
  6
CONTINUOUS
 10
46.8519807364
 20
75.1311945539
 11
46.1448678458
 21
75.5394371359
  0
LINE
  5
2E6
100
AcDbEntity
  8
0
100
AcDbLine
 62
7
  6
CONTINUOUS
 10
57.5645211447
 20
97.8500739603
 11
57.5645211447
 21
100.2995286855
  0
LINE
  5
2E7
100
AcDbEntity
  8
0
100
AcDbLine
 62
7
  6
CONTINUOUS
 10
45.0135166475
 20
77.5399125353
 11
44.3064069224
 21
77.9481532898
  0
LINE
  5
2E8
100
AcDbEntity
  8
0
100
AcDbLine
 62
7
  6
CONTINUOUS
 10
26.1336869861
 20
90.1137706361
 11
26.805441225
 21
89.7259419193
  0
LINE
  5
2E9
100
AcDbEntity
  8
0
100
AcDbLine
 62
7
  6
CONTINUOUS
 10
44.3417624086
 20
79.6015712072
 11
45.0135166475
 21
79.2137424904
  0
LINE
  5
2EA
100
AcDbEntity
  8
0
100
AcDbLine
 62
7
  6
CONTINUOUS
 10
26.805441225
 20
91.2772965119
 11
44.3417624086
 21
81.1529257998
  0
LINE
  5
2EB
100
AcDbEntity
  8
0
100
AcDbLine
 62
7
  6
CONTINUOUS
 10
62.9385880282
 20
26.6511881601
 11
62.9385880282
 21
28.2841929943
  0
LINE
  5
2EC
100
AcDbEntity
  8
0
100
AcDbLine
 62
7
  6
CONTINUOUS
 10
62.9385880282
 20
90.9915786299
 11
62.9385880282
 21
92.6245834642
  0
LINE
  5
2ED
100
AcDbEntity
  8
0
100
AcDbLine
 62
7
  6
CONTINUOUS
 10
63.5749867809
 20
92.2571667851
 11
63.5749867809
 21
90.6241619508
  0
LINE
  5
2EE
100
AcDbEntity
  8
0
100
AcDbLine
 62
7
  6
CONTINUOUS
 10
63.5749867809
 20
26.283771481
 11
63.5749867809
 21
27.9167763153
  0
LINE
  5
2EF
100
AcDbEntity
  8
0
100
AcDbLine
 62
7
  6
CONTINUOUS
 10
64.3527957027
 20
29.1006813021
 11
64.3527957027
 21
29.223182767
  0
LINE
  5
2F0
100
AcDbEntity
  8
0
100
AcDbLine
 62
7
  6
CONTINUOUS
 10
64.3527957027
 20
90.1750621034
 11
64.3527957027
 21
91.0732274606
  0
LINE
  5
2F1
100
AcDbEntity
  8
0
100
AcDbLine
 62
7
  6
CONTINUOUS
 10
64.9891944553
 20
28.733264623
 11
64.9891944553
 21
29.5906055649
  0
LINE
  5
2F2
100
AcDbEntity
  8
0
100
AcDbLine
 62
7
  6
CONTINUOUS
 10
64.9891944553
 20
89.8076454243
 11
64.9891944553
 21
91.4406502586
  0
LINE
  5
2F3
100
AcDbEntity
  8
0
100
AcDbLine
 62
7
  6
CONTINUOUS
 10
28.7853319692
 20
92.4203801427
 11
31.649126356
 21
90.7670050869
  0
LINE
  5
2F4
100
AcDbEntity
  8
0
100
AcDbLine
 62
7
  6
CONTINUOUS
 10
43.457858766
 20
83.9493844864
 11
46.3216531528
 21
82.2960094306
  0
LINE
  5
2F5
100
AcDbEntity
  8
0
100
AcDbLine
 62
7
  6
CONTINUOUS
 10
33.1446165681
 20
91.6304216095
 11
30.9525996367
 21
92.8959545448
  0
LINE
  5
2F6
100
AcDbEntity
  8
0
100
AcDbLine
 62
7
  6
CONTINUOUS
 10
50.5289265778
 20
82.3980468906
 11
46.9933779521
 21
84.4392506632
  0
LINE
  5
2F7
100
AcDbEntity
  8
0
100
AcDbLine
 62
7
  6
CONTINUOUS
 10
30.9525996367
 20
94.4473091373
 11
34.4881482625
 21
92.4061053647
  0
LINE
  5
2F8
100
AcDbEntity
  8
0
100
AcDbLine
 62
7
  6
CONTINUOUS
 10
50.5289265778
 20
83.9494014832
 11
46.9933779521
 21
85.9906052558
  0
LINE
  5
2F9
100
AcDbEntity
  8
0
100
AcDbLine
 62
7
  6
CONTINUOUS
 10
70.0590747991
 20
103.5124268333
 11
70.0590747991
 21
100.8425322986
  0
LINE
  5
2FA
100
AcDbEntity
  8
0
100
AcDbLine
 62
7
  6
CONTINUOUS
 10
71.6147161944
 20
101.1445928225
 11
71.6147161944
 21
102.6142971733
  0
LINE
  5
2FB
100
AcDbEntity
  8
0
100
AcDbLine
 62
7
  6
CONTINUOUS
 10
71.91881206
 20
94.9107163954
 11
71.91881206
 21
97.0744478008
  0
LINE
  5
2FC
100
AcDbEntity
  8
0
100
AcDbLine
 62
7
  6
CONTINUOUS
 10
71.9895224437
 20
31.1418769121
 11
71.9895224437
 21
32.4891193042
  0
LINE
  5
2FD
100
AcDbEntity
  8
0
100
AcDbLine
 62
7
  6
CONTINUOUS
 10
72.5905662989
 20
96.686619084
 11
72.5905662989
 21
94.5228876786
  0
LINE
  5
2FE
100
AcDbEntity
  8
0
100
AcDbLine
 62
7
  6
CONTINUOUS
 10
72.6612766826
 20
30.7540481953
 11
72.6612766826
 21
32.8769544798
  0
LINE
  5
2FF
100
AcDbEntity
  8
0
100
AcDbLine
 62
7
  6
CONTINUOUS
 10
74.5241582729
 20
76.9794689473
 11
74.0311672925
 21
73.4663890595
  0
LINE
  5
300
100
AcDbEntity
  8
0
100
AcDbLine
 62
7
  6
CONTINUOUS
 10
60.4878653873
 20
26.9917775287
 11
59.1202326064
 21
23.4668825865
  0
LINE
  5
301
100
AcDbEntity
  8
0
100
AcDbLine
 62
7
  6
CONTINUOUS
 10
76.5503477873
 20
50.8807939767
 11
75.9846647175
 21
50.5541986536
  0
LINE
  5
302
100
AcDbEntity
  8
0
100
AcDbLine
 62
7
  6
CONTINUOUS
 10
78.8130800664
 20
51.370672852
 11
78.2487573149
 21
51.0448629044
  0
LINE
  5
303
100
AcDbEntity
  8
0
100
AcDbLine
 62
7
  6
CONTINUOUS
 10
77.9645554617
 20
49.6560262416
 11
76.5503477873
 21
48.8395379339
  0
LINE
  5
304
100
AcDbEntity
  8
0
100
AcDbLine
 62
7
  6
CONTINUOUS
 10
75.9846647175
 20
74.1964885235
 11
74.9947111023
 21
74.7680255798
  0
LINE
  5
305
100
AcDbEntity
  8
0
100
AcDbLine
 62
7
  6
CONTINUOUS
 10
54.9129703685
 20
86.4805152372
 11
54.2412161296
 21
86.868343954
  0
LINE
  5
306
100
AcDbEntity
  8
0
100
AcDbLine
 62
7
  6
CONTINUOUS
 10
36.0331407071
 20
97.3805433829
 11
36.704894946
 21
96.9927146661
  0
LINE
  5
307
100
AcDbEntity
  8
0
100
AcDbLine
 62
7
  6
CONTINUOUS
 10
59.1202326064
 20
89.9301793408
 11
60.8756929467
 21
87.4327283974
  0
LINE
  5
308
100
AcDbEntity
  8
0
100
AcDbLine
 62
7
  6
CONTINUOUS
 10
74.443155095
 20
100.9813341553
 11
74.443155095
 21
99.5116298044
  0
LINE
  5
309
100
AcDbEntity
  8
0
100
AcDbLine
 62
7
  6
CONTINUOUS
 10
74.9947111023
 20
74.7680255798
 11
74.9947111023
 21
77.155333202
  0
LINE
  5
30A
100
AcDbEntity
  8
0
100
AcDbLine
 62
7
  6
CONTINUOUS
 10
75.9846647175
 20
50.5541986536
 11
75.9846647175
 21
74.1964885235
  0
LINE
  5
30B
100
AcDbEntity
  8
0
100
AcDbLine
 62
7
  6
CONTINUOUS
 10
75.9846647175
 20
77.5253181298
 11
75.9846647175
 21
79.9482856703
  0
LINE
  5
30C
100
AcDbEntity
  8
0
100
AcDbLine
 62
7
  6
CONTINUOUS
 10
76.5503477873
 20
48.8395379339
 11
76.5503477873
 21
50.8807939767
  0
LINE
  5
30D
100
AcDbEntity
  8
0
100
AcDbLine
 62
7
  6
CONTINUOUS
 10
79.8737358222
 20
88.8072980953
 11
78.5396439363
 21
79.3004885203
  0
LINE
  5
30E
100
AcDbEntity
  8
0
100
AcDbLine
 62
7
  6
CONTINUOUS
 10
34.9726421591
 20
23.6100280606
 11
36.1040082986
 21
24.2632187068
  0
LINE
  5
30F
100
AcDbEntity
  8
0
100
AcDbLine
 62
7
  6
CONTINUOUS
 10
36.6696913684
 20
24.5898140299
 11
45.0135166475
 21
29.4070950455
  0
LINE
  5
310
100
AcDbEntity
  8
0
100
AcDbLine
 62
7
  6
CONTINUOUS
 10
39.427340987
 20
25.1611736264
 11
40.1292349773
 21
25.5664098917
  0
LINE
  5
311
100
AcDbEntity
  8
0
100
AcDbLine
 62
7
  6
CONTINUOUS
 10
39.427340987
 20
24.3446712093
 11
40.4172863591
 21
24.9162130247
  0
LINE
  5
312
100
AcDbEntity
  8
0
100
AcDbLine
 62
7
  6
CONTINUOUS
 10
40.2758726571
 20
24.671284721
 11
40.5277570855
 21
24.8167093954
  0
LINE
  5
313
100
AcDbEntity
  8
0
100
AcDbLine
 62
7
  6
CONTINUOUS
 10
59.6151999933
 20
90.9507866661
 11
59.982621925
 21
90.9179658259
  0
LINE
  5
314
100
AcDbEntity
  8
0
100
AcDbLine
 62
7
  6
CONTINUOUS
 10
40.3679648864
 20
99.1075764582
 11
57.9042860701
 21
88.9832057461
  0
LINE
  5
315
100
AcDbEntity
  8
0
100
AcDbLine
 62
7
  6
CONTINUOUS
 10
40.7353868181
 20
99.5646570683
 11
58.2717080018
 21
89.4402863562
  0
LINE
  5
316
100
AcDbEntity
  8
0
100
AcDbLine
 62
7
  6
CONTINUOUS
 10
75.9919028076
 20
79.9608226937
 11
77.8376583238
 21
78.8951993572
  0
LINE
  5
317
100
AcDbEntity
  8
0
100
AcDbLine
 62
7
  6
CONTINUOUS
 10
59.1202326064
 20
89.9301793408
 11
58.4838338538
 21
90.2975960199
  0
LINE
  5
318
100
AcDbEntity
  8
0
100
AcDbLine
 62
7
  6
CONTINUOUS
 10
41.5839114228
 20
100.0545500529
 11
42.2203101754
 21
99.6871333739
  0
LINE
  5
319
100
AcDbEntity
  8
0
100
AcDbLine
 62
7
  6
CONTINUOUS
 10
45.8265609417
 20
98.8298328884
 11
51.0591729078
 21
95.808851305
  0
LINE
  5
31A
100
AcDbEntity
  8
0
100
AcDbLine
 62
7
  6
CONTINUOUS
 10
43.3516763149
 20
100.3403240201
 11
45.826560353
 21
98.9114813792
  0
LINE
  5
31B
100
AcDbEntity
  8
0
100
AcDbLine
 62
7
  6
CONTINUOUS
 10
51.2005942641
 20
95.8088516449
 11
59.6151999933
 21
90.9507866661
  0
LINE
  5
31C
100
AcDbEntity
  8
0
100
AcDbLine
 62
7
  6
CONTINUOUS
 10
43.7190982466
 20
100.3075031798
 11
45.8265572935
 21
99.0907886576
  0
LINE
  5
31D
100
AcDbEntity
  8
0
100
AcDbLine
 62
7
  6
CONTINUOUS
 10
51.9354411869
 20
95.5639026861
 11
59.982621925
 21
90.9179658259
  0
LINE
  5
31E
100
AcDbEntity
  8
0
100
AcDbLine
 62
7
  6
CONTINUOUS
 10
79.8737358222
 20
34.9181385648
 11
79.8737358222
 21
50.7582854571
  0
LINE
  5
31F
100
AcDbEntity
  8
0
100
AcDbLine
 62
7
  6
CONTINUOUS
 10
79.8737358222
 20
88.8072980953
 11
79.8737358222
 21
93.0194878352
  0
LINE
  5
320
100
AcDbEntity
  8
0
100
AcDbLine
 62
7
  6
CONTINUOUS
 10
77.9645554617
 20
49.6560262416
 11
78.2487573149
 21
51.0448629044
  0
LINE
  5
321
100
AcDbEntity
  8
0
100
AcDbLine
 62
7
  6
CONTINUOUS
 10
59.982621925
 20
24.9445705218
 11
59.6151999933
 21
24.4874899118
  0
LINE
  5
322
100
AcDbEntity
  8
0
100
AcDbLine
 62
7
  6
CONTINUOUS
 10
51.9354411869
 20
95.5639026861
 11
53.6047573201
 21
95.5639066986
  0
LINE
  5
323
100
AcDbEntity
  8
0
100
AcDbLine
 62
7
  6
CONTINUOUS
 10
51.0591729078
 20
95.808851305
 11
51.2005942641
 21
95.8088516449
  0
LINE
  5
324
100
AcDbEntity
  8
0
100
AcDbLine
 62
7
  6
CONTINUOUS
 10
51.9354411869
 20
95.5639026861
 11
51.2005942641
 21
95.8088516449
  0
LINE
  5
325
100
AcDbEntity
  8
0
100
AcDbLine
 62
7
  6
CONTINUOUS
 10
64.9891944553
 20
89.8076454243
 11
64.3527957027
 21
90.1750621034
  0
LINE
  5
326
100
AcDbEntity
  8
0
100
AcDbLine
 62
7
  6
CONTINUOUS
 10
63.5749867809
 20
90.6241619508
 11
62.9385880282
 21
90.9915786299
  0
LINE
  5
327
100
AcDbEntity
  8
0
100
AcDbLine
 62
7
  6
CONTINUOUS
 10
63.5749867809
 20
92.2571667851
 11
62.9385880282
 21
92.6245834642
  0
LINE
  5
328
100
AcDbEntity
  8
0
100
AcDbLine
 62
7
  6
CONTINUOUS
 10
46.0386655972
 20
102.3815374972
 11
46.6750643498
 21
102.0141208181
  0
LINE
  5
329
100
AcDbEntity
  8
0
100
AcDbLine
 62
7
  6
CONTINUOUS
 10
77.8376583238
 20
78.8951993572
 11
76.5503477873
 21
80.2748809934
  0
LINE
  5
32A
100
AcDbEntity
  8
0
100
AcDbLine
 62
7
  6
CONTINUOUS
 10
73.050136984
 20
103.4430328057
 11
73.2745636564
 21
102.1029004812
  0
LINE
  5
32B
100
AcDbEntity
  8
0
100
AcDbLine
 62
7
  6
CONTINUOUS
 10
68.5957397757
 20
31.6728330473
 11
54.9129703685
 21
23.7731296016
  0
LINE
  5
32C
100
AcDbEntity
  8
0
100
AcDbLine
 62
7
  6
CONTINUOUS
 10
62.9385880282
 20
28.2841929943
 11
64.3527957027
 21
29.1006813021
  0
LINE
  5
32D
100
AcDbEntity
  8
0
100
AcDbLine
 62
7
  6
CONTINUOUS
 10
63.5749867809
 20
27.9167763153
 11
64.9891944553
 21
28.733264623
  0
LINE
  5
32E
100
AcDbEntity
  8
0
100
AcDbLine
 62
7
  6
CONTINUOUS
 10
72.6612766826
 20
32.8769544798
 11
70.6106755547
 21
31.6930464336
  0
LINE
  5
32F
100
AcDbEntity
  8
0
100
AcDbLine
 62
7
  6
CONTINUOUS
 10
72.908746245
 20
99.1973109421
 11
73.9694064168
 21
99.1973134916
  0
LINE
  5
330
100
AcDbEntity
  8
0
100
AcDbLine
 62
7
  6
CONTINUOUS
 10
43.7190982466
 20
100.3075031798
 11
43.3516763149
 21
100.3403240201
  0
LINE
  5
331
100
AcDbEntity
  8
0
100
AcDbLine
 62
7
  6
CONTINUOUS
 10
68.6405949265
 20
91.1401059931
 11
67.9688406876
 21
91.5279347099
  0
LINE
  5
332
100
AcDbEntity
  8
0
100
AcDbLine
 62
7
  6
CONTINUOUS
 10
57.5645211447
 20
100.2995286855
 11
54.0289725189
 21
102.3407324581
  0
LINE
  5
333
100
AcDbEntity
  8
0
100
AcDbLine
 62
7
  6
CONTINUOUS
 10
69.9389213158
 20
93.7676327645
 11
70.6106755547
 21
93.3798040477
  0
LINE
  5
334
100
AcDbEntity
  8
0
100
AcDbLine
 62
7
  6
CONTINUOUS
 10
78.6716592989
 20
100.1975188073
 11
79.8737358222
 21
93.0194878352
  0
LINE
  5
335
100
AcDbEntity
  8
0
100
AcDbLine
 62
7
  6
CONTINUOUS
 10
59.982621925
 20
24.9445705218
 11
62.9385880282
 21
26.6511881601
  0
LINE
  5
336
100
AcDbEntity
  8
0
100
AcDbLine
 62
7
  6
CONTINUOUS
 10
59.6151999933
 20
24.4874899118
 11
59.487648189
 21
24.4138482827
  0
LINE
  5
337
100
AcDbEntity
  8
0
100
AcDbLine
 62
7
  6
CONTINUOUS
 10
54.9129703685
 20
21.2827838255
 11
57.9042860701
 21
23.0098104421
  0
LINE
  5
338
100
AcDbEntity
  8
0
100
AcDbLine
 62
7
  6
CONTINUOUS
 10
63.5749867809
 20
26.283771481
 11
71.9895224437
 21
31.1418769121
  0
LINE
  5
339
100
AcDbEntity
  8
0
100
AcDbLine
 62
7
  6
CONTINUOUS
 10
58.2717080018
 20
22.9769896018
 11
59.1202326064
 21
23.4668825865
  0
LINE
  5
33A
100
AcDbEntity
  8
0
100
AcDbLine
 62
7
  6
CONTINUOUS
 10
45.0135166475
 20
14.7917017789
 11
54.9129703685
 21
20.5071199331
  0
LINE
  5
33B
100
AcDbEntity
  8
0
100
AcDbLine
 62
7
  6
CONTINUOUS
 10
72.6612766826
 20
30.7540481953
 11
79.8737358222
 21
34.9181385648
  0
LINE
  5
33C
100
AcDbEntity
  8
0
100
AcDbLine
 62
7
  6
CONTINUOUS
 10
72.5905662989
 20
94.5228876786
 11
71.91881206
 21
94.9107163954
  0
LINE
  5
33D
100
AcDbEntity
  8
0
100
AcDbLine
 62
7
  6
CONTINUOUS
 10
72.5905662989
 20
96.686619084
 11
71.91881206
 21
97.0744478008
  0
LINE
  5
33E
100
AcDbEntity
  8
0
100
AcDbLine
 62
7
  6
CONTINUOUS
 10
53.7107366374
 20
107.5866472297
 11
54.3824908763
 21
107.1988185129
  0
LINE
  5
33F
100
AcDbEntity
  8
0
100
AcDbLine
 62
7
  6
CONTINUOUS
 10
72.908746245
 20
99.1973109421
 11
67.7468452514
 21
102.1774684501
  0
LINE
  5
340
100
AcDbEntity
  8
0
100
AcDbLine
 62
7
  6
CONTINUOUS
 10
75.7513080866
 20
100.2260887594
 11
74.443155095
 21
100.9813341553
  0
LINE
  5
341
100
AcDbEntity
  8
0
100
AcDbLine
 62
7
  6
CONTINUOUS
 10
71.6147161944
 20
102.6142971733
 11
70.0590747991
 21
103.5124268333
  0
LINE
  5
342
100
AcDbEntity
  8
0
100
AcDbLine
 62
7
  6
CONTINUOUS
 10
59.7918296375
 20
111.097546953
 11
73.050136984
 21
103.4430328057
  0
LINE
  5
343
100
AcDbEntity
  8
0
100
AcDbLine
 62
7
  6
CONTINUOUS
 10
75.8785758846
 20
101.8100697876
 11
78.6716592989
 21
100.1975188073
  0
ARC
  5
344
100
AcDbEntity
  8
0
100
AcDbCircle
 62
7
  6
CONTINUOUS
 10
23.8836034269
 20
41.9070300604
 40
7.1207638244
100
AcDbArc
 50
173.8839115409
 51
174.735503955
  0
ARC
  5
345
100
AcDbEntity
  8
0
100
AcDbCircle
 62
7
  6
CONTINUOUS
 10
36.3659478849
 20
84.1083301426
 40
4.2090773688
100
AcDbArc
 50
188.8085648503
 51
190.0497564296
  0
ARC
  5
346
100
AcDbEntity
  8
0
100
AcDbCircle
 62
7
  6
CONTINUOUS
 10
20.0367997816
 20
41.4836985979
 40
3.2131229093
100
AcDbArc
 50
202.8404471788
 51
203.62057063
  0
ARC
  5
347
100
AcDbEntity
  8
0
100
AcDbCircle
 62
7
  6
CONTINUOUS
 10
72.6179241588
 20
99.5114802968
 40
1.8252309424
100
AcDbArc
 50
358.512122002
 51
0.00469319
  0
SPLINE
  5
348
100
AcDbEntity
  8
0
100
AcDbSpline
 62
7
  6
CONTINUOUS
 70
0
 71
3
 72
18
 73
14
 74
0
 42
0.0000001
 43
0.0000001
 44
0.0000000001
 40
0.0
 40
0.0
 40
0.0
 40
0.0
 40
0.0991071642
 40
0.1523885746
 40
0.2081234639
 40
0.2662357522
 40
0.3265932482
 40
0.3890186599
 40
0.45329594
 40
0.5863376379
 40
0.723499317
 40
0.8622580523
 40
1.0
 40
1.0
 40
1.0
 40
1.0
 10
40.6224223022
 20
22.4755927842
 30
0.0
 10
40.4893879297
 20
22.4999713899
 30
0.0
 10
40.2885562438
 20
22.5600058637
 30
0.0
 10
40.0287145352
 20
22.6750015717
 30
0.0
 10
39.8278178323
 20
22.7835239232
 30
0.0
 10
39.62720215
 20
22.9114131143
 30
0.0
 10
39.4281944941
 20
23.0577777596
 30
0.0
 10
39.2321986789
 20
23.2215840022
 30
0.0
 10
38.9738039121
 20
23.4644780951
 30
0.0
 10
38.6677998626
 20
23.80444051
 30
0.0
 10
38.3377734192
 20
24.2556084723
 30
0.0
 10
38.0498464037
 20
24.7421550363
 30
0.0
 10
37.889671473
 20
25.084605337
 30
0.0
 10
37.8187595068
 20
25.2586904558
 30
0.0
  0
SPLINE
  5
349
100
AcDbEntity
  8
0
100
AcDbSpline
 62
7
  6
CONTINUOUS
 70
0
 71
3
 72
23
 73
19
 74
0
 42
0.0000001
 43
0.0000001
 44
0.0000000001
 40
0.0
 40
0.0
 40
0.0
 40
0.0
 40
0.0481920284
 40
0.0993697871
 40
0.1535829846
 40
0.2107509507
 40
0.2706848903
 40
0.3331080304
 40
0.3976727168
 40
0.4639752622
 40
0.531569316
 40
0.5999789717
 40
0.6687093911
 40
0.7372587578
 40
0.8051312707
 40
0.8718397474
 40
0.9369421635
 40
1.0
 40
1.0
 40
1.0
 40
1.0
 10
34.3291457484
 20
79.0182921295
 30
0.0
 10
34.2479330282
 20
79.0331743952
 30
0.0
 10
34.082410875
 20
79.0751438767
 30
0.0
 10
33.8360553636
 20
79.1689337152
 30
0.0
 10
33.5868692753
 20
79.2943076352
 30
0.0
 10
33.337541434
 20
79.4498605318
 30
0.0
 10
33.0907027768
 20
79.6338957928
 30
0.0
 10
32.8490021597
 20
79.8444167205
 30
0.0
 10
32.6150420841
 20
80.0791438042
 30
0.0
 10
32.3913554961
 20
80.3355333317
 30
0.0
 10
32.1803658298
 20
80.6107997046
 30
0.0
 10
31.9843653701
 20
80.9019510989
 30
0.0
 10
31.8054849648
 20
81.2058202804
 30
0.0
 10
31.6456711159
 20
81.5191055483
 30
0.0
 10
31.5066695099
 20
81.838394353
 30
0.0
 10
31.3899671214
 20
82.1602345049
 30
0.0
 10
31.2968687733
 20
82.4810957407
 30
0.0
 10
31.250355951
 20
82.6959134442
 30
0.0
 10
31.2315067722
 20
82.8022902998
 30
0.0
  0
SPLINE
  5
34A
100
AcDbEntity
  8
0
100
AcDbSpline
 62
7
  6
CONTINUOUS
 70
0
 71
3
 72
9
 73
5
 74
0
 42
0.0000001
 43
0.0000001
 44
0.0000000001
 40
0.0
 40
0.0
 40
0.0
 40
0.0
 40
0.255276007
 40
1.0
 40
1.0
 40
1.0
 40
1.0
 10
31.2315067722
 20
84.0270439255
 30
0.0
 10
31.2358147754
 20
84.0463821468
 30
0.0
 10
31.2537127066
 20
84.1219029142
 30
0.0
 10
31.2757734959
 20
84.1964534818
 30
0.0
 10
31.2947278967
 20
84.2510560528
 30
0.0
  0
SPLINE
  5
34B
100
AcDbEntity
  8
0
100
AcDbSpline
 62
7
  6
CONTINUOUS
 70
0
 71
3
 72
12
 73
8
 74
0
 42
0.0000001
 43
0.0000001
 44
0.0000000001
 40
0.0
 40
0.0
 40
0.0
 40
0.0
 40
0.1056511862
 40
0.2137597243
 40
0.444803445
 40
0.7057972602
 40
1.0
 40
1.0
 40
1.0
 40
1.0
 10
29.3193493691
 20
27.706476355
 30
0.0
 10
29.3293739167
 20
27.7006905638
 30
0.0
 10
29.3485855109
 20
27.6870099686
 30
0.0
 10
29.3825135589
 20
27.6516982581
 30
0.0
 10
29.4145790349
 20
27.5929012561
 30
0.0
 10
29.4335837077
 20
27.5081008348
 30
0.0
 10
29.434118005
 20
27.4468518307
 30
0.0
 10
29.431784474
 20
27.4147056118
 30
0.0
  0
SPLINE
  5
34C
100
AcDbEntity
  8
0
100
AcDbSpline
 62
7
  6
CONTINUOUS
 70
0
 71
3
 72
11
 73
7
 74
0
 42
0.0000001
 43
0.0000001
 44
0.0000000001
 40
0.0
 40
0.0
 40
0.0
 40
0.0
 40
0.2616655977
 40
0.5136144538
 40
0.758574714
 40
1.0
 40
1.0
 40
1.0
 40
1.0
 10
30.4638197487
 20
30.919670553
 30
0.0
 10
30.5292296625
 20
30.7958153706
 30
0.0
 10
30.6723941002
 20
30.5600807294
 30
0.0
 10
30.9281829519
 20
30.2430930552
 30
0.0
 10
31.218644408
 20
29.9730736845
 30
0.0
 10
31.4345893366
 20
29.8255607495
 30
0.0
 10
31.546506169
 20
29.7609425927
 30
0.0
  0
SPLINE
  5
34D
100
AcDbEntity
  8
0
100
AcDbSpline
 62
7
  6
CONTINUOUS
 70
0
 71
3
 72
9
 73
5
 74
0
 42
0.0000001
 43
0.0000001
 44
0.0000000001
 40
0.0
 40
0.0
 40
0.0
 40
0.0
 40
0.2376330698
 40
1.0
 40
1.0
 40
1.0
 40
1.0
 10
29.431784474
 20
27.4147056118
 30
0.0
 10
29.4306791204
 20
27.3994785
 30
0.0
 10
29.4235275643
 20
27.335588424
 30
0.0
 10
29.4072172693
 20
27.2728752654
 30
0.0
 10
29.3909859642
 20
27.2266632118
 30
0.0
  0
SPLINE
  5
34E
100
AcDbEntity
  8
0
100
AcDbSpline
 62
7
  6
CONTINUOUS
 70
0
 71
3
 72
12
 73
8
 74
0
 42
0.0000001
 43
0.0000001
 44
0.0000000001
 40
0.0
 40
0.0
 40
0.0
 40
0.0
 40
0.2974855227
 40
0.5599704005
 40
0.7897296269
 40
0.8962602057
 40
1.0
 40
1.0
 40
1.0
 40
1.0
 10
30.878339419
 20
29.3331950095
 30
0.0
 10
30.849801168
 20
29.3115202591
 30
0.0
 10
30.7924947509
 20
29.2750145048
 30
0.0
 10
30.7023761635
 20
29.2419013317
 30
0.0
 10
30.6289102641
 20
29.2371790668
 30
0.0
 10
30.576882518
 20
29.2488101643
 30
0.0
 10
30.5535716069
 20
29.2592414727
 30
0.0
 10
30.5427481412
 20
29.2654883694
 30
0.0
  0
SPLINE
  5
34F
100
AcDbEntity
  8
0
100
AcDbSpline
 62
7
  6
CONTINUOUS
 70
0
 71
3
 72
9
 73
5
 74
0
 42
0.0000001
 43
0.0000001
 44
0.0000000001
 40
0.0
 40
0.0
 40
0.0
 40
0.0
 40
0.23832025
 40
1.0
 40
1.0
 40
1.0
 40
1.0
 10
29.6709865265
 20
29.429685673
 30
0.0
 10
29.6722381822
 20
29.4212460871
 30
0.0
 10
29.6763660044
 20
29.3856685708
 30
0.0
 10
29.6762311231
 20
29.3496561976
 30
0.0
 10
29.6742568853
 20
29.3224595246
 30
0.0
  0
SPLINE
  5
350
100
AcDbEntity
  8
0
100
AcDbSpline
 62
7
  6
CONTINUOUS
 70
0
 71
3
 72
16
 73
12
 74
0
 42
0.0000001
 43
0.0000001
 44
0.0000000001
 40
0.0
 40
0.0
 40
0.0
 40
0.0
 40
0.1258792761
 40
0.2614026397
 40
0.4015800278
 40
0.5409817563
 40
0.674196801
 40
0.7370603686
 40
0.7967542211
 40
0.9054388848
 40
1.0
 40
1.0
 40
1.0
 40
1.0
 10
29.6742568853
 20
29.3224595246
 30
0.0
 10
29.671360327
 20
29.2825571644
 30
0.0
 10
29.6569772979
 20
29.2002108693
 30
0.0
 10
29.6153264545
 20
29.0791150741
 30
0.0
 10
29.5548893689
 20
28.9613407354
 30
0.0
 10
29.4791987174
 20
28.853676363
 30
0.0
 10
29.4055131457
 20
28.7759468024
 30
0.0
 10
29.3424679515
 20
28.7244646855
 30
0.0
 10
29.2814100295
 20
28.6834089966
 30
0.0
 10
29.2053504344
 20
28.6471738022
 30
0.0
 10
29.1405376272
 20
28.635546963
 30
0.0
 10
29.1104854447
 20
28.6358505913
 30
0.0
  0
SPLINE
  5
351
100
AcDbEntity
  8
0
100
AcDbSpline
 62
7
  6
CONTINUOUS
 70
0
 71
3
 72
12
 73
8
 74
0
 42
0.0000001
 43
0.0000001
 44
0.0000000001
 40
0.0
 40
0.0
 40
0.0
 40
0.0
 40
0.2974855227
 40
0.5599704005
 40
0.7897296269
 40
0.8962602057
 40
1.0
 40
1.0
 40
1.0
 40
1.0
 10
28.9837580913
 20
27.6387697149
 30
0.0
 10
29.0122963423
 20
27.6604444652
 30
0.0
 10
29.0696027595
 20
27.6969502195
 30
0.0
 10
29.1597213469
 20
27.7300633926
 30
0.0
 10
29.2331872462
 20
27.7347856576
 30
0.0
 10
29.2852149923
 20
27.72315456
 30
0.0
 10
29.3085259034
 20
27.7127232517
 30
0.0
 10
29.3193493691
 20
27.706476355
 30
0.0
  0
SPLINE
  5
352
100
AcDbEntity
  8
0
100
AcDbSpline
 62
7
  6
CONTINUOUS
 70
0
 71
3
 72
12
 73
8
 74
0
 42
0.0000001
 43
0.0000001
 44
0.0000000001
 40
0.0
 40
0.0
 40
0.0
 40
0.0
 40
0.1056511862
 40
0.2137597243
 40
0.444803445
 40
0.7057972602
 40
1.0
 40
1.0
 40
1.0
 40
1.0
 10
30.5427481412
 20
29.2654883694
 30
0.0
 10
30.5327235936
 20
29.2712741606
 30
0.0
 10
30.5135119995
 20
29.2849547558
 30
0.0
 10
30.4795839514
 20
29.3202664663
 30
0.0
 10
30.4475184755
 20
29.3790634683
 30
0.0
 10
30.4285138026
 20
29.4638638896
 30
0.0
 10
30.4279795053
 20
29.5251128937
 30
0.0
 10
30.4303130364
 20
29.5572591126
 30
0.0
  0
SPLINE
  5
353
100
AcDbEntity
  8
0
100
AcDbSpline
 62
7
  6
CONTINUOUS
 70
0
 71
3
 72
9
 73
5
 74
0
 42
0.0000001
 43
0.0000001
 44
0.0000000001
 40
0.0
 40
0.0
 40
0.0
 40
0.0
 40
0.23832025
 40
1.0
 40
1.0
 40
1.0
 40
1.0
 10
30.1911109838
 20
27.5422790513
 30
0.0
 10
30.1898593282
 20
27.5507186373
 30
0.0
 10
30.1857315059
 20
27.5862961536
 30
0.0
 10
30.1858663873
 20
27.6223085268
 30
0.0
 10
30.1878406251
 20
27.6495051998
 30
0.0
  0
SPLINE
  5
354
100
AcDbEntity
  8
0
100
AcDbSpline
 62
7
  6
CONTINUOUS
 70
0
 71
3
 72
16
 73
12
 74
0
 42
0.0000001
 43
0.0000001
 44
0.0000000001
 40
0.0
 40
0.0
 40
0.0
 40
0.0
 40
0.1258792761
 40
0.2614026397
 40
0.4015800278
 40
0.5409817563
 40
0.674196801
 40
0.7370603686
 40
0.7967542211
 40
0.9054388848
 40
1.0
 40
1.0
 40
1.0
 40
1.0
 10
30.1878406251
 20
27.6495051998
 30
0.0
 10
30.1907371833
 20
27.68940756
 30
0.0
 10
30.2051202124
 20
27.7717538551
 30
0.0
 10
30.2467710558
 20
27.8928496503
 30
0.0
 10
30.3072081414
 20
28.0106239889
 30
0.0
 10
30.382898793
 20
28.1182883614
 30
0.0
 10
30.4565843646
 20
28.196017922
 30
0.0
 10
30.5196295588
 20
28.2475000388
 30
0.0
 10
30.5806874808
 20
28.2885557277
 30
0.0
 10
30.6567470759
 20
28.3247909222
 30
0.0
 10
30.7215598832
 20
28.3364177613
 30
0.0
 10
30.7516120656
 20
28.3361141331
 30
0.0
  0
SPLINE
  5
355
100
AcDbEntity
  8
0
100
AcDbSpline
 62
7
  6
CONTINUOUS
 70
0
 71
3
 72
9
 73
5
 74
0
 42
0.0000001
 43
0.0000001
 44
0.0000000001
 40
0.0
 40
0.0
 40
0.0
 40
0.0
 40
0.2376330698
 40
1.0
 40
1.0
 40
1.0
 40
1.0
 10
30.4303130364
 20
29.5572591126
 30
0.0
 10
30.4314183899
 20
29.5724862243
 30
0.0
 10
30.4385699461
 20
29.6363763004
 30
0.0
 10
30.4548802411
 20
29.699089459
 30
0.0
 10
30.4711115461
 20
29.7453015126
 30
0.0
  0
SPLINE
  5
356
100
AcDbEntity
  8
0
100
AcDbSpline
 62
7
  6
CONTINUOUS
 70
0
 71
3
 72
15
 73
11
 74
0
 42
0.0000001
 43
0.0000001
 44
0.0000000001
 40
0.0
 40
0.0
 40
0.0
 40
0.0
 40
0.1141229605
 40
0.2373462928
 40
0.366971064
 40
0.4999983279
 40
0.633025824
 40
0.762651271
 40
0.8858756957
 40
1.0
 40
1.0
 40
1.0
 40
1.0
 10
16.0928124977
 20
71.2526649771
 30
0.0
 10
15.996025615
 20
71.1967853779
 30
0.0
 10
15.8048113252
 20
71.0626927838
 30
0.0
 10
15.5416561086
 20
70.8165783949
 30
0.0
 10
15.2991986031
 20
70.5255391158
 30
0.0
 10
15.0864748219
 20
70.2006859291
 30
0.0
 10
14.911506963
 20
69.8540337126
 30
0.0
 10
14.7806890672
 20
69.4985373597
 30
0.0
 10
14.6991255679
 20
69.1475779081
 30
0.0
 10
14.6786048232
 20
68.9149328498
 30
0.0
 10
14.6786048232
 20
68.8031718351
 30
0.0
  0
SPLINE
  5
357
100
AcDbEntity
  8
0
100
AcDbSpline
 62
7
  6
CONTINUOUS
 70
0
 71
3
 72
12
 73
8
 74
0
 42
0.0000001
 43
0.0000001
 44
0.0000000001
 40
0.0
 40
0.0
 40
0.0
 40
0.0
 40
0.2624786859
 40
0.5233041175
 40
0.7720076067
 40
0.8891053146
 40
1.0
 40
1.0
 40
1.0
 40
1.0
 10
14.6786048232
 20
50.1817206415
 30
0.0
 10
14.3109862047
 20
49.6953285697
 30
0.0
 10
13.6491326448
 20
48.6697397528
 30
0.0
 10
12.8971266956
 20
47.0357384243
 30
0.0
 10
12.4894637353
 20
45.6310209185
 30
0.0
 10
12.3229406616
 20
44.5350637836
 30
0.0
 10
12.2935435803
 20
44.0051818716
 30
0.0
 10
12.2935435803
 20
43.7475942073
 30
0.0
  0
SPLINE
  5
358
100
AcDbEntity
  8
0
100
AcDbSpline
 62
7
  6
CONTINUOUS
 70
0
 71
3
 72
11
 73
7
 74
0
 42
0.0000001
 43
0.0000001
 44
0.0000000001
 40
0.0
 40
0.0
 40
0.0
 40
0.0
 40
0.2786495629
 40
0.5375345855
 40
0.7770980435
 40
1.0
 40
1.0
 40
1.0
 40
1.0
 10
12.2935435803
 20
43.7475942073
 30
0.0
 10
12.2935435803
 20
43.4881042601
 30
0.0
 10
12.3215164022
 20
42.9868440605
 30
0.0
 10
12.4574761434
 20
42.273573196
 30
0.0
 10
12.684625855
 20
41.6382611186
 30
0.0
 10
12.9021782726
 20
41.2628196406
 30
0.0
 10
13.0247372868
 20
41.0952879474
 30
0.0
  0
SPLINE
  5
359
100
AcDbEntity
  8
0
100
AcDbSpline
 62
7
  6
CONTINUOUS
 70
0
 71
3
 72
17
 73
13
 74
0
 42
0.0000001
 43
0.0000001
 44
0.0000000001
 40
0.0
 40
0.0
 40
0.0
 40
0.0
 40
0.0428590154
 40
0.087484945
 40
0.1353191404
 40
0.1872810096
 40
0.3045411455
 40
0.4382064078
 40
0.5825480614
 40
0.7297123844
 40
0.8713056989
 40
1.0
 40
1.0
 40
1.0
 40
1.0
 10
74.4062238954
 20
91.5863413252
 30
0.0
 10
74.3445937655
 20
91.6219288983
 30
0.0
 10
74.2087191541
 20
91.6783475521
 30
0.0
 10
73.9844704948
 20
91.7112606986
 30
0.0
 10
73.7436346138
 20
91.6935139988
 30
0.0
 10
73.3937057976
 20
91.600440545
 30
0.0
 10
72.9463766798
 20
91.3558324707
 30
0.0
 10
72.4521496063
 20
90.9181356757
 30
0.0
 10
72.01525445
 20
90.3589429657
 30
0.0
 10
71.6714234534
 20
89.7234153054
 30
0.0
 10
71.448266824
 20
89.0636825496
 30
0.0
 10
71.3884897756
 20
88.6143583987
 30
0.0
 10
71.3884897756
 20
88.4006625631
 30
0.0
  0
SPLINE
  5
35A
100
AcDbEntity
  8
0
100
AcDbSpline
 62
7
  6
CONTINUOUS
 70
0
 71
3
 72
17
 73
13
 74
0
 42
0.0000001
 43
0.0000001
 44
0.0000000001
 40
0.0
 40
0.0
 40
0.0
 40
0.0
 40
0.0428590154
 40
0.087484945
 40
0.1353191404
 40
0.1872810096
 40
0.3045411455
 40
0.4382064078
 40
0.5825480614
 40
0.7297123844
 40
0.8713056989
 40
1.0
 40
1.0
 40
1.0
 40
1.0
 10
74.759775814
 20
41.9822849372
 30
0.0
 10
74.6981456841
 20
42.0178725103
 30
0.0
 10
74.5622710727
 20
42.0742911641
 30
0.0
 10
74.3380224134
 20
42.1072043106
 30
0.0
 10
74.0971865324
 20
42.0894576108
 30
0.0
 10
73.7472577162
 20
41.996384157
 30
0.0
 10
73.2999285984
 20
41.7517760827
 30
0.0
 10
72.8057015249
 20
41.3140792877
 30
0.0
 10
72.3688063686
 20
40.7548865777
 30
0.0
 10
72.024975372
 20
40.1193589174
 30
0.0
 10
71.8018187426
 20
39.4596261616
 30
0.0
 10
71.7420416942
 20
39.0103020107
 30
0.0
 10
71.7420416942
 20
38.7966061751
 30
0.0
  0
SPLINE
  5
35B
100
AcDbEntity
  8
0
100
AcDbSpline
 62
7
  6
CONTINUOUS
 70
0
 71
3
 72
17
 73
13
 74
0
 42
0.0000001
 43
0.0000001
 44
0.0000000001
 40
0.0
 40
0.0
 40
0.0
 40
0.0
 40
0.0428590154
 40
0.087484945
 40
0.1353191404
 40
0.1872810096
 40
0.3045411455
 40
0.4382064078
 40
0.5825480614
 40
0.7297123844
 40
0.8713056989
 40
1.0
 40
1.0
 40
1.0
 40
1.0
 10
39.4063913515
 20
30.145776137
 30
0.0
 10
39.3447612216
 20
30.1813637102
 30
0.0
 10
39.2088866102
 20
30.2377823639
 30
0.0
 10
38.984637951
 20
30.2706955105
 30
0.0
 10
38.74380207
 20
30.2529488107
 30
0.0
 10
38.3938732538
 20
30.1598753569
 30
0.0
 10
37.9465441359
 20
29.9152672825
 30
0.0
 10
37.4523170624
 20
29.4775704876
 30
0.0
 10
37.0154219061
 20
28.9183777776
 30
0.0
 10
36.6715909095
 20
28.2828501172
 30
0.0
 10
36.4484342801
 20
27.6231173615
 30
0.0
 10
36.3886572317
 20
27.1737932106
 30
0.0
 10
36.3886572317
 20
26.960097375
 30
0.0
  0
SPLINE
  5
35C
100
AcDbEntity
  8
0
100
AcDbSpline
 62
7
  6
CONTINUOUS
 70
0
 71
3
 72
12
 73
8
 74
0
 42
0.0000001
 43
0.0000001
 44
0.0000000001
 40
0.0
 40
0.0
 40
0.0
 40
0.0
 40
0.1081629402
 40
0.2183735085
 40
0.451341095
 40
0.7104801914
 40
1.0
 40
1.0
 40
1.0
 40
1.0
 10
33.8316050365
 20
78.3319942371
 30
0.0
 10
33.88694512
 20
78.3639317116
 30
0.0
 10
33.993330501
 20
78.43820337
 30
0.0
 10
34.1841339949
 20
78.6259403034
 30
0.0
 10
34.3732311371
 20
78.9340658197
 30
0.0
 10
34.504643778
 20
79.3807232582
 30
0.0
 10
34.5306179162
 20
79.7059776112
 30
0.0
 10
34.5306179162
 20
79.8770044775
 30
0.0
  0
SPLINE
  5
35D
100
AcDbEntity
  8
0
100
AcDbSpline
 62
7
  6
CONTINUOUS
 70
0
 71
3
 72
12
 73
8
 74
0
 42
0.0000001
 43
0.0000001
 44
0.0000000001
 40
0.0
 40
0.0
 40
0.0
 40
0.0
 40
0.2895196667
 40
0.5486062848
 40
0.7815454514
 40
0.8917706022
 40
1.0
 40
1.0
 40
1.0
 40
1.0
 10
70.6106755547
 20
31.6930464336
 30
0.0
 10
70.4526927619
 20
31.6018355701
 30
0.0
 10
70.1384336378
 20
31.4523453065
 30
0.0
 10
69.6557986262
 20
31.3356056986
 30
0.0
 10
69.2703757984
 20
31.3458381622
 30
0.0
 10
68.9951457359
 20
31.4219410812
 30
0.0
 10
68.8697911228
 20
31.480696305
 30
0.0
 10
68.8107345872
 20
31.514795232
 30
0.0
  0
SPLINE
  5
35E
100
AcDbEntity
  8
0
100
AcDbSpline
 62
7
  6
CONTINUOUS
 70
0
 71
3
 72
11
 73
7
 74
0
 42
0.0000001
 43
0.0000001
 44
0.0000000001
 40
0.0
 40
0.0
 40
0.0
 40
0.0
 40
0.289702809
 40
0.549088757
 40
0.7822160314
 40
1.0
 40
1.0
 40
1.0
 40
1.0
 10
34.9726421591
 20
23.6100280606
 30
0.0
 10
34.8848857564
 20
23.5593621803
 30
0.0
 10
34.7103099976
 20
23.4763114221
 30
0.0
 10
34.441983293
 20
23.4115129521
 30
0.0
 10
34.1902140604
 20
23.4178855516
 30
0.0
 10
34.0386352272
 20
23.4728933494
 30
0.0
 10
33.9726641159
 20
23.5109809342
 30
0.0
  0
SPLINE
  5
35F
100
AcDbEntity
  8
0
100
AcDbSpline
 62
7
  6
CONTINUOUS
 70
0
 71
3
 72
11
 73
7
 74
0
 42
0.0000001
 43
0.0000001
 44
0.0000000001
 40
0.0
 40
0.0
 40
0.0
 40
0.0
 40
0.2897026209
 40
0.5490908265
 40
0.782219764
 40
1.0
 40
1.0
 40
1.0
 40
1.0
 10
36.3886572317
 20
26.960097375
 30
0.0
 10
36.3886572317
 20
26.8334268883
 30
0.0
 10
36.4078620992
 20
26.5925254863
 30
0.0
 10
36.5054189301
 20
26.2615374837
 30
0.0
 10
36.6696842954
 20
25.9929604571
 30
0.0
 10
36.8239799627
 20
25.8632562605
 30
0.0
 10
36.906442298
 20
25.8156393823
 30
0.0
  0
SPLINE
  5
360
100
AcDbEntity
  8
0
100
AcDbSpline
 62
7
  6
CONTINUOUS
 70
0
 71
3
 72
11
 73
7
 74
0
 42
0.0000001
 43
0.0000001
 44
0.0000000001
 40
0.0
 40
0.0
 40
0.0
 40
0.0
 40
0.2897026209
 40
0.5490908265
 40
0.782219764
 40
1.0
 40
1.0
 40
1.0
 40
1.0
 10
71.7420416942
 20
38.7966061751
 30
0.0
 10
71.7420416942
 20
38.6699356884
 30
0.0
 10
71.7612465617
 20
38.4290342865
 30
0.0
 10
71.8588033926
 20
38.0980462839
 30
0.0
 10
72.0230687578
 20
37.8294692572
 30
0.0
 10
72.1773644252
 20
37.6997650606
 30
0.0
 10
72.2598267605
 20
37.6521481824
 30
0.0
  0
SPLINE
  5
361
100
AcDbEntity
  8
0
100
AcDbSpline
 62
7
  6
CONTINUOUS
 70
0
 71
3
 72
11
 73
7
 74
0
 42
0.0000001
 43
0.0000001
 44
0.0000000001
 40
0.0
 40
0.0
 40
0.0
 40
0.0
 40
0.2897026209
 40
0.5490908265
 40
0.782219764
 40
1.0
 40
1.0
 40
1.0
 40
1.0
 10
71.3884897756
 20
88.4006625631
 30
0.0
 10
71.3884897756
 20
88.2739920764
 30
0.0
 10
71.4076946431
 20
88.0330906745
 30
0.0
 10
71.505251474
 20
87.7021026719
 30
0.0
 10
71.6695168392
 20
87.4335256452
 30
0.0
 10
71.8238125066
 20
87.3038214486
 30
0.0
 10
71.9062748419
 20
87.2562045704
 30
0.0
  0
SPLINE
  5
362
100
AcDbEntity
  8
0
100
AcDbSpline
 62
7
  6
CONTINUOUS
 70
0
 71
3
 72
11
 73
7
 74
0
 42
0.0000001
 43
0.0000001
 44
0.0000000001
 40
0.0
 40
0.0
 40
0.0
 40
0.0
 40
0.2893975675
 40
0.5491290883
 40
0.7823145228
 40
1.0
 40
1.0
 40
1.0
 40
1.0
 10
31.5785437405
 20
33.0814899618
 30
0.0
 10
31.5785437405
 20
33.0409992804
 30
0.0
 10
31.5847666288
 20
32.9639212521
 30
0.0
 10
31.6158673806
 20
32.85796043
 30
0.0
 10
31.6684834207
 20
32.7719904169
 30
0.0
 10
31.7178630291
 20
32.7305002683
 30
0.0
 10
31.7442506239
 20
32.7152905823
 30
0.0
  0
SPLINE
  5
363
100
AcDbEntity
  8
0
100
AcDbSpline
 62
7
  6
CONTINUOUS
 70
0
 71
3
 72
11
 73
7
 74
0
 42
0.0000001
 43
0.0000001
 44
0.0000000001
 40
0.0
 40
0.0
 40
0.0
 40
0.0
 40
0.2177456295
 40
0.4508837762
 40
0.7104602913
 40
1.0
 40
1.0
 40
1.0
 40
1.0
 10
46.6448404399
 20
75.5889322445
 30
0.0
 10
46.6118613314
 20
75.6079723052
 30
0.0
 10
46.5361115858
 20
75.6355588031
 30
0.0
 10
46.4101817025
 20
75.6387210832
 30
0.0
 10
46.2760393033
 20
75.6062513317
 30
0.0
 10
46.1887295405
 20
75.5647710003
 30
0.0
 10
46.1448768991
 20
75.5394528171
 30
0.0
  0
SPLINE
  5
364
100
AcDbEntity
  8
0
100
AcDbSpline
 62
7
  6
CONTINUOUS
 70
0
 71
3
 72
17
 73
13
 74
0
 42
0.0000001
 43
0.0000001
 44
0.0000000001
 40
0.0
 40
0.0
 40
0.0
 40
0.0
 40
0.0428569944
 40
0.0874783169
 40
0.1353167971
 40
0.1872729805
 40
0.3045398562
 40
0.438205313
 40
0.5825464442
 40
0.7296715376
 40
0.8713404129
 40
1.0
 40
1.0
 40
1.0
 40
1.0
 10
32.5442029965
 20
34.1008799875
 30
0.0
 10
32.5244737686
 20
34.1122518221
 30
0.0
 10
32.4810120044
 20
34.1303215336
 30
0.0
 10
32.4092533995
 20
34.1408877663
 30
0.0
 10
32.3321949317
 20
34.13516196
 30
0.0
 10
32.2202040532
 20
34.1054397441
 30
0.0
 10
32.0770744226
 20
34.0271206346
 30
0.0
 10
31.9189147747
 20
33.8870747872
 30
0.0
 10
31.7791537064
 20
33.7081305595
 30
0.0
 10
31.6690609267
 20
33.5047804867
 30
0.0
 10
31.5977129766
 20
33.293647505
 30
0.0
 10
31.5785437405
 20
33.1498528485
 30
0.0
 10
31.5785437405
 20
33.0814899618
 30
0.0
  0
SPLINE
  5
365
100
AcDbEntity
  8
0
100
AcDbSpline
 62
7
  6
CONTINUOUS
 70
0
 71
3
 72
12
 73
8
 74
0
 42
0.0000001
 43
0.0000001
 44
0.0000000001
 40
0.0
 40
0.0
 40
0.0
 40
0.0
 40
0.2624786859
 40
0.5233041175
 40
0.7720076067
 40
0.8891053146
 40
1.0
 40
1.0
 40
1.0
 40
1.0
 10
29.7753974551
 20
41.4657805325
 30
0.0
 10
29.4077788366
 20
40.9793884607
 30
0.0
 10
28.7459252767
 20
39.9537996438
 30
0.0
 10
27.9939193275
 20
38.3197983153
 30
0.0
 10
27.5862563672
 20
36.9150808095
 30
0.0
 10
27.4197332935
 20
35.8191236746
 30
0.0
 10
27.3903362122
 20
35.2892417626
 30
0.0
 10
27.3903362122
 20
35.0316540983
 30
0.0
  0
SPLINE
  5
366
100
AcDbEntity
  8
0
100
AcDbSpline
 62
7
  6
CONTINUOUS
 70
0
 71
3
 72
11
 73
7
 74
0
 42
0.0000001
 43
0.0000001
 44
0.0000000001
 40
0.0
 40
0.0
 40
0.0
 40
0.0
 40
0.2817165139
 40
0.5411039141
 40
0.7792223256
 40
1.0
 40
1.0
 40
1.0
 40
1.0
 10
27.3903362122
 20
35.0316540983
 30
0.0
 10
27.3903362122
 20
34.7446402845
 30
0.0
 10
27.4243354327
 20
34.1923945867
 30
0.0
 10
27.5914151161
 20
33.4127366913
 30
0.0
 10
27.8707121714
 20
32.7316868068
 30
0.0
 10
28.1378096854
 20
32.342128039
 30
0.0
 10
28.2870148382
 20
32.1738101166
 30
0.0
  0
SPLINE
  5
367
100
AcDbEntity
  8
0
100
AcDbSpline
 62
7
  6
CONTINUOUS
 70
0
 71
3
 72
12
 73
8
 74
0
 42
0.0000001
 43
0.0000001
 44
0.0000000001
 40
0.0
 40
0.0
 40
0.0
 40
0.0
 40
0.1081629402
 40
0.2183735085
 40
0.451341095
 40
0.7104801914
 40
1.0
 40
1.0
 40
1.0
 40
1.0
 10
40.1248815903
 20
21.7892948919
 30
0.0
 10
40.1802216739
 20
21.8212323663
 30
0.0
 10
40.2866070548
 20
21.8955040248
 30
0.0
 10
40.4774105487
 20
22.0832409581
 30
0.0
 10
40.6665076909
 20
22.3913664744
 30
0.0
 10
40.7979203318
 20
22.838023913
 30
0.0
 10
40.82389447
 20
23.163278266
 30
0.0
 10
40.82389447
 20
23.3343051323
 30
0.0
  0
SPLINE
  5
368
100
AcDbEntity
  8
0
100
AcDbSpline
 62
7
  6
CONTINUOUS
 70
0
 71
3
 72
20
 73
16
 74
0
 42
0.0000001
 43
0.0000001
 44
0.0000000001
 40
0.0
 40
0.0
 40
0.0
 40
0.0
 40
0.0623921582
 40
0.1288106079
 40
0.270304267
 40
0.4173655044
 40
0.5616165668
 40
0.6302527501
 40
0.6953793742
 40
0.756361747
 40
0.8128310404
 40
0.8647638596
 40
0.9125657735
 40
0.9571671599
 40
1.0
 40
1.0
 40
1.0
 40
1.0
 10
34.5306179162
 20
79.8770044775
 30
0.0
 10
34.5306179162
 20
80.0169575015
 30
0.0
 10
34.5115827653
 20
80.3060983123
 30
0.0
 10
34.4053460541
 20
80.9039625439
 30
0.0
 10
34.1485380627
 20
81.6630200354
 30
0.0
 10
33.6845894871
 20
82.5204064601
 30
0.0
 10
33.1848024885
 20
83.1605132596
 30
0.0
 10
32.735014433
 20
83.5937244054
 30
0.0
 10
32.3903774873
 20
83.863568594
 30
0.0
 10
32.0401358795
 20
84.0778203087
 30
0.0
 10
31.691414888
 20
84.23192384
 30
0.0
 10
31.3511618731
 20
84.3223770155
 30
0.0
 10
31.0260352781
 20
84.3462409888
 30
0.0
 10
30.7232579047
 20
84.3019338412
 30
0.0
 10
30.5398556885
 20
84.2256645684
 30
0.0
 10
30.4566401512
 20
84.1776398109
 30
0.0
  0
SPLINE
  5
369
100
AcDbEntity
  8
0
100
AcDbSpline
 62
7
  6
CONTINUOUS
 70
0
 71
3
 72
11
 73
7
 74
0
 42
0.0000001
 43
0.0000001
 44
0.0000000001
 40
0.0
 40
0.0
 40
0.0
 40
0.0
 40
0.2895396729
 40
0.5491163863
 40
0.7822545095
 40
1.0
 40
1.0
 40
1.0
 40
1.0
 10
45.3670626782
 20
72.7225272382
 30
0.0
 10
45.33198057
 20
72.7022726945
 30
0.0
 10
45.2621327239
 20
72.6690884644
 30
0.0
 10
45.1548187975
 20
72.6431126021
 30
0.0
 10
45.0540748901
 20
72.6456424763
 30
0.0
 10
44.9934751075
 20
72.6677116433
 30
0.0
 10
44.9670918461
 20
72.6829436959
 30
0.0
  0
SPLINE
  5
36A
100
AcDbEntity
  8
0
100
AcDbSpline
 62
7
  6
CONTINUOUS
 70
0
 71
3
 72
9
 73
5
 74
0
 42
0.0000001
 43
0.0000001
 44
0.0000000001
 40
0.0
 40
0.0
 40
0.0
 40
0.0
 40
0.2642866667
 40
1.0
 40
1.0
 40
1.0
 40
1.0
 10
16.792876797
 20
41.3937295195
 30
0.0
 10
16.8036577661
 20
41.2891298663
 30
0.0
 10
16.8567942287
 20
40.8949129288
 30
0.0
 10
16.9619891912
 20
40.5062417808
 30
0.0
 10
17.0756198943
 20
40.2364726739
 30
0.0
  0
SPLINE
  5
36B
100
AcDbEntity
  8
0
100
AcDbSpline
 62
7
  6
CONTINUOUS
 70
0
 71
3
 72
11
 73
7
 74
0
 42
0.0000001
 43
0.0000001
 44
0.0000000001
 40
0.0
 40
0.0
 40
0.0
 40
0.0
 40
0.2896784336
 40
0.5491208899
 40
0.7822333041
 40
1.0
 40
1.0
 40
1.0
 40
1.0
 10
16.4817511086
 20
41.7974300708
 30
0.0
 10
16.4817511086
 20
41.7568989564
 30
0.0
 10
16.4879022481
 20
41.6798062497
 30
0.0
 10
16.5191242208
 20
41.5738914176
 30
0.0
 10
16.5716772615
 20
41.4879341873
 30
0.0
 10
16.6210554933
 20
41.446438966
 30
0.0
 10
16.6474414461
 20
41.4312019853
 30
0.0
  0
SPLINE
  5
36C
100
AcDbEntity
  8
0
100
AcDbSpline
 62
7
  6
CONTINUOUS
 70
0
 71
3
 72
11
 73
7
 74
0
 42
0.0000001
 43
0.0000001
 44
0.0000000001
 40
0.0
 40
0.0
 40
0.0
 40
0.0
 40
0.259524543
 40
0.521080739
 40
0.7716507464
 40
1.0
 40
1.0
 40
1.0
 40
1.0
 10
16.792876797
 20
42.5603854775
 30
0.0
 10
16.7454702139
 20
42.5054312558
 30
0.0
 10
16.6596443571
 20
42.3867354822
 30
0.0
 10
16.56158435
 20
42.1935358411
 30
0.0
 10
16.4984540812
 20
41.9953697828
 30
0.0
 10
16.4817511086
 20
41.8612883593
 30
0.0
 10
16.4817511086
 20
41.7974300708
 30
0.0
  0
SPLINE
  5
36D
100
AcDbEntity
  8
0
100
AcDbSpline
 62
7
  6
CONTINUOUS
 70
0
 71
3
 72
11
 73
7
 74
0
 42
0.0000001
 43
0.0000001
 44
0.0000000001
 40
0.0
 40
0.0
 40
0.0
 40
0.0
 40
0.2561996309
 40
0.5143204117
 40
0.7650712106
 40
1.0
 40
1.0
 40
1.0
 40
1.0
 10
19.1128231968
 20
47.8975648308
 30
0.0
 10
18.7979674962
 20
47.516224507
 30
0.0
 10
18.2202175581
 20
46.7043657857
 30
0.0
 10
17.5300681341
 20
45.3939564542
 30
0.0
 10
17.0379990539
 20
44.0404792856
 30
0.0
 10
16.8516686877
 20
43.1165870549
 30
0.0
 10
16.8033705178
 20
42.6656995505
 30
0.0
  0
SPLINE
  5
36E
100
AcDbEntity
  8
0
100
AcDbSpline
 62
7
  6
CONTINUOUS
 70
0
 71
3
 72
11
 73
7
 74
0
 42
0.0000001
 43
0.0000001
 44
0.0000000001
 40
0.0
 40
0.0
 40
0.0
 40
0.0
 40
0.2278672079
 40
0.4770044088
 40
0.7380705498
 40
1.0
 40
1.0
 40
1.0
 40
1.0
 10
40.82389447
 20
23.3343051323
 30
0.0
 10
40.82389447
 20
23.5824297695
 30
0.0
 10
40.7640949339
 20
24.1024178606
 30
0.0
 10
40.5347892501
 20
24.8759616381
 30
0.0
 10
40.1755154261
 20
25.6393864762
 30
0.0
 10
39.8598269357
 20
26.1163002146
 30
0.0
 10
39.6846618421
 20
26.3413886339
 30
0.0
  0
SPLINE
  5
36F
100
AcDbEntity
  8
0
100
AcDbSpline
 62
7
  6
CONTINUOUS
 70
0
 71
3
 72
12
 73
8
 74
0
 42
0.0000001
 43
0.0000001
 44
0.0000000001
 40
0.0
 40
0.0
 40
0.0
 40
0.0
 40
0.2895577052
 40
0.5486551371
 40
0.7816333826
 40
0.8918396704
 40
1.0
 40
1.0
 40
1.0
 40
1.0
 10
57.5645388085
 20
97.8500739603
 30
0.0
 10
57.6962087071
 20
97.926093158
 30
0.0
 10
57.9350508836
 20
98.0906219798
 30
0.0
 10
58.2204514476
 20
98.390316114
 30
0.0
 10
58.3735970037
 20
98.6727910534
 30
0.0
 10
58.4333394534
 20
98.9031037606
 30
0.0
 10
58.4431875814
 20
99.0180041017
 30
0.0
 10
58.4431875807
 20
99.0747962239
 30
0.0
  0
SPLINE
  5
370
100
AcDbEntity
  8
0
100
AcDbSpline
 62
7
  6
CONTINUOUS
 70
0
 71
3
 72
20
 73
16
 74
0
 42
0.0000001
 43
0.0000001
 44
0.0000000001
 40
0.0
 40
0.0
 40
0.0
 40
0.0
 40
0.0623921582
 40
0.1288106079
 40
0.270304267
 40
0.4173655044
 40
0.5616165668
 40
0.6302527501
 40
0.6953793742
 40
0.756361747
 40
0.8128310404
 40
0.8647638596
 40
0.9125657735
 40
0.9571671599
 40
1.0
 40
1.0
 40
1.0
 40
1.0
 10
29.7576272715
 20
82.6326295705
 30
0.0
 10
29.7576272715
 20
82.4926765465
 30
0.0
 10
29.7766624224
 20
82.2035357357
 30
0.0
 10
29.8828991336
 20
81.6056715041
 30
0.0
 10
30.1397071249
 20
80.8466140127
 30
0.0
 10
30.6036557006
 20
79.9892275879
 30
0.0
 10
31.1034426992
 20
79.3491207885
 30
0.0
 10
31.5532307546
 20
78.9159096426
 30
0.0
 10
31.8978677004
 20
78.646065454
 30
0.0
 10
32.2481093082
 20
78.4318137393
 30
0.0
 10
32.5968302997
 20
78.277710208
 30
0.0
 10
32.9370833145
 20
78.1872570325
 30
0.0
 10
33.2622099095
 20
78.1633930593
 30
0.0
 10
33.5649872829
 20
78.2077002068
 30
0.0
 10
33.7483894992
 20
78.2839694796
 30
0.0
 10
33.8316050365
 20
78.3319942371
 30
0.0
  0
SPLINE
  5
371
100
AcDbEntity
  8
0
100
AcDbSpline
 62
7
  6
CONTINUOUS
 70
0
 71
3
 72
15
 73
11
 74
0
 42
0.0000001
 43
0.0000001
 44
0.0000000001
 40
0.0
 40
0.0
 40
0.0
 40
0.0
 40
0.1141474765
 40
0.2373368178
 40
0.3669776594
 40
0.5000010819
 40
0.633024354
 40
0.7626647561
 40
0.8858534048
 40
1.0
 40
1.0
 40
1.0
 40
1.0
 10
28.7854125473
 20
83.6021660596
 30
0.0
 10
28.7854125472
 20
83.3087380346
 30
0.0
 10
28.8391967761
 20
82.6980739568
 30
0.0
 10
29.0534135069
 20
81.776834317
 30
0.0
 10
29.3967387788
 20
80.8437129834
 30
0.0
 10
29.8560840959
 20
79.9337732282
 30
0.0
 10
30.4144458101
 20
79.0810022247
 30
0.0
 10
31.0508918721
 20
78.3171190075
 30
0.0
 10
31.7416007864
 20
77.6709899518
 30
0.0
 10
32.2435589134
 20
77.3190858087
 30
0.0
 10
32.4976745124
 20
77.1723754182
 30
0.0
  0
SPLINE
  5
372
100
AcDbEntity
  8
0
100
AcDbSpline
 62
7
  6
CONTINUOUS
 70
0
 71
3
 72
15
 73
11
 74
0
 42
0.0000001
 43
0.0000001
 44
0.0000000001
 40
0.0
 40
0.0
 40
0.0
 40
0.0
 40
0.1141465952
 40
0.2373352439
 40
0.366975646
 40
0.4999989181
 40
0.6330223406
 40
0.7626631822
 40
0.8858525235
 40
1.0
 40
1.0
 40
1.0
 40
1.0
 10
32.1441225938
 20
84.7249332925
 30
0.0
 10
32.3498376466
 20
84.6061663382
 30
0.0
 10
32.7561894919
 20
84.3212881975
 30
0.0
 10
33.3153413949
 20
83.798225177
 30
0.0
 10
33.830565709
 20
83.1798362353
 30
0.0
 10
34.2825781394
 20
82.489489666
 30
0.0
 10
34.6544334939
 20
81.7528630855
 30
0.0
 10
34.9323667522
 20
80.9974702441
 30
0.0
 10
35.1057823405
 20
80.2516960301
 30
0.0
 10
35.1493224676
 20
79.757343092
 30
0.0
 10
35.1493224675
 20
79.5198033193
 30
0.0
  0
SPLINE
  5
373
100
AcDbEntity
  8
0
100
AcDbSpline
 62
7
  6
CONTINUOUS
 70
0
 71
3
 72
15
 73
11
 74
0
 42
0.0000001
 43
0.0000001
 44
0.0000000001
 40
0.0
 40
0.0
 40
0.0
 40
0.0
 40
0.1474561271
 40
0.2805074424
 40
0.4007281392
 40
0.5123987031
 40
0.6219064243
 40
0.736309081
 40
0.8612387697
 40
1.0
 40
1.0
 40
1.0
 40
1.0
 10
29.1389227202
 20
82.9898307288
 30
0.0
 10
29.1389227203
 20
83.1908965852
 30
0.0
 10
29.1675048322
 20
83.574497701
 30
0.0
 10
29.3112816943
 20
84.1057479239
 30
0.0
 10
29.5529472023
 20
84.5472785176
 30
0.0
 10
29.8885404256
 20
84.8805519353
 30
0.0
 10
30.3060033203
 20
85.0867202513
 30
0.0
 10
30.7834430387
 20
85.1564697244
 30
0.0
 10
31.2999427872
 20
85.0928045319
 30
0.0
 10
31.6414170315
 20
84.9720737206
 30
0.0
 10
31.8139836578
 20
84.8944779011
 30
0.0
  0
SPLINE
  5
374
100
AcDbEntity
  8
0
100
AcDbSpline
 62
7
  6
CONTINUOUS
 70
0
 71
3
 72
9
 73
5
 74
0
 42
0.0000001
 43
0.0000001
 44
0.0000000001
 40
0.0
 40
0.0
 40
0.0
 40
0.0
 40
0.244818263
 40
1.0
 40
1.0
 40
1.0
 40
1.0
 10
31.8139836578
 20
84.8944779011
 30
0.0
 10
31.8416127232
 20
84.8820542939
 30
0.0
 10
31.953783325
 20
84.829793185
 30
0.0
 10
32.0631955295
 20
84.7716554979
 30
0.0
 10
32.1441225938
 20
84.7249332925
 30
0.0
  0
SPLINE
  5
375
100
AcDbEntity
  8
0
100
AcDbSpline
 62
7
  6
CONTINUOUS
 70
0
 71
3
 72
19
 73
15
 74
0
 42
0.0000001
 43
0.0000001
 44
0.0000000001
 40
0.0
 40
0.0
 40
0.0
 40
0.0
 40
0.1446879116
 40
0.2741558407
 40
0.3338696862
 40
0.3908813937
 40
0.4459508105
 40
0.4999980244
 40
0.5540453293
 40
0.6091150111
 40
0.6661271338
 40
0.7258415128
 40
0.8553107297
 40
1.0
 40
1.0
 40
1.0
 40
1.0
 10
32.4976745124
 20
77.1723754182
 30
0.0
 10
32.7280963627
 20
77.0393443105
 30
0.0
 10
33.1860654574
 20
76.8212587046
 30
0.0
 10
33.7890535701
 20
76.6759607662
 30
0.0
 10
34.2428975704
 20
76.6602075246
 30
0.0
 10
34.5580814548
 20
76.6954120113
 30
0.0
 10
34.8538662244
 20
76.7771240542
 30
0.0
 10
35.1268827373
 20
76.9050426614
 30
0.0
 10
35.3741678547
 20
77.077529026
 30
0.0
 10
35.5928208291
 20
77.2928362996
 30
0.0
 10
35.7808965144
 20
77.548197164
 30
0.0
 10
35.9941699993
 20
77.9491219228
 30
0.0
 10
36.1698248246
 20
78.543982036
 30
0.0
 10
36.2099364774
 20
79.0496429141
 30
0.0
 10
36.2099364775
 20
79.3157121424
 30
0.0
  0
SPLINE
  5
376
100
AcDbEntity
  8
0
100
AcDbSpline
 62
7
  6
CONTINUOUS
 70
0
 71
3
 72
15
 73
11
 74
0
 42
0.0000001
 43
0.0000001
 44
0.0000000001
 40
0.0
 40
0.0
 40
0.0
 40
0.0
 40
0.1141474765
 40
0.2373368178
 40
0.3669776594
 40
0.5000010819
 40
0.633024354
 40
0.7626647561
 40
0.8858534048
 40
1.0
 40
1.0
 40
1.0
 40
1.0
 10
36.2099364775
 20
79.3157121424
 30
0.0
 10
36.2099364777
 20
79.6091401673
 30
0.0
 10
36.1561522488
 20
80.2198042452
 30
0.0
 10
35.941935518
 20
81.1410438849
 30
0.0
 10
35.5986102461
 20
82.0741652185
 30
0.0
 10
35.1392649289
 20
82.9841049738
 30
0.0
 10
34.5809032147
 20
83.8368759772
 30
0.0
 10
33.9444571528
 20
84.6007591944
 30
0.0
 10
33.2537482385
 20
85.2468882501
 30
0.0
 10
32.7517901114
 20
85.5987923933
 30
0.0
 10
32.4976745124
 20
85.7455027837
 30
0.0
  0
SPLINE
  5
377
100
AcDbEntity
  8
0
100
AcDbSpline
 62
7
  6
CONTINUOUS
 70
0
 71
3
 72
15
 73
11
 74
0
 42
0.0000001
 43
0.0000001
 44
0.0000000001
 40
0.0
 40
0.0
 40
0.0
 40
0.0
 40
0.1141465952
 40
0.2373352439
 40
0.366975646
 40
0.4999989181
 40
0.6330223406
 40
0.7626631822
 40
0.8858525235
 40
1.0
 40
1.0
 40
1.0
 40
1.0
 10
32.1441225938
 20
77.7847007556
 30
0.0
 10
31.9384075411
 20
77.9034677098
 30
0.0
 10
31.5320556957
 20
78.1883458505
 30
0.0
 10
30.9729037928
 20
78.7114088711
 30
0.0
 10
30.4576794786
 20
79.3297978128
 30
0.0
 10
30.0056670482
 20
80.020144382
 30
0.0
 10
29.6338116938
 20
80.7567709626
 30
0.0
 10
29.3558784354
 20
81.512163804
 30
0.0
 10
29.1824628472
 20
82.2579380179
 30
0.0
 10
29.1389227201
 20
82.7522909561
 30
0.0
 10
29.1389227202
 20
82.9898307288
 30
0.0
  0
SPLINE
  5
378
100
AcDbEntity
  8
0
100
AcDbSpline
 62
7
  6
CONTINUOUS
 70
0
 71
3
 72
9
 73
5
 74
0
 42
0.0000001
 43
0.0000001
 44
0.0000000001
 40
0.0
 40
0.0
 40
0.0
 40
0.0
 40
0.2552016628
 40
1.0
 40
1.0
 40
1.0
 40
1.0
 10
35.1493224675
 20
79.5198033193
 30
0.0
 10
35.1493224675
 20
79.488219628
 30
0.0
 10
35.1478463712
 20
79.3644667516
 30
0.0
 10
35.1403780239
 20
79.2407660755
 30
0.0
 10
35.1310807817
 20
79.1490601046
 30
0.0
  0
SPLINE
  5
379
100
AcDbEntity
  8
0
100
AcDbSpline
 62
7
  6
CONTINUOUS
 70
0
 71
3
 72
15
 73
11
 74
0
 42
0.0000001
 43
0.0000001
 44
0.0000000001
 40
0.0
 40
0.0
 40
0.0
 40
0.0
 40
0.1387616578
 40
0.2636918858
 40
0.37809509
 40
0.487603182
 40
0.5992737759
 40
0.7194941081
 40
0.8525447398
 40
1.0
 40
1.0
 40
1.0
 40
1.0
 10
35.1310807817
 20
79.1490601046
 30
0.0
 10
35.1119965593
 20
78.9608174956
 30
0.0
 10
35.0458143658
 20
78.6047312043
 30
0.0
 10
34.8427015397
 20
78.1256025907
 30
0.0
 10
34.5435812405
 20
77.7470059905
 30
0.0
 10
34.1563097093
 20
77.4885570561
 30
0.0
 10
33.699898195
 20
77.3645583393
 30
0.0
 10
33.1966976132
 20
77.3760289609
 30
0.0
 10
32.66474198
 20
77.5171308983
 30
0.0
 10
32.3182480559
 20
77.6841716475
 30
0.0
 10
32.1441225938
 20
77.7847007556
 30
0.0
  0
SPLINE
  5
37A
100
AcDbEntity
  8
0
100
AcDbSpline
 62
7
  6
CONTINUOUS
 70
0
 71
3
 72
19
 73
15
 74
0
 42
0.0000001
 43
0.0000001
 44
0.0000000001
 40
0.0
 40
0.0
 40
0.0
 40
0.0
 40
0.1446879116
 40
0.2741558407
 40
0.3338696862
 40
0.3908813937
 40
0.4459508105
 40
0.4999980244
 40
0.5540453293
 40
0.6091150111
 40
0.6661271338
 40
0.7258415128
 40
0.8553107297
 40
1.0
 40
1.0
 40
1.0
 40
1.0
 10
32.4976745124
 20
85.7455027837
 30
0.0
 10
32.2672526621
 20
85.8785338914
 30
0.0
 10
31.8092835675
 20
86.0966194973
 30
0.0
 10
31.2062954547
 20
86.2419174357
 30
0.0
 10
30.7524514544
 20
86.2576706773
 30
0.0
 10
30.43726757
 20
86.2224661906
 30
0.0
 10
30.1414828004
 20
86.1407541477
 30
0.0
 10
29.8684662875
 20
86.0128355405
 30
0.0
 10
29.6211811701
 20
85.8403491759
 30
0.0
 10
29.4025281957
 20
85.6250419023
 30
0.0
 10
29.2144525105
 20
85.3696810379
 30
0.0
 10
29.0011790255
 20
84.9687562791
 30
0.0
 10
28.8255242003
 20
84.3738961659
 30
0.0
 10
28.7854125474
 20
83.8682352878
 30
0.0
 10
28.7854125473
 20
83.6021660596
 30
0.0
  0
SPLINE
  5
37B
100
AcDbEntity
  8
0
100
AcDbSpline
 62
7
  6
CONTINUOUS
 70
0
 71
3
 72
17
 73
13
 74
0
 42
0.0000001
 43
0.0000001
 44
0.0000000001
 40
0.0
 40
0.0
 40
0.0
 40
0.0
 40
0.0428569944
 40
0.0874783169
 40
0.1353167971
 40
0.1872729805
 40
0.3045398562
 40
0.438205313
 40
0.5825464442
 40
0.7296715376
 40
0.8713404129
 40
1.0
 40
1.0
 40
1.0
 40
1.0
 10
31.7442506239
 20
32.7152905823
 30
0.0
 10
31.7639798519
 20
32.7039187477
 30
0.0
 10
31.807441616
 20
32.6858490361
 30
0.0
 10
31.879200221
 20
32.6752828035
 30
0.0
 10
31.9562586888
 20
32.6810086097
 30
0.0
 10
32.0682495672
 20
32.7107308257
 30
0.0
 10
32.2113791979
 20
32.7890499352
 30
0.0
 10
32.3695388458
 20
32.9290957826
 30
0.0
 10
32.5092999141
 20
33.1080400103
 30
0.0
 10
32.6193926938
 20
33.3113900831
 30
0.0
 10
32.6907406439
 20
33.5225230647
 30
0.0
 10
32.70990988
 20
33.6663177213
 30
0.0
 10
32.70990988
 20
33.734680608
 30
0.0
  0
SPLINE
  5
37C
100
AcDbEntity
  8
0
100
AcDbSpline
 62
7
  6
CONTINUOUS
 70
0
 71
3
 72
11
 73
7
 74
0
 42
0.0000001
 43
0.0000001
 44
0.0000000001
 40
0.0
 40
0.0
 40
0.0
 40
0.0
 40
0.2372518718
 40
0.4999985497
 40
0.7627460178
 40
1.0
 40
1.0
 40
1.0
 40
1.0
 10
46.8519866243
 20
71.7019019106
 30
0.0
 10
46.9523805908
 20
71.7598640483
 30
0.0
 10
47.1423671244
 20
71.919740958
 30
0.0
 10
47.3640223691
 20
72.222772876
 30
0.0
 10
47.5156266247
 20
72.5662496859
 30
0.0
 10
47.5590904615
 20
72.8107226563
 30
0.0
 10
47.5590904615
 20
72.9266484816
 30
0.0
  0
SPLINE
  5
37D
100
AcDbEntity
  8
0
100
AcDbSpline
 62
7
  6
CONTINUOUS
 70
0
 71
3
 72
12
 73
8
 74
0
 42
0.0000001
 43
0.0000001
 44
0.0000000001
 40
0.0
 40
0.0
 40
0.0
 40
0.0
 40
0.1081629402
 40
0.2183735085
 40
0.451341095
 40
0.7104801914
 40
1.0
 40
1.0
 40
1.0
 40
1.0
 10
30.4566401512
 20
84.1776398109
 30
0.0
 10
30.4013000676
 20
84.1457023365
 30
0.0
 10
30.2949146867
 20
84.071430678
 30
0.0
 10
30.1041111928
 20
83.8836937447
 30
0.0
 10
29.9150140505
 20
83.5755682284
 30
0.0
 10
29.7836014097
 20
83.1289107898
 30
0.0
 10
29.7576272715
 20
82.8036564368
 30
0.0
 10
29.7576272715
 20
82.6326295705
 30
0.0
  0
SPLINE
  5
37E
100
AcDbEntity
  8
0
100
AcDbSpline
 62
7
  6
CONTINUOUS
 70
0
 71
3
 72
11
 73
7
 74
0
 42
0.0000001
 43
0.0000001
 44
0.0000000001
 40
0.0
 40
0.0
 40
0.0
 40
0.0
 40
0.2895411595
 40
0.5491183966
 40
0.7822559144
 40
1.0
 40
1.0
 40
1.0
 40
1.0
 10
46.8519807364
 20
75.1311945539
 30
0.0
 10
46.8519807364
 20
75.1818334058
 30
0.0
 10
46.8442486949
 20
75.2781902581
 30
0.0
 10
46.8052955868
 20
75.4106014213
 30
0.0
 10
46.7395890222
 20
75.5180825582
 30
0.0
 10
46.6778206205
 20
75.5698915649
 30
0.0
 10
46.6448404399
 20
75.5889322445
 30
0.0
  0
SPLINE
  5
37F
100
AcDbEntity
  8
0
100
AcDbSpline
 62
7
  6
CONTINUOUS
 70
0
 71
3
 72
11
 73
7
 74
0
 42
0.0000001
 43
0.0000001
 44
0.0000000001
 40
0.0
 40
0.0
 40
0.0
 40
0.0
 40
0.2895411595
 40
0.5491183966
 40
0.7822559144
 40
1.0
 40
1.0
 40
1.0
 40
1.0
 10
37.3767274944
 20
77.3356617712
 30
0.0
 10
37.3767274944
 20
77.2951506897
 30
0.0
 10
37.3829131276
 20
77.2180652079
 30
0.0
 10
37.4140756141
 20
77.1121362773
 30
0.0
 10
37.4666408657
 20
77.0261513677
 30
0.0
 10
37.516055587
 20
76.9847041624
 30
0.0
 10
37.5424397315
 20
76.9694716187
 30
0.0
  0
SPLINE
  5
380
100
AcDbEntity
  8
0
100
AcDbSpline
 62
7
  6
CONTINUOUS
 70
0
 71
3
 72
11
 73
7
 74
0
 42
0.0000001
 43
0.0000001
 44
0.0000000001
 40
0.0
 40
0.0
 40
0.0
 40
0.0
 40
0.2372518718
 40
0.4999985497
 40
0.7627460178
 40
1.0
 40
1.0
 40
1.0
 40
1.0
 10
37.9424105642
 20
78.315459028
 30
0.0
 10
37.8620953909
 20
78.2690893179
 30
0.0
 10
37.710106164
 20
78.1411877901
 30
0.0
 10
37.5327819683
 20
77.8987622558
 30
0.0
 10
37.4114985638
 20
77.6239808078
 30
0.0
 10
37.3767274944
 20
77.4284024316
 30
0.0
 10
37.3767274944
 20
77.3356617712
 30
0.0
  0
SPLINE
  5
381
100
AcDbEntity
  8
0
100
AcDbSpline
 62
7
  6
CONTINUOUS
 70
0
 71
3
 72
11
 73
7
 74
0
 42
0.0000001
 43
0.0000001
 44
0.0000000001
 40
0.0
 40
0.0
 40
0.0
 40
0.0
 40
0.2645221304
 40
0.524758956
 40
0.7722594541
 40
1.0
 40
1.0
 40
1.0
 40
1.0
 10
68.6405949265
 20
91.1401059931
 30
0.0
 10
68.7578649196
 20
91.3793016507
 30
0.0
 10
69.0218527733
 20
91.8391221316
 30
0.0
 10
69.4943065848
 20
92.4597258312
 30
0.0
 10
70.0214290327
 20
92.9834905449
 30
0.0
 10
70.4120490139
 20
93.2651276455
 30
0.0
 10
70.6106755547
 20
93.3798040477
 30
0.0
  0
SPLINE
  5
382
100
AcDbEntity
  8
0
100
AcDbSpline
 62
7
  6
CONTINUOUS
 70
0
 71
3
 72
11
 73
7
 74
0
 42
0.0000001
 43
0.0000001
 44
0.0000000001
 40
0.0
 40
0.0
 40
0.0
 40
0.0
 40
0.2372542275
 40
0.5000017852
 40
0.7627483734
 40
1.0
 40
1.0
 40
1.0
 40
1.0
 10
44.8013796084
 20
73.0491338488
 30
0.0
 10
44.8013796084
 20
73.141874605
 30
0.0
 10
44.8361507347
 20
73.337453112
 30
0.0
 10
44.9574342464
 20
73.6122346174
 30
0.0
 10
45.134758446
 20
73.8546600303
 30
0.0
 10
45.286747588
 20
73.9825614434
 30
0.0
 10
45.3670626782
 20
74.0289311056
 30
0.0
  0
SPLINE
  5
383
100
AcDbEntity
  8
0
100
AcDbSpline
 62
7
  6
CONTINUOUS
 70
0
 71
3
 72
11
 73
7
 74
0
 42
0.0000001
 43
0.0000001
 44
0.0000000001
 40
0.0
 40
0.0
 40
0.0
 40
0.0
 40
0.2177442246
 40
0.4508817658
 40
0.7104588047
 40
1.0
 40
1.0
 40
1.0
 40
1.0
 10
44.9670918461
 20
72.6829436959
 30
0.0
 10
44.9407076925
 20
72.6981762637
 30
0.0
 10
44.8912929371
 20
72.7396234654
 30
0.0
 10
44.8387277292
 20
72.8256083993
 30
0.0
 10
44.8075651933
 20
72.9315372933
 30
0.0
 10
44.8013796084
 20
73.0086227616
 30
0.0
 10
44.8013796084
 20
73.0491338488
 30
0.0
  0
SPLINE
  5
384
100
AcDbEntity
  8
0
100
AcDbSpline
 62
7
  6
CONTINUOUS
 70
0
 71
3
 72
9
 73
5
 74
0
 42
0.0000001
 43
0.0000001
 44
0.0000000001
 40
0.0
 40
0.0
 40
0.0
 40
0.0
 40
0.2424016342
 40
1.0
 40
1.0
 40
1.0
 40
1.0
 10
16.5281720438
 20
39.3734592974
 30
0.0
 10
16.5016905725
 20
39.4267574956
 30
0.0
 10
16.3981332474
 20
39.6494425287
 30
0.0
 10
16.3170260417
 20
39.8823337434
 30
0.0
 10
16.2669495933
 20
40.0614716257
 30
0.0
  0
SPLINE
  5
385
100
AcDbEntity
  8
0
100
AcDbSpline
 62
7
  6
CONTINUOUS
 70
0
 71
3
 72
9
 73
5
 74
0
 42
0.0000001
 43
0.0000001
 44
0.0000000001
 40
0.0
 40
0.0
 40
0.0
 40
0.0
 40
0.4813841811
 40
1.0
 40
1.0
 40
1.0
 40
1.0
 10
16.2669495933
 20
40.0614716257
 30
0.0
 10
16.2013930641
 20
40.2959862164
 30
0.0
 10
16.1051322954
 20
40.7947324877
 30
0.0
 10
16.0765806099
 20
41.3011676456
 30
0.0
 10
16.0765806099
 20
41.5635061706
 30
0.0
  0
SPLINE
  5
386
100
AcDbEntity
  8
0
100
AcDbSpline
 62
7
  6
CONTINUOUS
 70
0
 71
3
 72
12
 73
8
 74
0
 42
0.0000001
 43
0.0000001
 44
0.0000000001
 40
0.0
 40
0.0
 40
0.0
 40
0.0
 40
0.1108946854
 40
0.2279923933
 40
0.4766958825
 40
0.7375213141
 40
1.0
 40
1.0
 40
1.0
 40
1.0
 10
16.0765806099
 20
41.5635061706
 30
0.0
 10
16.0765806099
 20
41.8210938349
 30
0.0
 10
16.1059776911
 20
42.3509757469
 30
0.0
 10
16.2725007649
 20
43.4469328819
 30
0.0
 10
16.6801637251
 20
44.8516503876
 30
0.0
 10
17.4321696743
 20
46.4856517161
 30
0.0
 10
18.0940232343
 20
47.511240533
 30
0.0
 10
18.4616418528
 20
47.9976326049
 30
0.0
  0
SPLINE
  5
387
100
AcDbEntity
  8
0
100
AcDbSpline
 62
7
  6
CONTINUOUS
 70
0
 71
3
 72
17
 73
13
 74
0
 42
0.0000001
 43
0.0000001
 44
0.0000000001
 40
0.0
 40
0.0
 40
0.0
 40
0.0
 40
0.1500395434
 40
0.3003536277
 40
0.4459099768
 40
0.582167191
 40
0.7057023107
 40
0.7622081187
 40
0.8151710307
 40
0.911415491
 40
0.9562502491
 40
1.0
 40
1.0
 40
1.0
 40
1.0
 10
36.3987171087
 20
24.4566321056
 30
0.0
 10
36.4933674594
 20
24.2224402014
 30
0.0
 10
36.714938111
 20
23.7659906761
 30
0.0
 10
37.1279636053
 20
23.1367552437
 30
0.0
 10
37.6056163942
 20
22.5848513704
 30
0.0
 10
38.1244698875
 20
22.1376109724
 30
0.0
 10
38.584382899
 20
21.8618920477
 30
0.0
 10
38.9506246912
 20
21.7186670441
 30
0.0
 10
39.286633082
 20
21.6329583318
 30
0.0
 10
39.6197839428
 20
21.6186494845
 30
0.0
 10
39.9241568894
 20
21.6905728507
 30
0.0
 10
40.0610889022
 20
21.7524793106
 30
0.0
 10
40.1248815903
 20
21.7892948919
 30
0.0
  0
SPLINE
  5
388
100
AcDbEntity
  8
0
100
AcDbSpline
 62
7
  6
CONTINUOUS
 70
0
 71
3
 72
11
 73
7
 74
0
 42
0.0000001
 43
0.0000001
 44
0.0000000001
 40
0.0
 40
0.0
 40
0.0
 40
0.0
 40
0.2639050385
 40
0.5243837017
 40
0.7722876283
 40
1.0
 40
1.0
 40
1.0
 40
1.0
 10
35.803359483
 20
24.096800859
 30
0.0
 10
35.9759095927
 20
23.7269586516
 30
0.0
 10
36.3695333394
 20
23.0146880001
 30
0.0
 10
37.0835211276
 20
22.0527634772
 30
0.0
 10
37.8870559437
 20
21.2409665167
 30
0.0
 10
38.4859838081
 20
20.8057450184
 30
0.0
 10
38.7909510662
 20
20.629676073
 30
0.0
  0
SPLINE
  5
389
100
AcDbEntity
  8
0
100
AcDbSpline
 62
7
  6
CONTINUOUS
 70
0
 71
3
 72
19
 73
15
 74
0
 42
0.0000001
 43
0.0000001
 44
0.0000000001
 40
0.0
 40
0.0
 40
0.0
 40
0.0
 40
0.1446879116
 40
0.2741558407
 40
0.3338696862
 40
0.3908813937
 40
0.4459508105
 40
0.4999980244
 40
0.5540453293
 40
0.6091150111
 40
0.6661271338
 40
0.7258415128
 40
0.8553107297
 40
1.0
 40
1.0
 40
1.0
 40
1.0
 10
38.7909510662
 20
20.629676073
 30
0.0
 10
39.0213729165
 20
20.4966449652
 30
0.0
 10
39.4793420112
 20
20.2785593594
 30
0.0
 10
40.0823301239
 20
20.133261421
 30
0.0
 10
40.5361741242
 20
20.1175081794
 30
0.0
 10
40.8513580086
 20
20.1527126661
 30
0.0
 10
41.1471427782
 20
20.234424709
 30
0.0
 10
41.4201592911
 20
20.3623433162
 30
0.0
 10
41.6674444085
 20
20.5348296808
 30
0.0
 10
41.8860973829
 20
20.7501369544
 30
0.0
 10
42.0741730682
 20
21.0054978188
 30
0.0
 10
42.2874465531
 20
21.4064225776
 30
0.0
 10
42.4631013784
 20
22.0012826908
 30
0.0
 10
42.5032130312
 20
22.5069435689
 30
0.0
 10
42.5032130314
 20
22.7730127971
 30
0.0
  0
SPLINE
  5
38A
100
AcDbEntity
  8
0
100
AcDbSpline
 62
7
  6
CONTINUOUS
 70
0
 71
3
 72
11
 73
7
 74
0
 42
0.0000001
 43
0.0000001
 44
0.0000000001
 40
0.0
 40
0.0
 40
0.0
 40
0.0
 40
0.2277133044
 40
0.4756173838
 40
0.7360956208
 40
1.0
 40
1.0
 40
1.0
 40
1.0
 10
42.5032130314
 20
22.7730127971
 30
0.0
 10
42.5032130315
 20
23.1251523053
 30
0.0
 10
42.4257608896
 20
23.8614385848
 30
0.0
 10
42.1244946868
 20
24.9632008742
 30
0.0
 10
41.6484477981
 20
26.0624759132
 30
0.0
 10
41.228425956
 20
26.759488149
 30
0.0
 10
40.994414532
 20
27.0938369694
 30
0.0
  0
SPLINE
  5
38B
100
AcDbEntity
  8
0
100
AcDbSpline
 62
7
  6
CONTINUOUS
 70
0
 71
3
 72
11
 73
7
 74
0
 42
0.0000001
 43
0.0000001
 44
0.0000000001
 40
0.0
 40
0.0
 40
0.0
 40
0.0
 40
0.2631245503
 40
0.5238630415
 40
0.7722623789
 40
1.0
 40
1.0
 40
1.0
 40
1.0
 10
40.1309388569
 20
26.6009634089
 30
0.0
 10
40.3336283989
 20
26.324312568
 30
0.0
 10
40.6980667028
 20
25.7438009011
 30
0.0
 10
41.1118225798
 20
24.822615401
 30
0.0
 10
41.3746255963
 20
23.8952091591
 30
0.0
 10
41.4425990214
 20
23.2739366225
 30
0.0
 10
41.4425990213
 20
22.977103974
 30
0.0
  0
SPLINE
  5
38C
100
AcDbEntity
  8
0
100
AcDbSpline
 62
7
  6
CONTINUOUS
 70
0
 71
3
 72
11
 73
7
 74
0
 42
0.0000001
 43
0.0000001
 44
0.0000000001
 40
0.0
 40
0.0
 40
0.0
 40
0.0
 40
0.2277366822
 40
0.4761358749
 40
0.7368747997
 40
1.0
 40
1.0
 40
1.0
 40
1.0
 10
38.4373991476
 20
21.2420014104
 30
0.0
 10
38.180330075
 20
21.390416951
 30
0.0
 10
37.6762697964
 20
21.7599221713
 30
0.0
 10
37.0045028731
 20
22.4512288998
 30
0.0
 10
36.4136019942
 20
23.2701597834
 30
0.0
 10
36.0930800593
 20
23.8760407033
 30
0.0
 10
35.954837357
 20
24.1899069071
 30
0.0
  0
SPLINE
  5
38D
100
AcDbEntity
  8
0
100
AcDbSpline
 62
7
  6
CONTINUOUS
 70
0
 71
3
 72
9
 73
5
 74
0
 42
0.0000001
 43
0.0000001
 44
0.0000000001
 40
0.0
 40
0.0
 40
0.0
 40
0.0
 40
0.2552016628
 40
1.0
 40
1.0
 40
1.0
 40
1.0
 10
41.4425990213
 20
22.977103974
 30
0.0
 10
41.4425990213
 20
22.9455202828
 30
0.0
 10
41.441122925
 20
22.8217674064
 30
0.0
 10
41.4336545777
 20
22.6980667303
 30
0.0
 10
41.4243573355
 20
22.6063607594
 30
0.0
  0
SPLINE
  5
38E
100
AcDbEntity
  8
0
100
AcDbSpline
 62
7
  6
CONTINUOUS
 70
0
 71
3
 72
15
 73
11
 74
0
 42
0.0000001
 43
0.0000001
 44
0.0000000001
 40
0.0
 40
0.0
 40
0.0
 40
0.0
 40
0.1387616578
 40
0.2636918858
 40
0.37809509
 40
0.487603182
 40
0.5992737759
 40
0.7194941081
 40
0.8525447398
 40
1.0
 40
1.0
 40
1.0
 40
1.0
 10
41.4243573355
 20
22.6063607594
 30
0.0
 10
41.4052731131
 20
22.4181181504
 30
0.0
 10
41.3390909196
 20
22.062031859
 30
0.0
 10
41.1359780935
 20
21.5829032454
 30
0.0
 10
40.8368577943
 20
21.2043066453
 30
0.0
 10
40.4495862631
 20
20.9458577109
 30
0.0
 10
39.9931747489
 20
20.8218589941
 30
0.0
 10
39.489974167
 20
20.8333296157
 30
0.0
 10
38.9580185338
 20
20.9744315531
 30
0.0
 10
38.6115246097
 20
21.1414723023
 30
0.0
 10
38.4373991476
 20
21.2420014104
 30
0.0
  0
SPLINE
  5
38F
100
AcDbEntity
  8
0
100
AcDbSpline
 62
7
  6
CONTINUOUS
 70
0
 71
3
 72
12
 73
8
 74
0
 42
0.0000001
 43
0.0000001
 44
0.0000000001
 40
0.0
 40
0.0
 40
0.0
 40
0.0
 40
0.108160086
 40
0.2183661675
 40
0.4513442184
 40
0.7104418196
 40
1.0
 40
1.0
 40
1.0
 40
1.0
 10
58.4431875807
 20
99.0747962239
 30
0.0
 10
58.44318758
 20
99.1315889506
 30
0.0
 10
58.4333392387
 20
99.246490541
 30
0.0
 10
58.3735954899
 20
99.4768057515
 30
0.0
 10
58.220446576
 20
99.7592835333
 30
0.0
 10
57.9350402147
 20
100.0589798795
 30
0.0
 10
57.6961935056
 20
100.2235093323
 30
0.0
 10
57.5645211447
 20
100.2995286855
 30
0.0
  0
SPLINE
  5
390
100
AcDbEntity
  8
0
100
AcDbSpline
 62
7
  6
CONTINUOUS
 70
0
 71
3
 72
17
 73
13
 74
0
 42
0.0000001
 43
0.0000001
 44
0.0000000001
 40
0.0
 40
0.0
 40
0.0
 40
0.0
 40
0.0428590154
 40
0.087484945
 40
0.1353191404
 40
0.1872810096
 40
0.3045411455
 40
0.4382064078
 40
0.5825480614
 40
0.7297123844
 40
0.8713056989
 40
1.0
 40
1.0
 40
1.0
 40
1.0
 10
72.2598267605
 20
37.6521481824
 30
0.0
 10
72.3214568904
 20
37.6165606093
 30
0.0
 10
72.4573315018
 20
37.5601419555
 30
0.0
 10
72.6815801611
 20
37.527228809
 30
0.0
 10
72.9224160421
 20
37.5449755088
 30
0.0
 10
73.2723448583
 20
37.6380489626
 30
0.0
 10
73.7196739761
 20
37.8826570369
 30
0.0
 10
74.2139010496
 20
38.3203538319
 30
0.0
 10
74.6507962059
 20
38.8795465419
 30
0.0
 10
74.9946272025
 20
39.5150742022
 30
0.0
 10
75.2177838319
 20
40.174806958
 30
0.0
 10
75.2775608803
 20
40.6241311089
 30
0.0
 10
75.2775608803
 20
40.8378269445
 30
0.0
  0
SPLINE
  5
391
100
AcDbEntity
  8
0
100
AcDbSpline
 62
7
  6
CONTINUOUS
 70
0
 71
3
 72
10
 73
6
 74
0
 42
0.0000001
 43
0.0000001
 44
0.0000000001
 40
0.0
 40
0.0
 40
0.0
 40
0.0
 40
0.2281450702
 40
0.4752816799
 40
1.0
 40
1.0
 40
1.0
 40
1.0
 10
71.6147161944
 20
101.1445928225
 30
0.0
 10
71.6147161944
 20
101.0258390406
 30
0.0
 10
71.6379190445
 20
100.7781516764
 30
0.0
 10
71.7622359114
 20
100.2715717695
 30
0.0
 10
71.9342810205
 20
99.9024357867
 30
0.0
 10
72.0772166342
 20
99.6696975959
 30
0.0
  0
SPLINE
  5
392
100
AcDbEntity
  8
0
100
AcDbSpline
 62
7
  6
CONTINUOUS
 70
0
 71
3
 72
15
 73
11
 74
0
 42
0.0000001
 43
0.0000001
 44
0.0000000001
 40
0.0
 40
0.0
 40
0.0
 40
0.0
 40
0.1141469224
 40
0.2373360366
 40
0.366976904
 40
0.5000005214
 40
0.6330240662
 40
0.7626647219
 40
0.8858535023
 40
1.0
 40
1.0
 40
1.0
 40
1.0
 10
54.0289725189
 20
102.3407324581
 30
0.0
 10
53.8837609492
 20
102.4245685003
 30
0.0
 10
53.5661885113
 20
102.5724265317
 30
0.0
 10
53.0490804092
 20
102.7296266127
 30
0.0
 10
52.489203195
 20
102.8263298664
 30
0.0
 10
51.9076485979
 20
102.8589953615
 30
0.0
 10
51.3260944658
 20
102.8263271062
 30
0.0
 10
50.766218625
 20
102.7296211941
 30
0.0
 10
50.2491127492
 20
102.572418655
 30
0.0
 10
49.9315422568
 20
102.4245590375
 30
0.0
 10
49.7863318319
 20
102.3407222601
 30
0.0
  0
SPLINE
  5
393
100
AcDbEntity
  8
0
100
AcDbSpline
 62
7
  6
CONTINUOUS
 70
0
 71
3
 72
17
 73
13
 74
0
 42
0.0000001
 43
0.0000001
 44
0.0000000001
 40
0.0
 40
0.0
 40
0.0
 40
0.0
 40
0.0428590154
 40
0.087484945
 40
0.1353191404
 40
0.1872810096
 40
0.3045411455
 40
0.4382064078
 40
0.5825480614
 40
0.7297123844
 40
0.8713056989
 40
1.0
 40
1.0
 40
1.0
 40
1.0
 10
71.9062748419
 20
87.2562045704
 30
0.0
 10
71.9679049718
 20
87.2206169973
 30
0.0
 10
72.1037795832
 20
87.1641983435
 30
0.0
 10
72.3280282425
 20
87.131285197
 30
0.0
 10
72.5688641235
 20
87.1490318968
 30
0.0
 10
72.9187929396
 20
87.2421053506
 30
0.0
 10
73.3661220575
 20
87.4867134249
 30
0.0
 10
73.860349131
 20
87.9244102199
 30
0.0
 10
74.2972442873
 20
88.4836029299
 30
0.0
 10
74.6410752839
 20
89.1191305902
 30
0.0
 10
74.8642319133
 20
89.778863346
 30
0.0
 10
74.9240089617
 20
90.2281874969
 30
0.0
 10
74.9240089617
 20
90.4418833325
 30
0.0
  0
SPLINE
  5
394
100
AcDbEntity
  8
0
100
AcDbSpline
 62
7
  6
CONTINUOUS
 70
0
 71
3
 72
12
 73
8
 74
0
 42
0.0000001
 43
0.0000001
 44
0.0000000001
 40
0.0
 40
0.0
 40
0.0
 40
0.0
 40
0.1108946854
 40
0.2279923933
 40
0.4766958825
 40
0.7375213141
 40
1.0
 40
1.0
 40
1.0
 40
1.0
 10
31.1733732417
 20
32.8475660616
 30
0.0
 10
31.1733732417
 20
33.1051537259
 30
0.0
 10
31.202770323
 20
33.6350356379
 30
0.0
 10
31.3692933968
 20
34.7309927728
 30
0.0
 10
31.776956357
 20
36.1357102786
 30
0.0
 10
32.5289623062
 20
37.7697116071
 30
0.0
 10
33.1908158662
 20
38.795300424
 30
0.0
 10
33.5584344847
 20
39.2816924958
 30
0.0
  0
SPLINE
  5
395
100
AcDbEntity
  8
0
100
AcDbSpline
 62
7
  6
CONTINUOUS
 70
0
 71
3
 72
11
 73
7
 74
0
 42
0.0000001
 43
0.0000001
 44
0.0000000001
 40
0.0
 40
0.0
 40
0.0
 40
0.0
 40
0.2177825102
 40
0.4509091639
 40
0.7102957096
 40
1.0
 40
1.0
 40
1.0
 40
1.0
 10
33.9726641159
 20
23.5109809342
 30
0.0
 10
33.9066908333
 20
23.5490697726
 30
0.0
 10
33.7832573623
 20
23.6528390793
 30
0.0
 10
33.6518479776
 20
23.8676989696
 30
0.0
 10
33.5737985756
 20
24.1324870083
 30
0.0
 10
33.5584344847
 20
24.3252078409
 30
0.0
 10
33.5584344847
 20
24.4265445871
 30
0.0
  0
SPLINE
  5
396
100
AcDbEntity
  8
0
100
AcDbSpline
 62
7
  6
CONTINUOUS
 70
0
 71
3
 72
15
 73
11
 74
0
 42
0.0000001
 43
0.0000001
 44
0.0000000001
 40
0.0
 40
0.0
 40
0.0
 40
0.0
 40
0.1141242661
 40
0.2373486253
 40
0.3669740476
 40
0.5000015346
 40
0.6330288076
 40
0.7626536034
 40
0.8858770013
 40
1.0
 40
1.0
 40
1.0
 40
1.0
 10
33.5584344847
 20
57.9031436894
 30
0.0
 10
33.5584344847
 20
58.0149046667
 30
0.0
 10
33.5789551852
 20
58.2475496262
 30
0.0
 10
33.6605186611
 20
58.5985089548
 30
0.0
 10
33.791336481
 20
58.9540052299
 30
0.0
 10
33.9663042884
 20
59.3006574459
 30
0.0
 10
34.1790280443
 20
59.6255106774
 30
0.0
 10
34.4214855793
 20
59.9165500612
 30
0.0
 10
34.6846408907
 20
60.1626645318
 30
0.0
 10
34.875855244
 20
60.2967572135
 30
0.0
 10
34.9726421591
 20
60.3526368314
 30
0.0
  0
SPLINE
  5
397
100
AcDbEntity
  8
0
100
AcDbSpline
 62
7
  6
CONTINUOUS
 70
0
 71
3
 72
17
 73
13
 74
0
 42
0.0000001
 43
0.0000001
 44
0.0000000001
 40
0.0
 40
0.0
 40
0.0
 40
0.0
 40
0.0428590154
 40
0.087484945
 40
0.1353191404
 40
0.1872810096
 40
0.3045411455
 40
0.4382064078
 40
0.5825480614
 40
0.7297123844
 40
0.8713056989
 40
1.0
 40
1.0
 40
1.0
 40
1.0
 10
36.906442298
 20
25.8156393823
 30
0.0
 10
36.968072428
 20
25.7800518092
 30
0.0
 10
37.1039470393
 20
25.7236331554
 30
0.0
 10
37.3281956986
 20
25.6907200089
 30
0.0
 10
37.5690315796
 20
25.7084667087
 30
0.0
 10
37.9189603958
 20
25.8015401625
 30
0.0
 10
38.3662895136
 20
26.0461482368
 30
0.0
 10
38.8605165872
 20
26.4838450318
 30
0.0
 10
39.2974117434
 20
27.0430377418
 30
0.0
 10
39.64124274
 20
27.6785654021
 30
0.0
 10
39.8643993695
 20
28.3382981579
 30
0.0
 10
39.9241764178
 20
28.7876223087
 30
0.0
 10
39.9241764178
 20
29.0013181444
 30
0.0
  0
SPLINE
  5
398
100
AcDbEntity
  8
0
100
AcDbSpline
 62
7
  6
CONTINUOUS
 70
0
 71
3
 72
14
 73
10
 74
0
 42
0.0000001
 43
0.0000001
 44
0.0000000001
 40
0.0
 40
0.0
 40
0.0
 40
0.0
 40
0.1080558833
 40
0.2181276979
 40
0.3321070661
 40
0.4514976094
 40
0.5774423274
 40
0.710728534
 40
1.0
 40
1.0
 40
1.0
 40
1.0
 10
32.7004117334
 20
29.4723076607
 30
0.0
 10
32.5795118061
 20
29.5420948524
 30
0.0
 10
32.3471138868
 20
29.7042920291
 30
0.0
 10
32.0400039302
 20
30.0065124851
 30
0.0
 10
31.7759812415
 20
30.3652653058
 30
0.0
 10
31.5572080624
 20
30.7763315942
 30
0.0
 10
31.3856586551
 20
31.2357946069
 30
0.0
 10
31.2170106432
 20
31.9252785388
 30
0.0
 10
31.1733732417
 20
32.4738599778
 30
0.0
 10
31.1733732417
 20
32.8475660616
 30
0.0
  0
SPLINE
  5
399
100
AcDbEntity
  8
0
100
AcDbSpline
 62
7
  6
CONTINUOUS
 70
0
 71
3
 72
11
 73
7
 74
0
 42
0.0000001
 43
0.0000001
 44
0.0000000001
 40
0.0
 40
0.0
 40
0.0
 40
0.0
 40
0.2897026209
 40
0.5490908265
 40
0.782219764
 40
1.0
 40
1.0
 40
1.0
 40
1.0
 10
39.9241764178
 20
29.0013181444
 30
0.0
 10
39.9241764178
 20
29.1279886311
 30
0.0
 10
39.9049715503
 20
29.368890033
 30
0.0
 10
39.8074147195
 20
29.6998780356
 30
0.0
 10
39.6431493542
 20
29.9684550623
 30
0.0
 10
39.4888536869
 20
30.0981592589
 30
0.0
 10
39.4063913515
 20
30.145776137
 30
0.0
  0
SPLINE
  5
39A
100
AcDbEntity
  8
0
100
AcDbSpline
 62
7
  6
CONTINUOUS
 70
0
 71
3
 72
11
 73
7
 74
0
 42
0.0000001
 43
0.0000001
 44
0.0000000001
 40
0.0
 40
0.0
 40
0.0
 40
0.0
 40
0.2277405459
 40
0.475241044
 40
0.7354778696
 40
1.0
 40
1.0
 40
1.0
 40
1.0
 10
69.9389213158
 20
93.7676327645
 30
0.0
 10
69.740294775
 20
93.6529563623
 30
0.0
 10
69.3496747938
 20
93.3713192617
 30
0.0
 10
68.8225523459
 20
92.847554548
 30
0.0
 10
68.3500985344
 20
92.2269508484
 30
0.0
 10
68.0861106807
 20
91.7671303675
 30
0.0
 10
67.9688406876
 20
91.5279347099
 30
0.0
  0
SPLINE
  5
39B
100
AcDbEntity
  8
0
100
AcDbSpline
 62
7
  6
CONTINUOUS
 70
0
 71
3
 72
11
 73
7
 74
0
 42
0.0000001
 43
0.0000001
 44
0.0000000001
 40
0.0
 40
0.0
 40
0.0
 40
0.0
 40
0.2897026209
 40
0.5490908265
 40
0.782219764
 40
1.0
 40
1.0
 40
1.0
 40
1.0
 10
75.2775608803
 20
40.8378269445
 30
0.0
 10
75.2775608803
 20
40.9644974312
 30
0.0
 10
75.2583560128
 20
41.2053988331
 30
0.0
 10
75.1607991819
 20
41.5363868357
 30
0.0
 10
74.9965338167
 20
41.8049638624
 30
0.0
 10
74.8422381493
 20
41.934668059
 30
0.0
 10
74.759775814
 20
41.9822849372
 30
0.0
  0
SPLINE
  5
39C
100
AcDbEntity
  8
0
100
AcDbSpline
 62
7
  6
CONTINUOUS
 70
0
 71
3
 72
11
 73
7
 74
0
 42
0.0000001
 43
0.0000001
 44
0.0000000001
 40
0.0
 40
0.0
 40
0.0
 40
0.0
 40
0.2897026209
 40
0.5490908265
 40
0.782219764
 40
1.0
 40
1.0
 40
1.0
 40
1.0
 10
74.9240089617
 20
90.4418833325
 30
0.0
 10
74.9240089617
 20
90.5685538192
 30
0.0
 10
74.9048040942
 20
90.8094552211
 30
0.0
 10
74.8072472633
 20
91.1404432237
 30
0.0
 10
74.6429818981
 20
91.4090202504
 30
0.0
 10
74.4886862307
 20
91.538724447
 30
0.0
 10
74.4062238954
 20
91.5863413252
 30
0.0
  0
SPLINE
  5
39D
100
AcDbEntity
  8
0
100
AcDbSpline
 62
7
  6
CONTINUOUS
 70
0
 71
3
 72
11
 73
7
 74
0
 42
0.0000001
 43
0.0000001
 44
0.0000000001
 40
0.0
 40
0.0
 40
0.0
 40
0.0
 40
0.2893975675
 40
0.5491290883
 40
0.7823145228
 40
1.0
 40
1.0
 40
1.0
 40
1.0
 10
32.70990988
 20
33.734680608
 30
0.0
 10
32.70990988
 20
33.7751712894
 30
0.0
 10
32.7036869916
 20
33.8522493177
 30
0.0
 10
32.6725862398
 20
33.9582101398
 30
0.0
 10
32.6199701998
 20
34.0441801529
 30
0.0
 10
32.5705905914
 20
34.0856703015
 30
0.0
 10
32.5442029965
 20
34.1008799875
 30
0.0
  0
ELLIPSE
  5
39E
100
AcDbEntity
  8
0
100
AcDbEllipse
 62
7
  6
CONTINUOUS
 10
74.6887831067
 20
101.2864189721
 30
0.0
 11
-1.2246670841
 21
1.5979848223
 31
0.0
 40
0.4692948502
 41
0.7239831172
 42
1.9430984412
  0
ENDSEC
  0
SECTION
  2
OBJECTS
  0
DICTIONARY
  5
C
100
AcDbDictionary
280
0
281
1
  3
ACAD_GROUP
350
D
  3
ACAD_MLINESTYLE
350
17
  3
ACAD_LAYOUT
350
1A
  3
ACAD_PLOTSETTINGS
350
19
  3
ACAD_PLOTSTYLENAME
350
E
  0
DICTIONARY
  5
D
102
{ACAD_REACTORS
330
C
102
}
100
AcDbDictionary
280
0
281
1
  0
ACDBDICTIONARYWDFLT
  5
E
102
{ACAD_REACTORS
330
C
102
}
100
AcDbDictionary
281
1
  3
Normal
350
F
100
AcDbDictionaryWithDefault
340
F
  0
DICTIONARY
  5
17
102
{ACAD_REACTORS
330
C
102
}
100
AcDbDictionary
280
0
281
1
  3
Standard
350
18
  0
DICTIONARY
  5
19
102
{ACAD_REACTORS
330
C
102
}
100
AcDbDictionary
281
1
  0
DICTIONARY
  5
1A
102
{ACAD_REACTORS
330
C
102
}
100
AcDbDictionary
281
1
  3
Model
350
39F
  3
Layout1
350
3A0
  0
ACDBPLACEHOLDER
  5
F
102
{ACAD_REACTORS
330
E
102
}
  0
MLINESTYLE
  5
18
102
{ACAD_REACTORS
330
17
102
}
100
AcDbMlineStyle
  2
STANDARD
 70
0
  3

 62
256
 51
90.0
 52
90.0
 71
2
 49
0.5
 62
256
  6
BYLAYER
 49
-0.5
 62
256
  6
BYLAYER
  0
LAYOUT
  5
39F
102
{ACAD_REACTORS
330
1A
102
}
100
AcDbPlotSettings
  1

  2
none_device
  4

  6

 40
0.0
 41
0.0
 42
0.0
 43
0.0
 44
210.0
 45
297.0
 46
0.0
 47
0.0
 48
0.0
 49
0.0
140
0.0
141
0.0
142
1.0
143
1.0
 70
1024
 72
1
 73
0
 74
0
  7

 75
0
147
1.0
148
0.0
149
0.0
100
AcDbLayout
  1
Model
 70
0
 71
0
 10
0.0
 20
0.0
 11
210.0
 21
297.0
 12
0.0
 22
0.0
 32
0.0
 14
0.0
 24
0.0
 34
0.0
 15
0.0
 25
0.0
 35
0.0
146
0.0
 13
0.0
 23
0.0
 33
0.0
 16
1.0
 26
0.0
 36
0.0
 17
0.0
 27
1.0
 37
0.0
 76
0
330
210
345
0
346
0
  0
LAYOUT
  5
3A0
102
{ACAD_REACTORS
330
1A
102
}
100
AcDbPlotSettings
  1

  2
none_device
  4

  6

 40
0.0
 41
0.0
 42
0.0
 43
0.0
 44
210.0
 45
297.0
 46
0.0
 47
0.0
 48
0.0
 49
0.0
140
0.0
141
0.0
142
1.0
143
1.0
 70
0
 72
1
 73
0
 74
0
  7

 75
0
147
1.0
148
0.0
149
0.0
100
AcDbLayout
  1
Layout1
 70
0
 71
1
 10
0.0
 20
0.0
 11
210.0
 21
297.0
 12
0.0
 22
0.0
 32
0.0
 14
0.0
 24
0.0
 34
0.0
 15
0.0
 25
0.0
 35
0.0
146
0.0
 13
0.0
 23
0.0
 33
0.0
 16
1.0
 26
0.0
 36
0.0
 17
0.0
 27
1.0
 37
0.0
 76
0
330
211
345
0
346
0
  0
ENDSEC
  0
EOF
