999
DXF file: C:\Users\sesa63760\Documents\7-Dev\_Creo\CAD\MCADFD0001386_3D-CAD\drw0001_1.dxf
999
Pro/ENGINEER 2019471 by Parametric Technology Corporation
  0
SECTION
  2
HEADER
  9
$ACADVER
  1
AC1024
  9
$DWGCODEPAGE
  3
ANSI_1252
  9
$EXTMAX
 10
114.326299874
 20
161.690052679
 30
0.0
  9
$EXTMIN
 10
0.0
 20
0.0
 30
0.0
  9
$LIMMIN
 10
0.0
 20
0.0
  9
$LIMMAX
 10
114.326299874
 20
161.690052679
  9
$VIEWCTR
 10
57.163149937
 20
80.8450263395
  9
$VIEWSIZE
 40
161.690052679
  9
$CLAYER
  8
0
  9
$LTSCALE
 40
10.5397960265
  9
$CELTYPE
  6
BYLAYER
  9
$DIMSCALE
 40
1.0
  9
$DIMASZ
 40
1.3610273795
  9
$DIMEXO
 40
1.0
  9
$DIMDLI
 40
7.282040891
  9
$DIMEXE
 40
1.0
  9
$DIMCEN
 40
1.7246938952
  9
$DIMLFAC
 40
1.0
  9
$DIMBLK
  1
_FILLED
  9
$DIMALT
 70
0
  9
$DIMALTF
 40
0.0393700787
  9
$DIMTXT
 40
1.9054383312
  9
$DIMTOL
 70
1
  9
$DIMLIM
 70
0
  9
$DIMTFAC
 40
1.0
  9
$DIMTP
 40
0.01
  9
$DIMTM
 40
0.01
  9
$DIMGAP
 40
0.625
  9
$DIMDSEP
 70
46
  9
$AUNITS
 70
0
  9
$PDMODE
 70
3
  9
$PDSIZE
 40
0.3125
  9
$HANDSEED
  5
484
  9
$TILEMODE
 70
1
  9
$MEASUREMENT
 70
1
  9
$INSUNITS
 70
4
  0
ENDSEC
  0
SECTION
  2
CLASSES
  0
CLASS
  1
ACDBDICTIONARYWDFLT
  2
AcDbDictionaryWithDefault
  3
AutoCAD 2000
 90
0
 91
1
280
0
281
0
  0
CLASS
  1
ACDBPLACEHOLDER
  2
AcDbPlaceHolder
  3
AutoCAD 2000
 90
0
 91
1
280
0
281
0
  0
CLASS
  1
LAYOUT
  2
AcDbLayout
  3
AutoCAD 2000
 90
0
 91
0
280
0
281
0
  0
ENDSEC
  0
SECTION
  2
TABLES
  0
TABLE
  2
VPORT
  5
8
100
AcDbSymbolTable
 70
2
  0
VPORT
  5
1F4
100
AcDbSymbolTableRecord
100
AcDbViewportTableRecord
  2
*ACTIVE
 70
0
 10
0.0
 20
0.0
 11
1.0
 21
1.0
 12
57.163149937
 22
80.8450263395
 13
0.0
 23
0.0
 14
1.0
 24
1.0
 15
0.0
 25
0.0
 16
0.0
 26
0.0
 36
1.0
 17
0.0
 27
0.0
 37
0.0
 40
161.690052679
 41
0.7070707071
 42
50.0
 43
0.0
 44
0.0
 50
0.0
 51
0.0
 71
0
 72
100
 73
1
 74
1
 75
0
 76
0
 77
0
 78
0
  0
ENDTAB
  0
TABLE
  2
LTYPE
  5
5
100
AcDbSymbolTable
 70
6
  0
LTYPE
  5
14
100
AcDbSymbolTableRecord
100
AcDbLinetypeTableRecord
  2
BYBLOCK
 70
0
  3

 72
65
 73
0
 40
0.0
  0
LTYPE
  5
15
100
AcDbSymbolTableRecord
100
AcDbLinetypeTableRecord
  2
BYLAYER
 70
0
  3

 72
65
 73
0
 40
0.0
  0
LTYPE
  5
16
100
AcDbSymbolTableRecord
100
AcDbLinetypeTableRecord
  2
CONTINUOUS
 70
64
  3
Solid line
 72
65
 73
0
 40
0.0
  0
LTYPE
  5
1F5
100
AcDbSymbolTableRecord
100
AcDbLinetypeTableRecord
  2
CENTER
 70
64
  3
____ _ ____ _ ____ _ ____ _ ____ _ ____ _ ____
 72
65
 73
4
 40
0.6
 49
0.375
 74
0
 49
-0.075
 74
0
 49
0.075
 74
0
 49
-0.075
 74
0
  0
LTYPE
  5
1F6
100
AcDbSymbolTableRecord
100
AcDbLinetypeTableRecord
  2
HIDDEN
 70
64
  3
- - - - - - - - - - - - - - - - - - - -
 72
65
 73
2
 40
0.2
 49
0.1
 74
0
 49
-0.1
 74
0
  0
LTYPE
  5
1F7
100
AcDbSymbolTableRecord
100
AcDbLinetypeTableRecord
  2
PHANTOM
 70
64
  3
_____ _ _ _____ _ _ _____ _ _ _____
 72
65
 73
6
 40
0.8
 49
0.45
 74
0
 49
-0.05
 74
0
 49
0.1
 74
0
 49
-0.05
 74
0
 49
0.1
 74
0
 49
-0.05
 74
0
  0
LTYPE
  5
1F8
100
AcDbSymbolTableRecord
100
AcDbLinetypeTableRecord
  2
DOT
 70
64
  3
. . . . . . . . . . . . . . . . . . . .
 72
65
 73
2
 40
0.2
 49
0.1
 74
0
 49
-0.1
 74
0
  0
LTYPE
  5
1F9
100
AcDbSymbolTableRecord
100
AcDbLinetypeTableRecord
  2
DASHED
 70
64
  3
- - - - - - - - - - - - - - - - - - - -
 72
65
 73
2
 40
0.2
 49
0.1
 74
0
 49
-0.1
 74
0
  0
ENDTAB
  0
TABLE
  2
LAYER
  5
2
100
AcDbSymbolTable
 70
36
  0
LAYER
  5
10
100
AcDbSymbolTableRecord
100
AcDbLayerTableRecord
  2
0
 70
0
 62
7
  6
CONTINUOUS
370
-3
390
F
  0
LAYER
  5
1FA
100
AcDbSymbolTableRecord
100
AcDbLayerTableRecord
  2
DEFAULT_1
 70
0
 62
7
  6
CENTER
370
-3
390
F
  0
LAYER
  5
1FB
100
AcDbSymbolTableRecord
100
AcDbLayerTableRecord
  2
DEFAULT_2
 70
0
 62
8
  6
HIDDEN
370
-3
390
F
  0
LAYER
  5
1FC
100
AcDbSymbolTableRecord
100
AcDbLayerTableRecord
  2
DEFAULT_3
 70
0
 62
7
  6
PHANTOM
370
-3
390
F
  0
LAYER
  5
1FD
100
AcDbSymbolTableRecord
100
AcDbLayerTableRecord
  2
00_COMPONENTS
 70
0
 62
7
  6
CONTINUOUS
370
-3
390
F
  0
LAYER
  5
1FE
100
AcDbSymbolTableRecord
100
AcDbLayerTableRecord
  2
01_1_DEFAULT_DATUMS
 70
0
 62
7
  6
CONTINUOUS
370
-3
390
F
  0
LAYER
  5
1FF
100
AcDbSymbolTableRecord
100
AcDbLayerTableRecord
  2
01_PLANES
 70
0
 62
7
  6
CONTINUOUS
370
-3
390
F
  0
LAYER
  5
200
100
AcDbSymbolTableRecord
100
AcDbLayerTableRecord
  2
02_COORD_SYS
 70
0
 62
7
  6
CONTINUOUS
370
-3
390
F
  0
LAYER
  5
201
100
AcDbSymbolTableRecord
100
AcDbLayerTableRecord
  2
03_AXES
 70
0
 62
7
  6
CONTINUOUS
370
-3
390
F
  0
LAYER
  5
202
100
AcDbSymbolTableRecord
100
AcDbLayerTableRecord
  2
04_POINTS
 70
0
 62
7
  6
CONTINUOUS
370
-3
390
F
  0
LAYER
  5
203
100
AcDbSymbolTableRecord
100
AcDbLayerTableRecord
  2
05_CURVES
 70
0
 62
7
  6
CONTINUOUS
370
-3
390
F
  0
LAYER
  5
204
100
AcDbSymbolTableRecord
100
AcDbLayerTableRecord
  2
06_SURFS
 70
0
 62
7
  6
CONTINUOUS
370
-3
390
F
  0
LAYER
  5
205
100
AcDbSymbolTableRecord
100
AcDbLayerTableRecord
  2
07_COSMETICS
 70
0
 62
7
  6
CONTINUOUS
370
-3
390
F
  0
LAYER
  5
206
100
AcDbSymbolTableRecord
100
AcDbLayerTableRecord
  2
10_NOTES
 70
0
 62
7
  6
CONTINUOUS
370
-3
390
F
  0
LAYER
  5
207
100
AcDbSymbolTableRecord
100
AcDbLayerTableRecord
  2
11_NOTES_PUB
 70
0
 62
7
  6
CONTINUOUS
370
-3
390
F
  0
LAYER
  5
208
100
AcDbSymbolTableRecord
100
AcDbLayerTableRecord
  2
13_REF_GTOL
 70
0
 62
7
  6
CONTINUOUS
370
-3
390
F
  0
LAYER
  5
209
100
AcDbSymbolTableRecord
100
AcDbLayerTableRecord
  2
16_MISC
 70
0
 62
7
  6
CONTINUOUS
370
-3
390
F
  0
LAYER
  5
20A
100
AcDbSymbolTableRecord
100
AcDbLayerTableRecord
  2
17_NO_PRINT
 70
0
 62
7
  6
CONTINUOUS
370
-3
390
F
  0
LAYER
  5
20B
100
AcDbSymbolTableRecord
100
AcDbLayerTableRecord
  2
18_DATUM_CAMS_JOINTS
 70
0
 62
7
  6
CONTINUOUS
370
-3
390
F
  0
LAYER
  5
20C
100
AcDbSymbolTableRecord
100
AcDbLayerTableRecord
  2
19_DATUM_FUNCTIONAL
 70
0
 62
7
  6
CONTINUOUS
370
-3
390
F
  0
LAYER
  5
20D
100
AcDbSymbolTableRecord
100
AcDbLayerTableRecord
  2
20_DATUM_KINEMATIC_SCHEME
 70
0
 62
7
  6
CONTINUOUS
370
-3
390
F
  0
ENDTAB
  0
TABLE
  2
STYLE
  5
3
100
AcDbSymbolTable
 70
1
  0
STYLE
  5
11
100
AcDbSymbolTableRecord
100
AcDbTextStyleTableRecord
  2
STANDARD
 70
0
 40
0.0
 41
0.8
 50
0.0
 71
0
 42
0.2
  3
txt
  4

  0
STYLE
  5
20E
100
AcDbSymbolTableRecord
100
AcDbTextStyleTableRecord
  2
TEXTSTYLE_1
 70
0
 40
0.0
 41
0.8
 50
0.0
 71
0
 42
0.2
  3
gdt
  4

  0
ENDTAB
  0
TABLE
  2
VIEW
  5
6
100
AcDbSymbolTable
 70
0
  0
ENDTAB
  0
TABLE
  2
UCS
  5
7
100
AcDbSymbolTable
 70
0
  0
ENDTAB
  0
TABLE
  2
APPID
  5
9
100
AcDbSymbolTable
 70
1
  0
APPID
  5
20F
100
AcDbSymbolTableRecord
100
AcDbRegAppTableRecord
  2
ACAD
 70
0
  0
ENDTAB
  0
TABLE
  2
BLOCK_RECORD
  5
1
100
AcDbSymbolTable
 70
0
  0
BLOCK_RECORD
  5
210
100
AcDbSymbolTableRecord
100
AcDbBlockTableRecord
  2
*Model_Space
  0
BLOCK_RECORD
  5
211
100
AcDbSymbolTableRecord
100
AcDbBlockTableRecord
  2
*Paper_Space
  0
BLOCK_RECORD
  5
212
100
AcDbSymbolTableRecord
100
AcDbBlockTableRecord
  2
_FILLED
  0
ENDTAB
  0
TABLE
  2
DIMSTYLE
  5
A
100
AcDbSymbolTable
 70
1
100
AcDbDimStyleTable
 71
0
  0
DIMSTYLE
105
213
100
AcDbSymbolTableRecord
100
AcDbDimStyleTableRecord
  2
STANDARD
 70
0
  3

  4

 40
1.0
 41
1.3610273795
 42
1.0
 43
0.38
 44
1.0
 45
0.0
 46
0.0
 47
0.01
 48
0.01
140
1.9054383312
141
0.09
142
0.0
143
25.4
144
1.0
145
0.0
146
1.0
147
0.625
 71
1
 72
0
 73
0
 74
0
 75
0
 76
0
 77
1
 78
8
 79
2
170
0
171
1
172
0
173
0
174
0
175
0
176
0
177
0
178
0
270
2
179
2
271
2
272
2
273
2
274
2
275
0
280
0
281
0
282
0
283
1
284
8
285
0
286
0
287
3
288
0
340
11
278
46
341
212
342
212
343
212
344
212
  0
ENDTAB
  0
ENDSEC
  0
SECTION
  2
BLOCKS
  0
BLOCK
  5
20
100
AcDbEntity
  8
0
100
AcDbBlockBegin
  2
*Model_Space
 70
0
 10
0.0
 20
0.0
 30
0.0
  3
*Model_Space
  1

  0
ENDBLK
  5
21
100
AcDbEntity
  8
0
100
AcDbBlockEnd
  0
BLOCK
  5
1C
100
AcDbEntity
  8
0
100
AcDbBlockBegin
  2
*Paper_Space
 70
0
 10
0.0
 20
0.0
 30
0.0
  3
*Paper_Space
  1

  0
ENDBLK
  5
1D
100
AcDbEntity
  8
0
100
AcDbBlockEnd
  0
BLOCK
  5
214
100
AcDbEntity
  8
0
100
AcDbBlockBegin
  2
_FILLED
 70
64
 10
0.0
 20
0.0
  3
_FILLED
  1

  0
SOLID
  5
215
100
AcDbEntity
  8
0
  6
BYBLOCK
 62
0
100
AcDbTrace
 10
0.0
 20
0.0
 11
-1.0
 21
0.25
 12
-1.0
 22
-0.25
 13
-1.0
 23
-0.25
  0
ENDBLK
  5
216
100
AcDbEntity
  8
0
  6
BYBLOCK
 62
0
100
AcDbBlockEnd
  0
ENDSEC
  0
SECTION
  2
ENTITIES
  0
LINE
  5
217
100
AcDbEntity
  8
0
100
AcDbLine
 62
7
  6
CONTINUOUS
 10
35.0378975681
 20
117.9950284817
 11
40.1184386385
 21
120.9282627272
  0
LINE
  5
218
100
AcDbEntity
  8
0
100
AcDbLine
 62
7
  6
CONTINUOUS
 10
57.7960345688
 20
131.134366574
 11
63.8771275688
 21
134.6452662973
  0
LINE
  5
219
100
AcDbEntity
  8
0
100
AcDbLine
 62
7
  6
CONTINUOUS
 10
44.8206847495
 20
123.1123764126
 11
45.6692093541
 21
123.6022693973
  0
LINE
  5
21A
100
AcDbEntity
  8
0
100
AcDbLine
 62
7
  6
CONTINUOUS
 10
58.4677888077
 20
130.7465378572
 11
50.1239635286
 21
125.9292568415
  0
LINE
  5
21B
100
AcDbEntity
  8
0
100
AcDbLine
 62
7
  6
CONTINUOUS
 10
32.8706299006
 20
115.9680994871
 11
30.8907391564
 21
114.8250158562
  0
LINE
  5
21C
100
AcDbEntity
  8
0
100
AcDbLine
 62
7
  6
CONTINUOUS
 10
40.7901928773
 20
120.5404340104
 11
44.4532628178
 21
122.6552958026
  0
LINE
  5
21D
100
AcDbEntity
  8
0
100
AcDbLine
 62
7
  6
CONTINUOUS
 10
46.3056081068
 20
123.2348527182
 11
47.4369742463
 21
123.8880433644
  0
LINE
  5
21E
100
AcDbEntity
  8
0
100
AcDbLine
 62
7
  6
CONTINUOUS
 10
50.7603622812
 20
125.5618401625
 11
47.804396178
 21
123.8552225242
  0
LINE
  5
21F
100
AcDbEntity
  8
0
100
AcDbLine
 62
7
  6
CONTINUOUS
 10
30.2189849175
 20
113.6614899805
 11
30.8907391564
 21
114.0493251561
  0
LINE
  5
220
100
AcDbEntity
  8
0
100
AcDbLine
 62
7
  6
CONTINUOUS
 10
33.542407356
 20
115.5802573665
 11
35.0378975681
 21
116.4436738891
  0
LINE
  5
221
100
AcDbEntity
  8
0
100
AcDbLine
 62
7
  6
CONTINUOUS
 10
81.2368355945
 20
35.6246808005
 11
80.8694136629
 21
35.6575016407
  0
LINE
  5
222
100
AcDbEntity
  8
0
100
AcDbLine
 62
7
  6
CONTINUOUS
 10
23.4897636581
 20
51.8111715531
 11
41.5210616494
 21
41.4010323129
  0
LINE
  5
223
100
AcDbEntity
  8
0
100
AcDbLine
 62
7
  6
CONTINUOUS
 10
39.9865302514
 20
42.9539475487
 11
21.9552322602
 21
53.3640867889
  0
LINE
  5
224
100
AcDbEntity
  8
0
100
AcDbLine
 62
7
  6
CONTINUOUS
 10
13.7558371382
 20
58.1879982077
 11
21.9863987802
 21
53.4361887285
  0
LINE
  5
225
100
AcDbEntity
  8
0
100
AcDbLine
 62
7
  6
CONTINUOUS
 10
41.1563389876
 20
42.3686689701
 11
50.5255428458
 21
36.9594789727
  0
LINE
  5
226
100
AcDbEntity
  8
0
100
AcDbLine
 62
7
  6
CONTINUOUS
 10
67.9786442403
 20
27.4393929776
 11
51.4875450299
 21
36.9603181539
  0
LINE
  5
227
100
AcDbEntity
  8
0
100
AcDbLine
 62
7
  6
CONTINUOUS
 10
13.5828751271
 20
58.3219800416
 11
13.7558389863
 21
58.1880014084
  0
LINE
  5
228
100
AcDbEntity
  8
0
100
AcDbLine
 62
7
  6
CONTINUOUS
 10
23.4897636581
 20
51.8111715531
 11
21.9552322602
 21
53.3640867889
  0
LINE
  5
229
100
AcDbEntity
  8
0
100
AcDbLine
 62
7
  6
CONTINUOUS
 10
18.7639027546
 20
73.7294399859
 11
18.7639027546
 21
92.3508911794
  0
LINE
  5
22A
100
AcDbEntity
  8
0
100
AcDbLine
 62
7
  6
CONTINUOUS
 10
21.8751596383
 20
95.7801702907
 11
21.5923181035
 21
95.2902716623
  0
LINE
  5
22B
100
AcDbEntity
  8
0
100
AcDbLine
 62
7
  6
CONTINUOUS
 10
44.8206847495
 20
123.1123764126
 11
44.4532628178
 21
122.6552958026
  0
LINE
  5
22C
100
AcDbEntity
  8
0
100
AcDbLine
 62
7
  6
CONTINUOUS
 10
49.9118482748
 20
123.6022743427
 11
53.8716297632
 21
125.8884416044
  0
LINE
  5
22D
100
AcDbEntity
  8
0
100
AcDbLine
 62
7
  6
CONTINUOUS
 10
38.5734461938
 20
115.9538247091
 11
35.7344242874
 21
114.3147244313
  0
LINE
  5
22E
100
AcDbEntity
  8
0
100
AcDbLine
 62
7
  6
CONTINUOUS
 10
56.5235620774
 20
41.8151458881
 11
55.6655504847
 21
42.120018188
  0
LINE
  5
22F
100
AcDbEntity
  8
0
100
AcDbLine
 62
7
  6
CONTINUOUS
 10
53.9776163539
 20
38.8970485729
 11
54.3189611299
 21
38.7749421008
  0
LINE
  5
230
100
AcDbEntity
  8
0
100
AcDbLine
 62
7
  6
CONTINUOUS
 10
50.0328718483
 20
38.2017025199
 11
40.6636679902
 21
43.6108925173
  0
LINE
  5
231
100
AcDbEntity
  8
0
100
AcDbLine
 62
7
  6
CONTINUOUS
 10
22.3171964103
 20
54.2029931972
 11
13.2631661407
 21
59.4302217549
  0
LINE
  5
232
100
AcDbEntity
  8
0
100
AcDbLine
 62
7
  6
CONTINUOUS
 10
53.7090395288
 20
38.0227393784
 11
56.9377867189
 21
36.1586634901
  0
LINE
  5
233
100
AcDbEntity
  8
0
100
AcDbLine
 62
7
  6
CONTINUOUS
 10
40.9063595311
 20
45.4504998846
 11
22.8750615398
 21
55.8606391249
  0
LINE
  5
234
100
AcDbEntity
  8
0
100
AcDbLine
 62
7
  6
CONTINUOUS
 10
54.0942859803
 20
38.4767472653
 11
56.5235620774
 21
37.0742357857
  0
LINE
  5
235
100
AcDbEntity
  8
0
100
AcDbLine
 62
7
  6
CONTINUOUS
 10
54.3189611299
 20
38.7749421008
 11
54.0152183519
 21
38.9503041082
  0
LINE
  5
236
100
AcDbEntity
  8
0
100
AcDbLine
 62
7
  6
CONTINUOUS
 10
13.8142972769
 20
62.5384318301
 11
50.5840029845
 21
41.3099125951
  0
LINE
  5
237
100
AcDbEntity
  8
0
100
AcDbLine
 62
7
  6
CONTINUOUS
 10
51.6699305537
 20
40.7089755702
 11
52.2844801993
 21
40.3541731935
  0
LINE
  5
238
100
AcDbEntity
  8
0
100
AcDbLine
 62
7
  6
CONTINUOUS
 10
53.1562385766
 20
40.18997025
 11
51.8400198718
 21
40.9498722823
  0
LINE
  5
239
100
AcDbEntity
  8
0
100
AcDbLine
 62
7
  6
CONTINUOUS
 10
51.0770845126
 20
42.0556567205
 11
14.3073788049
 21
63.2841759556
  0
LINE
  5
23A
100
AcDbEntity
  8
0
100
AcDbLine
 62
7
  6
CONTINUOUS
 10
59.6348189612
 20
37.2375052285
 11
59.3519774263
 21
37.4008085338
  0
LINE
  5
23B
100
AcDbEntity
  8
0
100
AcDbLine
 62
7
  6
CONTINUOUS
 10
52.5352603677
 20
41.6659172868
 11
53.7167396584
 21
40.9838053318
  0
LINE
  5
23C
100
AcDbEntity
  8
0
100
AcDbLine
 62
7
  6
CONTINUOUS
 10
40.9833769766
 20
42.5026508039
 11
41.1563408358
 21
42.3686721707
  0
LINE
  5
23D
100
AcDbEntity
  8
0
100
AcDbLine
 62
7
  6
CONTINUOUS
 10
50.525544694
 20
36.9594821733
 11
50.3525808348
 21
37.0934608065
  0
LINE
  5
23E
100
AcDbEntity
  8
0
100
AcDbLine
 62
7
  6
CONTINUOUS
 10
41.5210616494
 20
41.4010323129
 11
39.9865302514
 21
42.9539475487
  0
LINE
  5
23F
100
AcDbEntity
  8
0
100
AcDbLine
 62
7
  6
CONTINUOUS
 10
22.5469397841
 20
71.8156474535
 11
22.5469397841
 21
71.5453519492
  0
LINE
  5
240
100
AcDbEntity
  8
0
100
AcDbLine
 62
7
  6
CONTINUOUS
 10
36.3067500757
 20
106.9215514596
 11
35.3168047036
 21
106.3500096442
  0
LINE
  5
241
100
AcDbEntity
  8
0
100
AcDbLine
 62
7
  6
CONTINUOUS
 10
61.6498367398
 20
121.3977933047
 11
57.6900552514
 21
119.111626043
  0
LINE
  5
242
100
AcDbEntity
  8
0
100
AcDbLine
 62
7
  6
CONTINUOUS
 10
37.3339031207
 20
106.5424756833
 11
37.2193623645
 21
106.4763459417
  0
LINE
  5
243
100
AcDbEntity
  8
0
100
AcDbLine
 62
7
  6
CONTINUOUS
 10
53.1019090675
 20
43.4784786339
 11
53.4289473415
 21
43.5673617517
  0
LINE
  5
244
100
AcDbEntity
  8
0
100
AcDbLine
 62
7
  6
CONTINUOUS
 10
54.511658332
 20
42.4086763482
 11
54.7772344539
 21
42.2751052651
  0
LINE
  5
245
100
AcDbEntity
  8
0
100
AcDbLine
 62
7
  6
CONTINUOUS
 10
52.8062034374
 20
42.3182735838
 11
53.5078724966
 21
41.9131739282
  0
LINE
  5
246
100
AcDbEntity
  8
0
100
AcDbLine
 62
7
  6
CONTINUOUS
 10
53.7052832241
 20
41.9143210962
 11
54.1801658449
 21
41.6401536897
  0
LINE
  5
247
100
AcDbEntity
  8
0
100
AcDbLine
 62
7
  6
CONTINUOUS
 10
63.2410002499
 20
36.5024735025
 11
62.3924685798
 21
36.9923624079
  0
LINE
  5
248
100
AcDbEntity
  8
0
100
AcDbLine
 62
7
  6
CONTINUOUS
 10
53.0261347262
 20
42.6297612479
 11
53.4362391389
 21
42.3929927112
  0
LINE
  5
249
100
AcDbEntity
  8
0
100
AcDbLine
 62
7
  6
CONTINUOUS
 10
54.7295853397
 20
41.7111220638
 11
55.0081328943
 21
41.5503061964
  0
LINE
  5
24A
100
AcDbEntity
  8
0
100
AcDbLine
 62
7
  6
CONTINUOUS
 10
52.2817982022
 20
43.1563356352
 11
15.5120924946
 21
64.3848548703
  0
LINE
  5
24B
100
AcDbEntity
  8
0
100
AcDbLine
 62
7
  6
CONTINUOUS
 10
62.3924685798
 20
37.8088648251
 11
61.5084512884
 21
38.3192408999
  0
LINE
  5
24C
100
AcDbEntity
  8
0
100
AcDbLine
 62
7
  6
CONTINUOUS
 10
63.2410002499
 20
37.3189759196
 11
63.57064882
 21
37.1286575345
  0
LINE
  5
24D
100
AcDbEntity
  8
0
100
AcDbLine
 62
7
  6
CONTINUOUS
 10
54.2803337135
 20
42.5619845513
 11
54.7772344539
 21
42.2751052651
  0
LINE
  5
24E
100
AcDbEntity
  8
0
100
AcDbLine
 62
7
  6
CONTINUOUS
 10
53.1015761118
 20
43.4797037175
 11
16.3318704042
 21
64.7082229526
  0
LINE
  5
24F
100
AcDbEntity
  8
0
100
AcDbLine
 62
7
  6
CONTINUOUS
 10
63.4654855376
 20
37.5159439059
 11
63.3824139519
 21
37.5639042234
  0
LINE
  5
250
100
AcDbEntity
  8
0
100
AcDbLine
 62
7
  6
CONTINUOUS
 10
34.7174158462
 20
54.2141314916
 11
35.7087961254
 21
53.641770769
  0
LINE
  5
251
100
AcDbEntity
  8
0
100
AcDbLine
 62
7
  6
CONTINUOUS
 10
53.5972455076
 20
43.3141033459
 11
55.6655399753
 21
42.1199999924
  0
LINE
  5
252
100
AcDbEntity
  8
0
100
AcDbLine
 62
7
  6
CONTINUOUS
 10
53.4289473415
 20
43.5673617517
 11
49.787332257
 21
45.6698016375
  0
LINE
  5
253
100
AcDbEntity
  8
0
100
AcDbLine
 62
7
  6
CONTINUOUS
 10
39.2899451901
 20
51.7303337787
 11
35.8926261578
 21
53.6917324638
  0
LINE
  5
254
100
AcDbEntity
  8
0
100
AcDbLine
 62
7
  6
CONTINUOUS
 10
34.54911768
 20
54.4673898974
 11
30.9075025955
 21
56.5698297832
  0
LINE
  5
255
100
AcDbEntity
  8
0
100
AcDbLine
 62
7
  6
CONTINUOUS
 10
20.4101155287
 20
62.6303619244
 11
17.0127964964
 21
64.5917606095
  0
LINE
  5
256
100
AcDbEntity
  8
0
100
AcDbLine
 62
7
  6
CONTINUOUS
 10
62.8392683375
 20
38.6939848131
 11
62.4983966605
 21
38.8907827153
  0
LINE
  5
257
100
AcDbEntity
  8
0
100
AcDbLine
 62
7
  6
CONTINUOUS
 10
50.4235853143
 20
47.0579604568
 11
40.1704943007
 21
52.9774513988
  0
LINE
  5
258
100
AcDbEntity
  8
0
100
AcDbLine
 62
7
  6
CONTINUOUS
 10
31.5437556529
 20
57.9579886025
 11
21.2906646392
 21
63.8774795444
  0
LINE
  5
259
100
AcDbEntity
  8
0
100
AcDbLine
 62
7
  6
CONTINUOUS
 10
20.8351237976
 20
64.8668807776
 11
31.4966556773
 21
58.7115817284
  0
LINE
  5
25A
100
AcDbEntity
  8
0
100
AcDbLine
 62
7
  6
CONTINUOUS
 10
39.714953459
 20
53.966852632
 11
50.3764853387
 21
47.8115535827
  0
LINE
  5
25B
100
AcDbEntity
  8
0
100
AcDbLine
 62
7
  6
CONTINUOUS
 10
39.7580043897
 20
54.0414207182
 11
39.5235641036
 21
54.1767718185
  0
LINE
  5
25C
100
AcDbEntity
  8
0
100
AcDbLine
 62
7
  6
CONTINUOUS
 10
20.8781747283
 20
64.9414488639
 11
20.6437344421
 21
65.0767999642
  0
LINE
  5
25D
100
AcDbEntity
  8
0
100
AcDbLine
 62
7
  6
CONTINUOUS
 10
50.4371282796
 20
48.1929481733
 11
39.464638223
 21
54.5277749482
  0
LINE
  5
25E
100
AcDbEntity
  8
0
100
AcDbLine
 62
7
  6
CONTINUOUS
 10
31.5572986181
 20
59.092976319
 11
20.5848085616
 21
65.4278030939
  0
LINE
  5
25F
100
AcDbEntity
  8
0
100
AcDbLine
 62
7
  6
CONTINUOUS
 10
52.7777748179
 20
38.4592841861
 11
51.0737114677
 21
40.1837623837
  0
LINE
  5
260
100
AcDbEntity
  8
0
100
AcDbLine
 62
7
  6
CONTINUOUS
 10
51.612186851
 20
40.6271934319
 11
51.9488856841
 21
40.2864609135
  0
LINE
  5
261
100
AcDbEntity
  8
0
100
AcDbLine
 62
7
  6
CONTINUOUS
 10
52.356113557
 20
39.8743544104
 11
52.6928123901
 21
39.533621892
  0
LINE
  5
262
100
AcDbEntity
  8
0
100
AcDbLine
 62
7
  6
CONTINUOUS
 10
30.2189849175
 20
100.5974513064
 11
30.2189849175
 21
113.6614899805
  0
LINE
  5
263
100
AcDbEntity
  8
0
100
AcDbLine
 62
7
  6
CONTINUOUS
 10
36.93652554
 20
99.7402178292
 11
36.7243943888
 21
99.3727938579
  0
LINE
  5
264
100
AcDbEntity
  8
0
100
AcDbLine
 62
7
  6
CONTINUOUS
 10
71.8321431828
 20
125.7251877945
 11
74.1443727305
 21
127.0601461776
  0
LINE
  5
265
100
AcDbEntity
  8
0
100
AcDbLine
 62
7
  6
CONTINUOUS
 10
37.9212563549
 20
105.6568285813
 11
37.2193623645
 21
105.251592316
  0
LINE
  5
266
100
AcDbEntity
  8
0
100
AcDbLine
 62
7
  6
CONTINUOUS
 10
20.178110429
 20
94.8003843214
 11
21.3094765686
 21
95.4535749676
  0
LINE
  5
267
100
AcDbEntity
  8
0
100
AcDbLine
 62
7
  6
CONTINUOUS
 10
21.8751596383
 20
95.7801702907
 11
30.2189849175
 21
100.5974513064
  0
LINE
  5
268
100
AcDbEntity
  8
0
100
AcDbLine
 62
7
  6
CONTINUOUS
 10
38.2093077366
 20
105.0066317143
 11
37.2193623645
 21
104.4350898989
  0
LINE
  5
269
100
AcDbEntity
  8
0
100
AcDbLine
 62
7
  6
CONTINUOUS
 10
38.319778463
 20
104.907128085
 11
38.0678940347
 21
104.7617034106
  0
LINE
  5
26A
100
AcDbEntity
  8
0
100
AcDbLine
 62
7
  6
CONTINUOUS
 10
75.7000141258
 20
126.1620165177
 11
77.1354349154
 21
126.9907521501
  0
LINE
  5
26B
100
AcDbEntity
  8
0
100
AcDbLine
 62
7
  6
CONTINUOUS
 10
75.7000141258
 20
124.6923121669
 11
77.3598615877
 21
125.6506198255
  0
LINE
  5
26C
100
AcDbEntity
  8
0
100
AcDbLine
 62
7
  6
CONTINUOUS
 10
47.5431566974
 20
107.4971038308
 11
51.0786758834
 21
109.5383246001
  0
LINE
  5
26D
100
AcDbEntity
  8
0
100
AcDbLine
 62
7
  6
CONTINUOUS
 10
78.5284530264
 20
124.5290534996
 11
79.9638738159
 21
125.357789132
  0
LINE
  5
26E
100
AcDbEntity
  8
0
100
AcDbLine
 62
7
  6
CONTINUOUS
 10
49.787332257
 20
45.6698016375
 11
49.4615103681
 21
45.5812491112
  0
LINE
  5
26F
100
AcDbEntity
  8
0
100
AcDbLine
 62
7
  6
CONTINUOUS
 10
39.6125686613
 20
54.0788925301
 11
39.7580043897
 21
54.0414207182
  0
LINE
  5
270
100
AcDbEntity
  8
0
100
AcDbLine
 62
7
  6
CONTINUOUS
 10
50.5794261718
 20
49.0878857473
 11
39.7845050519
 21
55.320195368
  0
LINE
  5
271
100
AcDbEntity
  8
0
100
AcDbLine
 62
7
  6
CONTINUOUS
 10
31.6995965104
 20
59.987913893
 11
20.9046753905
 21
66.2202235137
  0
LINE
  5
272
100
AcDbEntity
  8
0
100
AcDbLine
 62
7
  6
CONTINUOUS
 10
54.1801658449
 20
41.6401536897
 11
53.8434670118
 21
41.9808862082
  0
LINE
  5
273
100
AcDbEntity
  8
0
100
AcDbLine
 62
7
  6
CONTINUOUS
 10
53.4362391389
 20
42.3929927112
 11
53.0995403058
 21
42.7337252297
  0
LINE
  5
274
100
AcDbEntity
  8
0
100
AcDbLine
 62
7
  6
CONTINUOUS
 10
53.1015761118
 20
43.4797037175
 11
53.2482078538
 21
43.3313153128
  0
LINE
  5
275
100
AcDbEntity
  8
0
100
AcDbLine
 62
7
  6
CONTINUOUS
 10
55.0081328943
 20
41.5503061964
 11
55.1547646362
 21
41.4019177917
  0
LINE
  5
276
100
AcDbEntity
  8
0
100
AcDbLine
 62
7
  6
CONTINUOUS
 10
30.8907391564
 20
113.2736612637
 11
30.8907391564
 21
114.8250158562
  0
LINE
  5
277
100
AcDbEntity
  8
0
100
AcDbLine
 62
7
  6
CONTINUOUS
 10
33.8606953865
 20
65.2837953812
 11
33.8606953865
 21
65.0134998769
  0
LINE
  5
278
100
AcDbEntity
  8
0
100
AcDbLine
 62
7
  6
CONTINUOUS
 10
35.0378975681
 20
116.4436738891
 11
35.0378975681
 21
117.9950284817
  0
LINE
  5
279
100
AcDbEntity
  8
0
100
AcDbLine
 62
7
  6
CONTINUOUS
 10
14.3073788049
 20
63.2841759556
 11
13.8142972769
 21
62.5384318301
  0
LINE
  5
27A
100
AcDbEntity
  8
0
100
AcDbLine
 62
7
  6
CONTINUOUS
 10
14.611121583
 20
63.1088139481
 11
15.5120924946
 21
64.3848548703
  0
LINE
  5
27B
100
AcDbEntity
  8
0
100
AcDbLine
 62
7
  6
CONTINUOUS
 10
48.8866883917
 20
106.7214329934
 11
51.0786758834
 21
107.9869700076
  0
LINE
  5
27C
100
AcDbEntity
  8
0
100
AcDbLine
 62
7
  6
CONTINUOUS
 10
62.5691317851
 20
113.8453153643
 11
63.7004979247
 21
114.4985060104
  0
LINE
  5
27D
100
AcDbEntity
  8
0
100
AcDbLine
 62
7
  6
CONTINUOUS
 10
79.8366060179
 20
123.7738081038
 11
78.0547043481
 21
122.745032836
  0
LINE
  5
27E
100
AcDbEntity
  8
0
100
AcDbLine
 62
7
  6
CONTINUOUS
 10
67.0238859596
 20
116.1723028085
 11
64.0679198564
 21
114.4656851702
  0
LINE
  5
27F
100
AcDbEntity
  8
0
100
AcDbLine
 62
7
  6
CONTINUOUS
 10
62.3570059331
 20
112.9880057005
 11
63.2055305378
 21
113.4778986852
  0
LINE
  5
280
100
AcDbEntity
  8
0
100
AcDbLine
 62
7
  6
CONTINUOUS
 10
76.0041099913
 20
120.6221671451
 11
67.6602847122
 21
115.8048861294
  0
LINE
  5
281
100
AcDbEntity
  8
0
100
AcDbLine
 62
7
  6
CONTINUOUS
 10
50.4069510842
 20
105.843728775
 11
48.42706034
 21
104.7006451441
  0
LINE
  5
282
100
AcDbEntity
  8
0
100
AcDbLine
 62
7
  6
CONTINUOUS
 10
58.326514061
 20
110.4160632983
 11
61.9895840014
 21
112.5309250905
  0
LINE
  5
283
100
AcDbEntity
  8
0
100
AcDbLine
 62
7
  6
CONTINUOUS
 10
53.9177272295
 20
107.095000336
 11
58.9982682999
 21
110.0282345815
  0
LINE
  5
284
100
AcDbEntity
  8
0
100
AcDbLine
 62
7
  6
CONTINUOUS
 10
76.6758642302
 20
120.2343384283
 11
82.7569572303
 21
123.7452381516
  0
LINE
  5
285
100
AcDbEntity
  8
0
100
AcDbLine
 62
7
  6
CONTINUOUS
 10
63.7005144109
 20
112.2123482669
 11
64.5490390156
 21
112.7022412516
  0
LINE
  5
286
100
AcDbEntity
  8
0
100
AcDbLine
 62
7
  6
CONTINUOUS
 10
42.7126576664
 20
99.8907745904
 11
41.4620254257
 21
99.1687260396
  0
LINE
  5
287
100
AcDbEntity
  8
0
100
AcDbLine
 62
7
  6
CONTINUOUS
 10
77.3476184691
 20
119.8465097115
 11
69.00379319
 21
115.0292286958
  0
LINE
  5
288
100
AcDbEntity
  8
0
100
AcDbLine
 62
7
  6
CONTINUOUS
 10
59.6700225388
 20
109.6404058647
 11
63.3330924792
 21
111.7552676569
  0
LINE
  5
289
100
AcDbEntity
  8
0
100
AcDbLine
 62
7
  6
CONTINUOUS
 10
48.42706034
 20
103.1492905516
 11
51.750459562
 21
105.0680713414
  0
LINE
  5
28A
100
AcDbEntity
  8
0
100
AcDbLine
 62
7
  6
CONTINUOUS
 10
67.6602847122
 20
114.1718812952
 11
69.00379319
 21
114.9475516464
  0
LINE
  5
28B
100
AcDbEntity
  8
0
100
AcDbLine
 62
7
  6
CONTINUOUS
 10
41.4620254257
 20
99.0054255562
 11
40.9670527397
 21
98.7196546485
  0
LINE
  5
28C
100
AcDbEntity
  8
0
100
AcDbLine
 62
7
  6
CONTINUOUS
 10
65.1854377682
 20
112.3348245725
 11
66.3168039077
 21
112.9880152187
  0
LINE
  5
28D
100
AcDbEntity
  8
0
100
AcDbLine
 62
7
  6
CONTINUOUS
 10
69.6401919426
 20
114.6618120168
 11
66.6842258394
 21
112.9551943785
  0
LINE
  5
28E
100
AcDbEntity
  8
0
100
AcDbLine
 62
7
  6
CONTINUOUS
 10
49.0988145789
 20
102.7614618348
 11
49.7705688178
 21
103.1492970104
  0
LINE
  5
28F
100
AcDbEntity
  8
0
100
AcDbLine
 62
7
  6
CONTINUOUS
 10
52.4222370174
 20
104.6802292208
 11
53.9177272295
 21
105.5436457434
  0
LINE
  5
290
100
AcDbEntity
  8
0
100
AcDbLine
 62
7
  6
CONTINUOUS
 10
20.7327389999
 20
64.9789206758
 11
20.8781747283
 21
64.9414488639
  0
LINE
  5
291
100
AcDbEntity
  8
0
100
AcDbLine
 62
7
  6
CONTINUOUS
 10
18.7639027546
 20
73.7294399859
 11
22.5469397841
 21
71.5453519492
  0
LINE
  5
292
100
AcDbEntity
  8
0
100
AcDbLine
 62
7
  6
CONTINUOUS
 10
33.8606953865
 20
65.0134998769
 11
41.4267694456
 21
60.6453238035
  0
LINE
  5
293
100
AcDbEntity
  8
0
100
AcDbLine
 62
7
  6
CONTINUOUS
 10
52.7405250479
 20
54.1134717312
 11
56.5235620774
 21
51.9293836945
  0
LINE
  5
294
100
AcDbEntity
  8
0
100
AcDbLine
 62
7
  6
CONTINUOUS
 10
52.7405250479
 20
54.3837672355
 11
41.4267694456
 21
60.9156193079
  0
LINE
  5
295
100
AcDbEntity
  8
0
100
AcDbLine
 62
7
  6
CONTINUOUS
 10
33.8606953865
 20
65.2837953812
 11
22.5469397841
 21
71.8156474535
  0
LINE
  5
296
100
AcDbEntity
  8
0
100
AcDbLine
 62
7
  6
CONTINUOUS
 10
36.7243943888
 20
99.8626953082
 11
36.7243943888
 21
99.3727938579
  0
LINE
  5
297
100
AcDbEntity
  8
0
100
AcDbLine
 62
7
  6
CONTINUOUS
 10
37.2193623645
 20
104.4350898989
 11
37.2193623645
 21
105.251592316
  0
LINE
  5
298
100
AcDbEntity
  8
0
100
AcDbLine
 62
7
  6
CONTINUOUS
 10
37.2193623645
 20
106.4763459417
 11
37.2193623645
 21
106.6591037487
  0
LINE
  5
299
100
AcDbEntity
  8
0
100
AcDbLine
 62
7
  6
CONTINUOUS
 10
37.643732416
 20
62.8294118402
 11
37.643732416
 21
81.4508630337
  0
LINE
  5
29A
100
AcDbEntity
  8
0
100
AcDbLine
 62
7
  6
CONTINUOUS
 10
38.0678940347
 20
104.7617034106
 11
38.0678940347
 21
103.9452009934
  0
LINE
  5
29B
100
AcDbEntity
  8
0
100
AcDbLine
 62
7
  6
CONTINUOUS
 10
38.2093077366
 20
105.0066317143
 11
38.2093077366
 21
105.1149458113
  0
LINE
  5
29C
100
AcDbEntity
  8
0
100
AcDbLine
 62
7
  6
CONTINUOUS
 10
21.2907744152
 20
63.8776350197
 11
20.2713429032
 21
62.4338188987
  0
LINE
  5
29D
100
AcDbEntity
  8
0
100
AcDbLine
 62
7
  6
CONTINUOUS
 10
68.7916779363
 20
112.702246197
 11
72.7514594246
 21
114.9884134587
  0
LINE
  5
29E
100
AcDbEntity
  8
0
100
AcDbLine
 62
7
  6
CONTINUOUS
 10
57.4532758552
 20
105.0537965634
 11
54.6142539488
 21
103.4146962856
  0
LINE
  5
29F
100
AcDbEntity
  8
0
100
AcDbLine
 62
7
  6
CONTINUOUS
 10
48.3917048537
 20
98.1890378448
 11
48.8866775398
 21
98.4748087525
  0
LINE
  5
2A0
100
AcDbEntity
  8
0
100
AcDbLine
 62
7
  6
CONTINUOUS
 10
48.8866775398
 20
98.3115082691
 11
49.0988145789
 21
98.4339849146
  0
LINE
  5
2A1
100
AcDbEntity
  8
0
100
AcDbLine
 62
7
  6
CONTINUOUS
 10
35.8926261578
 20
53.6917324638
 11
35.566804269
 21
53.6031799375
  0
LINE
  5
2A2
100
AcDbEntity
  8
0
100
AcDbLine
 62
7
  6
CONTINUOUS
 10
34.2232957912
 20
54.3788373711
 11
34.54911768
 21
54.4673898974
  0
LINE
  5
2A3
100
AcDbEntity
  8
0
100
AcDbLine
 62
7
  6
CONTINUOUS
 10
85.903715621
 20
39.2988793587
 11
86.5401143736
 21
38.9314626797
  0
LINE
  5
2A4
100
AcDbEntity
  8
0
100
AcDbLine
 62
7
  6
CONTINUOUS
 10
85.903715621
 20
40.931884193
 11
86.5401143736
 21
40.5644675139
  0
LINE
  5
2A5
100
AcDbEntity
  8
0
100
AcDbLine
 62
7
  6
CONTINUOUS
 10
87.3179232954
 20
41.7483725007
 11
87.9543220481
 21
41.3809558217
  0
LINE
  5
2A6
100
AcDbEntity
  8
0
100
AcDbLine
 62
7
  6
CONTINUOUS
 10
51.0770845126
 20
42.0556567205
 11
51.2344899854
 21
41.6730378665
  0
LINE
  5
2A7
100
AcDbEntity
  8
0
100
AcDbLine
 62
7
  6
CONTINUOUS
 10
40.9670527397
 20
102.4755657673
 11
40.9670527397
 21
98.7196546485
  0
LINE
  5
2A8
100
AcDbEntity
  8
0
100
AcDbLine
 62
7
  6
CONTINUOUS
 10
41.4267694456
 20
60.9156193079
 11
41.4267694456
 21
60.6453238035
  0
LINE
  5
2A9
100
AcDbEntity
  8
0
100
AcDbLine
 62
7
  6
CONTINUOUS
 10
41.4620254257
 20
99.1687260396
 11
41.4620254257
 21
99.0054255562
  0
LINE
  5
2AA
100
AcDbEntity
  8
0
100
AcDbLine
 62
7
  6
CONTINUOUS
 10
40.7549892998
 20
84.880142145
 11
40.4721477649
 21
84.3902435166
  0
LINE
  5
2AB
100
AcDbEntity
  8
0
100
AcDbLine
 62
7
  6
CONTINUOUS
 10
61.9895840014
 20
112.5309250905
 11
62.3570059331
 21
112.9880057005
  0
LINE
  5
2AC
100
AcDbEntity
  8
0
100
AcDbLine
 62
7
  6
CONTINUOUS
 10
63.7005144109
 20
112.2123482669
 11
63.3330924792
 21
111.7552676569
  0
LINE
  5
2AD
100
AcDbEntity
  8
0
100
AcDbLine
 62
7
  6
CONTINUOUS
 10
55.1865797371
 20
96.0215233139
 11
54.196634365
 21
95.4499814985
  0
LINE
  5
2AE
100
AcDbEntity
  8
0
100
AcDbLine
 62
7
  6
CONTINUOUS
 10
80.5296664013
 20
110.497765159
 11
76.5698849129
 21
108.2115978973
  0
LINE
  5
2AF
100
AcDbEntity
  8
0
100
AcDbLine
 62
7
  6
CONTINUOUS
 10
56.2137327821
 20
95.6424475376
 11
56.0991920259
 21
95.576317796
  0
LINE
  5
2B0
100
AcDbEntity
  8
0
100
AcDbLine
 62
7
  6
CONTINUOUS
 10
30.9075025955
 20
56.5698297832
 11
30.5816807067
 21
56.4812772569
  0
LINE
  5
2B1
100
AcDbEntity
  8
0
100
AcDbLine
 62
7
  6
CONTINUOUS
 10
91.5314403197
 20
44.3035346328
 11
91.7758336881
 21
44.1624372478
  0
LINE
  5
2B2
100
AcDbEntity
  8
0
100
AcDbLine
 62
7
  6
CONTINUOUS
 10
94.9546500365
 20
43.7895681107
 11
95.6264042754
 21
43.4017393939
  0
LINE
  5
2B3
100
AcDbEntity
  8
0
100
AcDbLine
 62
7
  6
CONTINUOUS
 10
48.3917048537
 20
101.4958726342
 11
48.3917048537
 21
98.1890378448
  0
LINE
  5
2B4
100
AcDbEntity
  8
0
100
AcDbLine
 62
7
  6
CONTINUOUS
 10
48.42706034
 20
103.1492905516
 11
48.42706034
 21
104.7006451441
  0
LINE
  5
2B5
100
AcDbEntity
  8
0
100
AcDbLine
 62
7
  6
CONTINUOUS
 10
48.8866775398
 20
98.4748087525
 11
48.8866775398
 21
98.3115082691
  0
LINE
  5
2B6
100
AcDbEntity
  8
0
100
AcDbLine
 62
7
  6
CONTINUOUS
 10
49.0988145789
 20
89.6974231607
 11
49.0988145789
 21
102.7614618348
  0
LINE
  5
2B7
100
AcDbEntity
  8
0
100
AcDbLine
 62
7
  6
CONTINUOUS
 10
90.7119728442
 20
114.8251596488
 11
93.0242023919
 21
116.1601180319
  0
LINE
  5
2B8
100
AcDbEntity
  8
0
100
AcDbLine
 62
7
  6
CONTINUOUS
 10
56.8010860163
 20
94.7568004356
 11
56.0991920259
 21
94.3515641703
  0
LINE
  5
2B9
100
AcDbEntity
  8
0
100
AcDbLine
 62
7
  6
CONTINUOUS
 10
39.0579400905
 20
83.9003561757
 11
40.18930623
 21
84.5535468219
  0
LINE
  5
2BA
100
AcDbEntity
  8
0
100
AcDbLine
 62
7
  6
CONTINUOUS
 10
40.7549892998
 20
84.880142145
 11
49.0988145789
 21
89.6974231607
  0
LINE
  5
2BB
100
AcDbEntity
  8
0
100
AcDbLine
 62
7
  6
CONTINUOUS
 10
57.089137398
 20
94.1066035686
 11
56.0991920259
 21
93.5350617532
  0
LINE
  5
2BC
100
AcDbEntity
  8
0
100
AcDbLine
 62
7
  6
CONTINUOUS
 10
57.1996081244
 20
94.0070999393
 11
56.9477236961
 21
93.8616752649
  0
LINE
  5
2BD
100
AcDbEntity
  8
0
100
AcDbLine
 62
7
  6
CONTINUOUS
 10
94.5798437872
 20
115.261988372
 11
96.0152645768
 21
116.0907240044
  0
LINE
  5
2BE
100
AcDbEntity
  8
0
100
AcDbLine
 62
7
  6
CONTINUOUS
 10
94.5798437872
 20
113.7922840212
 11
96.2396912492
 21
114.7505916798
  0
LINE
  5
2BF
100
AcDbEntity
  8
0
100
AcDbLine
 62
7
  6
CONTINUOUS
 10
66.4229863588
 20
96.5970756851
 11
69.9585055448
 21
98.6382964544
  0
LINE
  5
2C0
100
AcDbEntity
  8
0
100
AcDbLine
 62
7
  6
CONTINUOUS
 10
56.5235620774
 20
70.550834888
 11
18.7639027546
 21
92.3508911794
  0
LINE
  5
2C1
100
AcDbEntity
  8
0
100
AcDbLine
 62
7
  6
CONTINUOUS
 10
91.7759284073
 20
44.1626011385
 11
91.5608673685
 21
44.3205242459
  0
LINE
  5
2C2
100
AcDbEntity
  8
0
100
AcDbLine
 62
7
  6
CONTINUOUS
 10
49.7705688178
 20
102.373633118
 11
49.7705688178
 21
103.9249877105
  0
LINE
  5
2C3
100
AcDbEntity
  8
0
100
AcDbLine
 62
7
  6
CONTINUOUS
 10
49.9118588731
 20
122.3775522328
 11
49.9118482748
 21
123.6022743427
  0
LINE
  5
2C4
100
AcDbEntity
  8
0
100
AcDbLine
 62
7
  6
CONTINUOUS
 10
50.1239635286
 20
125.1944173645
 11
50.1239635286
 21
125.9292568415
  0
LINE
  5
2C5
100
AcDbEntity
  8
0
100
AcDbLine
 62
7
  6
CONTINUOUS
 10
50.4069510842
 20
104.2923741824
 11
50.4069510842
 21
105.843728775
  0
LINE
  5
2C6
100
AcDbEntity
  8
0
100
AcDbLine
 62
7
  6
CONTINUOUS
 10
51.0786758834
 20
107.9869700076
 11
51.0786758834
 21
109.5383246001
  0
LINE
  5
2C7
100
AcDbEntity
  8
0
100
AcDbLine
 62
7
  6
CONTINUOUS
 10
52.7405250479
 20
54.3837672355
 11
52.7405250479
 21
54.1134717312
  0
LINE
  5
2C8
100
AcDbEntity
  8
0
100
AcDbLine
 62
7
  6
CONTINUOUS
 10
53.8716297632
 20
120.0914291624
 11
53.8716297632
 21
125.8884416044
  0
LINE
  5
2C9
100
AcDbEntity
  8
0
100
AcDbLine
 62
7
  6
CONTINUOUS
 10
53.9177272295
 20
105.5436457434
 11
53.9177272295
 21
107.095000336
  0
LINE
  5
2CA
100
AcDbEntity
  8
0
100
AcDbLine
 62
7
  6
CONTINUOUS
 10
55.8163552014
 20
88.8401896835
 11
55.6042240502
 21
88.4727657122
  0
LINE
  5
2CB
100
AcDbEntity
  8
0
100
AcDbLine
 62
7
  6
CONTINUOUS
 10
30.5244339179
 20
56.5143279581
 11
31.543870301
 21
57.9581509726
  0
LINE
  5
2CC
100
AcDbEntity
  8
0
100
AcDbLine
 62
7
  6
CONTINUOUS
 10
97.4082826878
 20
113.6290253539
 11
98.8437034774
 21
114.4577609863
  0
LINE
  5
2CD
100
AcDbEntity
  8
0
100
AcDbLine
 62
7
  6
CONTINUOUS
 10
67.7665180531
 20
95.8214048477
 11
69.9585055448
 21
97.0869418619
  0
LINE
  5
2CE
100
AcDbEntity
  8
0
100
AcDbLine
 62
7
  6
CONTINUOUS
 10
81.4489614466
 20
102.9452872186
 11
82.5803275861
 21
103.5984778648
  0
LINE
  5
2CF
100
AcDbEntity
  8
0
100
AcDbLine
 62
7
  6
CONTINUOUS
 10
98.7164356793
 20
112.8737799581
 11
96.9345340096
 21
111.8450046903
  0
LINE
  5
2D0
100
AcDbEntity
  8
0
100
AcDbLine
 62
7
  6
CONTINUOUS
 10
85.903715621
 20
105.2722746628
 11
82.9477495178
 21
103.5656570245
  0
LINE
  5
2D1
100
AcDbEntity
  8
0
100
AcDbLine
 62
7
  6
CONTINUOUS
 10
81.2368355945
 20
102.0879775548
 11
82.0853601992
 21
102.5778705395
  0
LINE
  5
2D2
100
AcDbEntity
  8
0
100
AcDbLine
 62
7
  6
CONTINUOUS
 10
94.8839396528
 20
109.7221389994
 11
86.5401143736
 21
104.9048579837
  0
LINE
  5
2D3
100
AcDbEntity
  8
0
100
AcDbLine
 62
7
  6
CONTINUOUS
 10
69.2867807456
 20
94.9437006293
 11
67.3068900014
 21
93.8006169984
  0
LINE
  5
2D4
100
AcDbEntity
  8
0
100
AcDbLine
 62
7
  6
CONTINUOUS
 10
77.2063437224
 20
99.5160351526
 11
80.8694136629
 21
101.6308969448
  0
LINE
  5
2D5
100
AcDbEntity
  8
0
100
AcDbLine
 62
7
  6
CONTINUOUS
 10
73.4940541706
 20
96.5970926818
 11
77.8780979613
 21
99.1282064358
  0
LINE
  5
2D6
100
AcDbEntity
  8
0
100
AcDbLine
 62
7
  6
CONTINUOUS
 10
95.5556938917
 20
109.3343102826
 11
101.6367868917
 21
112.8452100059
  0
LINE
  5
2D7
100
AcDbEntity
  8
0
100
AcDbLine
 62
7
  6
CONTINUOUS
 10
61.5924873278
 20
88.9907464447
 11
60.3418550872
 21
88.2686978939
  0
LINE
  5
2D8
100
AcDbEntity
  8
0
100
AcDbLine
 62
7
  6
CONTINUOUS
 10
67.3068900014
 20
92.2492624059
 11
69.2867807456
 21
93.3923460367
  0
LINE
  5
2D9
100
AcDbEntity
  8
0
100
AcDbLine
 62
7
  6
CONTINUOUS
 10
86.5401143736
 20
103.2718531495
 11
87.9543220481
 21
104.0883414572
  0
LINE
  5
2DA
100
AcDbEntity
  8
0
100
AcDbLine
 62
7
  6
CONTINUOUS
 10
60.3418550872
 20
88.1053974105
 11
59.8468824011
 21
87.8196265028
  0
LINE
  5
2DB
100
AcDbEntity
  8
0
100
AcDbLine
 62
7
  6
CONTINUOUS
 10
94.8839396528
 20
107.558407594
 11
92.9040489086
 21
106.4153239632
  0
LINE
  5
2DC
100
AcDbEntity
  8
0
100
AcDbLine
 62
7
  6
CONTINUOUS
 10
67.9786442403
 20
91.8614336891
 11
73.4940541706
 21
95.0457380893
  0
LINE
  5
2DD
100
AcDbEntity
  8
0
100
AcDbLine
 62
7
  6
CONTINUOUS
 10
87.3179232954
 20
102.822753302
 11
83.4734049569
 21
100.6031328537
  0
LINE
  5
2DE
100
AcDbEntity
  8
0
100
AcDbLine
 62
7
  6
CONTINUOUS
 10
17.0127964964
 20
64.5917606095
 11
16.6869746075
 21
64.5032080832
  0
LINE
  5
2DF
100
AcDbEntity
  8
0
100
AcDbLine
 62
7
  6
CONTINUOUS
 10
20.178110429
 20
94.8003843214
 11
57.9377697519
 21
73.00032803
  0
LINE
  5
2E0
100
AcDbEntity
  8
0
100
AcDbLine
 62
7
  6
CONTINUOUS
 10
21.3094765686
 20
95.4535749676
 11
59.3519774263
 21
73.4902153709
  0
LINE
  5
2E1
100
AcDbEntity
  8
0
100
AcDbLine
 62
7
  6
CONTINUOUS
 10
59.6348189612
 20
73.9801139993
 11
21.8751596383
 21
95.7801702907
  0
LINE
  5
2E2
100
AcDbEntity
  8
0
100
AcDbLine
 62
7
  6
CONTINUOUS
 10
55.6042240502
 20
88.9626671625
 11
55.6042240502
 21
88.4727657122
  0
LINE
  5
2E3
100
AcDbEntity
  8
0
100
AcDbLine
 62
7
  6
CONTINUOUS
 10
56.0991920259
 20
93.5350617532
 11
56.0991920259
 21
94.3515641703
  0
LINE
  5
2E4
100
AcDbEntity
  8
0
100
AcDbLine
 62
7
  6
CONTINUOUS
 10
56.0991920259
 20
95.576317796
 11
56.0991920259
 21
95.759075603
  0
LINE
  5
2E5
100
AcDbEntity
  8
0
100
AcDbLine
 62
7
  6
CONTINUOUS
 10
56.5235620774
 20
37.0742357857
 11
56.5235620774
 21
41.8151458881
  0
LINE
  5
2E6
100
AcDbEntity
  8
0
100
AcDbLine
 62
7
  6
CONTINUOUS
 10
56.5235620774
 20
51.9293836945
 11
56.5235620774
 21
70.550834888
  0
LINE
  5
2E7
100
AcDbEntity
  8
0
100
AcDbLine
 62
7
  6
CONTINUOUS
 10
56.9477236961
 20
93.8616752649
 11
56.9477236961
 21
93.0451728477
  0
LINE
  5
2E8
100
AcDbEntity
  8
0
100
AcDbLine
 62
7
  6
CONTINUOUS
 10
57.089137398
 20
94.1066035686
 11
57.089137398
 21
94.2149176656
  0
LINE
  5
2E9
100
AcDbEntity
  8
0
100
AcDbLine
 62
7
  6
CONTINUOUS
 10
57.3720866821
 20
65.0802602276
 11
57.3720866821
 21
71.816405169
  0
LINE
  5
2EA
100
AcDbEntity
  8
0
100
AcDbLine
 62
7
  6
CONTINUOUS
 10
57.7960345688
 20
130.3587026816
 11
57.7960345688
 21
131.134366574
  0
LINE
  5
2EB
100
AcDbEntity
  8
0
100
AcDbLine
 62
7
  6
CONTINUOUS
 10
58.1142704503
 20
125.8884518025
 11
58.1142704503
 21
119.3565453403
  0
LINE
  5
2EC
100
AcDbEntity
  8
0
100
AcDbLine
 62
7
  6
CONTINUOUS
 10
54.7772344539
 20
42.2751052651
 11
54.7507572329
 21
41.7477936881
  0
LINE
  5
2ED
100
AcDbEntity
  8
0
100
AcDbLine
 62
7
  6
CONTINUOUS
 10
95.5556938917
 20
107.1705788772
 11
93.5758031475
 21
106.0274952464
  0
LINE
  5
2EE
100
AcDbEntity
  8
0
100
AcDbLine
 62
7
  6
CONTINUOUS
 10
90.9339682804
 20
104.1756259085
 11
87.9543220481
 21
102.455336623
  0
LINE
  5
2EF
100
AcDbEntity
  8
0
100
AcDbLine
 62
7
  6
CONTINUOUS
 10
83.8408205395
 20
100.080419596
 11
77.8780979613
 21
96.6378606597
  0
LINE
  5
2F0
100
AcDbEntity
  8
0
100
AcDbLine
 62
7
  6
CONTINUOUS
 10
67.9786442403
 20
90.187603734
 11
70.5242180543
 21
91.6572826879
  0
LINE
  5
2F1
100
AcDbEntity
  8
0
100
AcDbLine
 62
7
  6
CONTINUOUS
 10
91.6057225193
 20
103.7877971917
 11
77.8780979613
 21
95.8621967673
  0
LINE
  5
2F2
100
AcDbEntity
  8
0
100
AcDbLine
 62
7
  6
CONTINUOUS
 10
67.2715345152
 20
87.2890096991
 11
67.7665072012
 21
87.5747806068
  0
LINE
  5
2F3
100
AcDbEntity
  8
0
100
AcDbLine
 62
7
  6
CONTINUOUS
 10
67.7665072012
 20
87.4114801234
 11
69.1100044919
 21
88.1871440158
  0
LINE
  5
2F4
100
AcDbEntity
  8
0
100
AcDbLine
 62
7
  6
CONTINUOUS
 10
69.1807148756
 20
87.1665152889
 11
68.332190271
 21
86.6766223042
  0
LINE
  5
2F5
100
AcDbEntity
  8
0
100
AcDbLine
 62
7
  6
CONTINUOUS
 10
69.8171083291
 20
87.3706345439
 11
69.3221356431
 21
87.0848636362
  0
LINE
  5
2F6
100
AcDbEntity
  8
0
100
AcDbLine
 62
7
  6
CONTINUOUS
 10
16.3318704042
 20
64.7082229526
 11
15.5120924946
 21
64.3848548703
  0
LINE
  5
2F7
100
AcDbEntity
  8
0
100
AcDbLine
 62
7
  6
CONTINUOUS
 10
59.8468824011
 20
91.5755376216
 11
59.8468824011
 21
87.8196265028
  0
LINE
  5
2F8
100
AcDbEntity
  8
0
100
AcDbLine
 62
7
  6
CONTINUOUS
 10
60.3418550872
 20
88.2686978939
 11
60.3418550872
 21
88.1053974105
  0
LINE
  5
2F9
100
AcDbEntity
  8
0
100
AcDbLine
 62
7
  6
CONTINUOUS
 10
61.649819076
 20
121.3977933047
 11
61.649819076
 21
123.8472480299
  0
LINE
  5
2FA
100
AcDbEntity
  8
0
100
AcDbLine
 62
7
  6
CONTINUOUS
 10
62.3924685798
 20
36.9923624079
 11
62.3924685798
 21
37.8088648251
  0
LINE
  5
2FB
100
AcDbEntity
  8
0
100
AcDbLine
 62
7
  6
CONTINUOUS
 10
63.2410002499
 20
37.3189759196
 11
63.2410002499
 21
36.5024735025
  0
LINE
  5
2FC
100
AcDbEntity
  8
0
100
AcDbLine
 62
7
  6
CONTINUOUS
 10
55.1547646362
 20
41.4019177917
 11
55.0249245708
 21
40.3803463416
  0
LINE
  5
2FD
100
AcDbEntity
  8
0
100
AcDbLine
 62
7
  6
CONTINUOUS
 10
59.3519774263
 20
73.4902153709
 11
59.6348189612
 21
73.9801139993
  0
LINE
  5
2FE
100
AcDbEntity
  8
0
100
AcDbLine
 62
7
  6
CONTINUOUS
 10
40.1706040767
 20
52.977606874
 11
39.1511725646
 21
51.533790753
  0
LINE
  5
2FF
100
AcDbEntity
  8
0
100
AcDbLine
 62
7
  6
CONTINUOUS
 10
80.8694136629
 20
101.6308969448
 11
81.2368355945
 21
102.0879775548
  0
LINE
  5
300
100
AcDbEntity
  8
0
100
AcDbLine
 62
7
  6
CONTINUOUS
 10
69.3221356431
 20
86.1050607357
 11
69.8171083291
 21
86.3908316434
  0
LINE
  5
301
100
AcDbEntity
  8
0
100
AcDbLine
 62
7
  6
CONTINUOUS
 10
68.332190271
 20
85.3702184368
 11
69.1807148756
 21
85.8601114215
  0
LINE
  5
302
100
AcDbEntity
  8
0
100
AcDbLine
 62
7
  6
CONTINUOUS
 10
69.8171142171
 20
84.3495931093
 11
68.4736169264
 21
83.5739292169
  0
LINE
  5
303
100
AcDbEntity
  8
0
100
AcDbLine
 62
7
  6
CONTINUOUS
 10
68.4736169264
 20
83.4106287335
 11
67.9786442403
 21
83.1248578258
  0
LINE
  5
304
100
AcDbEntity
  8
0
100
AcDbLine
 62
7
  6
CONTINUOUS
 10
72.2566174507
 20
74.3678118388
 11
72.8576607171
 21
74.0208071974
  0
LINE
  5
305
100
AcDbEntity
  8
0
100
AcDbLine
 62
7
  6
CONTINUOUS
 10
67.9786442403
 20
78.797395015
 11
30.2189849175
 21
100.5974513064
  0
LINE
  5
306
100
AcDbEntity
  8
0
100
AcDbLine
 62
7
  6
CONTINUOUS
 10
100.9296830545
 20
62.3037174403
 11
99.5154753801
 21
63.1201921507
  0
LINE
  5
307
100
AcDbEntity
  8
0
100
AcDbLine
 62
7
  6
CONTINUOUS
 10
36.7243943888
 20
99.3727938579
 11
49.0988145789
 21
92.2285806538
  0
LINE
  5
308
100
AcDbEntity
  8
0
100
AcDbLine
 62
7
  6
CONTINUOUS
 10
55.6042240502
 20
88.4727657122
 11
67.9786442403
 21
81.3285525081
  0
LINE
  5
309
100
AcDbEntity
  8
0
100
AcDbLine
 62
7
  6
CONTINUOUS
 10
63.3824139519
 20
37.5639042234
 11
63.3824139519
 21
37.6722183204
  0
LINE
  5
30A
100
AcDbEntity
  8
0
100
AcDbLine
 62
7
  6
CONTINUOUS
 10
67.0238859596
 20
116.1723028085
 11
67.0238859596
 21
114.5392979742
  0
LINE
  5
30B
100
AcDbEntity
  8
0
100
AcDbLine
 62
7
  6
CONTINUOUS
 10
67.2715345152
 20
90.5958444885
 11
67.2715345152
 21
87.2890096991
  0
LINE
  5
30C
100
AcDbEntity
  8
0
100
AcDbLine
 62
7
  6
CONTINUOUS
 10
67.3068900014
 20
92.2492624059
 11
67.3068900014
 21
93.8006169984
  0
LINE
  5
30D
100
AcDbEntity
  8
0
100
AcDbLine
 62
7
  6
CONTINUOUS
 10
67.6602847122
 20
114.1718812952
 11
67.6602847122
 21
115.8048861294
  0
LINE
  5
30E
100
AcDbEntity
  8
0
100
AcDbLine
 62
7
  6
CONTINUOUS
 10
67.7665072012
 20
87.5747806068
 11
67.7665072012
 21
87.4114801234
  0
LINE
  5
30F
100
AcDbEntity
  8
0
100
AcDbLine
 62
7
  6
CONTINUOUS
 10
67.9786442403
 20
27.4393929776
 11
67.9786442403
 21
42.0547862442
  0
LINE
  5
310
100
AcDbEntity
  8
0
100
AcDbLine
 62
7
  6
CONTINUOUS
 10
67.9786442403
 20
78.797395015
 11
67.9786442403
 21
81.3285525081
  0
LINE
  5
311
100
AcDbEntity
  8
0
100
AcDbLine
 62
7
  6
CONTINUOUS
 10
67.9786442403
 20
81.8184539584
 11
67.9786442403
 21
83.1248578258
  0
LINE
  5
312
100
AcDbEntity
  8
0
100
AcDbLine
 62
7
  6
CONTINUOUS
 10
67.9786442403
 20
90.187603734
 11
67.9786442403
 21
91.8614336891
  0
LINE
  5
313
100
AcDbEntity
  8
0
100
AcDbLine
 62
7
  6
CONTINUOUS
 10
69.3221356431
 20
86.1050607357
 11
69.1807148756
 21
85.8601114215
  0
LINE
  5
314
100
AcDbEntity
  8
0
100
AcDbLine
 62
7
  6
CONTINUOUS
 10
67.9786442403
 20
81.3285525081
 11
68.1907753915
 21
81.6959764794
  0
LINE
  5
315
100
AcDbEntity
  8
0
100
AcDbLine
 62
7
  6
CONTINUOUS
 10
57.9377697519
 20
73.00032803
 11
59.0691358914
 21
73.6535186762
  0
LINE
  5
316
100
AcDbEntity
  8
0
100
AcDbLine
 62
7
  6
CONTINUOUS
 10
59.6348189612
 20
73.9801139993
 11
67.9786442403
 21
78.797395015
  0
LINE
  5
317
100
AcDbEntity
  8
0
100
AcDbLine
 62
7
  6
CONTINUOUS
 10
57.3720866821
 20
71.816405169
 11
72.8576607171
 21
80.7569521388
  0
LINE
  5
318
100
AcDbEntity
  8
0
100
AcDbLine
 62
7
  6
CONTINUOUS
 10
98.9497923103
 20
90.1730093285
 11
97.4892858656
 21
89.627160146
  0
LINE
  5
319
100
AcDbEntity
  8
0
100
AcDbLine
 62
7
  6
CONTINUOUS
 10
97.9598386951
 20
87.4157167785
 11
97.1357318348
 21
87.1077153605
  0
LINE
  5
31A
100
AcDbEntity
  8
0
100
AcDbLine
 62
7
  6
CONTINUOUS
 10
96.9962948852
 20
86.1140802581
 11
98.9497923103
 21
86.8441797221
  0
LINE
  5
31B
100
AcDbEntity
  8
0
100
AcDbLine
 62
7
  6
CONTINUOUS
 10
99.5154753801
 20
63.5284851754
 11
98.9497923103
 21
63.8550750595
  0
LINE
  5
31C
100
AcDbEntity
  8
0
100
AcDbLine
 62
7
  6
CONTINUOUS
 10
36.7243943888
 20
99.8626953082
 11
49.0988145789
 21
92.7184821041
  0
LINE
  5
31D
100
AcDbEntity
  8
0
100
AcDbLine
 62
7
  6
CONTINUOUS
 10
68.1907753915
 20
81.6959764794
 11
55.6042240502
 21
88.9626671625
  0
LINE
  5
31E
100
AcDbEntity
  8
0
100
AcDbLine
 62
7
  6
CONTINUOUS
 10
101.2138849077
 20
63.692554103
 11
98.9497923103
 21
64.999699002
  0
LINE
  5
31F
100
AcDbEntity
  8
0
100
AcDbLine
 62
7
  6
CONTINUOUS
 10
40.9670527397
 20
98.7196546485
 11
49.0988145789
 21
94.0248859715
  0
LINE
  5
320
100
AcDbEntity
  8
0
100
AcDbLine
 62
7
  6
CONTINUOUS
 10
59.8468824011
 20
87.8196265028
 11
67.9786442403
 21
83.1248578258
  0
LINE
  5
321
100
AcDbEntity
  8
0
100
AcDbLine
 62
7
  6
CONTINUOUS
 10
101.7782076591
 20
64.0183640506
 11
98.9497923103
 21
65.6513134714
  0
LINE
  5
322
100
AcDbEntity
  8
0
100
AcDbLine
 62
7
  6
CONTINUOUS
 10
101.7782076591
 20
64.0183640506
 11
102.838863415
 21
63.4059766558
  0
LINE
  5
323
100
AcDbEntity
  8
0
100
AcDbLine
 62
7
  6
CONTINUOUS
 10
41.4620254257
 20
99.0054255562
 11
49.0988145789
 21
94.5964230279
  0
LINE
  5
324
100
AcDbEntity
  8
0
100
AcDbLine
 62
7
  6
CONTINUOUS
 10
60.3418550872
 20
88.1053974105
 11
68.4736169264
 21
83.4106287335
  0
LINE
  5
325
100
AcDbEntity
  8
0
100
AcDbLine
 62
7
  6
CONTINUOUS
 10
41.4620254257
 20
99.1687260396
 11
49.0988145789
 21
94.7597235113
  0
LINE
  5
326
100
AcDbEntity
  8
0
100
AcDbLine
 62
7
  6
CONTINUOUS
 10
60.3418550872
 20
88.2686978939
 11
68.4736169264
 21
83.5739292169
  0
LINE
  5
327
100
AcDbEntity
  8
0
100
AcDbLine
 62
7
  6
CONTINUOUS
 10
41.6277152823
 20
100.5171521973
 11
49.0523673964
 21
96.2306242749
  0
LINE
  5
328
100
AcDbEntity
  8
0
100
AcDbLine
 62
7
  6
CONTINUOUS
 10
60.5075449438
 20
89.6171240516
 11
67.9321970578
 21
85.3305961292
  0
LINE
  5
329
100
AcDbEntity
  8
0
100
AcDbLine
 62
7
  6
CONTINUOUS
 10
69.8171142171
 20
84.3495931093
 11
68.1225700305
 21
85.3279165189
  0
LINE
  5
32A
100
AcDbEntity
  8
0
100
AcDbLine
 62
7
  6
CONTINUOUS
 10
56.9477236961
 20
93.0451728477
 11
56.0991920259
 21
93.5350617532
  0
LINE
  5
32B
100
AcDbEntity
  8
0
100
AcDbLine
 62
7
  6
CONTINUOUS
 10
38.0678940347
 20
103.9452009934
 11
37.2193623645
 21
104.4350898989
  0
LINE
  5
32C
100
AcDbEntity
  8
0
100
AcDbLine
 62
7
  6
CONTINUOUS
 10
68.438093634
 20
114.620946805
 11
68.438093634
 21
113.9677843775
  0
LINE
  5
32D
100
AcDbEntity
  8
0
100
AcDbLine
 62
7
  6
CONTINUOUS
 10
68.4736169264
 20
83.5739292169
 11
68.4736169264
 21
83.4106287335
  0
LINE
  5
32E
100
AcDbEntity
  8
0
100
AcDbLine
 62
7
  6
CONTINUOUS
 10
68.7916885345
 20
111.4775240871
 11
68.7916779363
 21
112.702246197
  0
LINE
  5
32F
100
AcDbEntity
  8
0
100
AcDbLine
 62
7
  6
CONTINUOUS
 10
69.00379319
 20
114.2943892189
 11
69.00379319
 21
115.0292286958
  0
LINE
  5
330
100
AcDbEntity
  8
0
100
AcDbLine
 62
7
  6
CONTINUOUS
 10
69.2867807456
 20
93.3923460367
 11
69.2867807456
 21
94.9437006293
  0
LINE
  5
331
100
AcDbEntity
  8
0
100
AcDbLine
 62
7
  6
CONTINUOUS
 10
69.8171083291
 20
91.2490351347
 11
69.8171083291
 21
87.7788857525
  0
LINE
  5
332
100
AcDbEntity
  8
0
100
AcDbLine
 62
7
  6
CONTINUOUS
 10
69.8171083291
 20
87.3706345439
 11
69.8171083291
 21
86.3908316434
  0
LINE
  5
333
100
AcDbEntity
  8
0
100
AcDbLine
 62
7
  6
CONTINUOUS
 10
69.9585055448
 20
97.0869418619
 11
69.9585055448
 21
98.6382964544
  0
LINE
  5
334
100
AcDbEntity
  8
0
100
AcDbLine
 62
7
  6
CONTINUOUS
 10
70.5242180543
 20
85.5743396803
 11
70.5242180543
 21
91.6572826879
  0
LINE
  5
335
100
AcDbEntity
  8
0
100
AcDbLine
 62
7
  6
CONTINUOUS
 10
71.867712401
 20
80.1854086236
 11
71.867712401
 21
74.0003957592
  0
LINE
  5
336
100
AcDbEntity
  8
0
100
AcDbLine
 62
7
  6
CONTINUOUS
 10
72.2566174507
 20
80.4099417185
 11
72.2566174507
 21
74.3678118388
  0
LINE
  5
337
100
AcDbEntity
  8
0
100
AcDbLine
 62
7
  6
CONTINUOUS
 10
49.4042635794
 20
45.6142998124
 11
50.4236999624
 21
47.0581228269
  0
LINE
  5
338
100
AcDbEntity
  8
0
100
AcDbLine
 62
7
  6
CONTINUOUS
 10
99.5154753801
 20
92.922572192
 11
98.9497923103
 21
92.5959768689
  0
LINE
  5
339
100
AcDbEntity
  8
0
100
AcDbLine
 62
7
  6
CONTINUOUS
 10
101.5047715291
 20
91.9481797189
 11
100.8027859165
 21
91.5428905558
  0
LINE
  5
33A
100
AcDbEntity
  8
0
100
AcDbLine
 62
7
  6
CONTINUOUS
 10
72.2566174507
 20
74.3678118388
 11
71.867712401
 21
74.1432787439
  0
LINE
  5
33B
100
AcDbEntity
  8
0
100
AcDbLine
 62
7
  6
CONTINUOUS
 10
71.867712401
 20
74.0003957592
 11
57.3720866821
 21
65.6313923045
  0
LINE
  5
33C
100
AcDbEntity
  8
0
100
AcDbLine
 62
7
  6
CONTINUOUS
 10
72.8576607171
 20
74.0208071974
 11
57.3720866821
 21
65.0802602276
  0
LINE
  5
33D
100
AcDbEntity
  8
0
100
AcDbLine
 62
7
  6
CONTINUOUS
 10
40.9670527397
 20
102.4755657673
 11
49.0988145789
 21
97.7807657282
  0
LINE
  5
33E
100
AcDbEntity
  8
0
100
AcDbLine
 62
7
  6
CONTINUOUS
 10
59.8468824011
 20
91.5755376216
 11
68.332190271
 21
86.6766223042
  0
LINE
  5
33F
100
AcDbEntity
  8
0
100
AcDbLine
 62
7
  6
CONTINUOUS
 10
69.4635473569
 20
86.1867043394
 11
70.5242180543
 21
85.5743396803
  0
LINE
  5
340
100
AcDbEntity
  8
0
100
AcDbLine
 62
7
  6
CONTINUOUS
 10
48.7452531509
 20
98.3931578309
 11
48.8866775398
 21
98.3115082691
  0
LINE
  5
341
100
AcDbEntity
  8
0
100
AcDbLine
 62
7
  6
CONTINUOUS
 10
67.6250828123
 20
87.4931296852
 11
67.7665072012
 21
87.4114801234
  0
LINE
  5
342
100
AcDbEntity
  8
0
100
AcDbLine
 62
7
  6
CONTINUOUS
 10
56.0991920259
 20
94.3515641703
 11
54.196634365
 21
95.4499814985
  0
LINE
  5
343
100
AcDbEntity
  8
0
100
AcDbLine
 62
7
  6
CONTINUOUS
 10
37.2193623645
 20
105.251592316
 11
35.3168047036
 21
106.3500096442
  0
LINE
  5
344
100
AcDbEntity
  8
0
100
AcDbLine
 62
7
  6
CONTINUOUS
 10
38.0678940347
 20
104.7617034106
 11
38.3975426048
 21
104.5713850255
  0
LINE
  5
345
100
AcDbEntity
  8
0
100
AcDbLine
 62
7
  6
CONTINUOUS
 10
56.9477236961
 20
93.8616752649
 11
57.2773722662
 21
93.6713568798
  0
LINE
  5
346
100
AcDbEntity
  8
0
100
AcDbLine
 62
7
  6
CONTINUOUS
 10
57.1722089838
 20
94.0586432512
 11
57.089137398
 21
94.1066035686
  0
LINE
  5
347
100
AcDbEntity
  8
0
100
AcDbLine
 62
7
  6
CONTINUOUS
 10
38.2923793224
 20
104.9586713969
 11
38.2093077366
 21
105.0066317143
  0
LINE
  5
348
100
AcDbEntity
  8
0
100
AcDbLine
 62
7
  6
CONTINUOUS
 10
68.2614563479
 20
87.6972374408
 11
69.3221356431
 21
87.0848636362
  0
LINE
  5
349
100
AcDbEntity
  8
0
100
AcDbLine
 62
7
  6
CONTINUOUS
 10
68.7564254126
 20
87.9830062577
 11
69.8171083291
 21
87.3706345439
  0
LINE
  5
34A
100
AcDbEntity
  8
0
100
AcDbLine
 62
7
  6
CONTINUOUS
 10
56.5459917836
 20
95.2366841583
 11
55.1865797371
 21
96.0215233139
  0
LINE
  5
34B
100
AcDbEntity
  8
0
100
AcDbLine
 62
7
  6
CONTINUOUS
 10
37.6661621222
 20
106.136712304
 11
36.3067500757
 21
106.9215514596
  0
LINE
  5
34C
100
AcDbEntity
  8
0
100
AcDbLine
 62
7
  6
CONTINUOUS
 10
56.0991920259
 20
95.576317796
 11
54.196634365
 21
96.6747351242
  0
LINE
  5
34D
100
AcDbEntity
  8
0
100
AcDbLine
 62
7
  6
CONTINUOUS
 10
37.2193623645
 20
106.4763459417
 11
35.3168047036
 21
107.5747632699
  0
LINE
  5
34E
100
AcDbEntity
  8
0
100
AcDbLine
 62
7
  6
CONTINUOUS
 10
69.8171083291
 20
87.7788857525
 11
69.1099954386
 21
88.1871283345
  0
LINE
  5
34F
100
AcDbEntity
  8
0
100
AcDbLine
 62
7
  6
CONTINUOUS
 10
48.3917048537
 20
101.4958726342
 11
49.0988145789
 21
101.0876318797
  0
LINE
  5
350
100
AcDbEntity
  8
0
100
AcDbLine
 62
7
  6
CONTINUOUS
 10
67.2715345152
 20
90.5958444885
 11
67.9786442403
 21
90.187603734
  0
LINE
  5
351
100
AcDbEntity
  8
0
100
AcDbLine
 62
7
  6
CONTINUOUS
 10
67.9786442403
 20
91.8614336891
 11
67.3068900014
 21
92.2492624059
  0
LINE
  5
352
100
AcDbEntity
  8
0
100
AcDbLine
 62
7
  6
CONTINUOUS
 10
49.7705688178
 20
102.373633118
 11
48.42706034
 21
103.1492905516
  0
LINE
  5
353
100
AcDbEntity
  8
0
100
AcDbLine
 62
7
  6
CONTINUOUS
 10
30.8907391564
 20
113.2736612637
 11
30.2189849175
 21
113.6614899805
  0
LINE
  5
354
100
AcDbEntity
  8
0
100
AcDbLine
 62
7
  6
CONTINUOUS
 10
72.7514594246
 20
109.1914010167
 11
72.7514594246
 21
114.9884134587
  0
LINE
  5
355
100
AcDbEntity
  8
0
100
AcDbLine
 62
7
  6
CONTINUOUS
 10
72.8576607171
 20
80.7569521388
 11
72.8576607171
 21
74.0208071974
  0
LINE
  5
356
100
AcDbEntity
  8
0
100
AcDbLine
 62
7
  6
CONTINUOUS
 10
73.4940541706
 20
95.0457380893
 11
73.4940541706
 21
96.5970926818
  0
LINE
  5
357
100
AcDbEntity
  8
0
100
AcDbLine
 62
7
  6
CONTINUOUS
 10
74.1443727305
 20
124.390251643
 11
74.1443727305
 21
127.0601461776
  0
LINE
  5
358
100
AcDbEntity
  8
0
100
AcDbLine
 62
7
  6
CONTINUOUS
 10
75.7000141258
 20
126.1620165177
 11
75.7000141258
 21
124.6923121669
  0
LINE
  5
359
100
AcDbEntity
  8
0
100
AcDbLine
 62
7
  6
CONTINUOUS
 10
76.0041099913
 20
120.6221671451
 11
76.0041099913
 21
119.0708393604
  0
LINE
  5
35A
100
AcDbEntity
  8
0
100
AcDbLine
 62
7
  6
CONTINUOUS
 10
76.6758642302
 20
119.4586745359
 11
76.6758642302
 21
120.2343384283
  0
LINE
  5
35B
100
AcDbEntity
  8
0
100
AcDbLine
 62
7
  6
CONTINUOUS
 10
76.9941001117
 20
114.9884236568
 11
76.9941001117
 21
108.4565171946
  0
LINE
  5
35C
100
AcDbEntity
  8
0
100
AcDbLine
 62
7
  6
CONTINUOUS
 10
50.5840029845
 20
41.3099125951
 11
51.0770845126
 21
42.0556567205
  0
LINE
  5
35D
100
AcDbEntity
  8
0
100
AcDbLine
 62
7
  6
CONTINUOUS
 10
53.2482078538
 20
43.3313153128
 11
51.0737114677
 21
40.1837623837
  0
LINE
  5
35E
100
AcDbEntity
  8
0
100
AcDbLine
 62
7
  6
CONTINUOUS
 10
51.2344899854
 20
41.6730378665
 11
52.2817982022
 21
43.1563356352
  0
LINE
  5
35F
100
AcDbEntity
  8
0
100
AcDbLine
 62
7
  6
CONTINUOUS
 10
53.0995403058
 20
42.7337252297
 11
52.6361141193
 21
42.0773768717
  0
LINE
  5
360
100
AcDbEntity
  8
0
100
AcDbLine
 62
7
  6
CONTINUOUS
 10
52.0756130375
 20
41.2835417899
 11
51.612186851
 21
40.6271934319
  0
LINE
  5
361
100
AcDbEntity
  8
0
100
AcDbLine
 62
7
  6
CONTINUOUS
 10
67.3068900014
 20
93.8006169984
 11
49.7705688178
 21
103.9249877105
  0
LINE
  5
362
100
AcDbEntity
  8
0
100
AcDbLine
 62
7
  6
CONTINUOUS
 10
48.42706034
 20
104.7006451441
 11
30.8907391564
 21
114.8250158562
  0
LINE
  5
363
100
AcDbEntity
  8
0
100
AcDbLine
 62
7
  6
CONTINUOUS
 10
69.2867807456
 20
94.9437006293
 11
66.4229863588
 21
96.5970756851
  0
LINE
  5
364
100
AcDbEntity
  8
0
100
AcDbLine
 62
7
  6
CONTINUOUS
 10
54.6142539488
 20
103.4146962856
 11
51.750459562
 21
105.0680713414
  0
LINE
  5
365
100
AcDbEntity
  8
0
100
AcDbLine
 62
7
  6
CONTINUOUS
 10
50.4069510842
 20
105.843728775
 11
47.5431566974
 21
107.4971038308
  0
LINE
  5
366
100
AcDbEntity
  8
0
100
AcDbLine
 62
7
  6
CONTINUOUS
 10
35.7344242874
 20
114.3147244313
 11
32.8706299006
 21
115.9680994871
  0
LINE
  5
367
100
AcDbEntity
  8
0
100
AcDbLine
 62
7
  6
CONTINUOUS
 10
35.0378975681
 20
116.4436738891
 11
37.2299144995
 21
115.1781409539
  0
LINE
  5
368
100
AcDbEntity
  8
0
100
AcDbLine
 62
7
  6
CONTINUOUS
 10
53.9177272295
 20
105.5436457434
 11
56.1097441609
 21
104.2781128082
  0
LINE
  5
369
100
AcDbEntity
  8
0
100
AcDbLine
 62
7
  6
CONTINUOUS
 10
77.8780979613
 20
36.4208208003
 11
77.8780979613
 21
33.1548111318
  0
LINE
  5
36A
100
AcDbEntity
  8
0
100
AcDbLine
 62
7
  6
CONTINUOUS
 10
77.8780979613
 20
95.8621967673
 11
77.8780979613
 21
99.1282064358
  0
LINE
  5
36B
100
AcDbEntity
  8
0
100
AcDbLine
 62
7
  6
CONTINUOUS
 10
78.5284530264
 20
123.0593491488
 11
78.5284530264
 21
124.5290534996
  0
LINE
  5
36C
100
AcDbEntity
  8
0
100
AcDbLine
 62
7
  6
CONTINUOUS
 10
80.5296487375
 20
110.497765159
 11
80.5296487375
 21
112.9472198842
  0
LINE
  5
36D
100
AcDbEntity
  8
0
100
AcDbLine
 62
7
  6
CONTINUOUS
 10
59.3519774263
 20
37.4008085338
 11
59.0691358914
 21
36.9109099054
  0
LINE
  5
36E
100
AcDbEntity
  8
0
100
AcDbLine
 62
7
  6
CONTINUOUS
 10
52.6928123901
 20
39.533621892
 11
53.1562385766
 21
40.18997025
  0
LINE
  5
36F
100
AcDbEntity
  8
0
100
AcDbLine
 62
7
  6
CONTINUOUS
 10
53.7167396584
 20
40.9838053318
 11
54.1801658449
 21
41.6401536897
  0
LINE
  5
370
100
AcDbEntity
  8
0
100
AcDbLine
 62
7
  6
CONTINUOUS
 10
55.0249245708
 20
40.3803463416
 11
53.9776163539
 21
38.8970485729
  0
LINE
  5
371
100
AcDbEntity
  8
0
100
AcDbLine
 62
7
  6
CONTINUOUS
 10
54.7507572329
 20
41.7477936881
 11
52.5476180396
 21
38.6921982654
  0
LINE
  5
372
100
AcDbEntity
  8
0
100
AcDbLine
 62
7
  6
CONTINUOUS
 10
52.7777748179
 20
38.4592841861
 11
55.0081328943
 21
41.5503061964
  0
LINE
  5
373
100
AcDbEntity
  8
0
100
AcDbLine
 62
7
  6
CONTINUOUS
 10
54.3189611299
 20
38.7749421008
 11
53.7868436312
 21
38.0687016008
  0
LINE
  5
374
100
AcDbEntity
  8
0
100
AcDbLine
 62
7
  6
CONTINUOUS
 10
51.0786758834
 20
107.9869700076
 11
53.9177272295
 21
106.3478800299
  0
LINE
  5
375
100
AcDbEntity
  8
0
100
AcDbLine
 62
7
  6
CONTINUOUS
 10
69.9585055448
 20
97.0869418619
 11
73.4940541706
 21
95.0457380893
  0
LINE
  5
376
100
AcDbEntity
  8
0
100
AcDbLine
 62
7
  6
CONTINUOUS
 10
57.4532758552
 20
105.0537965634
 11
53.9177272295
 21
107.095000336
  0
LINE
  5
377
100
AcDbEntity
  8
0
100
AcDbLine
 62
7
  6
CONTINUOUS
 10
38.5734461938
 20
115.9538247091
 11
35.0378975681
 21
117.9950284817
  0
LINE
  5
378
100
AcDbEntity
  8
0
100
AcDbLine
 62
7
  6
CONTINUOUS
 10
51.0786758834
 20
109.5383246001
 11
54.6142245092
 21
107.4971208275
  0
LINE
  5
379
100
AcDbEntity
  8
0
100
AcDbLine
 62
7
  6
CONTINUOUS
 10
69.9585055448
 20
98.6382964544
 11
73.4940541706
 21
96.5970926818
  0
LINE
  5
37A
100
AcDbEntity
  8
0
100
AcDbLine
 62
7
  6
CONTINUOUS
 10
63.2055305378
 20
113.4778986852
 11
63.9811856565
 21
112.3743929189
  0
LINE
  5
37B
100
AcDbEntity
  8
0
100
AcDbLine
 62
7
  6
CONTINUOUS
 10
85.903715621
 20
105.2722746628
 11
85.903715621
 21
103.6392698286
  0
LINE
  5
37C
100
AcDbEntity
  8
0
100
AcDbLine
 62
7
  6
CONTINUOUS
 10
85.903715621
 20
40.931884193
 11
85.903715621
 21
39.2988793587
  0
LINE
  5
37D
100
AcDbEntity
  8
0
100
AcDbLine
 62
7
  6
CONTINUOUS
 10
86.5401143736
 20
40.5644675139
 11
86.5401143736
 21
38.9314626797
  0
LINE
  5
37E
100
AcDbEntity
  8
0
100
AcDbLine
 62
7
  6
CONTINUOUS
 10
86.5401143736
 20
103.2718531495
 11
86.5401143736
 21
104.9048579837
  0
LINE
  5
37F
100
AcDbEntity
  8
0
100
AcDbLine
 62
7
  6
CONTINUOUS
 10
74.9005687797
 20
108.2115938848
 11
76.5698849129
 21
108.2115978973
  0
LINE
  5
380
100
AcDbEntity
  8
0
100
AcDbLine
 62
7
  6
CONTINUOUS
 10
74.0243005006
 20
108.4565425036
 11
74.1657218569
 21
108.4565428435
  0
LINE
  5
381
100
AcDbEntity
  8
0
100
AcDbLine
 62
7
  6
CONTINUOUS
 10
82.5803275861
 20
103.5984778648
 11
82.9477495178
 21
103.5656570245
  0
LINE
  5
382
100
AcDbEntity
  8
0
100
AcDbLine
 62
7
  6
CONTINUOUS
 10
97.9598386951
 20
87.4157167785
 11
98.9497923103
 21
86.8441797221
  0
LINE
  5
383
100
AcDbEntity
  8
0
100
AcDbLine
 62
7
  6
CONTINUOUS
 10
40.7901928773
 20
120.5404340104
 11
40.1184386385
 21
120.9282627272
  0
LINE
  5
384
100
AcDbEntity
  8
0
100
AcDbLine
 62
7
  6
CONTINUOUS
 10
58.326514061
 20
110.4160632983
 11
59.6700225388
 21
109.6404058647
  0
LINE
  5
385
100
AcDbEntity
  8
0
100
AcDbLine
 62
7
  6
CONTINUOUS
 10
77.2063437224
 20
99.5160351526
 11
77.8780979613
 21
99.1282064358
  0
LINE
  5
386
100
AcDbEntity
  8
0
100
AcDbLine
 62
7
  6
CONTINUOUS
 10
77.1354349154
 20
126.9907521501
 11
77.3598615877
 21
125.6506198255
  0
LINE
  5
387
100
AcDbEntity
  8
0
100
AcDbLine
 62
7
  6
CONTINUOUS
 10
87.3179232954
 20
103.7209186593
 11
87.3179232954
 21
102.822753302
  0
LINE
  5
388
100
AcDbEntity
  8
0
100
AcDbLine
 62
7
  6
CONTINUOUS
 10
87.3179232954
 20
41.8708739656
 11
87.3179232954
 21
41.7483725007
  0
LINE
  5
389
100
AcDbEntity
  8
0
100
AcDbLine
 62
7
  6
CONTINUOUS
 10
87.9543220481
 20
104.0883414572
 11
87.9543220481
 21
102.455336623
  0
LINE
  5
38A
100
AcDbEntity
  8
0
100
AcDbLine
 62
7
  6
CONTINUOUS
 10
87.9543220481
 20
42.2382967636
 11
87.9543220481
 21
41.3809558217
  0
LINE
  5
38B
100
AcDbEntity
  8
0
100
AcDbLine
 62
7
  6
CONTINUOUS
 10
52.2817982022
 20
43.1563356352
 11
53.1015761118
 21
43.4797037175
  0
LINE
  5
38C
100
AcDbEntity
  8
0
100
AcDbLine
 62
7
  6
CONTINUOUS
 10
95.8738738378
 20
111.8450021408
 11
96.9345340096
 21
111.8450046903
  0
LINE
  5
38D
100
AcDbEntity
  8
0
100
AcDbLine
 62
7
  6
CONTINUOUS
 10
66.6842258394
 20
112.9551943785
 11
66.3168039077
 21
112.9880152187
  0
LINE
  5
38E
100
AcDbEntity
  8
0
100
AcDbLine
 62
7
  6
CONTINUOUS
 10
74.1657218569
 20
108.4565428435
 11
74.9005687797
 21
108.2115938848
  0
LINE
  5
38F
100
AcDbEntity
  8
0
100
AcDbLine
 62
7
  6
CONTINUOUS
 10
80.8694136629
 20
101.6308969448
 11
63.3330924792
 21
111.7552676569
  0
LINE
  5
390
100
AcDbEntity
  8
0
100
AcDbLine
 62
7
  6
CONTINUOUS
 10
61.9895840014
 20
112.5309250905
 11
44.4532628178
 21
122.6552958026
  0
LINE
  5
391
100
AcDbEntity
  8
0
100
AcDbLine
 62
7
  6
CONTINUOUS
 10
81.2368355945
 20
102.0879775548
 11
63.7005144109
 21
112.2123482669
  0
LINE
  5
392
100
AcDbEntity
  8
0
100
AcDbLine
 62
7
  6
CONTINUOUS
 10
62.3570059331
 20
112.9880057005
 11
44.8206847495
 21
123.1123764126
  0
LINE
  5
393
100
AcDbEntity
  8
0
100
AcDbLine
 62
7
  6
CONTINUOUS
 10
100.8027859165
 20
91.5428905558
 11
98.9570304004
 21
92.6085138923
  0
LINE
  5
394
100
AcDbEntity
  8
0
100
AcDbLine
 62
7
  6
CONTINUOUS
 10
65.1854377682
 20
112.3348245725
 11
64.5490390155
 21
112.7022412516
  0
LINE
  5
395
100
AcDbEntity
  8
0
100
AcDbLine
 62
7
  6
CONTINUOUS
 10
46.3056081068
 20
123.2348527182
 11
45.6692093541
 21
123.6022693973
  0
LINE
  5
396
100
AcDbEntity
  8
0
100
AcDbLine
 62
7
  6
CONTINUOUS
 10
62.5691317851
 20
113.8453153643
 11
63.2055305378
 21
113.4778986852
  0
LINE
  5
397
100
AcDbEntity
  8
0
100
AcDbLine
 62
7
  6
CONTINUOUS
 10
81.4489614466
 20
102.9452872186
 11
82.0853601992
 21
102.5778705395
  0
LINE
  5
398
100
AcDbEntity
  8
0
100
AcDbLine
 62
7
  6
CONTINUOUS
 10
74.0243005006
 20
108.4565425036
 11
68.7916885345
 21
111.4775240871
  0
LINE
  5
399
100
AcDbEntity
  8
0
100
AcDbLine
 62
7
  6
CONTINUOUS
 10
55.1444708392
 20
119.3565706493
 11
49.9118588731
 21
122.3775522328
  0
LINE
  5
39A
100
AcDbEntity
  8
0
100
AcDbLine
 62
7
  6
CONTINUOUS
 10
82.5803275861
 20
103.5984778648
 11
74.1657218569
 21
108.4565428435
  0
LINE
  5
39B
100
AcDbEntity
  8
0
100
AcDbLine
 62
7
  6
CONTINUOUS
 10
68.7916879457
 20
111.5591725779
 11
66.3168039077
 21
112.9880152187
  0
LINE
  5
39C
100
AcDbEntity
  8
0
100
AcDbLine
 62
7
  6
CONTINUOUS
 10
63.7004979247
 20
114.4985060104
 11
55.2858921954
 21
119.3565709892
  0
LINE
  5
39D
100
AcDbEntity
  8
0
100
AcDbLine
 62
7
  6
CONTINUOUS
 10
49.9118582843
 20
122.4592007236
 11
47.4369742463
 21
123.8880433644
  0
LINE
  5
39E
100
AcDbEntity
  8
0
100
AcDbLine
 62
7
  6
CONTINUOUS
 10
82.9477495178
 20
103.5656570245
 11
74.9005687797
 21
108.2115938848
  0
LINE
  5
39F
100
AcDbEntity
  8
0
100
AcDbLine
 62
7
  6
CONTINUOUS
 10
68.7916848863
 20
111.7384798562
 11
66.6842258394
 21
112.9551943785
  0
LINE
  5
3A0
100
AcDbEntity
  8
0
100
AcDbLine
 62
7
  6
CONTINUOUS
 10
64.0679198564
 20
114.4656851702
 11
56.0207391183
 21
119.1116220305
  0
LINE
  5
3A1
100
AcDbEntity
  8
0
100
AcDbLine
 62
7
  6
CONTINUOUS
 10
49.9118552249
 20
122.6385080019
 11
47.804396178
 21
123.8552225242
  0
LINE
  5
3A2
100
AcDbEntity
  8
0
100
AcDbLine
 62
7
  6
CONTINUOUS
 10
82.0853601992
 20
102.5778705395
 11
83.8408205395
 21
100.080419596
  0
LINE
  5
3A3
100
AcDbEntity
  8
0
100
AcDbLine
 62
7
  6
CONTINUOUS
 10
93.0242023919
 20
113.4902234973
 11
93.0242023919
 21
116.1601180319
  0
LINE
  5
3A4
100
AcDbEntity
  8
0
100
AcDbLine
 62
7
  6
CONTINUOUS
 10
94.5798437872
 20
115.261988372
 11
94.5798437872
 21
113.7922840212
  0
LINE
  5
3A5
100
AcDbEntity
  8
0
100
AcDbLine
 62
7
  6
CONTINUOUS
 10
94.8839396528
 20
109.7221389994
 11
94.8839396528
 21
107.558407594
  0
LINE
  5
3A6
100
AcDbEntity
  8
0
100
AcDbLine
 62
7
  6
CONTINUOUS
 10
94.9546500365
 20
45.1368105029
 11
94.9546500365
 21
43.7895681107
  0
LINE
  5
3A7
100
AcDbEntity
  8
0
100
AcDbLine
 62
7
  6
CONTINUOUS
 10
95.5556938917
 20
107.1705788772
 11
95.5556938917
 21
109.3343102826
  0
LINE
  5
3A8
100
AcDbEntity
  8
0
100
AcDbLine
 62
7
  6
CONTINUOUS
 10
95.6264042754
 20
45.5246456785
 11
95.6264042754
 21
43.4017393939
  0
LINE
  5
3A9
100
AcDbEntity
  8
0
100
AcDbLine
 62
7
  6
CONTINUOUS
 10
97.4892858656
 20
89.627160146
 11
96.9962948852
 21
86.1140802581
  0
LINE
  5
3AA
100
AcDbEntity
  8
0
100
AcDbLine
 62
7
  6
CONTINUOUS
 10
98.9497923103
 20
63.2018898523
 11
99.5154753801
 21
63.5284851754
  0
LINE
  5
3AB
100
AcDbEntity
  8
0
100
AcDbLine
 62
7
  6
CONTINUOUS
 10
101.2138849077
 20
63.692554103
 11
101.7782076591
 21
64.0183640506
  0
LINE
  5
3AC
100
AcDbEntity
  8
0
100
AcDbLine
 62
7
  6
CONTINUOUS
 10
99.5154753801
 20
61.4872291326
 11
100.9296830545
 21
62.3037174403
  0
LINE
  5
3AD
100
AcDbEntity
  8
0
100
AcDbLine
 62
7
  6
CONTINUOUS
 10
63.7004979247
 20
114.4985060104
 11
64.0679198564
 21
114.4656851702
  0
LINE
  5
3AE
100
AcDbEntity
  8
0
100
AcDbLine
 62
7
  6
CONTINUOUS
 10
55.2858921954
 20
119.3565709892
 11
56.0207391183
 21
119.1116220305
  0
LINE
  5
3AF
100
AcDbEntity
  8
0
100
AcDbLine
 62
7
  6
CONTINUOUS
 10
87.3179232954
 20
102.822753302
 11
87.9543220481
 21
102.455336623
  0
LINE
  5
3B0
100
AcDbEntity
  8
0
100
AcDbLine
 62
7
  6
CONTINUOUS
 10
67.0238859596
 20
114.5392979742
 11
67.6602847122
 21
114.1718812952
  0
LINE
  5
3B1
100
AcDbEntity
  8
0
100
AcDbLine
 62
7
  6
CONTINUOUS
 10
85.903715621
 20
103.6392698286
 11
86.5401143736
 21
103.2718531495
  0
LINE
  5
3B2
100
AcDbEntity
  8
0
100
AcDbLine
 62
7
  6
CONTINUOUS
 10
69.6401919426
 20
114.6618120168
 11
69.00379319
 21
115.0292286958
  0
LINE
  5
3B3
100
AcDbEntity
  8
0
100
AcDbLine
 62
7
  6
CONTINUOUS
 10
50.7603622812
 20
125.5618401625
 11
50.1239635286
 21
125.9292568415
  0
LINE
  5
3B4
100
AcDbEntity
  8
0
100
AcDbLine
 62
7
  6
CONTINUOUS
 10
67.0238859596
 20
116.1723028085
 11
67.6602847122
 21
115.8048861294
  0
LINE
  5
3B5
100
AcDbEntity
  8
0
100
AcDbLine
 62
7
  6
CONTINUOUS
 10
85.903715621
 20
105.2722746628
 11
86.5401143736
 21
104.9048579837
  0
LINE
  5
3B6
100
AcDbEntity
  8
0
100
AcDbLine
 62
7
  6
CONTINUOUS
 10
91.6057225193
 20
103.7877971917
 11
90.9339682804
 21
104.1756259085
  0
LINE
  5
3B7
100
AcDbEntity
  8
0
100
AcDbLine
 62
7
  6
CONTINUOUS
 10
97.4082826878
 20
112.1593210031
 11
97.4082826878
 21
113.6290253539
  0
LINE
  5
3B8
100
AcDbEntity
  8
0
100
AcDbLine
 62
7
  6
CONTINUOUS
 10
97.9598386951
 20
89.8030244006
 11
97.9598386951
 21
87.4157167785
  0
LINE
  5
3B9
100
AcDbEntity
  8
0
100
AcDbLine
 62
7
  6
CONTINUOUS
 10
98.9497923103
 20
92.5959768689
 11
98.9497923103
 21
90.1730093285
  0
LINE
  5
3BA
100
AcDbEntity
  8
0
100
AcDbLine
 62
7
  6
CONTINUOUS
 10
98.9497923103
 20
86.8441797221
 11
98.9497923103
 21
63.2018898523
  0
LINE
  5
3BB
100
AcDbEntity
  8
0
100
AcDbLine
 62
7
  6
CONTINUOUS
 10
99.5154753801
 20
63.5284851754
 11
99.5154753801
 21
61.4872291326
  0
LINE
  5
3BC
100
AcDbEntity
  8
0
100
AcDbLine
 62
7
  6
CONTINUOUS
 10
102.838863415
 20
101.454989294
 11
101.5047715291
 21
91.9481797189
  0
LINE
  5
3BD
100
AcDbEntity
  8
0
100
AcDbLine
 62
7
  6
CONTINUOUS
 10
83.4529929801
 20
39.6394687274
 11
82.0853601992
 21
36.1145737851
  0
LINE
  5
3BE
100
AcDbEntity
  8
0
100
AcDbLine
 62
7
  6
CONTINUOUS
 10
67.9786442403
 20
42.0547862442
 11
59.6348189612
 21
37.2375052285
  0
LINE
  5
3BF
100
AcDbEntity
  8
0
100
AcDbLine
 62
7
  6
CONTINUOUS
 10
59.0691358914
 20
36.9109099054
 11
57.9377697519
 21
36.2577192592
  0
LINE
  5
3C0
100
AcDbEntity
  8
0
100
AcDbLine
 62
7
  6
CONTINUOUS
 10
63.0943625701
 20
38.2141010904
 11
62.3924685798
 21
37.8088648251
  0
LINE
  5
3C1
100
AcDbEntity
  8
0
100
AcDbLine
 62
7
  6
CONTINUOUS
 10
63.3824139519
 20
37.5639042234
 11
62.3924685798
 21
36.9923624079
  0
LINE
  5
3C2
100
AcDbEntity
  8
0
100
AcDbLine
 62
7
  6
CONTINUOUS
 10
63.4928846782
 20
37.4644005941
 11
63.2410002499
 21
37.3189759196
  0
LINE
  5
3C3
100
AcDbEntity
  8
0
100
AcDbLine
 62
7
  6
CONTINUOUS
 10
56.0207391183
 20
119.1116220305
 11
57.6900552514
 21
119.111626043
  0
LINE
  5
3C4
100
AcDbEntity
  8
0
100
AcDbLine
 62
7
  6
CONTINUOUS
 10
55.1444708392
 20
119.3565706493
 11
55.2858921954
 21
119.3565709892
  0
LINE
  5
3C5
100
AcDbEntity
  8
0
100
AcDbLine
 62
7
  6
CONTINUOUS
 10
76.9940441764
 20
122.7450302865
 11
78.0547043481
 21
122.745032836
  0
LINE
  5
3C6
100
AcDbEntity
  8
0
100
AcDbLine
 62
7
  6
CONTINUOUS
 10
47.804396178
 20
123.8552225242
 11
47.4369742463
 21
123.8880433644
  0
LINE
  5
3C7
100
AcDbEntity
  8
0
100
AcDbLine
 62
7
  6
CONTINUOUS
 10
58.1142704503
 20
125.8884518025
 11
61.649819076
 21
123.8472480299
  0
LINE
  5
3C8
100
AcDbEntity
  8
0
100
AcDbLine
 62
7
  6
CONTINUOUS
 10
76.9941001117
 20
114.9884236568
 11
80.5296487375
 21
112.9472198842
  0
LINE
  5
3C9
100
AcDbEntity
  8
0
100
AcDbLine
 62
7
  6
CONTINUOUS
 10
92.9040489086
 20
106.4153239632
 11
93.5758031475
 21
106.0274952464
  0
LINE
  5
3CA
100
AcDbEntity
  8
0
100
AcDbLine
 62
7
  6
CONTINUOUS
 10
94.8839396528
 20
107.558407594
 11
95.5556938917
 21
107.1705788772
  0
LINE
  5
3CB
100
AcDbEntity
  8
0
100
AcDbLine
 62
7
  6
CONTINUOUS
 10
100.8027859165
 20
91.5428905558
 11
99.5154753801
 21
92.922572192
  0
LINE
  5
3CC
100
AcDbEntity
  8
0
100
AcDbLine
 62
7
  6
CONTINUOUS
 10
102.838863415
 20
105.6671790338
 11
102.838863415
 21
101.454989294
  0
LINE
  5
3CD
100
AcDbEntity
  8
0
100
AcDbLine
 62
7
  6
CONTINUOUS
 10
102.838863415
 20
63.4059766558
 11
102.838863415
 21
47.5658297634
  0
LINE
  5
3CE
100
AcDbEntity
  8
0
100
AcDbLine
 62
7
  6
CONTINUOUS
 10
100.9296830545
 20
62.3037174403
 11
101.2138849077
 21
63.692554103
  0
LINE
  5
3CF
100
AcDbEntity
  8
0
100
AcDbLine
 62
7
  6
CONTINUOUS
 10
82.9477495178
 20
37.5922617205
 11
82.5803275861
 21
37.1351811104
  0
LINE
  5
3D0
100
AcDbEntity
  8
0
100
AcDbLine
 62
7
  6
CONTINUOUS
 10
58.4677888077
 20
130.7465378572
 11
57.7960345688
 21
131.134366574
  0
LINE
  5
3D1
100
AcDbEntity
  8
0
100
AcDbLine
 62
7
  6
CONTINUOUS
 10
76.0041099913
 20
120.6221671451
 11
77.3476184691
 21
119.8465097115
  0
LINE
  5
3D2
100
AcDbEntity
  8
0
100
AcDbLine
 62
7
  6
CONTINUOUS
 10
94.8839396528
 20
109.7221389994
 11
95.5556938917
 21
109.3343102826
  0
LINE
  5
3D3
100
AcDbEntity
  8
0
100
AcDbLine
 62
7
  6
CONTINUOUS
 10
71.8321431828
 20
125.7251877945
 11
76.9940441764
 21
122.7450302865
  0
LINE
  5
3D4
100
AcDbEntity
  8
0
100
AcDbLine
 62
7
  6
CONTINUOUS
 10
90.7119728442
 20
114.8251596488
 11
95.8738738378
 21
111.8450021408
  0
LINE
  5
3D5
100
AcDbEntity
  8
0
100
AcDbLine
 62
7
  6
CONTINUOUS
 10
96.0152645768
 20
116.0907240044
 11
96.2396912492
 21
114.7505916798
  0
LINE
  5
3D6
100
AcDbEntity
  8
0
100
AcDbLine
 62
7
  6
CONTINUOUS
 10
77.8780979613
 20
36.4208208003
 11
91.5608673685
 21
44.3205242459
  0
LINE
  5
3D7
100
AcDbEntity
  8
0
100
AcDbLine
 62
7
  6
CONTINUOUS
 10
87.3179232954
 20
41.7483725007
 11
85.903715621
 21
40.931884193
  0
LINE
  5
3D8
100
AcDbEntity
  8
0
100
AcDbLine
 62
7
  6
CONTINUOUS
 10
87.9543220481
 20
41.3809558217
 11
86.5401143736
 21
40.5644675139
  0
LINE
  5
3D9
100
AcDbEntity
  8
0
100
AcDbLine
 62
7
  6
CONTINUOUS
 10
93.5758031475
 20
44.3407376323
 11
95.6264042754
 21
45.5246456785
  0
LINE
  5
3DA
100
AcDbEntity
  8
0
100
AcDbLine
 62
7
  6
CONTINUOUS
 10
85.903715621
 20
39.2988793587
 11
82.9477495178
 21
37.5922617205
  0
LINE
  5
3DB
100
AcDbEntity
  8
0
100
AcDbLine
 62
7
  6
CONTINUOUS
 10
82.4527757817
 20
37.0615394814
 11
82.5803275861
 21
37.1351811104
  0
LINE
  5
3DC
100
AcDbEntity
  8
0
100
AcDbLine
 62
7
  6
CONTINUOUS
 10
94.9546500365
 20
43.7895681107
 11
86.5401143736
 21
38.9314626797
  0
LINE
  5
3DD
100
AcDbEntity
  8
0
100
AcDbLine
 62
7
  6
CONTINUOUS
 10
80.8694136629
 20
35.6575016407
 11
77.8780979613
 21
33.9304750242
  0
LINE
  5
3DE
100
AcDbEntity
  8
0
100
AcDbLine
 62
7
  6
CONTINUOUS
 10
82.0853601992
 20
36.1145737851
 11
81.2368355945
 21
35.6246808005
  0
LINE
  5
3DF
100
AcDbEntity
  8
0
100
AcDbLine
 62
7
  6
CONTINUOUS
 10
102.838863415
 20
47.5658297634
 11
95.6264042754
 21
43.4017393939
  0
LINE
  5
3E0
100
AcDbEntity
  8
0
100
AcDbLine
 62
7
  6
CONTINUOUS
 10
77.8780979613
 20
33.1548111318
 11
67.9786442403
 21
27.4393929776
  0
LINE
  5
3E1
100
AcDbEntity
  8
0
100
AcDbLine
 62
7
  6
CONTINUOUS
 10
74.1443727305
 20
127.0601461776
 11
75.7000141258
 21
126.1620165177
  0
LINE
  5
3E2
100
AcDbEntity
  8
0
100
AcDbLine
 62
7
  6
CONTINUOUS
 10
78.5284530264
 20
124.5290534996
 11
79.8366060179
 21
123.7738081038
  0
LINE
  5
3E3
100
AcDbEntity
  8
0
100
AcDbLine
 62
7
  6
CONTINUOUS
 10
93.0242023919
 20
116.1601180319
 11
94.5798437872
 21
115.261988372
  0
LINE
  5
3E4
100
AcDbEntity
  8
0
100
AcDbLine
 62
7
  6
CONTINUOUS
 10
97.4082826878
 20
113.6290253539
 11
98.7164356793
 21
112.8737799581
  0
LINE
  5
3E5
100
AcDbEntity
  8
0
100
AcDbLine
 62
7
  6
CONTINUOUS
 10
101.6367868917
 20
112.8452100059
 11
98.8437034774
 21
114.4577609863
  0
LINE
  5
3E6
100
AcDbEntity
  8
0
100
AcDbLine
 62
7
  6
CONTINUOUS
 10
96.0152645768
 20
116.0907240044
 11
79.9638738159
 21
125.357789132
  0
LINE
  5
3E7
100
AcDbEntity
  8
0
100
AcDbLine
 62
7
  6
CONTINUOUS
 10
77.1354349154
 20
126.9907521501
 11
63.8771275688
 21
134.6452662973
  0
LINE
  5
3E8
100
AcDbEntity
  8
0
100
AcDbLine
 62
7
  6
CONTINUOUS
 10
101.6367868917
 20
112.8452100059
 11
102.838863415
 21
105.6671790338
  0
ARC
  5
3E9
100
AcDbEntity
  8
0
100
AcDbCircle
 62
7
  6
CONTINUOUS
 10
50.7640974482
 20
31.7628376349
 40
13.3539697255
100
AcDbArc
 50
130.8339599427
 51
133.8010510614
  0
ARC
  5
3EA
100
AcDbEntity
  8
0
100
AcDbCircle
 62
7
  6
CONTINUOUS
 10
27.9689013583
 20
65.4547494047
 40
7.1207638244
100
AcDbArc
 50
173.8839115409
 51
174.735503955
  0
ARC
  5
3EB
100
AcDbEntity
  8
0
100
AcDbCircle
 62
7
  6
CONTINUOUS
 10
46.8487310197
 20
54.554721259
 40
7.1207638243
100
AcDbArc
 50
173.8839115409
 51
174.735503955
  0
ARC
  5
3EC
100
AcDbEntity
  8
0
100
AcDbCircle
 62
7
  6
CONTINUOUS
 10
59.3310754777
 20
96.7560213413
 40
4.2090773688
100
AcDbArc
 50
188.8085648503
 51
190.0497564296
  0
ARC
  5
3ED
100
AcDbEntity
  8
0
100
AcDbCircle
 62
7
  6
CONTINUOUS
 10
40.4512458161
 20
107.6560494869
 40
4.2090773686
100
AcDbArc
 50
188.8085648502
 51
190.0497564296
  0
ARC
  5
3EE
100
AcDbEntity
  8
0
100
AcDbCircle
 62
7
  6
CONTINUOUS
 10
40.9832620599
 20
81.1518357511
 40
3.3798354824
100
AcDbArc
 50
149.9420545096
 51
158.7315729341
  0
ARC
  5
3EF
100
AcDbEntity
  8
0
100
AcDbCircle
 62
7
  6
CONTINUOUS
 10
24.1221086457
 20
65.0314226233
 40
3.213134802
100
AcDbArc
 50
202.84034443
 51
203.6203307178
  0
ARC
  5
3F0
100
AcDbEntity
  8
0
100
AcDbCircle
 62
7
  6
CONTINUOUS
 10
43.0019383072
 20
54.1313944776
 40
3.213134802
100
AcDbArc
 50
202.84034443
 51
203.6203307178
  0
ARC
  5
3F1
100
AcDbEntity
  8
0
100
AcDbCircle
 62
7
  6
CONTINUOUS
 10
76.70322209
 20
123.0591996412
 40
1.8252309426
100
AcDbArc
 50
358.5121220021
 51
0.0046931899
  0
ARC
  5
3F2
100
AcDbEntity
  8
0
100
AcDbCircle
 62
7
  6
CONTINUOUS
 10
95.5830517515
 20
112.1591714955
 40
1.8252309424
100
AcDbArc
 50
358.512122002
 51
0.00469319
  0
ARC
  5
3F3
100
AcDbEntity
  8
0
100
AcDbCircle
 62
7
  6
CONTINUOUS
 10
49.1879263158
 20
96.4657645283
 40
0.2713721852
100
AcDbArc
 50
240.0364540559
 51
250.6187637477
  0
SPLINE
  5
3F4
100
AcDbEntity
  8
0
100
AcDbSpline
 62
7
  6
CONTINUOUS
 70
0
 71
3
 72
17
 73
13
 74
0
 42
0.0000001
 43
0.0000001
 44
0.0000000001
 40
0.0
 40
0.0
 40
0.0
 40
0.0
 40
0.0991125271
 40
0.1523968206
 40
0.2081347258
 40
0.2662501586
 40
0.3266109207
 40
0.453266357
 40
0.5863152539
 40
0.7234843551
 40
0.8622505988
 40
1.0
 40
1.0
 40
1.0
 40
1.0
 10
63.587549895
 20
35.1232839829
 30
0.0
 10
63.4545155225
 20
35.1476625886
 30
0.0
 10
63.2536839641
 20
35.2076970358
 30
0.0
 10
62.9938418942
 20
35.3226928192
 30
0.0
 10
62.7929463743
 20
35.4312149236
 30
0.0
 10
62.5923259721
 20
35.5591051006
 30
0.0
 10
62.3226899432
 20
35.7574282689
 30
0.0
 10
61.9959110691
 20
36.0488783725
 30
0.0
 10
61.6329505552
 20
36.4521026873
 30
0.0
 10
61.3028946299
 20
36.9033076891
 30
0.0
 10
61.0149758146
 20
37.3898439507
 30
0.0
 10
60.8547990658
 20
37.7322965356
 30
0.0
 10
60.7838870996
 20
37.9063816545
 30
0.0
  0
SPLINE
  5
3F5
100
AcDbEntity
  8
0
100
AcDbSpline
 62
7
  6
CONTINUOUS
 70
0
 71
3
 72
23
 73
19
 74
0
 42
0.0000001
 43
0.0000001
 44
0.0000000001
 40
0.0
 40
0.0
 40
0.0
 40
0.0
 40
0.0481920284
 40
0.0993697871
 40
0.1535829846
 40
0.2107509507
 40
0.2706848903
 40
0.3331080304
 40
0.3976727168
 40
0.4639752622
 40
0.531569316
 40
0.5999789717
 40
0.6687093911
 40
0.7372587578
 40
0.8051312707
 40
0.8718397474
 40
0.9369421635
 40
1.0
 40
1.0
 40
1.0
 40
1.0
 10
38.4144436798
 20
102.5660114738
 30
0.0
 10
38.3332309595
 20
102.5808937396
 30
0.0
 10
38.1677088063
 20
102.6228632211
 30
0.0
 10
37.9213532949
 20
102.7166530595
 30
0.0
 10
37.6721672067
 20
102.8420269796
 30
0.0
 10
37.4228393653
 20
102.9975798762
 30
0.0
 10
37.1760007081
 20
103.1816151372
 30
0.0
 10
36.934300091
 20
103.3921360649
 30
0.0
 10
36.7003400154
 20
103.6268631486
 30
0.0
 10
36.4766534274
 20
103.883252676
 30
0.0
 10
36.2656637612
 20
104.1585190489
 30
0.0
 10
36.0696633015
 20
104.4496704432
 30
0.0
 10
35.8907828961
 20
104.7535396247
 30
0.0
 10
35.7309690472
 20
105.0668248927
 30
0.0
 10
35.5919674412
 20
105.3861136973
 30
0.0
 10
35.4752650528
 20
105.7079538492
 30
0.0
 10
35.3821667047
 20
106.0288150851
 30
0.0
 10
35.3356538824
 20
106.2436327885
 30
0.0
 10
35.3168047036
 20
106.3500096442
 30
0.0
  0
SPLINE
  5
3F6
100
AcDbEntity
  8
0
100
AcDbSpline
 62
7
  6
CONTINUOUS
 70
0
 71
3
 72
9
 73
5
 74
0
 42
0.0000001
 43
0.0000001
 44
0.0000000001
 40
0.0
 40
0.0
 40
0.0
 40
0.0
 40
0.255276007
 40
1.0
 40
1.0
 40
1.0
 40
1.0
 10
35.3168047036
 20
107.5747632699
 30
0.0
 10
35.3211127068
 20
107.5941014911
 30
0.0
 10
35.3390106379
 20
107.6696222585
 30
0.0
 10
35.3610714273
 20
107.7441728262
 30
0.0
 10
35.3800258281
 20
107.7987753971
 30
0.0
  0
SPLINE
  5
3F7
100
AcDbEntity
  8
0
100
AcDbSpline
 62
7
  6
CONTINUOUS
 70
0
 71
3
 72
23
 73
19
 74
0
 42
0.0000001
 43
0.0000001
 44
0.0000000001
 40
0.0
 40
0.0
 40
0.0
 40
0.0
 40
0.0481920284
 40
0.0993697871
 40
0.1535829846
 40
0.2107509507
 40
0.2706848903
 40
0.3331080304
 40
0.3976727168
 40
0.4639752622
 40
0.531569316
 40
0.5999789717
 40
0.6687093911
 40
0.7372587578
 40
0.8051312707
 40
0.8718397474
 40
0.9369421635
 40
1.0
 40
1.0
 40
1.0
 40
1.0
 10
57.2942733412
 20
91.6659833281
 30
0.0
 10
57.213060621
 20
91.6808655939
 30
0.0
 10
57.0475384678
 20
91.7228350754
 30
0.0
 10
56.8011829563
 20
91.8166249138
 30
0.0
 10
56.5519968681
 20
91.9419988339
 30
0.0
 10
56.3026690268
 20
92.0975517305
 30
0.0
 10
56.0558303696
 20
92.2815869915
 30
0.0
 10
55.8141297525
 20
92.4921079192
 30
0.0
 10
55.5801696769
 20
92.7268350029
 30
0.0
 10
55.3564830889
 20
92.9832245303
 30
0.0
 10
55.1454934226
 20
93.2584909032
 30
0.0
 10
54.9494929629
 20
93.5496422975
 30
0.0
 10
54.7706125575
 20
93.853511479
 30
0.0
 10
54.6107987086
 20
94.166796747
 30
0.0
 10
54.4717971026
 20
94.4860855516
 30
0.0
 10
54.3550947142
 20
94.8079257035
 30
0.0
 10
54.2619963661
 20
95.1287869394
 30
0.0
 10
54.2154835438
 20
95.3436046428
 30
0.0
 10
54.196634365
 20
95.4499814985
 30
0.0
  0
SPLINE
  5
3F8
100
AcDbEntity
  8
0
100
AcDbSpline
 62
7
  6
CONTINUOUS
 70
0
 71
3
 72
9
 73
5
 74
0
 42
0.0000001
 43
0.0000001
 44
0.0000000001
 40
0.0
 40
0.0
 40
0.0
 40
0.0
 40
0.255276007
 40
1.0
 40
1.0
 40
1.0
 40
1.0
 10
54.196634365
 20
96.6747351242
 30
0.0
 10
54.2009423682
 20
96.6940733454
 30
0.0
 10
54.2188402994
 20
96.7695941128
 30
0.0
 10
54.2409010887
 20
96.8441446805
 30
0.0
 10
54.2598554895
 20
96.8987472514
 30
0.0
  0
SPLINE
  5
3F9
100
AcDbEntity
  8
0
100
AcDbSpline
 62
7
  6
CONTINUOUS
 70
0
 71
3
 72
9
 73
5
 74
0
 42
0.0000001
 43
0.0000001
 44
0.0000000001
 40
0.0
 40
0.0
 40
0.0
 40
0.0
 40
0.2551083352
 40
1.0
 40
1.0
 40
1.0
 40
1.0
 10
34.54911768
 20
54.4673898974
 30
0.0
 10
34.5706740838
 20
54.426572349
 30
0.0
 10
34.6583193482
 20
54.2682632994
 30
0.0
 10
34.7588121433
 20
54.1169858184
 30
0.0
 10
34.8407880662
 20
54.0099980705
 30
0.0
  0
SPLINE
  5
3FA
100
AcDbEntity
  8
0
100
AcDbSpline
 62
7
  6
CONTINUOUS
 70
0
 71
3
 72
11
 73
7
 74
0
 42
0.0000001
 43
0.0000001
 44
0.0000000001
 40
0.0
 40
0.0
 40
0.0
 40
0.0
 40
0.2130439917
 40
0.4442980368
 40
0.7055294406
 40
1.0
 40
1.0
 40
1.0
 40
1.0
 10
52.2844769619
 20
40.3541675536
 30
0.0
 10
52.304672923
 20
40.3425112057
 30
0.0
 10
52.3422366902
 20
40.3095664535
 30
0.0
 10
52.3796457134
 20
40.2406193403
 30
0.0
 10
52.3987320993
 20
40.1557828535
 30
0.0
 10
52.3992455978
 20
40.0945430293
 30
0.0
 10
52.3969120668
 20
40.0623968104
 30
0.0
  0
SPLINE
  5
3FB
100
AcDbEntity
  8
0
100
AcDbSpline
 62
7
  6
CONTINUOUS
 70
0
 71
3
 72
11
 73
7
 74
0
 42
0.0000001
 43
0.0000001
 44
0.0000000001
 40
0.0
 40
0.0
 40
0.0
 40
0.0
 40
0.2616655977
 40
0.5136144538
 40
0.758574714
 40
1.0
 40
1.0
 40
1.0
 40
1.0
 10
53.4289473415
 20
43.5673617517
 30
0.0
 10
53.4943572553
 20
43.4435065692
 30
0.0
 10
53.637521693
 20
43.207771928
 30
0.0
 10
53.8933105446
 20
42.8907842539
 30
0.0
 10
54.1837720008
 20
42.6207648832
 30
0.0
 10
54.3997169294
 20
42.4732519481
 30
0.0
 10
54.5116337618
 20
42.4086337913
 30
0.0
  0
SPLINE
  5
3FC
100
AcDbEntity
  8
0
100
AcDbSpline
 62
7
  6
CONTINUOUS
 70
0
 71
3
 72
9
 73
5
 74
0
 42
0.0000001
 43
0.0000001
 44
0.0000000001
 40
0.0
 40
0.0
 40
0.0
 40
0.0
 40
0.2376330698
 40
1.0
 40
1.0
 40
1.0
 40
1.0
 10
52.3969120668
 20
40.0623968104
 30
0.0
 10
52.3958067132
 20
40.0471696987
 30
0.0
 10
52.388655157
 20
39.9832796226
 30
0.0
 10
52.372344862
 20
39.9205664641
 30
0.0
 10
52.356113557
 20
39.8743544104
 30
0.0
  0
SPLINE
  5
3FD
100
AcDbEntity
  8
0
100
AcDbSpline
 62
7
  6
CONTINUOUS
 70
0
 71
3
 72
12
 73
8
 74
0
 42
0.0000001
 43
0.0000001
 44
0.0000000001
 40
0.0
 40
0.0
 40
0.0
 40
0.0
 40
0.2974855227
 40
0.5599704005
 40
0.7897296269
 40
0.8962602057
 40
1.0
 40
1.0
 40
1.0
 40
1.0
 10
53.8434670118
 20
41.9808862082
 30
0.0
 10
53.8149287608
 20
41.9592114578
 30
0.0
 10
53.7576223436
 20
41.9227057035
 30
0.0
 10
53.6675037562
 20
41.8895925304
 30
0.0
 10
53.5940378569
 20
41.8848702654
 30
0.0
 10
53.5420101108
 20
41.896501363
 30
0.0
 10
53.5186991997
 20
41.9069326713
 30
0.0
 10
53.507875734
 20
41.913179568
 30
0.0
  0
SPLINE
  5
3FE
100
AcDbEntity
  8
0
100
AcDbSpline
 62
7
  6
CONTINUOUS
 70
0
 71
3
 72
9
 73
5
 74
0
 42
0.0000001
 43
0.0000001
 44
0.0000000001
 40
0.0
 40
0.0
 40
0.0
 40
0.0
 40
0.23832025
 40
1.0
 40
1.0
 40
1.0
 40
1.0
 10
52.6361141193
 20
42.0773768717
 30
0.0
 10
52.637365775
 20
42.0689372857
 30
0.0
 10
52.6414935972
 20
42.0333597694
 30
0.0
 10
52.6413587159
 20
41.9973473962
 30
0.0
 10
52.639384478
 20
41.9701507232
 30
0.0
  0
SPLINE
  5
3FF
100
AcDbEntity
  8
0
100
AcDbSpline
 62
7
  6
CONTINUOUS
 70
0
 71
3
 72
14
 73
10
 74
0
 42
0.0000001
 43
0.0000001
 44
0.0000000001
 40
0.0
 40
0.0
 40
0.0
 40
0.0
 40
0.1261309702
 40
0.2619253113
 40
0.4023829825
 40
0.5420634432
 40
0.6755448499
 40
0.7982146526
 40
1.0
 40
1.0
 40
1.0
 40
1.0
 10
52.639384478
 20
41.9701507232
 30
0.0
 10
52.6364879198
 20
41.930248363
 30
0.0
 10
52.6221039576
 20
41.8479017853
 30
0.0
 10
52.5804576344
 20
41.7268073591
 30
0.0
 10
52.5200031961
 20
41.6090277653
 30
0.0
 10
52.4443763284
 20
41.5013827091
 30
0.0
 10
52.3573871079
 20
41.4097859157
 30
0.0
 10
52.2419210034
 20
41.3222946972
 30
0.0
 10
52.1396138604
 20
41.2828951661
 30
0.0
 10
52.0756130375
 20
41.2835417899
 30
0.0
  0
SPLINE
  5
400
100
AcDbEntity
  8
0
100
AcDbSpline
 62
7
  6
CONTINUOUS
 70
0
 71
3
 72
12
 73
8
 74
0
 42
0.0000001
 43
0.0000001
 44
0.0000000001
 40
0.0
 40
0.0
 40
0.0
 40
0.0
 40
0.2974855227
 40
0.5599704005
 40
0.7897296269
 40
0.8962602057
 40
1.0
 40
1.0
 40
1.0
 40
1.0
 10
51.9488856841
 20
40.2864609135
 30
0.0
 10
51.9774239351
 20
40.3081356639
 30
0.0
 10
52.0347303523
 20
40.3446414182
 30
0.0
 10
52.1248489397
 20
40.3777545913
 30
0.0
 10
52.198314839
 20
40.3824768562
 30
0.0
 10
52.2503425851
 20
40.3708457587
 30
0.0
 10
52.2736534962
 20
40.3604144503
 30
0.0
 10
52.2844769619
 20
40.3541675536
 30
0.0
  0
SPLINE
  5
401
100
AcDbEntity
  8
0
100
AcDbSpline
 62
7
  6
CONTINUOUS
 70
0
 71
3
 72
9
 73
5
 74
0
 42
0.0000001
 43
0.0000001
 44
0.0000000001
 40
0.0
 40
0.0
 40
0.0
 40
0.0
 40
0.23832025
 40
1.0
 40
1.0
 40
1.0
 40
1.0
 10
53.1562385766
 20
40.18997025
 30
0.0
 10
53.1549869209
 20
40.198409836
 30
0.0
 10
53.1508590987
 20
40.2339873522
 30
0.0
 10
53.15099398
 20
40.2699997254
 30
0.0
 10
53.1529682178
 20
40.2971963984
 30
0.0
  0
SPLINE
  5
402
100
AcDbEntity
  8
0
100
AcDbSpline
 62
7
  6
CONTINUOUS
 70
0
 71
3
 72
14
 73
10
 74
0
 42
0.0000001
 43
0.0000001
 44
0.0000000001
 40
0.0
 40
0.0
 40
0.0
 40
0.0
 40
0.1261309702
 40
0.2619253113
 40
0.4023829825
 40
0.5420634432
 40
0.6755448499
 40
0.7982146526
 40
1.0
 40
1.0
 40
1.0
 40
1.0
 10
53.1529682178
 20
40.2971963984
 30
0.0
 10
53.1558647761
 20
40.3370987586
 30
0.0
 10
53.1702487383
 20
40.4194453363
 30
0.0
 10
53.2118950615
 20
40.5405397626
 30
0.0
 10
53.2723494998
 20
40.6583193563
 30
0.0
 10
53.3479763675
 20
40.7659644126
 30
0.0
 10
53.434965588
 20
40.857561206
 30
0.0
 10
53.5504316925
 20
40.9450524245
 30
0.0
 10
53.6527388355
 20
40.9844519556
 30
0.0
 10
53.7167396584
 20
40.9838053318
 30
0.0
  0
SPLINE
  5
403
100
AcDbEntity
  8
0
100
AcDbSpline
 62
7
  6
CONTINUOUS
 70
0
 71
3
 72
9
 73
5
 74
0
 42
0.0000001
 43
0.0000001
 44
0.0000000001
 40
0.0
 40
0.0
 40
0.0
 40
0.0
 40
0.2376330698
 40
1.0
 40
1.0
 40
1.0
 40
1.0
 10
53.3954406291
 20
42.2049503112
 30
0.0
 10
53.3965459827
 20
42.220177423
 30
0.0
 10
53.4036975389
 20
42.284067499
 30
0.0
 10
53.4200078339
 20
42.3467806576
 30
0.0
 10
53.4362391389
 20
42.3929927112
 30
0.0
  0
SPLINE
  5
404
100
AcDbEntity
  8
0
100
AcDbSpline
 62
7
  6
CONTINUOUS
 70
0
 71
3
 72
11
 73
7
 74
0
 42
0.0000001
 43
0.0000001
 44
0.0000000001
 40
0.0
 40
0.0
 40
0.0
 40
0.0
 40
0.2130439917
 40
0.4442980368
 40
0.7055294406
 40
1.0
 40
1.0
 40
1.0
 40
1.0
 10
53.507875734
 20
41.913179568
 30
0.0
 10
53.4876797729
 20
41.924835916
 30
0.0
 10
53.4501160057
 20
41.9577806681
 30
0.0
 10
53.4127069825
 20
42.0267277814
 30
0.0
 10
53.3936205966
 20
42.1115642682
 30
0.0
 10
53.3931070981
 20
42.1728040923
 30
0.0
 10
53.3954406291
 20
42.2049503112
 30
0.0
  0
SPLINE
  5
405
100
AcDbEntity
  8
0
100
AcDbSpline
 62
7
  6
CONTINUOUS
 70
0
 71
3
 72
9
 73
5
 74
0
 42
0.0000001
 43
0.0000001
 44
0.0000000001
 40
0.0
 40
0.0
 40
0.0
 40
0.0
 40
0.5140786034
 40
1.0
 40
1.0
 40
1.0
 40
1.0
 10
13.8142972769
 20
62.5384318301
 30
0.0
 10
13.6653921469
 20
62.0175719891
 30
0.0
 10
13.4238984202
 20
60.9898030604
 30
0.0
 10
13.2939862976
 20
59.9413484483
 30
0.0
 10
13.2631661407
 20
59.4302217549
 30
0.0
  0
SPLINE
  5
406
100
AcDbEntity
  8
0
100
AcDbSpline
 62
7
  6
CONTINUOUS
 70
0
 71
3
 72
11
 73
7
 74
0
 42
0.0000001
 43
0.0000001
 44
0.0000000001
 40
0.0
 40
0.0
 40
0.0
 40
0.0
 40
0.2869334511
 40
0.5478397097
 40
0.7838515069
 40
1.0
 40
1.0
 40
1.0
 40
1.0
 10
13.2631661407
 20
59.4302217549
 30
0.0
 10
13.2563450043
 20
59.3170988747
 30
0.0
 10
13.2577851183
 20
59.0997637332
 30
0.0
 10
13.311591726
 20
58.7931264161
 30
0.0
 10
13.4162122851
 20
58.5292213298
 30
0.0
 10
13.5228693316
 20
58.3827047125
 30
0.0
 10
13.5828751271
 20
58.3219800416
 30
0.0
  0
SPLINE
  5
407
100
AcDbEntity
  8
0
100
AcDbSpline
 62
7
  6
CONTINUOUS
 70
0
 71
3
 72
9
 73
5
 74
0
 42
0.0000001
 43
0.0000001
 44
0.0000000001
 40
0.0
 40
0.0
 40
0.0
 40
0.0
 40
0.4933734171
 40
1.0
 40
1.0
 40
1.0
 40
1.0
 10
22.8750615096
 20
55.8606390333
 30
0.0
 10
22.7596931491
 20
55.4381643552
 30
0.0
 10
22.4869256268
 20
54.5921404715
 30
0.0
 10
22.1447294125
 20
53.7719201474
 30
0.0
 10
21.9552322602
 20
53.3640867889
 30
0.0
  0
SPLINE
  5
408
100
AcDbEntity
  8
0
100
AcDbSpline
 62
7
  6
CONTINUOUS
 70
0
 71
3
 72
9
 73
5
 74
0
 42
0.0000001
 43
0.0000001
 44
0.0000000001
 40
0.0
 40
0.0
 40
0.0
 40
0.0
 40
0.5204949862
 40
1.0
 40
1.0
 40
1.0
 40
1.0
 10
53.7868436312
 20
38.0687016008
 30
0.0
 10
53.3884632946
 20
37.8099787812
 30
0.0
 10
52.5925872633
 20
37.3576069513
 30
0.0
 10
51.7386476749
 20
37.0232924354
 30
0.0
 10
51.3185942416
 20
36.9005770453
 30
0.0
  0
SPLINE
  5
409
100
AcDbEntity
  8
0
100
AcDbSpline
 62
7
  6
CONTINUOUS
 70
0
 71
3
 72
11
 73
7
 74
0
 42
0.0000001
 43
0.0000001
 44
0.0000000001
 40
0.0
 40
0.0
 40
0.0
 40
0.0
 40
0.2743424889
 40
0.5290132542
 40
0.7685677402
 40
1.0
 40
1.0
 40
1.0
 40
1.0
 10
51.3185942416
 20
36.9005770453
 30
0.0
 10
51.2469387922
 20
36.8796434551
 30
0.0
 10
51.1054451177
 20
36.8493348746
 30
0.0
 10
50.8951476654
 20
36.8425468271
 30
0.0
 10
50.6991916998
 20
36.8770392825
 30
0.0
 10
50.5800781591
 20
36.9279880079
 30
0.0
 10
50.5255448629
 20
36.9594824659
 30
0.0
  0
SPLINE
  5
40A
100
AcDbEntity
  8
0
100
AcDbSpline
 62
7
  6
CONTINUOUS
 70
0
 71
3
 72
11
 73
7
 74
0
 42
0.0000001
 43
0.0000001
 44
0.0000000001
 40
0.0
 40
0.0
 40
0.0
 40
0.0
 40
0.2869334511
 40
0.5478397097
 40
0.7838515069
 40
1.0
 40
1.0
 40
1.0
 40
1.0
 10
40.6636679902
 20
43.6108925173
 30
0.0
 10
40.6568468537
 20
43.4977696371
 30
0.0
 10
40.6582869677
 20
43.2804344955
 30
0.0
 10
40.7120935754
 20
42.9737971785
 30
0.0
 10
40.8167141346
 20
42.7098920921
 30
0.0
 10
40.9233711811
 20
42.5633754748
 30
0.0
 10
40.9833769766
 20
42.5026508039
 30
0.0
  0
SPLINE
  5
40B
100
AcDbEntity
  8
0
100
AcDbSpline
 62
7
  6
CONTINUOUS
 70
0
 71
3
 72
9
 73
5
 74
0
 42
0.0000001
 43
0.0000001
 44
0.0000000001
 40
0.0
 40
0.0
 40
0.0
 40
0.0
 40
0.2569400152
 40
1.0
 40
1.0
 40
1.0
 40
1.0
 10
40.9063595009
 20
45.4504997931
 30
0.0
 10
40.875239057
 20
45.2945857151
 30
0.0
 10
40.7637125017
 20
44.6859316577
 30
0.0
 10
40.6913424363
 20
44.0698502109
 30
0.0
 10
40.6636679902
 20
43.6108925173
 30
0.0
  0
SPLINE
  5
40C
100
AcDbEntity
  8
0
100
AcDbSpline
 62
7
  6
CONTINUOUS
 70
0
 71
3
 72
11
 73
7
 74
0
 42
0.0000001
 43
0.0000001
 44
0.0000000001
 40
0.0
 40
0.0
 40
0.0
 40
0.0
 40
0.2161484931
 40
0.4521602903
 40
0.7130665489
 40
1.0
 40
1.0
 40
1.0
 40
1.0
 10
50.3525808348
 20
37.0934608065
 30
0.0
 10
50.2925750393
 20
37.1541854774
 30
0.0
 10
50.1859179928
 20
37.3007020947
 30
0.0
 10
50.0812974336
 20
37.5646071811
 30
0.0
 10
50.0274908259
 20
37.8712444981
 30
0.0
 10
50.0260507119
 20
38.0885796397
 30
0.0
 10
50.0328718483
 20
38.2017025199
 30
0.0
  0
SPLINE
  5
40D
100
AcDbEntity
  8
0
100
AcDbSpline
 62
7
  6
CONTINUOUS
 70
0
 71
3
 72
9
 73
5
 74
0
 42
0.0000001
 43
0.0000001
 44
0.0000000001
 40
0.0
 40
0.0
 40
0.0
 40
0.0
 40
0.4859213966
 40
1.0
 40
1.0
 40
1.0
 40
1.0
 10
50.0328718483
 20
38.2017025199
 30
0.0
 10
50.0636920052
 20
38.7128292132
 30
0.0
 10
50.1936041278
 20
39.7612838253
 30
0.0
 10
50.4350978546
 20
40.7890527541
 30
0.0
 10
50.5840029845
 20
41.3099125951
 30
0.0
  0
SPLINE
  5
40E
100
AcDbEntity
  8
0
100
AcDbSpline
 62
7
  6
CONTINUOUS
 70
0
 71
3
 72
9
 73
5
 74
0
 42
0.0000001
 43
0.0000001
 44
0.0000000001
 40
0.0
 40
0.0
 40
0.0
 40
0.0
 40
0.5066265829
 40
1.0
 40
1.0
 40
1.0
 40
1.0
 10
39.9865302514
 20
42.9539475487
 30
0.0
 10
40.1760274037
 20
43.3617809072
 30
0.0
 10
40.518223618
 20
44.1820012313
 30
0.0
 10
40.7909911403
 20
45.028025115
 30
0.0
 10
40.9063595009
 20
45.4504997931
 30
0.0
  0
SPLINE
  5
40F
100
AcDbEntity
  8
0
100
AcDbSpline
 62
7
  6
CONTINUOUS
 70
0
 71
3
 72
13
 73
9
 74
0
 42
0.0000001
 43
0.0000001
 44
0.0000000001
 40
0.0
 40
0.0
 40
0.0
 40
0.0
 40
0.1142247162
 40
0.2375579183
 40
0.4999983243
 40
0.7624396433
 40
0.8857739388
 40
1.0
 40
1.0
 40
1.0
 40
1.0
 10
20.178110429
 20
94.8003843214
 30
0.0
 10
20.0813235464
 20
94.7445047222
 30
0.0
 10
19.8900835343
 20
94.6104166269
 30
0.0
 10
19.5320248318
 20
94.2753544135
 30
0.0
 10
19.1538543766
 20
93.758749593
 30
0.0
 10
18.8955493007
 20
93.1729397616
 30
0.0
 10
18.7844067423
 20
92.6953172795
 30
0.0
 10
18.7639027546
 20
92.4626521942
 30
0.0
 10
18.7639027546
 20
92.3508911794
 30
0.0
  0
SPLINE
  5
410
100
AcDbEntity
  8
0
100
AcDbSpline
 62
7
  6
CONTINUOUS
 70
0
 71
3
 72
11
 73
7
 74
0
 42
0.0000001
 43
0.0000001
 44
0.0000000001
 40
0.0
 40
0.0
 40
0.0
 40
0.0
 40
0.2625477462
 40
0.5234418031
 40
0.7722107283
 40
1.0
 40
1.0
 40
1.0
 40
1.0
 10
18.7639027546
 20
73.7294399859
 30
0.0
 10
18.3962841361
 20
73.2430479141
 30
0.0
 10
17.7344709983
 20
72.2175833527
 30
0.0
 10
16.9822869013
 20
70.583034407
 30
0.0
 10
16.5032564046
 20
68.9321746962
 30
0.0
 10
16.3788415117
 20
67.8242863534
 30
0.0
 10
16.3788415117
 20
67.2953135517
 30
0.0
  0
SPLINE
  5
411
100
AcDbEntity
  8
0
100
AcDbSpline
 62
7
  6
CONTINUOUS
 70
0
 71
3
 72
11
 73
7
 74
0
 42
0.0000001
 43
0.0000001
 44
0.0000000001
 40
0.0
 40
0.0
 40
0.0
 40
0.0
 40
0.2786495629
 40
0.5375345855
 40
0.7770980435
 40
1.0
 40
1.0
 40
1.0
 40
1.0
 10
16.3788415117
 20
67.2953135517
 30
0.0
 10
16.3788415117
 20
67.0358236044
 30
0.0
 10
16.4068143336
 20
66.5345634049
 30
0.0
 10
16.5427740748
 20
65.8212925404
 30
0.0
 10
16.7699237864
 20
65.185980463
 30
0.0
 10
16.987476204
 20
64.8105389849
 30
0.0
 10
17.1100352181
 20
64.6430072918
 30
0.0
  0
SPLINE
  5
412
100
AcDbEntity
  8
0
100
AcDbSpline
 62
7
  6
CONTINUOUS
 70
0
 71
3
 72
11
 73
7
 74
0
 42
0.0000001
 43
0.0000001
 44
0.0000000001
 40
0.0
 40
0.0
 40
0.0
 40
0.0
 40
0.2177805602
 40
0.4509248779
 40
0.7102605592
 40
1.0
 40
1.0
 40
1.0
 40
1.0
 10
37.9169029678
 20
101.8797135815
 30
0.0
 10
38.0282429385
 20
101.9439693114
 30
0.0
 10
38.2365279567
 20
102.1191155323
 30
0.0
 10
38.4582757646
 20
102.4816607472
 30
0.0
 10
38.5900268577
 20
102.9284844254
 30
0.0
 10
38.6159158476
 20
103.2536969556
 30
0.0
 10
38.6159158476
 20
103.4247238219
 30
0.0
  0
SPLINE
  5
413
100
AcDbEntity
  8
0
100
AcDbSpline
 62
7
  6
CONTINUOUS
 70
0
 71
3
 72
11
 73
7
 74
0
 42
0.0000001
 43
0.0000001
 44
0.0000000001
 40
0.0
 40
0.0
 40
0.0
 40
0.0
 40
0.2625477462
 40
0.5234418031
 40
0.7722107283
 40
1.0
 40
1.0
 40
1.0
 40
1.0
 10
33.8606953865
 20
65.0134998769
 30
0.0
 10
33.493076768
 20
64.5271078051
 30
0.0
 10
32.8312636302
 20
63.5016432437
 30
0.0
 10
32.0790795332
 20
61.867094298
 30
0.0
 10
31.6000490365
 20
60.2162345872
 30
0.0
 10
31.4756341436
 20
59.1083462444
 30
0.0
 10
31.4756341436
 20
58.5793734427
 30
0.0
  0
SPLINE
  5
414
100
AcDbEntity
  8
0
100
AcDbSpline
 62
7
  6
CONTINUOUS
 70
0
 71
3
 72
11
 73
7
 74
0
 42
0.0000001
 43
0.0000001
 44
0.0000000001
 40
0.0
 40
0.0
 40
0.0
 40
0.0
 40
0.2817165139
 40
0.5411039141
 40
0.7792223256
 40
1.0
 40
1.0
 40
1.0
 40
1.0
 10
31.4756341436
 20
58.5793734427
 30
0.0
 10
31.4756341436
 20
58.2923596289
 30
0.0
 10
31.509633364
 20
57.7401139311
 30
0.0
 10
31.6767130475
 20
56.9604560356
 30
0.0
 10
31.9560101028
 20
56.2794061511
 30
0.0
 10
32.2231076167
 20
55.8898473834
 30
0.0
 10
32.3723127696
 20
55.7215294609
 30
0.0
  0
SPLINE
  5
415
100
AcDbEntity
  8
0
100
AcDbSpline
 62
7
  6
CONTINUOUS
 70
0
 71
3
 72
17
 73
13
 74
0
 42
0.0000001
 43
0.0000001
 44
0.0000000001
 40
0.0
 40
0.0
 40
0.0
 40
0.0
 40
0.128693823
 40
0.2702783937
 40
0.4174341197
 40
0.5617778654
 40
0.6954482313
 40
0.8127107819
 40
0.8646769687
 40
0.9125095959
 40
0.9571396392
 40
1.0
 40
1.0
 40
1.0
 40
1.0
 10
38.6159158476
 20
103.4247238219
 30
0.0
 10
38.6159158476
 20
103.713213999
 30
0.0
 10
38.5352172352
 20
104.3197850481
 30
0.0
 10
38.2339660781
 20
105.2103906078
 30
0.0
 10
37.7698231314
 20
106.0683367747
 30
0.0
 10
37.1800399474
 20
106.8232643777
 30
0.0
 10
36.5128192661
 20
107.4142046086
 30
0.0
 10
35.9088784323
 20
107.7443609995
 30
0.0
 10
35.4364747891
 20
107.8701158573
 30
0.0
 10
35.1113296014
 20
107.8939556385
 30
0.0
 10
34.8085567937
 20
107.8496544315
 30
0.0
 10
34.6251536198
 20
107.7733839128
 30
0.0
 10
34.5419380825
 20
107.7253591553
 30
0.0
  0
SPLINE
  5
416
100
AcDbEntity
  8
0
100
AcDbSpline
 62
7
  6
CONTINUOUS
 70
0
 71
3
 72
11
 73
7
 74
0
 42
0.0000001
 43
0.0000001
 44
0.0000000001
 40
0.0
 40
0.0
 40
0.0
 40
0.0
 40
0.2897776971
 40
0.5490719787
 40
0.7822272299
 40
1.0
 40
1.0
 40
1.0
 40
1.0
 10
61.6498367398
 20
121.3977933047
 30
0.0
 10
61.7815066385
 20
121.4738125023
 30
0.0
 10
62.0203576223
 20
121.6382569744
 30
0.0
 10
62.3057231846
 20
121.9382863292
 30
0.0
 10
62.4862887923
 20
122.2700743096
 30
0.0
 10
62.5284855135
 20
122.5082556681
 30
0.0
 10
62.528485512
 20
122.6225155682
 30
0.0
  0
SPLINE
  5
417
100
AcDbEntity
  8
0
100
AcDbSpline
 62
7
  6
CONTINUOUS
 70
0
 71
3
 72
9
 73
5
 74
0
 42
0.0000001
 43
0.0000001
 44
0.0000000001
 40
0.0
 40
0.0
 40
0.0
 40
0.0
 40
0.2642865852
 40
1.0
 40
1.0
 40
1.0
 40
1.0
 10
20.8781747283
 20
64.9414488639
 30
0.0
 10
20.8889556418
 20
64.836849751
 30
0.0
 10
20.9420917841
 20
64.4426347177
 30
0.0
 10
21.0472858834
 20
64.0539654242
 30
0.0
 10
21.1609155616
 20
63.7841973933
 30
0.0
  0
SPLINE
  5
418
100
AcDbEntity
  8
0
100
AcDbSpline
 62
7
  6
CONTINUOUS
 70
0
 71
3
 72
11
 73
7
 74
0
 42
0.0000001
 43
0.0000001
 44
0.0000000001
 40
0.0
 40
0.0
 40
0.0
 40
0.0
 40
0.2896784336
 40
0.5491208899
 40
0.7822333041
 40
1.0
 40
1.0
 40
1.0
 40
1.0
 10
20.5670490399
 20
65.3451494152
 30
0.0
 10
20.5670490399
 20
65.3046183008
 30
0.0
 10
20.5732001794
 20
65.227525594
 30
0.0
 10
20.6044221522
 20
65.1216107619
 30
0.0
 10
20.6569751928
 20
65.0356535316
 30
0.0
 10
20.7063534246
 20
64.9941583103
 30
0.0
 10
20.7327393774
 20
64.9789213296
 30
0.0
  0
SPLINE
  5
419
100
AcDbEntity
  8
0
100
AcDbSpline
 62
7
  6
CONTINUOUS
 70
0
 71
3
 72
10
 73
6
 74
0
 42
0.0000001
 43
0.0000001
 44
0.0000000001
 40
0.0
 40
0.0
 40
0.0
 40
0.0
 40
0.5202790309
 40
0.771268491
 40
1.0
 40
1.0
 40
1.0
 40
1.0
 10
20.8781747283
 20
66.1081048218
 30
0.0
 10
20.7832957188
 20
65.9981200521
 30
0.0
 10
20.6687847915
 20
65.809873683
 30
0.0
 10
20.5837663494
 20
65.5431577255
 30
0.0
 10
20.5670490399
 20
65.4090077036
 30
0.0
 10
20.5670490399
 20
65.3451494152
 30
0.0
  0
SPLINE
  5
41A
100
AcDbEntity
  8
0
100
AcDbSpline
 62
7
  6
CONTINUOUS
 70
0
 71
3
 72
11
 73
7
 74
0
 42
0.0000001
 43
0.0000001
 44
0.0000000001
 40
0.0
 40
0.0
 40
0.0
 40
0.0
 40
0.2561996309
 40
0.5143204117
 40
0.7650712106
 40
1.0
 40
1.0
 40
1.0
 40
1.0
 10
23.1981211281
 20
71.4452841752
 30
0.0
 10
22.8832654276
 20
71.0639438513
 30
0.0
 10
22.3055154895
 20
70.2520851301
 30
0.0
 10
21.6153660655
 20
68.9416757985
 30
0.0
 10
21.1232969853
 20
67.58819863
 30
0.0
 10
20.9369666191
 20
66.6643063992
 30
0.0
 10
20.8886684492
 20
66.2134188948
 30
0.0
  0
SPLINE
  5
41B
100
AcDbEntity
  8
0
100
AcDbSpline
 62
7
  6
CONTINUOUS
 70
0
 71
3
 72
15
 73
11
 74
0
 42
0.0000001
 43
0.0000001
 44
0.0000000001
 40
0.0
 40
0.0
 40
0.0
 40
0.0
 40
0.1141474765
 40
0.2373368178
 40
0.3669776594
 40
0.5000010819
 40
0.633024354
 40
0.7626647561
 40
0.8858534048
 40
1.0
 40
1.0
 40
1.0
 40
1.0
 10
32.8707104787
 20
107.1498854039
 30
0.0
 10
32.8707104785
 20
106.856457379
 30
0.0
 10
32.9244947075
 20
106.2457933011
 30
0.0
 10
33.1387114382
 20
105.3245536614
 30
0.0
 10
33.4820367101
 20
104.3914323278
 30
0.0
 10
33.9413820273
 20
103.4814925725
 30
0.0
 10
34.4997437415
 20
102.6287215691
 30
0.0
 10
35.1361898034
 20
101.8648383519
 30
0.0
 10
35.8268987178
 20
101.2187092961
 30
0.0
 10
36.3288568448
 20
100.866805153
 30
0.0
 10
36.5829724438
 20
100.7200947626
 30
0.0
  0
SPLINE
  5
41C
100
AcDbEntity
  8
0
100
AcDbSpline
 62
7
  6
CONTINUOUS
 70
0
 71
3
 72
17
 73
13
 74
0
 42
0.0000001
 43
0.0000001
 44
0.0000000001
 40
0.0
 40
0.0
 40
0.0
 40
0.0
 40
0.1447771882
 40
0.2743250026
 40
0.3908140607
 40
0.4459174568
 40
0.4999980194
 40
0.554078673
 40
0.6091823343
 40
0.7256723493
 40
0.8552214523
 40
1.0
 40
1.0
 40
1.0
 40
1.0
 10
36.5829724438
 20
100.7200947626
 30
0.0
 10
36.8133942941
 20
100.5870636548
 30
0.0
 10
37.2717294401
 20
100.3690556043
 30
0.0
 10
37.9756724017
 20
100.1987724999
 30
0.0
 10
38.5377378901
 20
100.2138262156
 30
0.0
 10
38.9391412961
 20
100.3248604275
 30
0.0
 10
39.2121871517
 20
100.4527507774
 30
0.0
 10
39.4594624687
 20
100.6252766795
 30
0.0
 10
39.7563173797
 20
100.9173938571
 30
0.0
 10
40.0503793985
 20
101.396639834
 30
0.0
 10
40.2548725806
 20
102.0914231428
 30
0.0
 10
40.2952344087
 20
102.5973622585
 30
0.0
 10
40.2952344089
 20
102.8634314867
 30
0.0
  0
SPLINE
  5
41D
100
AcDbEntity
  8
0
100
AcDbSpline
 62
7
  6
CONTINUOUS
 70
0
 71
3
 72
15
 73
11
 74
0
 42
0.0000001
 43
0.0000001
 44
0.0000000001
 40
0.0
 40
0.0
 40
0.0
 40
0.0
 40
0.1141474765
 40
0.2373368178
 40
0.3669776594
 40
0.5000010819
 40
0.633024354
 40
0.7626647561
 40
0.8858534048
 40
1.0
 40
1.0
 40
1.0
 40
1.0
 10
40.2952344089
 20
102.8634314867
 30
0.0
 10
40.2952344091
 20
103.1568595116
 30
0.0
 10
40.2414501801
 20
103.7675235895
 30
0.0
 10
40.0272334493
 20
104.6887632293
 30
0.0
 10
39.6839081774
 20
105.6218845629
 30
0.0
 10
39.2245628603
 20
106.5318243181
 30
0.0
 10
38.6662011461
 20
107.3845953216
 30
0.0
 10
38.0297550842
 20
108.1484785388
 30
0.0
 10
37.3390461698
 20
108.7946075945
 30
0.0
 10
36.8370880428
 20
109.1465117376
 30
0.0
 10
36.5829724438
 20
109.2932221281
 30
0.0
  0
SPLINE
  5
41E
100
AcDbEntity
  8
0
100
AcDbSpline
 62
7
  6
CONTINUOUS
 70
0
 71
3
 72
17
 73
13
 74
0
 42
0.0000001
 43
0.0000001
 44
0.0000000001
 40
0.0
 40
0.0
 40
0.0
 40
0.0
 40
0.1447771882
 40
0.2743250026
 40
0.3908140607
 40
0.4459174568
 40
0.4999980194
 40
0.554078673
 40
0.6091823343
 40
0.7256723493
 40
0.8552214523
 40
1.0
 40
1.0
 40
1.0
 40
1.0
 10
36.5829724438
 20
109.2932221281
 30
0.0
 10
36.3525505935
 20
109.4262532358
 30
0.0
 10
35.8942154474
 20
109.6442612863
 30
0.0
 10
35.1902724858
 20
109.8145443907
 30
0.0
 10
34.6282069975
 20
109.799490675
 30
0.0
 10
34.2268035915
 20
109.6884564631
 30
0.0
 10
33.9537577359
 20
109.5605661132
 30
0.0
 10
33.7064824189
 20
109.3880402111
 30
0.0
 10
33.4096275078
 20
109.0959230336
 30
0.0
 10
33.1155654891
 20
108.6166770566
 30
0.0
 10
32.911072307
 20
107.9218937478
 30
0.0
 10
32.8707104789
 20
107.4159546321
 30
0.0
 10
32.8707104787
 20
107.1498854039
 30
0.0
  0
SPLINE
  5
41F
100
AcDbEntity
  8
0
100
AcDbSpline
 62
7
  6
CONTINUOUS
 70
0
 71
3
 72
17
 73
13
 74
0
 42
0.0000001
 43
0.0000001
 44
0.0000000001
 40
0.0
 40
0.0
 40
0.0
 40
0.0
 40
0.128693823
 40
0.2702783937
 40
0.4174341197
 40
0.5617778654
 40
0.6954482313
 40
0.8127107819
 40
0.8646769687
 40
0.9125095959
 40
0.9571396392
 40
1.0
 40
1.0
 40
1.0
 40
1.0
 10
33.8429252028
 20
106.1803489149
 30
0.0
 10
33.8429252028
 20
105.8918587378
 30
0.0
 10
33.9236238152
 20
105.2852876887
 30
0.0
 10
34.2248749723
 20
104.3946821289
 30
0.0
 10
34.689017919
 20
103.5367359621
 30
0.0
 10
35.2788011029
 20
102.781808359
 30
0.0
 10
35.9460217843
 20
102.1908681282
 30
0.0
 10
36.5499626181
 20
101.8607117373
 30
0.0
 10
37.0223662612
 20
101.7349568794
 30
0.0
 10
37.3475114489
 20
101.7111170982
 30
0.0
 10
37.6502842567
 20
101.7554183052
 30
0.0
 10
37.8336874305
 20
101.831688824
 30
0.0
 10
37.9169029678
 20
101.8797135815
 30
0.0
  0
SPLINE
  5
420
100
AcDbEntity
  8
0
100
AcDbSpline
 62
7
  6
CONTINUOUS
 70
0
 71
3
 72
11
 73
7
 74
0
 42
0.0000001
 43
0.0000001
 44
0.0000000001
 40
0.0
 40
0.0
 40
0.0
 40
0.0
 40
0.2177805602
 40
0.4509248779
 40
0.7102605592
 40
1.0
 40
1.0
 40
1.0
 40
1.0
 10
34.5419380825
 20
107.7253591553
 30
0.0
 10
34.4305981119
 20
107.6611034253
 30
0.0
 10
34.2223130936
 20
107.4859572044
 30
0.0
 10
34.0005652858
 20
107.1234119896
 30
0.0
 10
33.8688141927
 20
106.6765883114
 30
0.0
 10
33.8429252028
 20
106.3513757812
 30
0.0
 10
33.8429252028
 20
106.1803489149
 30
0.0
  0
SPLINE
  5
421
100
AcDbEntity
  8
0
100
AcDbSpline
 62
7
  6
CONTINUOUS
 70
0
 71
3
 72
15
 73
11
 74
0
 42
0.0000001
 43
0.0000001
 44
0.0000000001
 40
0.0
 40
0.0
 40
0.0
 40
0.0
 40
0.1141465952
 40
0.2373352439
 40
0.366975646
 40
0.4999989181
 40
0.6330223406
 40
0.7626631822
 40
0.8858525235
 40
1.0
 40
1.0
 40
1.0
 40
1.0
 10
36.2294205252
 20
108.2726526368
 30
0.0
 10
36.4351355779
 20
108.1538856826
 30
0.0
 10
36.8414874233
 20
107.8690075419
 30
0.0
 10
37.4006393263
 20
107.3459445213
 30
0.0
 10
37.9158636404
 20
106.7275555796
 30
0.0
 10
38.3678760708
 20
106.0372090104
 30
0.0
 10
38.7397314253
 20
105.3005824298
 30
0.0
 10
39.0176646836
 20
104.5451895884
 30
0.0
 10
39.1910802718
 20
103.7994153745
 30
0.0
 10
39.234620399
 20
103.3050624363
 30
0.0
 10
39.2346203988
 20
103.0675226636
 30
0.0
  0
SPLINE
  5
422
100
AcDbEntity
  8
0
100
AcDbSpline
 62
7
  6
CONTINUOUS
 70
0
 71
3
 72
15
 73
11
 74
0
 42
0.0000001
 43
0.0000001
 44
0.0000000001
 40
0.0
 40
0.0
 40
0.0
 40
0.0
 40
0.1474561271
 40
0.2805074424
 40
0.4007281392
 40
0.5123987031
 40
0.6219064243
 40
0.736309081
 40
0.8612387697
 40
1.0
 40
1.0
 40
1.0
 40
1.0
 10
33.2242206515
 20
106.5375500731
 30
0.0
 10
33.2242206517
 20
106.7386159296
 30
0.0
 10
33.2528027636
 20
107.1222170453
 30
0.0
 10
33.3965796256
 20
107.6534672682
 30
0.0
 10
33.6382451337
 20
108.0949978619
 30
0.0
 10
33.973838357
 20
108.4282712796
 30
0.0
 10
34.3913012517
 20
108.6344395957
 30
0.0
 10
34.8687409701
 20
108.7041890687
 30
0.0
 10
35.3852407186
 20
108.6405238762
 30
0.0
 10
35.7267149628
 20
108.5197930649
 30
0.0
 10
35.8992815892
 20
108.4421972454
 30
0.0
  0
SPLINE
  5
423
100
AcDbEntity
  8
0
100
AcDbSpline
 62
7
  6
CONTINUOUS
 70
0
 71
3
 72
9
 73
5
 74
0
 42
0.0000001
 43
0.0000001
 44
0.0000000001
 40
0.0
 40
0.0
 40
0.0
 40
0.0
 40
0.244818263
 40
1.0
 40
1.0
 40
1.0
 40
1.0
 10
35.8992815892
 20
108.4421972454
 30
0.0
 10
35.9269106546
 20
108.4297736383
 30
0.0
 10
36.0390812563
 20
108.3775125294
 30
0.0
 10
36.1484934608
 20
108.3193748422
 30
0.0
 10
36.2294205252
 20
108.2726526368
 30
0.0
  0
SPLINE
  5
424
100
AcDbEntity
  8
0
100
AcDbSpline
 62
7
  6
CONTINUOUS
 70
0
 71
3
 72
15
 73
11
 74
0
 42
0.0000001
 43
0.0000001
 44
0.0000000001
 40
0.0
 40
0.0
 40
0.0
 40
0.0
 40
0.1141465952
 40
0.2373352439
 40
0.366975646
 40
0.4999989181
 40
0.6330223406
 40
0.7626631822
 40
0.8858525235
 40
1.0
 40
1.0
 40
1.0
 40
1.0
 10
36.2294205252
 20
101.3324200999
 30
0.0
 10
36.0237054724
 20
101.4511870542
 30
0.0
 10
35.6173536271
 20
101.7360651949
 30
0.0
 10
35.0582017241
 20
102.2591282154
 30
0.0
 10
34.54297741
 20
102.8775171571
 30
0.0
 10
34.0909649796
 20
103.5678637264
 30
0.0
 10
33.7191096251
 20
104.3044903069
 30
0.0
 10
33.4411763668
 20
105.0598831483
 30
0.0
 10
33.2677607786
 20
105.8056573623
 30
0.0
 10
33.2242206514
 20
106.3000103004
 30
0.0
 10
33.2242206515
 20
106.5375500731
 30
0.0
  0
SPLINE
  5
425
100
AcDbEntity
  8
0
100
AcDbSpline
 62
7
  6
CONTINUOUS
 70
0
 71
3
 72
9
 73
5
 74
0
 42
0.0000001
 43
0.0000001
 44
0.0000000001
 40
0.0
 40
0.0
 40
0.0
 40
0.0
 40
0.2552016628
 40
1.0
 40
1.0
 40
1.0
 40
1.0
 10
39.2346203988
 20
103.0675226636
 30
0.0
 10
39.2346203988
 20
103.0359389724
 30
0.0
 10
39.2331443026
 20
102.912186096
 30
0.0
 10
39.2256759552
 20
102.7884854198
 30
0.0
 10
39.216378713
 20
102.696779449
 30
0.0
  0
SPLINE
  5
426
100
AcDbEntity
  8
0
100
AcDbSpline
 62
7
  6
CONTINUOUS
 70
0
 71
3
 72
15
 73
11
 74
0
 42
0.0000001
 43
0.0000001
 44
0.0000000001
 40
0.0
 40
0.0
 40
0.0
 40
0.0
 40
0.1387616578
 40
0.2636918858
 40
0.37809509
 40
0.487603182
 40
0.5992737759
 40
0.7194941081
 40
0.8525447398
 40
1.0
 40
1.0
 40
1.0
 40
1.0
 10
39.216378713
 20
102.696779449
 30
0.0
 10
39.1972944906
 20
102.50853684
 30
0.0
 10
39.1311122972
 20
102.1524505486
 30
0.0
 10
38.927999471
 20
101.673321935
 30
0.0
 10
38.6288791719
 20
101.2947253349
 30
0.0
 10
38.2416076406
 20
101.0362764004
 30
0.0
 10
37.7851961264
 20
100.9122776837
 30
0.0
 10
37.2819955446
 20
100.9237483052
 30
0.0
 10
36.7500399113
 20
101.0648502426
 30
0.0
 10
36.4035459872
 20
101.2318909918
 30
0.0
 10
36.2294205252
 20
101.3324200999
 30
0.0
  0
SPLINE
  5
427
100
AcDbEntity
  8
0
100
AcDbSpline
 62
7
  6
CONTINUOUS
 70
0
 71
3
 72
11
 73
7
 74
0
 42
0.0000001
 43
0.0000001
 44
0.0000000001
 40
0.0
 40
0.0
 40
0.0
 40
0.0
 40
0.2177442246
 40
0.4508817658
 40
0.7104588047
 40
1.0
 40
1.0
 40
1.0
 40
1.0
 10
49.0523897775
 20
96.2306630403
 30
0.0
 10
49.0260056238
 20
96.245895608
 30
0.0
 10
48.9765908685
 20
96.2873428097
 30
0.0
 10
48.9240256606
 20
96.3733277437
 30
0.0
 10
48.8928631247
 20
96.4792566376
 30
0.0
 10
48.8866775398
 20
96.5563421059
 30
0.0
 10
48.8866775398
 20
96.5968531931
 30
0.0
  0
SPLINE
  5
428
100
AcDbEntity
  8
0
100
AcDbSpline
 62
7
  6
CONTINUOUS
 70
0
 71
3
 72
11
 73
7
 74
0
 42
0.0000001
 43
0.0000001
 44
0.0000000001
 40
0.0
 40
0.0
 40
0.0
 40
0.0
 40
0.2895411595
 40
0.5491183966
 40
0.7822559144
 40
1.0
 40
1.0
 40
1.0
 40
1.0
 10
41.4620254257
 20
100.8833811156
 30
0.0
 10
41.4620254257
 20
100.8428700341
 30
0.0
 10
41.4682110589
 20
100.7657845522
 30
0.0
 10
41.4993735454
 20
100.6598556216
 30
0.0
 10
41.5519387971
 20
100.5738707121
 30
0.0
 10
41.6013535184
 20
100.5324235067
 30
0.0
 10
41.6277376629
 20
100.517190963
 30
0.0
  0
SPLINE
  5
429
100
AcDbEntity
  8
0
100
AcDbSpline
 62
7
  6
CONTINUOUS
 70
0
 71
3
 72
11
 73
7
 74
0
 42
0.0000001
 43
0.0000001
 44
0.0000000001
 40
0.0
 40
0.0
 40
0.0
 40
0.0
 40
0.2372518718
 40
0.4999985497
 40
0.7627460178
 40
1.0
 40
1.0
 40
1.0
 40
1.0
 10
42.0277084955
 20
101.8631783724
 30
0.0
 10
41.9473933223
 20
101.8168086623
 30
0.0
 10
41.7954040954
 20
101.6889071345
 30
0.0
 10
41.6180798997
 20
101.4464816001
 30
0.0
 10
41.4967964952
 20
101.1717001522
 30
0.0
 10
41.4620254257
 20
100.9761217759
 30
0.0
 10
41.4620254257
 20
100.8833811156
 30
0.0
  0
SPLINE
  5
42A
100
AcDbEntity
  8
0
100
AcDbSpline
 62
7
  6
CONTINUOUS
 70
0
 71
3
 72
9
 73
5
 74
0
 42
0.0000001
 43
0.0000001
 44
0.0000000001
 40
0.0
 40
0.0
 40
0.0
 40
0.0
 40
0.4749297831
 40
1.0
 40
1.0
 40
1.0
 40
1.0
 10
48.8866775398
 20
96.5968531931
 30
0.0
 10
48.8866775398
 20
96.7028217298
 30
0.0
 10
48.9315761625
 20
96.9258890806
 30
0.0
 10
49.0318082429
 20
97.1278443972
 30
0.0
 10
49.0964035644
 20
97.2255838309
 30
0.0
  0
SPLINE
  5
42B
100
AcDbEntity
  8
0
100
AcDbSpline
 62
7
  6
CONTINUOUS
 70
0
 71
3
 72
9
 73
5
 74
0
 42
0.0000001
 43
0.0000001
 44
0.0000000001
 40
0.0
 40
0.0
 40
0.0
 40
0.0
 40
0.2424016808
 40
1.0
 40
1.0
 40
1.0
 40
1.0
 10
20.6134678525
 20
62.921182914
 30
0.0
 10
20.5869866208
 20
62.9744808145
 30
0.0
 10
20.4834302283
 20
63.1971645294
 30
0.0
 10
20.4023236463
 20
63.4300542566
 30
0.0
 10
20.3522475246
 20
63.6091909701
 30
0.0
  0
SPLINE
  5
42C
100
AcDbEntity
  8
0
100
AcDbSpline
 62
7
  6
CONTINUOUS
 70
0
 71
3
 72
9
 73
5
 74
0
 42
0.0000001
 43
0.0000001
 44
0.0000000001
 40
0.0
 40
0.0
 40
0.0
 40
0.0
 40
0.2362530433
 40
1.0
 40
1.0
 40
1.0
 40
1.0
 10
20.3522475246
 20
63.6091909701
 30
0.0
 10
20.3200899858
 20
63.7242277507
 30
0.0
 10
20.203655743
 20
64.2166262398
 30
0.0
 10
20.1618785412
 20
64.7250834989
 30
0.0
 10
20.1618785412
 20
65.111225515
 30
0.0
  0
SPLINE
  5
42D
100
AcDbEntity
  8
0
100
AcDbSpline
 62
7
  6
CONTINUOUS
 70
0
 71
3
 72
11
 73
7
 74
0
 42
0.0000001
 43
0.0000001
 44
0.0000000001
 40
0.0
 40
0.0
 40
0.0
 40
0.0
 40
0.2277892717
 40
0.4765581969
 40
0.7374522538
 40
1.0
 40
1.0
 40
1.0
 40
1.0
 10
20.1618785412
 20
65.111225515
 30
0.0
 10
20.1618785412
 20
65.6401983168
 30
0.0
 10
20.2862934342
 20
66.7480866595
 30
0.0
 10
20.7653239308
 20
68.3989463703
 30
0.0
 10
21.5175080278
 20
70.0334953161
 30
0.0
 10
22.1793211656
 20
71.0589598774
 30
0.0
 10
22.5469397841
 20
71.5453519492
 30
0.0
  0
SPLINE
  5
42E
100
AcDbEntity
  8
0
100
AcDbSpline
 62
7
  6
CONTINUOUS
 70
0
 71
3
 72
10
 73
6
 74
0
 42
0.0000001
 43
0.0000001
 44
0.0000000001
 40
0.0
 40
0.0
 40
0.0
 40
0.0
 40
0.2281450702
 40
0.4752816799
 40
1.0
 40
1.0
 40
1.0
 40
1.0
 10
75.7000141258
 20
124.6923121669
 30
0.0
 10
75.7000141258
 20
124.573558385
 30
0.0
 10
75.7232169759
 20
124.3258710208
 30
0.0
 10
75.8475338428
 20
123.8192911138
 30
0.0
 10
76.0195789519
 20
123.450155131
 30
0.0
 10
76.1625145655
 20
123.2174169403
 30
0.0
  0
SPLINE
  5
42F
100
AcDbEntity
  8
0
100
AcDbSpline
 62
7
  6
CONTINUOUS
 70
0
 71
3
 72
15
 73
11
 74
0
 42
0.0000001
 43
0.0000001
 44
0.0000000001
 40
0.0
 40
0.0
 40
0.0
 40
0.0
 40
0.1141469224
 40
0.2373360366
 40
0.366976904
 40
0.5000005214
 40
0.6330240662
 40
0.7626647219
 40
0.8858535023
 40
1.0
 40
1.0
 40
1.0
 40
1.0
 10
58.1142704503
 20
125.8884518025
 30
0.0
 10
57.9690588806
 20
125.9722878447
 30
0.0
 10
57.6514864427
 20
126.120145876
 30
0.0
 10
57.1343783406
 20
126.277345957
 30
0.0
 10
56.5745011264
 20
126.3740492108
 30
0.0
 10
55.9929465293
 20
126.4067147059
 30
0.0
 10
55.4113923972
 20
126.3740464506
 30
0.0
 10
54.8515165564
 20
126.2773405385
 30
0.0
 10
54.3344106806
 20
126.1201379993
 30
0.0
 10
54.0168401881
 20
125.9722783819
 30
0.0
 10
53.8716297632
 20
125.8884416044
 30
0.0
  0
SPLINE
  5
430
100
AcDbEntity
  8
0
100
AcDbSpline
 62
7
  6
CONTINUOUS
 70
0
 71
3
 72
9
 73
5
 74
0
 42
0.0000001
 43
0.0000001
 44
0.0000000001
 40
0.0
 40
0.0
 40
0.0
 40
0.0
 40
0.2462888798
 40
1.0
 40
1.0
 40
1.0
 40
1.0
 10
35.6680733482
 20
58.970090862
 30
0.0
 10
35.7019486801
 20
59.0824246767
 30
0.0
 10
35.8468078507
 20
59.5363011093
 30
0.0
 10
36.0199575518
 20
59.9810762091
 30
0.0
 10
36.1646501485
 20
60.3096950029
 30
0.0
  0
SPLINE
  5
431
100
AcDbEntity
  8
0
100
AcDbSpline
 62
7
  6
CONTINUOUS
 70
0
 71
3
 72
9
 73
5
 74
0
 42
0.0000001
 43
0.0000001
 44
0.0000000001
 40
0.0
 40
0.0
 40
0.0
 40
0.0
 40
0.4773773815
 40
1.0
 40
1.0
 40
1.0
 40
1.0
 10
37.643732416
 20
81.4508630337
 30
0.0
 10
37.643732416
 20
81.6020579695
 30
0.0
 10
37.6811776295
 20
81.9190719325
 30
0.0
 10
37.7736851259
 20
82.2235378314
 30
0.0
 10
37.833622926
 20
82.3778297212
 30
0.0
  0
SPLINE
  5
432
100
AcDbEntity
  8
0
100
AcDbSpline
 62
7
  6
CONTINUOUS
 70
0
 71
3
 72
9
 73
5
 74
0
 42
0.0000001
 43
0.0000001
 44
0.0000000001
 40
0.0
 40
0.0
 40
0.0
 40
0.0
 40
0.2518834874
 40
1.0
 40
1.0
 40
1.0
 40
1.0
 10
38.0579492488
 20
82.8447128422
 30
0.0
 10
38.0797059623
 20
82.8823967775
 30
0.0
 10
38.1689126711
 20
83.0303486328
 30
0.0
 10
38.2691868161
 20
83.171663751
 30
0.0
 10
38.3501160853
 20
83.2724270809
 30
0.0
  0
SPLINE
  5
433
100
AcDbEntity
  8
0
100
AcDbSpline
 62
7
  6
CONTINUOUS
 70
0
 71
3
 72
9
 73
5
 74
0
 42
0.0000001
 43
0.0000001
 44
0.0000000001
 40
0.0
 40
0.0
 40
0.0
 40
0.0
 40
0.5226236696
 40
1.0
 40
1.0
 40
1.0
 40
1.0
 10
38.3501160853
 20
83.2724270809
 30
0.0
 10
38.4537666649
 20
83.4014802362
 30
0.0
 10
38.6711853868
 20
83.6338258233
 30
0.0
 10
38.9270026697
 20
83.8247598719
 30
0.0
 10
39.0579400905
 20
83.9003561757
 30
0.0
  0
SPLINE
  5
434
100
AcDbEntity
  8
0
100
AcDbSpline
 62
7
  6
CONTINUOUS
 70
0
 71
3
 72
11
 73
7
 74
0
 42
0.0000001
 43
0.0000001
 44
0.0000000001
 40
0.0
 40
0.0
 40
0.0
 40
0.0
 40
0.2177723091
 40
0.4509273687
 40
0.7102218233
 40
1.0
 40
1.0
 40
1.0
 40
1.0
 10
62.528485512
 20
122.6225155682
 30
0.0
 10
62.5284855106
 20
122.7367766984
 30
0.0
 10
62.4862878257
 20
122.9749608051
 30
0.0
 10
62.3057183118
 20
123.306751998
 30
0.0
 10
62.0203469537
 20
123.6067835767
 30
0.0
 10
61.781491437
 20
123.7712286766
 30
0.0
 10
61.649819076
 20
123.8472480299
 30
0.0
  0
SPLINE
  5
435
100
AcDbEntity
  8
0
100
AcDbSpline
 62
7
  6
CONTINUOUS
 70
0
 71
3
 72
9
 73
5
 74
0
 42
0.0000001
 43
0.0000001
 44
0.0000000001
 40
0.0
 40
0.0
 40
0.0
 40
0.0
 40
0.2439673731
 40
1.0
 40
1.0
 40
1.0
 40
1.0
 10
35.9898648796
 20
53.7429791461
 30
0.0
 10
35.9592301331
 20
53.7848552249
 30
0.0
 10
35.838232161
 20
53.9598233305
 30
0.0
 10
35.7355881437
 20
54.1472874775
 30
0.0
 10
35.6680733482
 20
54.2932140401
 30
0.0
  0
SPLINE
  5
436
100
AcDbEntity
  8
0
100
AcDbSpline
 62
7
  6
CONTINUOUS
 70
0
 71
3
 72
13
 73
9
 74
0
 42
0.0000001
 43
0.0000001
 44
0.0000000001
 40
0.0
 40
0.0
 40
0.0
 40
0.0
 40
0.1142247162
 40
0.2375579183
 40
0.4999983243
 40
0.7624396433
 40
0.8857739388
 40
1.0
 40
1.0
 40
1.0
 40
1.0
 10
39.0579400905
 20
83.9003561757
 30
0.0
 10
38.9611532078
 20
83.8444765765
 30
0.0
 10
38.7699131958
 20
83.7103884812
 30
0.0
 10
38.4118544932
 20
83.3753262678
 30
0.0
 10
38.033684038
 20
82.8587214473
 30
0.0
 10
37.7753789621
 20
82.2729116159
 30
0.0
 10
37.6642364037
 20
81.7952891338
 30
0.0
 10
37.643732416
 20
81.5626240485
 30
0.0
 10
37.643732416
 20
81.4508630337
 30
0.0
  0
SPLINE
  5
437
100
AcDbEntity
  8
0
100
AcDbSpline
 62
7
  6
CONTINUOUS
 70
0
 71
3
 72
11
 73
7
 74
0
 42
0.0000001
 43
0.0000001
 44
0.0000000001
 40
0.0
 40
0.0
 40
0.0
 40
0.0
 40
0.2625477462
 40
0.5234418031
 40
0.7722107283
 40
1.0
 40
1.0
 40
1.0
 40
1.0
 10
37.643732416
 20
62.8294118402
 30
0.0
 10
37.2761137975
 20
62.3430197684
 30
0.0
 10
36.6143006597
 20
61.3175552071
 30
0.0
 10
35.8621165627
 20
59.6830062613
 30
0.0
 10
35.3830860661
 20
58.0321465505
 30
0.0
 10
35.2586711731
 20
56.9242582078
 30
0.0
 10
35.2586711731
 20
56.395285406
 30
0.0
  0
SPLINE
  5
438
100
AcDbEntity
  8
0
100
AcDbSpline
 62
7
  6
CONTINUOUS
 70
0
 71
3
 72
11
 73
7
 74
0
 42
0.0000001
 43
0.0000001
 44
0.0000000001
 40
0.0
 40
0.0
 40
0.0
 40
0.0
 40
0.2786495629
 40
0.5375345855
 40
0.7770980435
 40
1.0
 40
1.0
 40
1.0
 40
1.0
 10
35.2586711731
 20
56.395285406
 30
0.0
 10
35.2586711731
 20
56.1357954587
 30
0.0
 10
35.286643995
 20
55.6345352592
 30
0.0
 10
35.4226037362
 20
54.9212643947
 30
0.0
 10
35.6497534478
 20
54.2859523173
 30
0.0
 10
35.8673058654
 20
53.9105108392
 30
0.0
 10
35.9898648796
 20
53.7429791461
 30
0.0
  0
SPLINE
  5
439
100
AcDbEntity
  8
0
100
AcDbSpline
 62
7
  6
CONTINUOUS
 70
0
 71
3
 72
17
 73
13
 74
0
 42
0.0000001
 43
0.0000001
 44
0.0000000001
 40
0.0
 40
0.0
 40
0.0
 40
0.0
 40
0.0428590154
 40
0.087484945
 40
0.1353191404
 40
0.1872810096
 40
0.3045411455
 40
0.4382064078
 40
0.5825480614
 40
0.7297123844
 40
0.8713056989
 40
1.0
 40
1.0
 40
1.0
 40
1.0
 10
97.3713514882
 20
104.2340325238
 30
0.0
 10
97.3097213582
 20
104.2696200969
 30
0.0
 10
97.1738467469
 20
104.3260387507
 30
0.0
 10
96.9495980876
 20
104.3589518973
 30
0.0
 10
96.7087622066
 20
104.3412051975
 30
0.0
 10
96.3588333904
 20
104.2481317436
 30
0.0
 10
95.9115042726
 20
104.0035236693
 30
0.0
 10
95.4172771991
 20
103.5658268744
 30
0.0
 10
94.9803820428
 20
103.0066341644
 30
0.0
 10
94.6365510462
 20
102.371106504
 30
0.0
 10
94.4133944167
 20
101.7113737483
 30
0.0
 10
94.3536173684
 20
101.2620495974
 30
0.0
 10
94.3536173684
 20
101.0483537618
 30
0.0
  0
SPLINE
  5
43A
100
AcDbEntity
  8
0
100
AcDbSpline
 62
7
  6
CONTINUOUS
 70
0
 71
3
 72
17
 73
13
 74
0
 42
0.0000001
 43
0.0000001
 44
0.0000000001
 40
0.0
 40
0.0
 40
0.0
 40
0.0
 40
0.0428590154
 40
0.087484945
 40
0.1353191404
 40
0.1872810096
 40
0.3045411455
 40
0.4382064078
 40
0.5825480614
 40
0.7297123844
 40
0.8713056989
 40
1.0
 40
1.0
 40
1.0
 40
1.0
 10
97.7249034068
 20
54.6299761358
 30
0.0
 10
97.6632732768
 20
54.6655637089
 30
0.0
 10
97.5273986655
 20
54.7219823627
 30
0.0
 10
97.3031500062
 20
54.7548955093
 30
0.0
 10
97.0623141252
 20
54.7371488095
 30
0.0
 10
96.712385309
 20
54.6440753556
 30
0.0
 10
96.2650561912
 20
54.3994672813
 30
0.0
 10
95.7708291177
 20
53.9617704864
 30
0.0
 10
95.3339339614
 20
53.4025777764
 30
0.0
 10
94.9901029648
 20
52.767050116
 30
0.0
 10
94.7669463354
 20
52.1073173603
 30
0.0
 10
94.707169287
 20
51.6579932094
 30
0.0
 10
94.707169287
 20
51.4442973738
 30
0.0
  0
SPLINE
  5
43B
100
AcDbEntity
  8
0
100
AcDbSpline
 62
7
  6
CONTINUOUS
 70
0
 71
3
 72
17
 73
13
 74
0
 42
0.0000001
 43
0.0000001
 44
0.0000000001
 40
0.0
 40
0.0
 40
0.0
 40
0.0
 40
0.0428590154
 40
0.087484945
 40
0.1353191404
 40
0.1872810096
 40
0.3045411455
 40
0.4382064078
 40
0.5825480614
 40
0.7297123844
 40
0.8713056989
 40
1.0
 40
1.0
 40
1.0
 40
1.0
 10
62.3715189443
 20
42.7934673357
 30
0.0
 10
62.3098888144
 20
42.8290549088
 30
0.0
 10
62.174014203
 20
42.8854735626
 30
0.0
 10
61.9497655438
 20
42.9183867092
 30
0.0
 10
61.7089296627
 20
42.9006400093
 30
0.0
 10
61.3590008466
 20
42.8075665555
 30
0.0
 10
60.9116717287
 20
42.5629584812
 30
0.0
 10
60.4174446552
 20
42.1252616863
 30
0.0
 10
59.9805494989
 20
41.5660689763
 30
0.0
 10
59.6367185023
 20
40.9305413159
 30
0.0
 10
59.4135618729
 20
40.2708085601
 30
0.0
 10
59.3537848245
 20
39.8214844093
 30
0.0
 10
59.3537848245
 20
39.6077885737
 30
0.0
  0
SPLINE
  5
43C
100
AcDbEntity
  8
0
100
AcDbSpline
 62
7
  6
CONTINUOUS
 70
0
 71
3
 72
12
 73
8
 74
0
 42
0.0000001
 43
0.0000001
 44
0.0000000001
 40
0.0
 40
0.0
 40
0.0
 40
0.0
 40
0.2895196667
 40
0.5486062848
 40
0.7815454514
 40
0.8917706022
 40
1.0
 40
1.0
 40
1.0
 40
1.0
 10
93.5758031475
 20
44.3407376323
 30
0.0
 10
93.4178203547
 20
44.2495267688
 30
0.0
 10
93.1035612305
 20
44.1000365051
 30
0.0
 10
92.620926219
 20
43.9832968973
 30
0.0
 10
92.2355033912
 20
43.9935293608
 30
0.0
 10
91.9602733286
 20
44.0696322798
 30
0.0
 10
91.8349187155
 20
44.1283875036
 30
0.0
 10
91.77586218
 20
44.1624864307
 30
0.0
  0
SPLINE
  5
43D
100
AcDbEntity
  8
0
100
AcDbSpline
 62
7
  6
CONTINUOUS
 70
0
 71
3
 72
11
 73
7
 74
0
 42
0.0000001
 43
0.0000001
 44
0.0000000001
 40
0.0
 40
0.0
 40
0.0
 40
0.0
 40
0.289702809
 40
0.549088757
 40
0.7822160314
 40
1.0
 40
1.0
 40
1.0
 40
1.0
 10
57.9377697519
 20
36.2577192592
 30
0.0
 10
57.8500133492
 20
36.2070533789
 30
0.0
 10
57.6754375904
 20
36.1240026207
 30
0.0
 10
57.4071108858
 20
36.0592041508
 30
0.0
 10
57.1553416532
 20
36.0655767502
 30
0.0
 10
57.00376282
 20
36.120584548
 30
0.0
 10
56.9377917087
 20
36.1586721328
 30
0.0
  0
SPLINE
  5
43E
100
AcDbEntity
  8
0
100
AcDbSpline
 62
7
  6
CONTINUOUS
 70
0
 71
3
 72
11
 73
7
 74
0
 42
0.0000001
 43
0.0000001
 44
0.0000000001
 40
0.0
 40
0.0
 40
0.0
 40
0.0
 40
0.2897026209
 40
0.5490908265
 40
0.782219764
 40
1.0
 40
1.0
 40
1.0
 40
1.0
 10
59.3537848245
 20
39.6077885737
 30
0.0
 10
59.3537848245
 20
39.481118087
 30
0.0
 10
59.372989692
 20
39.240216685
 30
0.0
 10
59.4705465229
 20
38.9092286824
 30
0.0
 10
59.6348118881
 20
38.6406516557
 30
0.0
 10
59.7891075555
 20
38.5109474592
 30
0.0
 10
59.8715698908
 20
38.463330581
 30
0.0
  0
SPLINE
  5
43F
100
AcDbEntity
  8
0
100
AcDbSpline
 62
7
  6
CONTINUOUS
 70
0
 71
3
 72
11
 73
7
 74
0
 42
0.0000001
 43
0.0000001
 44
0.0000000001
 40
0.0
 40
0.0
 40
0.0
 40
0.0
 40
0.2897026209
 40
0.5490908265
 40
0.782219764
 40
1.0
 40
1.0
 40
1.0
 40
1.0
 10
94.707169287
 20
51.4442973738
 30
0.0
 10
94.707169287
 20
51.3176268871
 30
0.0
 10
94.7263741545
 20
51.0767254851
 30
0.0
 10
94.8239309853
 20
50.7457374825
 30
0.0
 10
94.9881963506
 20
50.4771604558
 30
0.0
 10
95.142492018
 20
50.3474562593
 30
0.0
 10
95.2249543533
 20
50.2998393811
 30
0.0
  0
SPLINE
  5
440
100
AcDbEntity
  8
0
100
AcDbSpline
 62
7
  6
CONTINUOUS
 70
0
 71
3
 72
11
 73
7
 74
0
 42
0.0000001
 43
0.0000001
 44
0.0000000001
 40
0.0
 40
0.0
 40
0.0
 40
0.0
 40
0.2897026209
 40
0.5490908265
 40
0.782219764
 40
1.0
 40
1.0
 40
1.0
 40
1.0
 10
94.3536173684
 20
101.0483537618
 30
0.0
 10
94.3536173684
 20
100.9216832751
 30
0.0
 10
94.3728222359
 20
100.6807818731
 30
0.0
 10
94.4703790667
 20
100.3497938705
 30
0.0
 10
94.634644432
 20
100.0812168438
 30
0.0
 10
94.7889400993
 20
99.9515126473
 30
0.0
 10
94.8714024347
 20
99.9038957691
 30
0.0
  0
SPLINE
  5
441
100
AcDbEntity
  8
0
100
AcDbSpline
 62
7
  6
CONTINUOUS
 70
0
 71
3
 72
11
 73
7
 74
0
 42
0.0000001
 43
0.0000001
 44
0.0000000001
 40
0.0
 40
0.0
 40
0.0
 40
0.0
 40
0.2893975675
 40
0.5491290883
 40
0.7823145228
 40
1.0
 40
1.0
 40
1.0
 40
1.0
 10
54.5436713333
 20
45.7291811604
 30
0.0
 10
54.5436713333
 20
45.688690479
 30
0.0
 10
54.5498942216
 20
45.6116124507
 30
0.0
 10
54.5809949734
 20
45.5056516287
 30
0.0
 10
54.6336110135
 20
45.4196816155
 30
0.0
 10
54.6829906219
 20
45.378191467
 30
0.0
 10
54.7093782167
 20
45.3629817809
 30
0.0
  0
SPLINE
  5
442
100
AcDbEntity
  8
0
100
AcDbSpline
 62
7
  6
CONTINUOUS
 70
0
 71
3
 72
11
 73
7
 74
0
 42
0.0000001
 43
0.0000001
 44
0.0000000001
 40
0.0
 40
0.0
 40
0.0
 40
0.0
 40
0.2177805602
 40
0.4509248779
 40
0.7102605592
 40
1.0
 40
1.0
 40
1.0
 40
1.0
 10
56.7967326292
 20
90.9796854358
 30
0.0
 10
56.9080725999
 20
91.0439411657
 30
0.0
 10
57.1163576181
 20
91.2190873866
 30
0.0
 10
57.338105426
 20
91.5816326015
 30
0.0
 10
57.4698565191
 20
92.0284562797
 30
0.0
 10
57.495745509
 20
92.3536688099
 30
0.0
 10
57.495745509
 20
92.5246956762
 30
0.0
  0
SPLINE
  5
443
100
AcDbEntity
  8
0
100
AcDbSpline
 62
7
  6
CONTINUOUS
 70
0
 71
3
 72
11
 73
7
 74
0
 42
0.0000001
 43
0.0000001
 44
0.0000000001
 40
0.0
 40
0.0
 40
0.0
 40
0.0
 40
0.2625477462
 40
0.5234418031
 40
0.7722107283
 40
1.0
 40
1.0
 40
1.0
 40
1.0
 10
52.7405250479
 20
54.1134717312
 30
0.0
 10
52.3729064294
 20
53.6270796594
 30
0.0
 10
51.7110932916
 20
52.601615098
 30
0.0
 10
50.9589091946
 20
50.9670661523
 30
0.0
 10
50.479878698
 20
49.3162064415
 30
0.0
 10
50.355463805
 20
48.2083180987
 30
0.0
 10
50.355463805
 20
47.679345297
 30
0.0
  0
SPLINE
  5
444
100
AcDbEntity
  8
0
100
AcDbSpline
 62
7
  6
CONTINUOUS
 70
0
 71
3
 72
11
 73
7
 74
0
 42
0.0000001
 43
0.0000001
 44
0.0000000001
 40
0.0
 40
0.0
 40
0.0
 40
0.0
 40
0.2817165139
 40
0.5411039141
 40
0.7792223256
 40
1.0
 40
1.0
 40
1.0
 40
1.0
 10
50.355463805
 20
47.679345297
 30
0.0
 10
50.355463805
 20
47.3923314832
 30
0.0
 10
50.3894630255
 20
46.8400857854
 30
0.0
 10
50.5565427089
 20
46.0604278899
 30
0.0
 10
50.8358397642
 20
45.3793780054
 30
0.0
 10
51.1029372782
 20
44.9898192377
 30
0.0
 10
51.252142431
 20
44.8215013152
 30
0.0
  0
SPLINE
  5
445
100
AcDbEntity
  8
0
100
AcDbSpline
 62
7
  6
CONTINUOUS
 70
0
 71
3
 72
11
 73
7
 74
0
 42
0.0000001
 43
0.0000001
 44
0.0000000001
 40
0.0
 40
0.0
 40
0.0
 40
0.0
 40
0.2177456295
 40
0.4508837762
 40
0.7104602913
 40
1.0
 40
1.0
 40
1.0
 40
1.0
 10
69.6099680327
 20
88.2366234432
 30
0.0
 10
69.5769889242
 20
88.2556635039
 30
0.0
 10
69.5012391786
 20
88.2832500017
 30
0.0
 10
69.3753092953
 20
88.2864122819
 30
0.0
 10
69.2411668961
 20
88.2539425304
 30
0.0
 10
69.1538571332
 20
88.2124621989
 30
0.0
 10
69.1100044919
 20
88.1871440158
 30
0.0
  0
SPLINE
  5
446
100
AcDbEntity
  8
0
100
AcDbSpline
 62
7
  6
CONTINUOUS
 70
0
 71
3
 72
16
 73
12
 74
0
 42
0.0000001
 43
0.0000001
 44
0.0000000001
 40
0.0
 40
0.0
 40
0.0
 40
0.0
 40
0.0428755151
 40
0.0875161207
 40
0.1869217599
 40
0.3042393126
 40
0.437962533
 40
0.5823660413
 40
0.7295547149
 40
0.8712848126
 40
1.0
 40
1.0
 40
1.0
 40
1.0
 10
55.5093305893
 20
46.7485711862
 30
0.0
 10
55.4896013613
 20
46.7599430207
 30
0.0
 10
55.4461393868
 20
46.7780154731
 30
0.0
 10
55.3470588326
 20
46.7925869386
 30
0.0
 10
55.2071678083
 20
46.7652526969
 30
0.0
 10
55.0423888517
 20
46.6748568604
 30
0.0
 10
54.8839849042
 20
46.5347521373
 30
0.0
 10
54.7442975635
 20
46.3558256778
 30
0.0
 10
54.6341842728
 20
46.1524706619
 30
0.0
 10
54.5628416459
 20
45.9413389631
 30
0.0
 10
54.5436713333
 20
45.7975440472
 30
0.0
 10
54.5436713333
 20
45.7291811604
 30
0.0
  0
SPLINE
  5
447
100
AcDbEntity
  8
0
100
AcDbSpline
 62
7
  6
CONTINUOUS
 70
0
 71
3
 72
11
 73
7
 74
0
 42
0.0000001
 43
0.0000001
 44
0.0000000001
 40
0.0
 40
0.0
 40
0.0
 40
0.0
 40
0.2177805602
 40
0.4509248779
 40
0.7102605592
 40
1.0
 40
1.0
 40
1.0
 40
1.0
 10
63.090009183
 20
34.4369860906
 30
0.0
 10
63.2013491537
 20
34.5012418205
 30
0.0
 10
63.4096341719
 20
34.6763880414
 30
0.0
 10
63.6313819798
 20
35.0389332563
 30
0.0
 10
63.7631330729
 20
35.4857569345
 30
0.0
 10
63.7890220628
 20
35.8109694647
 30
0.0
 10
63.7890220628
 20
35.981996331
 30
0.0
  0
SPLINE
  5
448
100
AcDbEntity
  8
0
100
AcDbSpline
 62
7
  6
CONTINUOUS
 70
0
 71
3
 72
17
 73
13
 74
0
 42
0.0000001
 43
0.0000001
 44
0.0000000001
 40
0.0
 40
0.0
 40
0.0
 40
0.0
 40
0.128693823
 40
0.2702783937
 40
0.4174341197
 40
0.5617778654
 40
0.6954482313
 40
0.8127107819
 40
0.8646769687
 40
0.9125095959
 40
0.9571396392
 40
1.0
 40
1.0
 40
1.0
 40
1.0
 10
57.495745509
 20
92.5246956762
 30
0.0
 10
57.495745509
 20
92.8131858533
 30
0.0
 10
57.4150468966
 20
93.4197569024
 30
0.0
 10
57.1137957395
 20
94.3103624622
 30
0.0
 10
56.6496527928
 20
95.168308629
 30
0.0
 10
56.0598696088
 20
95.923236232
 30
0.0
 10
55.3926489275
 20
96.5141764629
 30
0.0
 10
54.7887080937
 20
96.8443328538
 30
0.0
 10
54.3163044506
 20
96.9700877116
 30
0.0
 10
53.9911592629
 20
96.9939274928
 30
0.0
 10
53.6883864551
 20
96.9496262858
 30
0.0
 10
53.5049832813
 20
96.8733557671
 30
0.0
 10
53.421767744
 20
96.8253310096
 30
0.0
  0
SPLINE
  5
449
100
AcDbEntity
  8
0
100
AcDbSpline
 62
7
  6
CONTINUOUS
 70
0
 71
3
 72
11
 73
7
 74
0
 42
0.0000001
 43
0.0000001
 44
0.0000000001
 40
0.0
 40
0.0
 40
0.0
 40
0.0
 40
0.2895396729
 40
0.5491163863
 40
0.7822545095
 40
1.0
 40
1.0
 40
1.0
 40
1.0
 10
68.332190271
 20
85.3702184368
 30
0.0
 10
68.2971081628
 20
85.3499638931
 30
0.0
 10
68.2272603167
 20
85.316779663
 30
0.0
 10
68.1199463903
 20
85.2908038007
 30
0.0
 10
68.0192024829
 20
85.293333675
 30
0.0
 10
67.9586027003
 20
85.3154028419
 30
0.0
 10
67.9322194389
 20
85.3306348946
 30
0.0
  0
SPLINE
  5
44A
100
AcDbEntity
  8
0
100
AcDbSpline
 62
7
  6
CONTINUOUS
 70
0
 71
3
 72
11
 73
7
 74
0
 42
0.0000001
 43
0.0000001
 44
0.0000000001
 40
0.0
 40
0.0
 40
0.0
 40
0.0
 40
0.2897776971
 40
0.5490719787
 40
0.7822272299
 40
1.0
 40
1.0
 40
1.0
 40
1.0
 10
80.5296664013
 20
110.497765159
 30
0.0
 10
80.6613362999
 20
110.5737843566
 30
0.0
 10
80.9001872837
 20
110.7382288287
 30
0.0
 10
81.185552846
 20
111.0382581835
 30
0.0
 10
81.3661184537
 20
111.3700461639
 30
0.0
 10
81.4083151749
 20
111.6082275224
 30
0.0
 10
81.4083151735
 20
111.7224874225
 30
0.0
  0
SPLINE
  5
44B
100
AcDbEntity
  8
0
100
AcDbSpline
 62
7
  6
CONTINUOUS
 70
0
 71
3
 72
9
 73
5
 74
0
 42
0.0000001
 43
0.0000001
 44
0.0000000001
 40
0.0
 40
0.0
 40
0.0
 40
0.0
 40
0.2642865852
 40
1.0
 40
1.0
 40
1.0
 40
1.0
 10
39.7580043897
 20
54.0414207182
 30
0.0
 10
39.7687853032
 20
53.9368216053
 30
0.0
 10
39.8219214456
 20
53.542606572
 30
0.0
 10
39.9271155448
 20
53.1539372785
 30
0.0
 10
40.040745223
 20
52.8841692476
 30
0.0
  0
SPLINE
  5
44C
100
AcDbEntity
  8
0
100
AcDbSpline
 62
7
  6
CONTINUOUS
 70
0
 71
3
 72
11
 73
7
 74
0
 42
0.0000001
 43
0.0000001
 44
0.0000000001
 40
0.0
 40
0.0
 40
0.0
 40
0.0
 40
0.2896784336
 40
0.5491208899
 40
0.7822333041
 40
1.0
 40
1.0
 40
1.0
 40
1.0
 10
39.4468787014
 20
54.4451212695
 30
0.0
 10
39.4468787014
 20
54.4045901551
 30
0.0
 10
39.4530298408
 20
54.3274974483
 30
0.0
 10
39.4842518136
 20
54.2215826162
 30
0.0
 10
39.5368048543
 20
54.1356253859
 30
0.0
 10
39.5861830861
 20
54.0941301646
 30
0.0
 10
39.6125690388
 20
54.0788931839
 30
0.0
  0
SPLINE
  5
44D
100
AcDbEntity
  8
0
100
AcDbSpline
 62
7
  6
CONTINUOUS
 70
0
 71
3
 72
10
 73
6
 74
0
 42
0.0000001
 43
0.0000001
 44
0.0000000001
 40
0.0
 40
0.0
 40
0.0
 40
0.0
 40
0.5202790309
 40
0.771268491
 40
1.0
 40
1.0
 40
1.0
 40
1.0
 10
39.7580043897
 20
55.2080766761
 30
0.0
 10
39.6631253802
 20
55.0980919064
 30
0.0
 10
39.5486144529
 20
54.9098455373
 30
0.0
 10
39.4635960108
 20
54.6431295798
 30
0.0
 10
39.4468787014
 20
54.5089795579
 30
0.0
 10
39.4468787014
 20
54.4451212695
 30
0.0
  0
SPLINE
  5
44E
100
AcDbEntity
  8
0
100
AcDbSpline
 62
7
  6
CONTINUOUS
 70
0
 71
3
 72
11
 73
7
 74
0
 42
0.0000001
 43
0.0000001
 44
0.0000000001
 40
0.0
 40
0.0
 40
0.0
 40
0.0
 40
0.2561996309
 40
0.5143204117
 40
0.7650712106
 40
1.0
 40
1.0
 40
1.0
 40
1.0
 10
42.0779507895
 20
60.5452560295
 30
0.0
 10
41.763095089
 20
60.1639157056
 30
0.0
 10
41.1853451509
 20
59.3520569844
 30
0.0
 10
40.4951957269
 20
58.0416476529
 30
0.0
 10
40.0031266467
 20
56.6881704843
 30
0.0
 10
39.8167962805
 20
55.7642782535
 30
0.0
 10
39.7684981106
 20
55.3133907491
 30
0.0
  0
SPLINE
  5
44F
100
AcDbEntity
  8
0
100
AcDbSpline
 62
7
  6
CONTINUOUS
 70
0
 71
3
 72
11
 73
7
 74
0
 42
0.0000001
 43
0.0000001
 44
0.0000000001
 40
0.0
 40
0.0
 40
0.0
 40
0.0
 40
0.2278672079
 40
0.4770044088
 40
0.7380705498
 40
1.0
 40
1.0
 40
1.0
 40
1.0
 10
63.7890220628
 20
35.981996331
 30
0.0
 10
63.7890220628
 20
36.2301209682
 30
0.0
 10
63.7292225267
 20
36.7501090593
 30
0.0
 10
63.4999168429
 20
37.5236528367
 30
0.0
 10
63.1406430188
 20
38.2870776749
 30
0.0
 10
62.8249545284
 20
38.7639914133
 30
0.0
 10
62.6497894348
 20
38.9890798325
 30
0.0
  0
SPLINE
  5
450
100
AcDbEntity
  8
0
100
AcDbSpline
 62
7
  6
CONTINUOUS
 70
0
 71
3
 72
11
 73
7
 74
0
 42
0.0000001
 43
0.0000001
 44
0.0000000001
 40
0.0
 40
0.0
 40
0.0
 40
0.0
 40
0.2281287802
 40
0.4780938035
 40
0.7394666838
 40
1.0
 40
1.0
 40
1.0
 40
1.0
 10
51.7505401401
 20
96.2498572582
 30
0.0
 10
51.7505401398
 20
95.8438556424
 30
0.0
 10
51.8534202276
 20
94.9920282783
 30
0.0
 10
52.2446298303
 20
93.7297349888
 30
0.0
 10
52.8542499714
 20
92.4928539649
 30
0.0
 10
53.3887607807
 20
91.727782941
 30
0.0
 10
53.6844757823
 20
91.370649295
 30
0.0
  0
SPLINE
  5
451
100
AcDbEntity
  8
0
100
AcDbSpline
 62
7
  6
CONTINUOUS
 70
0
 71
3
 72
9
 73
5
 74
0
 42
0.0000001
 43
0.0000001
 44
0.0000000001
 40
0.0
 40
0.0
 40
0.0
 40
0.0
 40
0.5220273383
 40
1.0
 40
1.0
 40
1.0
 40
1.0
 10
53.6844757823
 20
91.370649295
 30
0.0
 10
53.9473230205
 20
91.0532098955
 30
0.0
 10
54.4960767008
 20
90.4808079084
 30
0.0
 10
55.1360007037
 20
90.0087412256
 30
0.0
 10
55.4628021052
 20
89.8200666169
 30
0.0
  0
SPLINE
  5
452
100
AcDbEntity
  8
0
100
AcDbSpline
 62
7
  6
CONTINUOUS
 70
0
 71
3
 72
17
 73
13
 74
0
 42
0.0000001
 43
0.0000001
 44
0.0000000001
 40
0.0
 40
0.0
 40
0.0
 40
0.0
 40
0.1447771882
 40
0.2743250026
 40
0.3908140607
 40
0.4459174568
 40
0.4999980194
 40
0.554078673
 40
0.6091823343
 40
0.7256723493
 40
0.8552214523
 40
1.0
 40
1.0
 40
1.0
 40
1.0
 10
55.4628021052
 20
89.8200666169
 30
0.0
 10
55.6932239555
 20
89.6870355091
 30
0.0
 10
56.1515591016
 20
89.4690274586
 30
0.0
 10
56.8555020632
 20
89.2987443542
 30
0.0
 10
57.4175675515
 20
89.3137980699
 30
0.0
 10
57.8189709575
 20
89.4248322818
 30
0.0
 10
58.0920168131
 20
89.5527226317
 30
0.0
 10
58.3392921301
 20
89.7252485338
 30
0.0
 10
58.6361470412
 20
90.0173657114
 30
0.0
 10
58.9302090599
 20
90.4966116884
 30
0.0
 10
59.134702242
 20
91.1913949971
 30
0.0
 10
59.1750640701
 20
91.6973341128
 30
0.0
 10
59.1750640703
 20
91.963403341
 30
0.0
  0
SPLINE
  5
453
100
AcDbEntity
  8
0
100
AcDbSpline
 62
7
  6
CONTINUOUS
 70
0
 71
3
 72
15
 73
11
 74
0
 42
0.0000001
 43
0.0000001
 44
0.0000000001
 40
0.0
 40
0.0
 40
0.0
 40
0.0
 40
0.1141474765
 40
0.2373368178
 40
0.3669776594
 40
0.5000010819
 40
0.633024354
 40
0.7626647561
 40
0.8858534048
 40
1.0
 40
1.0
 40
1.0
 40
1.0
 10
59.1750640703
 20
91.963403341
 30
0.0
 10
59.1750640705
 20
92.2568313659
 30
0.0
 10
59.1212798415
 20
92.8674954438
 30
0.0
 10
58.9070631108
 20
93.7887350836
 30
0.0
 10
58.5637378389
 20
94.7218564172
 30
0.0
 10
58.1043925217
 20
95.6317961724
 30
0.0
 10
57.5460308075
 20
96.4845671759
 30
0.0
 10
56.9095847456
 20
97.2484503931
 30
0.0
 10
56.2188758312
 20
97.8945794488
 30
0.0
 10
55.7169177042
 20
98.2464835919
 30
0.0
 10
55.4628021052
 20
98.3931939824
 30
0.0
  0
SPLINE
  5
454
100
AcDbEntity
  8
0
100
AcDbSpline
 62
7
  6
CONTINUOUS
 70
0
 71
3
 72
17
 73
13
 74
0
 42
0.0000001
 43
0.0000001
 44
0.0000000001
 40
0.0
 40
0.0
 40
0.0
 40
0.0
 40
0.1447771882
 40
0.2743250026
 40
0.3908140607
 40
0.4459174568
 40
0.4999980194
 40
0.554078673
 40
0.6091823343
 40
0.7256723493
 40
0.8552214523
 40
1.0
 40
1.0
 40
1.0
 40
1.0
 10
55.4628021052
 20
98.3931939824
 30
0.0
 10
55.2323802549
 20
98.5262250901
 30
0.0
 10
54.7740451089
 20
98.7442331406
 30
0.0
 10
54.0701021473
 20
98.914516245
 30
0.0
 10
53.5080366589
 20
98.8994625293
 30
0.0
 10
53.1066332529
 20
98.7884283174
 30
0.0
 10
52.8335873973
 20
98.6605379675
 30
0.0
 10
52.5863120803
 20
98.4880120654
 30
0.0
 10
52.2894571693
 20
98.1958948879
 30
0.0
 10
51.9953951505
 20
97.7166489109
 30
0.0
 10
51.7909019684
 20
97.0218656021
 30
0.0
 10
51.7505401403
 20
96.5159264864
 30
0.0
 10
51.7505401401
 20
96.2498572582
 30
0.0
  0
SPLINE
  5
455
100
AcDbEntity
  8
0
100
AcDbSpline
 62
7
  6
CONTINUOUS
 70
0
 71
3
 72
17
 73
13
 74
0
 42
0.0000001
 43
0.0000001
 44
0.0000000001
 40
0.0
 40
0.0
 40
0.0
 40
0.0
 40
0.128693823
 40
0.2702783937
 40
0.4174341197
 40
0.5617778654
 40
0.6954482313
 40
0.8127107819
 40
0.8646769687
 40
0.9125095959
 40
0.9571396392
 40
1.0
 40
1.0
 40
1.0
 40
1.0
 10
52.7227548642
 20
95.2803207692
 30
0.0
 10
52.7227548642
 20
94.9918305921
 30
0.0
 10
52.8034534766
 20
94.385259543
 30
0.0
 10
53.1047046337
 20
93.4946539832
 30
0.0
 10
53.5688475804
 20
92.6367078164
 30
0.0
 10
54.1586307644
 20
91.8817802133
 30
0.0
 10
54.8258514457
 20
91.2908399825
 30
0.0
 10
55.4297922795
 20
90.9606835916
 30
0.0
 10
55.9021959227
 20
90.8349287337
 30
0.0
 10
56.2273411103
 20
90.8110889525
 30
0.0
 10
56.5301139181
 20
90.8553901595
 30
0.0
 10
56.713517092
 20
90.9316606783
 30
0.0
 10
56.7967326292
 20
90.9796854358
 30
0.0
  0
SPLINE
  5
456
100
AcDbEntity
  8
0
100
AcDbSpline
 62
7
  6
CONTINUOUS
 70
0
 71
3
 72
11
 73
7
 74
0
 42
0.0000001
 43
0.0000001
 44
0.0000000001
 40
0.0
 40
0.0
 40
0.0
 40
0.0
 40
0.2177805602
 40
0.4509248779
 40
0.7102605592
 40
1.0
 40
1.0
 40
1.0
 40
1.0
 10
53.421767744
 20
96.8253310096
 30
0.0
 10
53.3104277733
 20
96.7610752796
 30
0.0
 10
53.1021427551
 20
96.5859290587
 30
0.0
 10
52.8803949472
 20
96.2233838439
 30
0.0
 10
52.7486438541
 20
95.7765601657
 30
0.0
 10
52.7227548642
 20
95.4513476355
 30
0.0
 10
52.7227548642
 20
95.2803207692
 30
0.0
  0
SPLINE
  5
457
100
AcDbEntity
  8
0
100
AcDbSpline
 62
7
  6
CONTINUOUS
 70
0
 71
3
 72
15
 73
11
 74
0
 42
0.0000001
 43
0.0000001
 44
0.0000000001
 40
0.0
 40
0.0
 40
0.0
 40
0.0
 40
0.1141465952
 40
0.2373352439
 40
0.366975646
 40
0.4999989181
 40
0.6330223406
 40
0.7626631822
 40
0.8858525235
 40
1.0
 40
1.0
 40
1.0
 40
1.0
 10
55.1092501866
 20
97.3726244911
 30
0.0
 10
55.3149652394
 20
97.2538575369
 30
0.0
 10
55.7213170847
 20
96.9689793962
 30
0.0
 10
56.2804689877
 20
96.4459163756
 30
0.0
 10
56.7956933018
 20
95.8275274339
 30
0.0
 10
57.2477057322
 20
95.1371808647
 30
0.0
 10
57.6195610867
 20
94.4005542841
 30
0.0
 10
57.897494345
 20
93.6451614427
 30
0.0
 10
58.0709099332
 20
92.8993872288
 30
0.0
 10
58.1144500604
 20
92.4050342906
 30
0.0
 10
58.1144500603
 20
92.1674945179
 30
0.0
  0
SPLINE
  5
458
100
AcDbEntity
  8
0
100
AcDbSpline
 62
7
  6
CONTINUOUS
 70
0
 71
3
 72
15
 73
11
 74
0
 42
0.0000001
 43
0.0000001
 44
0.0000000001
 40
0.0
 40
0.0
 40
0.0
 40
0.0
 40
0.1474561271
 40
0.2805074424
 40
0.4007281392
 40
0.5123987031
 40
0.6219064243
 40
0.736309081
 40
0.8612387697
 40
1.0
 40
1.0
 40
1.0
 40
1.0
 10
52.1040503129
 20
95.6375219275
 30
0.0
 10
52.1040503131
 20
95.8385877839
 30
0.0
 10
52.132632425
 20
96.2221888996
 30
0.0
 10
52.2764092871
 20
96.7534391225
 30
0.0
 10
52.5180747951
 20
97.1949697162
 30
0.0
 10
52.8536680184
 20
97.528243134
 30
0.0
 10
53.2711309131
 20
97.73441145
 30
0.0
 10
53.7485706315
 20
97.804160923
 30
0.0
 10
54.26507038
 20
97.7404957305
 30
0.0
 10
54.6065446243
 20
97.6197649192
 30
0.0
 10
54.7791112506
 20
97.5421690997
 30
0.0
  0
SPLINE
  5
459
100
AcDbEntity
  8
0
100
AcDbSpline
 62
7
  6
CONTINUOUS
 70
0
 71
3
 72
9
 73
5
 74
0
 42
0.0000001
 43
0.0000001
 44
0.0000000001
 40
0.0
 40
0.0
 40
0.0
 40
0.0
 40
0.244818263
 40
1.0
 40
1.0
 40
1.0
 40
1.0
 10
54.7791112506
 20
97.5421690997
 30
0.0
 10
54.806740316
 20
97.5297454926
 30
0.0
 10
54.9189109178
 20
97.4774843837
 30
0.0
 10
55.0283231222
 20
97.4193466965
 30
0.0
 10
55.1092501866
 20
97.3726244911
 30
0.0
  0
SPLINE
  5
45A
100
AcDbEntity
  8
0
100
AcDbSpline
 62
7
  6
CONTINUOUS
 70
0
 71
3
 72
9
 73
5
 74
0
 42
0.0000001
 43
0.0000001
 44
0.0000000001
 40
0.0
 40
0.0
 40
0.0
 40
0.0
 40
0.4795701682
 40
1.0
 40
1.0
 40
1.0
 40
1.0
 10
55.1092501866
 20
90.4323919542
 30
0.0
 10
54.8784204099
 20
90.5656585731
 30
0.0
 10
54.4240691495
 20
90.8912361684
 30
0.0
 10
54.0258889732
 20
91.2818573443
 30
0.0
 10
53.8331470937
 20
91.4975292194
 30
0.0
  0
SPLINE
  5
45B
100
AcDbEntity
  8
0
100
AcDbSpline
 62
7
  6
CONTINUOUS
 70
0
 71
3
 72
11
 73
7
 74
0
 42
0.0000001
 43
0.0000001
 44
0.0000000001
 40
0.0
 40
0.0
 40
0.0
 40
0.0
 40
0.2585816729
 40
0.5202972419
 40
0.7713938219
 40
1.0
 40
1.0
 40
1.0
 40
1.0
 10
53.8331470937
 20
91.4975292194
 30
0.0
 10
53.5705487847
 20
91.7913681599
 30
0.0
 10
53.0942963226
 20
92.4308089886
 30
0.0
 10
52.5494984977
 20
93.4781224261
 30
0.0
 10
52.1975727959
 20
94.5572260982
 30
0.0
 10
52.1040503127
 20
95.2891245926
 30
0.0
 10
52.1040503129
 20
95.6375219275
 30
0.0
  0
SPLINE
  5
45C
100
AcDbEntity
  8
0
100
AcDbSpline
 62
7
  6
CONTINUOUS
 70
0
 71
3
 72
9
 73
5
 74
0
 42
0.0000001
 43
0.0000001
 44
0.0000000001
 40
0.0
 40
0.0
 40
0.0
 40
0.0
 40
0.2552016628
 40
1.0
 40
1.0
 40
1.0
 40
1.0
 10
58.1144500603
 20
92.1674945179
 30
0.0
 10
58.1144500602
 20
92.1359108267
 30
0.0
 10
58.112973964
 20
92.0121579503
 30
0.0
 10
58.1055056167
 20
91.8884572742
 30
0.0
 10
58.0962083744
 20
91.7967513033
 30
0.0
  0
SPLINE
  5
45D
100
AcDbEntity
  8
0
100
AcDbSpline
 62
7
  6
CONTINUOUS
 70
0
 71
3
 72
15
 73
11
 74
0
 42
0.0000001
 43
0.0000001
 44
0.0000000001
 40
0.0
 40
0.0
 40
0.0
 40
0.0
 40
0.1387616578
 40
0.2636918858
 40
0.37809509
 40
0.487603182
 40
0.5992737759
 40
0.7194941081
 40
0.8525447398
 40
1.0
 40
1.0
 40
1.0
 40
1.0
 10
58.0962083744
 20
91.7967513033
 30
0.0
 10
58.077124152
 20
91.6085086943
 30
0.0
 10
58.0109419586
 20
91.2524224029
 30
0.0
 10
57.8078291325
 20
90.7732937893
 30
0.0
 10
57.5087088333
 20
90.3946971892
 30
0.0
 10
57.121437302
 20
90.1362482547
 30
0.0
 10
56.6650257878
 20
90.012249538
 30
0.0
 10
56.161825206
 20
90.0237201595
 30
0.0
 10
55.6298695728
 20
90.1648220969
 30
0.0
 10
55.2833756486
 20
90.3318628461
 30
0.0
 10
55.1092501866
 20
90.4323919542
 30
0.0
  0
SPLINE
  5
45E
100
AcDbEntity
  8
0
100
AcDbSpline
 62
7
  6
CONTINUOUS
 70
0
 71
3
 72
11
 73
7
 74
0
 42
0.0000001
 43
0.0000001
 44
0.0000000001
 40
0.0
 40
0.0
 40
0.0
 40
0.0
 40
0.2177442246
 40
0.4508817658
 40
0.7104588047
 40
1.0
 40
1.0
 40
1.0
 40
1.0
 10
67.9322194389
 20
85.3306348946
 30
0.0
 10
67.9058352853
 20
85.3458674623
 30
0.0
 10
67.8564205299
 20
85.387314664
 30
0.0
 10
67.803855322
 20
85.473299598
 30
0.0
 10
67.7726927861
 20
85.5792284919
 30
0.0
 10
67.7665072012
 20
85.6563139603
 30
0.0
 10
67.7665072012
 20
85.6968250474
 30
0.0
  0
SPLINE
  5
45F
100
AcDbEntity
  8
0
100
AcDbSpline
 62
7
  6
CONTINUOUS
 70
0
 71
3
 72
11
 73
7
 74
0
 42
0.0000001
 43
0.0000001
 44
0.0000000001
 40
0.0
 40
0.0
 40
0.0
 40
0.0
 40
0.2895411595
 40
0.5491183966
 40
0.7822559144
 40
1.0
 40
1.0
 40
1.0
 40
1.0
 10
69.8171083291
 20
87.7788857525
 30
0.0
 10
69.8171083291
 20
87.8295246044
 30
0.0
 10
69.8093762877
 20
87.9258814567
 30
0.0
 10
69.7704231795
 20
88.05829262
 30
0.0
 10
69.704716615
 20
88.1657737569
 30
0.0
 10
69.6429482133
 20
88.2175827636
 30
0.0
 10
69.6099680327
 20
88.2366234432
 30
0.0
  0
SPLINE
  5
460
100
AcDbEntity
  8
0
100
AcDbSpline
 62
7
  6
CONTINUOUS
 70
0
 71
3
 72
11
 73
7
 74
0
 42
0.0000001
 43
0.0000001
 44
0.0000000001
 40
0.0
 40
0.0
 40
0.0
 40
0.0
 40
0.2895411595
 40
0.5491183966
 40
0.7822559144
 40
1.0
 40
1.0
 40
1.0
 40
1.0
 10
60.3418550872
 20
89.9833529699
 30
0.0
 10
60.3418550872
 20
89.9428418884
 30
0.0
 10
60.3480407203
 20
89.8657564065
 30
0.0
 10
60.3792032069
 20
89.7598274759
 30
0.0
 10
60.4317684585
 20
89.6738425664
 30
0.0
 10
60.4811831798
 20
89.6323953611
 30
0.0
 10
60.5075673243
 20
89.6171628174
 30
0.0
  0
SPLINE
  5
461
100
AcDbEntity
  8
0
100
AcDbSpline
 62
7
  6
CONTINUOUS
 70
0
 71
3
 72
11
 73
7
 74
0
 42
0.0000001
 43
0.0000001
 44
0.0000000001
 40
0.0
 40
0.0
 40
0.0
 40
0.0
 40
0.2372518718
 40
0.4999985497
 40
0.7627460178
 40
1.0
 40
1.0
 40
1.0
 40
1.0
 10
60.9075381569
 20
90.9631502267
 30
0.0
 10
60.8272229837
 20
90.9167805166
 30
0.0
 10
60.6752337568
 20
90.7888789888
 30
0.0
 10
60.4979095611
 20
90.5464534544
 30
0.0
 10
60.3766261566
 20
90.2716720065
 30
0.0
 10
60.3418550872
 20
90.0760936302
 30
0.0
 10
60.3418550872
 20
89.9833529699
 30
0.0
  0
SPLINE
  5
462
100
AcDbEntity
  8
0
100
AcDbSpline
 62
7
  6
CONTINUOUS
 70
0
 71
3
 72
16
 73
12
 74
0
 42
0.0000001
 43
0.0000001
 44
0.0000000001
 40
0.0
 40
0.0
 40
0.0
 40
0.0
 40
0.0428755151
 40
0.0875161207
 40
0.1869217599
 40
0.3042393126
 40
0.437962533
 40
0.5823660413
 40
0.7295547149
 40
0.8712848126
 40
1.0
 40
1.0
 40
1.0
 40
1.0
 10
54.7093782167
 20
45.3629817809
 30
0.0
 10
54.7291074447
 20
45.3516099463
 30
0.0
 10
54.7725694192
 20
45.333537494
 30
0.0
 10
54.8716499734
 20
45.3189660285
 30
0.0
 10
55.0115409977
 20
45.3463002702
 30
0.0
 10
55.1763199544
 20
45.4366961067
 30
0.0
 10
55.3347239018
 20
45.5768008298
 30
0.0
 10
55.4744112426
 20
45.7557272893
 30
0.0
 10
55.5845245333
 20
45.9590823052
 30
0.0
 10
55.6558671602
 20
46.170214004
 30
0.0
 10
55.6750374728
 20
46.3140089199
 30
0.0
 10
55.6750374728
 20
46.3823718066
 30
0.0
  0
SPLINE
  5
463
100
AcDbEntity
  8
0
100
AcDbSpline
 62
7
  6
CONTINUOUS
 70
0
 71
3
 72
11
 73
7
 74
0
 42
0.0000001
 43
0.0000001
 44
0.0000000001
 40
0.0
 40
0.0
 40
0.0
 40
0.0
 40
0.2372542275
 40
0.5000017852
 40
0.7627483734
 40
1.0
 40
1.0
 40
1.0
 40
1.0
 10
67.7665072012
 20
85.6968250474
 30
0.0
 10
67.7665072012
 20
85.7895658036
 30
0.0
 10
67.8012783275
 20
85.9851443107
 30
0.0
 10
67.9225618392
 20
86.2599258161
 30
0.0
 10
68.0998860387
 20
86.5023512289
 30
0.0
 10
68.2518751808
 20
86.6302526421
 30
0.0
 10
68.332190271
 20
86.6766223042
 30
0.0
  0
SPLINE
  5
464
100
AcDbEntity
  8
0
100
AcDbSpline
 62
7
  6
CONTINUOUS
 70
0
 71
3
 72
17
 73
13
 74
0
 42
0.0000001
 43
0.0000001
 44
0.0000000001
 40
0.0
 40
0.0
 40
0.0
 40
0.0
 40
0.0428590154
 40
0.087484945
 40
0.1353191404
 40
0.1872810096
 40
0.3045411455
 40
0.4382064078
 40
0.5825480614
 40
0.7297123844
 40
0.8713056989
 40
1.0
 40
1.0
 40
1.0
 40
1.0
 10
94.8714024347
 20
99.9038957691
 30
0.0
 10
94.9330325646
 20
99.868308196
 30
0.0
 10
95.068907176
 20
99.8118895422
 30
0.0
 10
95.2931558352
 20
99.7789763956
 30
0.0
 10
95.5339917162
 20
99.7967230955
 30
0.0
 10
95.8839205324
 20
99.8897965493
 30
0.0
 10
96.3312496503
 20
100.1344046236
 30
0.0
 10
96.8254767238
 20
100.5721014185
 30
0.0
 10
97.2623718801
 20
101.1312941285
 30
0.0
 10
97.6062028767
 20
101.7668217889
 30
0.0
 10
97.8293595061
 20
102.4265545447
 30
0.0
 10
97.8891365545
 20
102.8758786955
 30
0.0
 10
97.8891365545
 20
103.0895745311
 30
0.0
  0
SPLINE
  5
465
100
AcDbEntity
  8
0
100
AcDbSpline
 62
7
  6
CONTINUOUS
 70
0
 71
3
 72
9
 73
5
 74
0
 42
0.0000001
 43
0.0000001
 44
0.0000000001
 40
0.0
 40
0.0
 40
0.0
 40
0.0
 40
0.2424016808
 40
1.0
 40
1.0
 40
1.0
 40
1.0
 10
39.4932975139
 20
52.0211547684
 30
0.0
 10
39.4668162822
 20
52.0744526688
 30
0.0
 10
39.3632598897
 20
52.2971363837
 30
0.0
 10
39.2821533077
 20
52.5300261109
 30
0.0
 10
39.232077186
 20
52.7091628244
 30
0.0
  0
SPLINE
  5
466
100
AcDbEntity
  8
0
100
AcDbSpline
 62
7
  6
CONTINUOUS
 70
0
 71
3
 72
9
 73
5
 74
0
 42
0.0000001
 43
0.0000001
 44
0.0000000001
 40
0.0
 40
0.0
 40
0.0
 40
0.0
 40
0.2362530433
 40
1.0
 40
1.0
 40
1.0
 40
1.0
 10
39.232077186
 20
52.7091628244
 30
0.0
 10
39.1999196472
 20
52.824199605
 30
0.0
 10
39.0834854044
 20
53.3165980941
 30
0.0
 10
39.0417082026
 20
53.8250553532
 30
0.0
 10
39.0417082026
 20
54.2111973693
 30
0.0
  0
SPLINE
  5
467
100
AcDbEntity
  8
0
100
AcDbSpline
 62
7
  6
CONTINUOUS
 70
0
 71
3
 72
11
 73
7
 74
0
 42
0.0000001
 43
0.0000001
 44
0.0000000001
 40
0.0
 40
0.0
 40
0.0
 40
0.0
 40
0.2372518718
 40
0.4999985497
 40
0.7627460178
 40
1.0
 40
1.0
 40
1.0
 40
1.0
 10
69.8171142171
 20
84.3495931093
 30
0.0
 10
69.9175081836
 20
84.4075552469
 30
0.0
 10
70.1074947172
 20
84.5674321567
 30
0.0
 10
70.3291499618
 20
84.8704640746
 30
0.0
 10
70.4807542175
 20
85.2139408846
 30
0.0
 10
70.5242180543
 20
85.4584138549
 30
0.0
 10
70.5242180543
 20
85.5743396803
 30
0.0
  0
SPLINE
  5
468
100
AcDbEntity
  8
0
100
AcDbSpline
 62
7
  6
CONTINUOUS
 70
0
 71
3
 72
11
 73
7
 74
0
 42
0.0000001
 43
0.0000001
 44
0.0000000001
 40
0.0
 40
0.0
 40
0.0
 40
0.0
 40
0.2277892717
 40
0.4765581969
 40
0.7374522538
 40
1.0
 40
1.0
 40
1.0
 40
1.0
 10
39.0417082026
 20
54.2111973693
 30
0.0
 10
39.0417082026
 20
54.7401701711
 30
0.0
 10
39.1661230956
 20
55.8480585138
 30
0.0
 10
39.6451535922
 20
57.4989182246
 30
0.0
 10
40.3973376892
 20
59.1334671704
 30
0.0
 10
41.0591508271
 20
60.1589317317
 30
0.0
 10
41.4267694456
 20
60.6453238035
 30
0.0
  0
SPLINE
  5
469
100
AcDbEntity
  8
0
100
AcDbSpline
 62
7
  6
CONTINUOUS
 70
0
 71
3
 72
10
 73
6
 74
0
 42
0.0000001
 43
0.0000001
 44
0.0000000001
 40
0.0
 40
0.0
 40
0.0
 40
0.0
 40
0.2281450702
 40
0.4752816799
 40
1.0
 40
1.0
 40
1.0
 40
1.0
 10
94.5798437872
 20
113.7922840212
 30
0.0
 10
94.5798437872
 20
113.6735302393
 30
0.0
 10
94.6030466373
 20
113.4258428751
 30
0.0
 10
94.7273635042
 20
112.9192629681
 30
0.0
 10
94.8994086133
 20
112.5501269853
 30
0.0
 10
95.042344227
 20
112.3173887946
 30
0.0
  0
SPLINE
  5
46A
100
AcDbEntity
  8
0
100
AcDbSpline
 62
7
  6
CONTINUOUS
 70
0
 71
3
 72
15
 73
11
 74
0
 42
0.0000001
 43
0.0000001
 44
0.0000000001
 40
0.0
 40
0.0
 40
0.0
 40
0.0
 40
0.1141469224
 40
0.2373360366
 40
0.366976904
 40
0.5000005214
 40
0.6330240662
 40
0.7626647219
 40
0.8858535023
 40
1.0
 40
1.0
 40
1.0
 40
1.0
 10
76.9941001117
 20
114.9884236568
 30
0.0
 10
76.848888542
 20
115.072259699
 30
0.0
 10
76.5313161041
 20
115.2201177304
 30
0.0
 10
76.014208002
 20
115.3773178113
 30
0.0
 10
75.4543307878
 20
115.4740210651
 30
0.0
 10
74.8727761907
 20
115.5066865602
 30
0.0
 10
74.2912220586
 20
115.4740183049
 30
0.0
 10
73.7313462178
 20
115.3773123928
 30
0.0
 10
73.214240342
 20
115.2201098537
 30
0.0
 10
72.8966698496
 20
115.0722502362
 30
0.0
 10
72.7514594246
 20
114.9884134587
 30
0.0
  0
SPLINE
  5
46B
100
AcDbEntity
  8
0
100
AcDbSpline
 62
7
  6
CONTINUOUS
 70
0
 71
3
 72
11
 73
7
 74
0
 42
0.0000001
 43
0.0000001
 44
0.0000000001
 40
0.0
 40
0.0
 40
0.0
 40
0.0
 40
0.2639050385
 40
0.5243837017
 40
0.7722876283
 40
1.0
 40
1.0
 40
1.0
 40
1.0
 10
58.7684870758
 20
36.7444920577
 30
0.0
 10
58.9410371855
 20
36.3746498503
 30
0.0
 10
59.3346609321
 20
35.6623791988
 30
0.0
 10
60.0486487204
 20
34.7004546759
 30
0.0
 10
60.8521835365
 20
33.8886577154
 30
0.0
 10
61.4511114009
 20
33.453436217
 30
0.0
 10
61.756078659
 20
33.2773672716
 30
0.0
  0
SPLINE
  5
46C
100
AcDbEntity
  8
0
100
AcDbSpline
 62
7
  6
CONTINUOUS
 70
0
 71
3
 72
17
 73
13
 74
0
 42
0.0000001
 43
0.0000001
 44
0.0000000001
 40
0.0
 40
0.0
 40
0.0
 40
0.0
 40
0.1447771882
 40
0.2743250026
 40
0.3908140607
 40
0.4459174568
 40
0.4999980194
 40
0.554078673
 40
0.6091823343
 40
0.7256723493
 40
0.8552214523
 40
1.0
 40
1.0
 40
1.0
 40
1.0
 10
61.756078659
 20
33.2773672716
 30
0.0
 10
61.9865005093
 20
33.1443361639
 30
0.0
 10
62.4448356554
 20
32.9263281134
 30
0.0
 10
63.148778617
 20
32.756045009
 30
0.0
 10
63.7108441053
 20
32.7710987247
 30
0.0
 10
64.1122475113
 20
32.8821329366
 30
0.0
 10
64.3852933669
 20
33.0100232865
 30
0.0
 10
64.6325686839
 20
33.1825491886
 30
0.0
 10
64.929423595
 20
33.4746663661
 30
0.0
 10
65.2234856137
 20
33.9539123431
 30
0.0
 10
65.4279787958
 20
34.6486956519
 30
0.0
 10
65.468340624
 20
35.1546347676
 30
0.0
 10
65.4683406241
 20
35.4207039958
 30
0.0
  0
SPLINE
  5
46D
100
AcDbEntity
  8
0
100
AcDbSpline
 62
7
  6
CONTINUOUS
 70
0
 71
3
 72
11
 73
7
 74
0
 42
0.0000001
 43
0.0000001
 44
0.0000000001
 40
0.0
 40
0.0
 40
0.0
 40
0.0
 40
0.2277133044
 40
0.4756173838
 40
0.7360956208
 40
1.0
 40
1.0
 40
1.0
 40
1.0
 10
65.4683406241
 20
35.4207039958
 30
0.0
 10
65.4683406244
 20
35.772843504
 30
0.0
 10
65.3908884824
 20
36.5091297834
 30
0.0
 10
65.0896222796
 20
37.6108920728
 30
0.0
 10
64.6135753908
 20
38.7101671119
 30
0.0
 10
64.1935535488
 20
39.4071793476
 30
0.0
 10
63.9595421248
 20
39.7415281681
 30
0.0
  0
SPLINE
  5
46E
100
AcDbEntity
  8
0
100
AcDbSpline
 62
7
  6
CONTINUOUS
 70
0
 71
3
 72
11
 73
7
 74
0
 42
0.0000001
 43
0.0000001
 44
0.0000000001
 40
0.0
 40
0.0
 40
0.0
 40
0.0
 40
0.2277892717
 40
0.4765581969
 40
0.7374522538
 40
1.0
 40
1.0
 40
1.0
 40
1.0
 10
54.1385008345
 20
45.4952572603
 30
0.0
 10
54.1385008345
 20
46.0242300621
 30
0.0
 10
54.2629157275
 20
47.1321184048
 30
0.0
 10
54.7419462241
 20
48.7829781156
 30
0.0
 10
55.4941303211
 20
50.4175270614
 30
0.0
 10
56.1559434589
 20
51.4429916227
 30
0.0
 10
56.5235620774
 20
51.9293836945
 30
0.0
  0
SPLINE
  5
46F
100
AcDbEntity
  8
0
100
AcDbSpline
 62
7
  6
CONTINUOUS
 70
0
 71
3
 72
13
 73
9
 74
0
 42
0.0000001
 43
0.0000001
 44
0.0000000001
 40
0.0
 40
0.0
 40
0.0
 40
0.0
 40
0.1142260229
 40
0.2375602528
 40
0.5000015383
 40
0.7624419778
 40
0.8857752456
 40
1.0
 40
1.0
 40
1.0
 40
1.0
 10
56.5235620774
 20
70.550834888
 30
0.0
 10
56.5235620774
 20
70.6625958654
 30
0.0
 10
56.5440660215
 20
70.8952608518
 30
0.0
 10
56.6552085533
 20
71.3728832032
 30
0.0
 10
56.9135135254
 20
71.9586930002
 30
0.0
 10
57.2916839585
 20
72.4752979278
 30
0.0
 10
57.6497427609
 20
72.8103602296
 30
0.0
 10
57.8409828368
 20
72.9444484121
 30
0.0
 10
57.9377697519
 20
73.00032803
 30
0.0
  0
SPLINE
  5
470
100
AcDbEntity
  8
0
100
AcDbSpline
 62
7
  6
CONTINUOUS
 70
0
 71
3
 72
11
 73
7
 74
0
 42
0.0000001
 43
0.0000001
 44
0.0000000001
 40
0.0
 40
0.0
 40
0.0
 40
0.0
 40
0.2277405459
 40
0.475241044
 40
0.7354778696
 40
1.0
 40
1.0
 40
1.0
 40
1.0
 10
92.9040489086
 20
106.4153239632
 30
0.0
 10
92.7054223678
 20
106.3006475609
 30
0.0
 10
92.3148023866
 20
106.0190104603
 30
0.0
 10
91.7876799387
 20
105.4952457467
 30
0.0
 10
91.3152261272
 20
104.874642047
 30
0.0
 10
91.0512382734
 20
104.4148215661
 30
0.0
 10
90.9339682804
 20
104.1756259085
 30
0.0
  0
SPLINE
  5
471
100
AcDbEntity
  8
0
100
AcDbSpline
 62
7
  6
CONTINUOUS
 70
0
 71
3
 72
11
 73
7
 74
0
 42
0.0000001
 43
0.0000001
 44
0.0000000001
 40
0.0
 40
0.0
 40
0.0
 40
0.0
 40
0.2177723091
 40
0.4509273687
 40
0.7102218233
 40
1.0
 40
1.0
 40
1.0
 40
1.0
 10
81.4083151735
 20
111.7224874225
 30
0.0
 10
81.408315172
 20
111.8367485527
 30
0.0
 10
81.3661174872
 20
112.0749326594
 30
0.0
 10
81.1855479733
 20
112.4067238523
 30
0.0
 10
80.9001766152
 20
112.706755431
 30
0.0
 10
80.6613210984
 20
112.8712005309
 30
0.0
 10
80.5296487375
 20
112.9472198842
 30
0.0
  0
SPLINE
  5
472
100
AcDbEntity
  8
0
100
AcDbSpline
 62
7
  6
CONTINUOUS
 70
0
 71
3
 72
11
 73
7
 74
0
 42
0.0000001
 43
0.0000001
 44
0.0000000001
 40
0.0
 40
0.0
 40
0.0
 40
0.0
 40
0.2177825102
 40
0.4509091639
 40
0.7102957096
 40
1.0
 40
1.0
 40
1.0
 40
1.0
 10
56.9377917087
 20
36.1586721328
 30
0.0
 10
56.871818426
 20
36.1967609713
 30
0.0
 10
56.7483849551
 20
36.3005302779
 30
0.0
 10
56.6169755704
 20
36.5153901683
 30
0.0
 10
56.5389261684
 20
36.780178207
 30
0.0
 10
56.5235620774
 20
36.9728990395
 30
0.0
 10
56.5235620774
 20
37.0742357857
 30
0.0
  0
SPLINE
  5
473
100
AcDbEntity
  8
0
100
AcDbSpline
 62
7
  6
CONTINUOUS
 70
0
 71
3
 72
12
 73
8
 74
0
 42
0.0000001
 43
0.0000001
 44
0.0000000001
 40
0.0
 40
0.0
 40
0.0
 40
0.0
 40
0.1081709576
 40
0.2183599935
 40
0.4513630804
 40
0.7104204736
 40
1.0
 40
1.0
 40
1.0
 40
1.0
 10
55.6655393262
 20
42.1199988593
 30
0.0
 10
55.5446393988
 20
42.1897860511
 30
0.0
 10
55.3122388639
 20
42.3520181582
 30
0.0
 10
54.895309531
 20
42.7621064117
 30
0.0
 10
54.4824279371
 20
43.4352850597
 30
0.0
 10
54.1951310476
 20
44.4109939019
 30
0.0
 10
54.1385008345
 20
45.1215511765
 30
0.0
 10
54.1385008345
 20
45.4952572603
 30
0.0
  0
SPLINE
  5
474
100
AcDbEntity
  8
0
100
AcDbSpline
 62
7
  6
CONTINUOUS
 70
0
 71
3
 72
16
 73
12
 74
0
 42
0.0000001
 43
0.0000001
 44
0.0000000001
 40
0.0
 40
0.0
 40
0.0
 40
0.0
 40
0.1500712728
 40
0.3004171445
 40
0.4460042749
 40
0.5822903038
 40
0.7058515479
 40
0.8151319443
 40
0.9113967577
 40
0.9562409972
 40
1.0
 40
1.0
 40
1.0
 40
1.0
 10
59.3638447015
 20
37.1043233042
 30
0.0
 10
59.4584950521
 20
36.8701314001
 30
0.0
 10
59.6800636375
 20
36.4136849262
 30
0.0
 10
60.0930983459
 20
35.7844358865
 30
0.0
 10
60.5707190607
 20
35.2325793801
 30
0.0
 10
61.089680585
 20
34.7851794426
 30
0.0
 10
61.6259485298
 20
34.4639911272
 30
0.0
 10
62.1555804991
 20
34.2849067176
 30
0.0
 10
62.5848600726
 20
34.266329118
 30
0.0
 10
62.8892940782
 20
34.3382662059
 30
0.0
 10
63.026216495
 20
34.4001705093
 30
0.0
 10
63.090009183
 20
34.4369860906
 30
0.0
  0
SPLINE
  5
475
100
AcDbEntity
  8
0
100
AcDbSpline
 62
7
  6
CONTINUOUS
 70
0
 71
3
 72
11
 73
7
 74
0
 42
0.0000001
 43
0.0000001
 44
0.0000000001
 40
0.0
 40
0.0
 40
0.0
 40
0.0
 40
0.2631245503
 40
0.5238630415
 40
0.7722623789
 40
1.0
 40
1.0
 40
1.0
 40
1.0
 10
63.0960664497
 20
39.2486546075
 30
0.0
 10
63.2987559917
 20
38.9720037666
 30
0.0
 10
63.6631942956
 20
38.3914920997
 30
0.0
 10
64.0769501726
 20
37.4703065997
 30
0.0
 10
64.3397531891
 20
36.5429003577
 30
0.0
 10
64.4077266143
 20
35.9216278211
 30
0.0
 10
64.4077266141
 20
35.6247951727
 30
0.0
  0
SPLINE
  5
476
100
AcDbEntity
  8
0
100
AcDbSpline
 62
7
  6
CONTINUOUS
 70
0
 71
3
 72
11
 73
7
 74
0
 42
0.0000001
 43
0.0000001
 44
0.0000000001
 40
0.0
 40
0.0
 40
0.0
 40
0.0
 40
0.2897026209
 40
0.5490908265
 40
0.782219764
 40
1.0
 40
1.0
 40
1.0
 40
1.0
 10
62.8893040106
 20
41.649009343
 30
0.0
 10
62.8893040106
 20
41.7756798297
 30
0.0
 10
62.8700991431
 20
42.0165812317
 30
0.0
 10
62.7725423122
 20
42.3475692343
 30
0.0
 10
62.608276947
 20
42.616146261
 30
0.0
 10
62.4539812796
 20
42.7458504575
 30
0.0
 10
62.3715189443
 20
42.7934673357
 30
0.0
  0
SPLINE
  5
477
100
AcDbEntity
  8
0
100
AcDbSpline
 62
7
  6
CONTINUOUS
 70
0
 71
3
 72
11
 73
7
 74
0
 42
0.0000001
 43
0.0000001
 44
0.0000000001
 40
0.0
 40
0.0
 40
0.0
 40
0.0
 40
0.2277366822
 40
0.4761358749
 40
0.7368747997
 40
1.0
 40
1.0
 40
1.0
 40
1.0
 10
61.4025267404
 20
33.889692609
 30
0.0
 10
61.1454576678
 20
34.0381081497
 30
0.0
 10
60.6413973891
 20
34.40761337
 30
0.0
 10
59.9696304658
 20
35.0989200984
 30
0.0
 10
59.378729587
 20
35.9178509821
 30
0.0
 10
59.0582076521
 20
36.5237319019
 30
0.0
 10
58.9199649498
 20
36.8375981058
 30
0.0
  0
SPLINE
  5
478
100
AcDbEntity
  8
0
100
AcDbSpline
 62
7
  6
CONTINUOUS
 70
0
 71
3
 72
9
 73
5
 74
0
 42
0.0000001
 43
0.0000001
 44
0.0000000001
 40
0.0
 40
0.0
 40
0.0
 40
0.0
 40
0.2552016628
 40
1.0
 40
1.0
 40
1.0
 40
1.0
 10
64.4077266141
 20
35.6247951727
 30
0.0
 10
64.4077266141
 20
35.5932114815
 30
0.0
 10
64.4062505178
 20
35.4694586051
 30
0.0
 10
64.3987821705
 20
35.3457579289
 30
0.0
 10
64.3894849282
 20
35.2540519581
 30
0.0
  0
SPLINE
  5
479
100
AcDbEntity
  8
0
100
AcDbSpline
 62
7
  6
CONTINUOUS
 70
0
 71
3
 72
15
 73
11
 74
0
 42
0.0000001
 43
0.0000001
 44
0.0000000001
 40
0.0
 40
0.0
 40
0.0
 40
0.0
 40
0.1387616578
 40
0.2636918858
 40
0.37809509
 40
0.487603182
 40
0.5992737759
 40
0.7194941081
 40
0.8525447398
 40
1.0
 40
1.0
 40
1.0
 40
1.0
 10
64.3894849282
 20
35.2540519581
 30
0.0
 10
64.3704007059
 20
35.0658093491
 30
0.0
 10
64.3042185124
 20
34.7097230577
 30
0.0
 10
64.1011056863
 20
34.2305944441
 30
0.0
 10
63.8019853871
 20
33.851997844
 30
0.0
 10
63.4147138559
 20
33.5935489095
 30
0.0
 10
62.9583023416
 20
33.4695501928
 30
0.0
 10
62.4551017598
 20
33.4810208143
 30
0.0
 10
61.9231461266
 20
33.6221227517
 30
0.0
 10
61.5766522024
 20
33.7891635009
 30
0.0
 10
61.4025267404
 20
33.889692609
 30
0.0
  0
SPLINE
  5
47A
100
AcDbEntity
  8
0
100
AcDbSpline
 62
7
  6
CONTINUOUS
 70
0
 71
3
 72
11
 73
7
 74
0
 42
0.0000001
 43
0.0000001
 44
0.0000000001
 40
0.0
 40
0.0
 40
0.0
 40
0.0
 40
0.2897026209
 40
0.5490908265
 40
0.782219764
 40
1.0
 40
1.0
 40
1.0
 40
1.0
 10
98.2426884731
 20
53.4855181431
 30
0.0
 10
98.2426884731
 20
53.6121886298
 30
0.0
 10
98.2234836056
 20
53.8530900318
 30
0.0
 10
98.1259267747
 20
54.1840780344
 30
0.0
 10
97.9616614095
 20
54.4526550611
 30
0.0
 10
97.8073657421
 20
54.5823592576
 30
0.0
 10
97.7249034068
 20
54.6299761358
 30
0.0
  0
SPLINE
  5
47B
100
AcDbEntity
  8
0
100
AcDbSpline
 62
7
  6
CONTINUOUS
 70
0
 71
3
 72
11
 73
7
 74
0
 42
0.0000001
 43
0.0000001
 44
0.0000000001
 40
0.0
 40
0.0
 40
0.0
 40
0.0
 40
0.2645221304
 40
0.524758956
 40
0.7722594541
 40
1.0
 40
1.0
 40
1.0
 40
1.0
 10
91.6057225193
 20
103.7877971917
 30
0.0
 10
91.7229925123
 20
104.0269928493
 30
0.0
 10
91.9869803661
 20
104.4868133302
 30
0.0
 10
92.4594341776
 20
105.1074170299
 30
0.0
 10
92.9865566254
 20
105.6311817435
 30
0.0
 10
93.3771766066
 20
105.9128188441
 30
0.0
 10
93.5758031475
 20
106.0274952464
 30
0.0
  0
SPLINE
  5
47C
100
AcDbEntity
  8
0
100
AcDbSpline
 62
7
  6
CONTINUOUS
 70
0
 71
3
 72
11
 73
7
 74
0
 42
0.0000001
 43
0.0000001
 44
0.0000000001
 40
0.0
 40
0.0
 40
0.0
 40
0.0
 40
0.2897026209
 40
0.5490908265
 40
0.782219764
 40
1.0
 40
1.0
 40
1.0
 40
1.0
 10
97.8891365545
 20
103.0895745311
 30
0.0
 10
97.8891365545
 20
103.2162450178
 30
0.0
 10
97.869931687
 20
103.4571464198
 30
0.0
 10
97.7723748561
 20
103.7881344224
 30
0.0
 10
97.6081094908
 20
104.0567114491
 30
0.0
 10
97.4538138235
 20
104.1864156456
 30
0.0
 10
97.3713514882
 20
104.2340325238
 30
0.0
  0
SPLINE
  5
47D
100
AcDbEntity
  8
0
100
AcDbSpline
 62
7
  6
CONTINUOUS
 70
0
 71
3
 72
11
 73
7
 74
0
 42
0.0000001
 43
0.0000001
 44
0.0000000001
 40
0.0
 40
0.0
 40
0.0
 40
0.0
 40
0.2893975675
 40
0.5491290883
 40
0.7823145228
 40
1.0
 40
1.0
 40
1.0
 40
1.0
 10
55.6750374728
 20
46.3823718066
 30
0.0
 10
55.6750374728
 20
46.4228624881
 30
0.0
 10
55.6688145844
 20
46.4999405164
 30
0.0
 10
55.6377138326
 20
46.6059013384
 30
0.0
 10
55.5850977926
 20
46.6918713515
 30
0.0
 10
55.5357181841
 20
46.7333615001
 30
0.0
 10
55.5093305893
 20
46.7485711862
 30
0.0
  0
SPLINE
  5
47E
100
AcDbEntity
  8
0
100
AcDbSpline
 62
7
  6
CONTINUOUS
 70
0
 71
3
 72
17
 73
13
 74
0
 42
0.0000001
 43
0.0000001
 44
0.0000000001
 40
0.0
 40
0.0
 40
0.0
 40
0.0
 40
0.0428590154
 40
0.087484945
 40
0.1353191404
 40
0.1872810096
 40
0.3045411455
 40
0.4382064078
 40
0.5825480614
 40
0.7297123844
 40
0.8713056989
 40
1.0
 40
1.0
 40
1.0
 40
1.0
 10
95.2249543533
 20
50.2998393811
 30
0.0
 10
95.2865844832
 20
50.264251808
 30
0.0
 10
95.4224590946
 20
50.2078331542
 30
0.0
 10
95.6467077538
 20
50.1749200076
 30
0.0
 10
95.8875436349
 20
50.1926667075
 30
0.0
 10
96.237472451
 20
50.2857401613
 30
0.0
 10
96.6848015689
 20
50.5303482356
 30
0.0
 10
97.1790286424
 20
50.9680450305
 30
0.0
 10
97.6159237987
 20
51.5272377405
 30
0.0
 10
97.9597547953
 20
52.1627654009
 30
0.0
 10
98.1829114247
 20
52.8224981567
 30
0.0
 10
98.2426884731
 20
53.2718223075
 30
0.0
 10
98.2426884731
 20
53.4855181431
 30
0.0
  0
SPLINE
  5
47F
100
AcDbEntity
  8
0
100
AcDbSpline
 62
7
  6
CONTINUOUS
 70
0
 71
3
 72
17
 73
13
 74
0
 42
0.0000001
 43
0.0000001
 44
0.0000000001
 40
0.0
 40
0.0
 40
0.0
 40
0.0
 40
0.0428590154
 40
0.087484945
 40
0.1353191404
 40
0.1872810096
 40
0.3045411455
 40
0.4382064078
 40
0.5825480614
 40
0.7297123844
 40
0.8713056989
 40
1.0
 40
1.0
 40
1.0
 40
1.0
 10
59.8715698908
 20
38.463330581
 30
0.0
 10
59.9332000207
 20
38.4277430079
 30
0.0
 10
60.0690746321
 20
38.3713243541
 30
0.0
 10
60.2933232914
 20
38.3384112075
 30
0.0
 10
60.5341591724
 20
38.3561579073
 30
0.0
 10
60.8840879886
 20
38.4492313612
 30
0.0
 10
61.3314171064
 20
38.6938394355
 30
0.0
 10
61.8256441799
 20
39.1315362304
 30
0.0
 10
62.2625393362
 20
39.6907289404
 30
0.0
 10
62.6063703328
 20
40.3262566008
 30
0.0
 10
62.8295269622
 20
40.9859893565
 30
0.0
 10
62.8893040106
 20
41.4353135074
 30
0.0
 10
62.8893040106
 20
41.649009343
 30
0.0
  0
ELLIPSE
  5
480
100
AcDbEntity
  8
0
100
AcDbEllipse
 62
7
  6
CONTINUOUS
 10
78.774081038
 20
124.8341383165
 30
0.0
 11
-1.2246670841
 21
1.5979848223
 31
0.0
 40
0.4692948502
 41
0.7239831172
 42
1.9430984412
  0
ELLIPSE
  5
481
100
AcDbEntity
  8
0
100
AcDbEllipse
 62
7
  6
CONTINUOUS
 10
97.6539106995
 20
113.9341101708
 30
0.0
 11
-1.2246670841
 21
1.5979848223
 31
0.0
 40
0.4692948502
 41
0.7239831172
 42
1.9430984412
  0
ENDSEC
  0
SECTION
  2
OBJECTS
  0
DICTIONARY
  5
C
100
AcDbDictionary
280
0
281
1
  3
ACAD_GROUP
350
D
  3
ACAD_MLINESTYLE
350
17
  3
ACAD_LAYOUT
350
1A
  3
ACAD_PLOTSETTINGS
350
19
  3
ACAD_PLOTSTYLENAME
350
E
  0
DICTIONARY
  5
D
102
{ACAD_REACTORS
330
C
102
}
100
AcDbDictionary
280
0
281
1
  0
ACDBDICTIONARYWDFLT
  5
E
102
{ACAD_REACTORS
330
C
102
}
100
AcDbDictionary
281
1
  3
Normal
350
F
100
AcDbDictionaryWithDefault
340
F
  0
DICTIONARY
  5
17
102
{ACAD_REACTORS
330
C
102
}
100
AcDbDictionary
280
0
281
1
  3
Standard
350
18
  0
DICTIONARY
  5
19
102
{ACAD_REACTORS
330
C
102
}
100
AcDbDictionary
281
1
  0
DICTIONARY
  5
1A
102
{ACAD_REACTORS
330
C
102
}
100
AcDbDictionary
281
1
  3
Model
350
482
  3
Layout1
350
483
  0
ACDBPLACEHOLDER
  5
F
102
{ACAD_REACTORS
330
E
102
}
  0
MLINESTYLE
  5
18
102
{ACAD_REACTORS
330
17
102
}
100
AcDbMlineStyle
  2
STANDARD
 70
0
  3

 62
256
 51
90.0
 52
90.0
 71
2
 49
0.5
 62
256
  6
BYLAYER
 49
-0.5
 62
256
  6
BYLAYER
  0
LAYOUT
  5
482
102
{ACAD_REACTORS
330
1A
102
}
100
AcDbPlotSettings
  1

  2
none_device
  4

  6

 40
0.0
 41
0.0
 42
0.0
 43
0.0
 44
210.0
 45
297.0
 46
0.0
 47
0.0
 48
0.0
 49
0.0
140
0.0
141
0.0
142
1.0
143
1.0
 70
1024
 72
1
 73
0
 74
0
  7

 75
0
147
1.0
148
0.0
149
0.0
100
AcDbLayout
  1
Model
 70
0
 71
0
 10
0.0
 20
0.0
 11
210.0
 21
297.0
 12
0.0
 22
0.0
 32
0.0
 14
0.0
 24
0.0
 34
0.0
 15
0.0
 25
0.0
 35
0.0
146
0.0
 13
0.0
 23
0.0
 33
0.0
 16
1.0
 26
0.0
 36
0.0
 17
0.0
 27
1.0
 37
0.0
 76
0
330
210
345
0
346
0
  0
LAYOUT
  5
483
102
{ACAD_REACTORS
330
1A
102
}
100
AcDbPlotSettings
  1

  2
none_device
  4

  6

 40
0.0
 41
0.0
 42
0.0
 43
0.0
 44
210.0
 45
297.0
 46
0.0
 47
0.0
 48
0.0
 49
0.0
140
0.0
141
0.0
142
1.0
143
1.0
 70
0
 72
1
 73
0
 74
0
  7

 75
0
147
1.0
148
0.0
149
0.0
100
AcDbLayout
  1
Layout1
 70
0
 71
1
 10
0.0
 20
0.0
 11
210.0
 21
297.0
 12
0.0
 22
0.0
 32
0.0
 14
0.0
 24
0.0
 34
0.0
 15
0.0
 25
0.0
 35
0.0
146
0.0
 13
0.0
 23
0.0
 33
0.0
 16
1.0
 26
0.0
 36
0.0
 17
0.0
 27
1.0
 37
0.0
 76
0
330
211
345
0
346
0
  0
ENDSEC
  0
EOF
