999
DXF file: C:\Users\sesa63760\Documents\7-Dev\_Creo\CAD\MCADFD0001387_3D-CAD\drw0001_1.dxf
999
Pro/ENGINEER 2019471 by Parametric Technology Corporation
  0
SECTION
  2
HEADER
  9
$ACADVER
  1
AC1024
  9
$DWGCODEPAGE
  3
ANSI_1252
  9
$EXTMAX
 10
138.3325539031
 20
195.6417548058
 30
0.0
  9
$EXTMIN
 10
0.0
 20
0.0
 30
0.0
  9
$LIMMIN
 10
0.0
 20
0.0
  9
$LIMMAX
 10
138.3325539031
 20
195.6417548058
  9
$VIEWCTR
 10
69.1662769515
 20
97.8208774029
  9
$VIEWSIZE
 40
195.6417548058
  9
$CLAYER
  8
0
  9
$LTSCALE
 40
12.752944017
  9
$CELTYPE
  6
BYLAYER
  9
$DIMSCALE
 40
1.0
  9
$DIMASZ
 40
1.6468161179
  9
$DIMEXO
 40
1.0
  9
$DIMDLI
 40
8.8111249572
  9
$DIMEXE
 40
1.0
  9
$DIMCEN
 40
2.0868453846
  9
$DIMLFAC
 40
1.0
  9
$DIMBLK
  1
_FILLED
  9
$DIMALT
 70
0
  9
$DIMALTF
 40
0.0393700787
  9
$DIMTXT
 40
2.3055425651
  9
$DIMTOL
 70
1
  9
$DIMLIM
 70
0
  9
$DIMTFAC
 40
1.0
  9
$DIMTP
 40
0.01
  9
$DIMTM
 40
0.01
  9
$DIMGAP
 40
0.625
  9
$DIMDSEP
 70
46
  9
$AUNITS
 70
0
  9
$PDMODE
 70
3
  9
$PDSIZE
 40
0.3125
  9
$HANDSEED
  5
546
  9
$TILEMODE
 70
1
  9
$MEASUREMENT
 70
1
  9
$INSUNITS
 70
4
  0
ENDSEC
  0
SECTION
  2
CLASSES
  0
CLASS
  1
ACDBDICTIONARYWDFLT
  2
AcDbDictionaryWithDefault
  3
AutoCAD 2000
 90
0
 91
1
280
0
281
0
  0
CLASS
  1
ACDBPLACEHOLDER
  2
AcDbPlaceHolder
  3
AutoCAD 2000
 90
0
 91
1
280
0
281
0
  0
CLASS
  1
LAYOUT
  2
AcDbLayout
  3
AutoCAD 2000
 90
0
 91
0
280
0
281
0
  0
ENDSEC
  0
SECTION
  2
TABLES
  0
TABLE
  2
VPORT
  5
8
100
AcDbSymbolTable
 70
2
  0
VPORT
  5
1F4
100
AcDbSymbolTableRecord
100
AcDbViewportTableRecord
  2
*ACTIVE
 70
0
 10
0.0
 20
0.0
 11
1.0
 21
1.0
 12
69.1662769515
 22
97.8208774029
 13
0.0
 23
0.0
 14
1.0
 24
1.0
 15
0.0
 25
0.0
 16
0.0
 26
0.0
 36
1.0
 17
0.0
 27
0.0
 37
0.0
 40
195.6417548058
 41
0.7070707071
 42
50.0
 43
0.0
 44
0.0
 50
0.0
 51
0.0
 71
0
 72
100
 73
1
 74
1
 75
0
 76
0
 77
0
 78
0
  0
ENDTAB
  0
TABLE
  2
LTYPE
  5
5
100
AcDbSymbolTable
 70
6
  0
LTYPE
  5
14
100
AcDbSymbolTableRecord
100
AcDbLinetypeTableRecord
  2
BYBLOCK
 70
0
  3

 72
65
 73
0
 40
0.0
  0
LTYPE
  5
15
100
AcDbSymbolTableRecord
100
AcDbLinetypeTableRecord
  2
BYLAYER
 70
0
  3

 72
65
 73
0
 40
0.0
  0
LTYPE
  5
16
100
AcDbSymbolTableRecord
100
AcDbLinetypeTableRecord
  2
CONTINUOUS
 70
64
  3
Solid line
 72
65
 73
0
 40
0.0
  0
LTYPE
  5
1F5
100
AcDbSymbolTableRecord
100
AcDbLinetypeTableRecord
  2
CENTER
 70
64
  3
____ _ ____ _ ____ _ ____ _ ____ _ ____ _ ____
 72
65
 73
4
 40
0.6
 49
0.375
 74
0
 49
-0.075
 74
0
 49
0.075
 74
0
 49
-0.075
 74
0
  0
LTYPE
  5
1F6
100
AcDbSymbolTableRecord
100
AcDbLinetypeTableRecord
  2
HIDDEN
 70
64
  3
- - - - - - - - - - - - - - - - - - - -
 72
65
 73
2
 40
0.2
 49
0.1
 74
0
 49
-0.1
 74
0
  0
LTYPE
  5
1F7
100
AcDbSymbolTableRecord
100
AcDbLinetypeTableRecord
  2
PHANTOM
 70
64
  3
_____ _ _ _____ _ _ _____ _ _ _____
 72
65
 73
6
 40
0.8
 49
0.45
 74
0
 49
-0.05
 74
0
 49
0.1
 74
0
 49
-0.05
 74
0
 49
0.1
 74
0
 49
-0.05
 74
0
  0
LTYPE
  5
1F8
100
AcDbSymbolTableRecord
100
AcDbLinetypeTableRecord
  2
DOT
 70
64
  3
. . . . . . . . . . . . . . . . . . . .
 72
65
 73
2
 40
0.2
 49
0.1
 74
0
 49
-0.1
 74
0
  0
LTYPE
  5
1F9
100
AcDbSymbolTableRecord
100
AcDbLinetypeTableRecord
  2
DASHED
 70
64
  3
- - - - - - - - - - - - - - - - - - - -
 72
65
 73
2
 40
0.2
 49
0.1
 74
0
 49
-0.1
 74
0
  0
ENDTAB
  0
TABLE
  2
LAYER
  5
2
100
AcDbSymbolTable
 70
36
  0
LAYER
  5
10
100
AcDbSymbolTableRecord
100
AcDbLayerTableRecord
  2
0
 70
0
 62
7
  6
CONTINUOUS
370
-3
390
F
  0
LAYER
  5
1FA
100
AcDbSymbolTableRecord
100
AcDbLayerTableRecord
  2
DEFAULT_1
 70
0
 62
7
  6
CENTER
370
-3
390
F
  0
LAYER
  5
1FB
100
AcDbSymbolTableRecord
100
AcDbLayerTableRecord
  2
DEFAULT_2
 70
0
 62
8
  6
HIDDEN
370
-3
390
F
  0
LAYER
  5
1FC
100
AcDbSymbolTableRecord
100
AcDbLayerTableRecord
  2
DEFAULT_3
 70
0
 62
7
  6
PHANTOM
370
-3
390
F
  0
LAYER
  5
1FD
100
AcDbSymbolTableRecord
100
AcDbLayerTableRecord
  2
00_COMPONENTS
 70
0
 62
7
  6
CONTINUOUS
370
-3
390
F
  0
LAYER
  5
1FE
100
AcDbSymbolTableRecord
100
AcDbLayerTableRecord
  2
01_1_DEFAULT_DATUMS
 70
0
 62
7
  6
CONTINUOUS
370
-3
390
F
  0
LAYER
  5
1FF
100
AcDbSymbolTableRecord
100
AcDbLayerTableRecord
  2
01_PLANES
 70
0
 62
7
  6
CONTINUOUS
370
-3
390
F
  0
LAYER
  5
200
100
AcDbSymbolTableRecord
100
AcDbLayerTableRecord
  2
02_COORD_SYS
 70
0
 62
7
  6
CONTINUOUS
370
-3
390
F
  0
LAYER
  5
201
100
AcDbSymbolTableRecord
100
AcDbLayerTableRecord
  2
03_AXES
 70
0
 62
7
  6
CONTINUOUS
370
-3
390
F
  0
LAYER
  5
202
100
AcDbSymbolTableRecord
100
AcDbLayerTableRecord
  2
04_POINTS
 70
0
 62
7
  6
CONTINUOUS
370
-3
390
F
  0
LAYER
  5
203
100
AcDbSymbolTableRecord
100
AcDbLayerTableRecord
  2
05_CURVES
 70
0
 62
7
  6
CONTINUOUS
370
-3
390
F
  0
LAYER
  5
204
100
AcDbSymbolTableRecord
100
AcDbLayerTableRecord
  2
06_SURFS
 70
0
 62
7
  6
CONTINUOUS
370
-3
390
F
  0
LAYER
  5
205
100
AcDbSymbolTableRecord
100
AcDbLayerTableRecord
  2
07_COSMETICS
 70
0
 62
7
  6
CONTINUOUS
370
-3
390
F
  0
LAYER
  5
206
100
AcDbSymbolTableRecord
100
AcDbLayerTableRecord
  2
10_NOTES
 70
0
 62
7
  6
CONTINUOUS
370
-3
390
F
  0
LAYER
  5
207
100
AcDbSymbolTableRecord
100
AcDbLayerTableRecord
  2
11_NOTES_PUB
 70
0
 62
7
  6
CONTINUOUS
370
-3
390
F
  0
LAYER
  5
208
100
AcDbSymbolTableRecord
100
AcDbLayerTableRecord
  2
13_REF_GTOL
 70
0
 62
7
  6
CONTINUOUS
370
-3
390
F
  0
LAYER
  5
209
100
AcDbSymbolTableRecord
100
AcDbLayerTableRecord
  2
16_MISC
 70
0
 62
7
  6
CONTINUOUS
370
-3
390
F
  0
LAYER
  5
20A
100
AcDbSymbolTableRecord
100
AcDbLayerTableRecord
  2
17_NO_PRINT
 70
0
 62
7
  6
CONTINUOUS
370
-3
390
F
  0
LAYER
  5
20B
100
AcDbSymbolTableRecord
100
AcDbLayerTableRecord
  2
18_DATUM_CAMS_JOINTS
 70
0
 62
7
  6
CONTINUOUS
370
-3
390
F
  0
LAYER
  5
20C
100
AcDbSymbolTableRecord
100
AcDbLayerTableRecord
  2
19_DATUM_FUNCTIONAL
 70
0
 62
7
  6
CONTINUOUS
370
-3
390
F
  0
LAYER
  5
20D
100
AcDbSymbolTableRecord
100
AcDbLayerTableRecord
  2
20_DATUM_KINEMATIC_SCHEME
 70
0
 62
7
  6
CONTINUOUS
370
-3
390
F
  0
ENDTAB
  0
TABLE
  2
STYLE
  5
3
100
AcDbSymbolTable
 70
1
  0
STYLE
  5
11
100
AcDbSymbolTableRecord
100
AcDbTextStyleTableRecord
  2
STANDARD
 70
0
 40
0.0
 41
0.8
 50
0.0
 71
0
 42
0.2
  3
txt
  4

  0
STYLE
  5
20E
100
AcDbSymbolTableRecord
100
AcDbTextStyleTableRecord
  2
TEXTSTYLE_1
 70
0
 40
0.0
 41
0.8
 50
0.0
 71
0
 42
0.2
  3
gdt
  4

  0
ENDTAB
  0
TABLE
  2
VIEW
  5
6
100
AcDbSymbolTable
 70
0
  0
ENDTAB
  0
TABLE
  2
UCS
  5
7
100
AcDbSymbolTable
 70
0
  0
ENDTAB
  0
TABLE
  2
APPID
  5
9
100
AcDbSymbolTable
 70
1
  0
APPID
  5
20F
100
AcDbSymbolTableRecord
100
AcDbRegAppTableRecord
  2
ACAD
 70
0
  0
ENDTAB
  0
TABLE
  2
BLOCK_RECORD
  5
1
100
AcDbSymbolTable
 70
0
  0
BLOCK_RECORD
  5
210
100
AcDbSymbolTableRecord
100
AcDbBlockTableRecord
  2
*Model_Space
  0
BLOCK_RECORD
  5
211
100
AcDbSymbolTableRecord
100
AcDbBlockTableRecord
  2
*Paper_Space
  0
BLOCK_RECORD
  5
212
100
AcDbSymbolTableRecord
100
AcDbBlockTableRecord
  2
_FILLED
  0
ENDTAB
  0
TABLE
  2
DIMSTYLE
  5
A
100
AcDbSymbolTable
 70
1
100
AcDbDimStyleTable
 71
0
  0
DIMSTYLE
105
213
100
AcDbSymbolTableRecord
100
AcDbDimStyleTableRecord
  2
STANDARD
 70
0
  3

  4

 40
1.0
 41
1.6468161179
 42
1.0
 43
0.38
 44
1.0
 45
0.0
 46
0.0
 47
0.01
 48
0.01
140
2.3055425651
141
0.09
142
0.0
143
25.4
144
1.0
145
0.0
146
1.0
147
0.625
 71
1
 72
0
 73
0
 74
0
 75
0
 76
0
 77
1
 78
8
 79
2
170
0
171
1
172
0
173
0
174
0
175
0
176
0
177
0
178
0
270
2
179
2
271
2
272
2
273
2
274
2
275
0
280
0
281
0
282
0
283
1
284
8
285
0
286
0
287
3
288
0
340
11
278
46
341
212
342
212
343
212
344
212
  0
ENDTAB
  0
ENDSEC
  0
SECTION
  2
BLOCKS
  0
BLOCK
  5
20
100
AcDbEntity
  8
0
100
AcDbBlockBegin
  2
*Model_Space
 70
0
 10
0.0
 20
0.0
 30
0.0
  3
*Model_Space
  1

  0
ENDBLK
  5
21
100
AcDbEntity
  8
0
100
AcDbBlockEnd
  0
BLOCK
  5
1C
100
AcDbEntity
  8
0
100
AcDbBlockBegin
  2
*Paper_Space
 70
0
 10
0.0
 20
0.0
 30
0.0
  3
*Paper_Space
  1

  0
ENDBLK
  5
1D
100
AcDbEntity
  8
0
100
AcDbBlockEnd
  0
BLOCK
  5
214
100
AcDbEntity
  8
0
100
AcDbBlockBegin
  2
_FILLED
 70
64
 10
0.0
 20
0.0
  3
_FILLED
  1

  0
SOLID
  5
215
100
AcDbEntity
  8
0
  6
BYBLOCK
 62
0
100
AcDbTrace
 10
0.0
 20
0.0
 11
-1.0
 21
0.25
 12
-1.0
 22
-0.25
 13
-1.0
 23
-0.25
  0
ENDBLK
  5
216
100
AcDbEntity
  8
0
  6
BYBLOCK
 62
0
100
AcDbBlockEnd
  0
ENDSEC
  0
SECTION
  2
ENTITIES
  0
LINE
  5
217
100
AcDbEntity
  8
0
100
AcDbLine
 62
7
  6
CONTINUOUS
 10
37.7521882614
 20
140.4623233948
 11
42.8327293318
 21
143.3955576403
  0
LINE
  5
218
100
AcDbEntity
  8
0
100
AcDbLine
 62
7
  6
CONTINUOUS
 10
60.5103252622
 20
153.6016614871
 11
66.5914182622
 21
157.1125612104
  0
LINE
  5
219
100
AcDbEntity
  8
0
100
AcDbLine
 62
7
  6
CONTINUOUS
 10
21.478193448
 20
96.196734899
 11
21.478193448
 21
114.8181860925
  0
LINE
  5
21A
100
AcDbEntity
  8
0
100
AcDbLine
 62
7
  6
CONTINUOUS
 10
24.5894503317
 20
118.2474652038
 11
24.3066087968
 21
117.7575665754
  0
LINE
  5
21B
100
AcDbEntity
  8
0
100
AcDbLine
 62
7
  6
CONTINUOUS
 10
47.5349754428
 20
145.5796713257
 11
47.1675535112
 21
145.1225907157
  0
LINE
  5
21C
100
AcDbEntity
  8
0
100
AcDbLine
 62
7
  6
CONTINUOUS
 10
47.5349754428
 20
145.5796713257
 11
48.3835000475
 21
146.0695643104
  0
LINE
  5
21D
100
AcDbEntity
  8
0
100
AcDbLine
 62
7
  6
CONTINUOUS
 10
61.1820795011
 20
153.2138327703
 11
52.8382542219
 21
148.3965517546
  0
LINE
  5
21E
100
AcDbEntity
  8
0
100
AcDbLine
 62
7
  6
CONTINUOUS
 10
35.5849205939
 20
138.4353944002
 11
33.6050298497
 21
137.2923107693
  0
LINE
  5
21F
100
AcDbEntity
  8
0
100
AcDbLine
 62
7
  6
CONTINUOUS
 10
43.5044835707
 20
143.0077289235
 11
47.1675535112
 21
145.1225907157
  0
LINE
  5
220
100
AcDbEntity
  8
0
100
AcDbLine
 62
7
  6
CONTINUOUS
 10
49.0198988001
 20
145.7021476313
 11
50.1512649397
 21
146.3553382775
  0
LINE
  5
221
100
AcDbEntity
  8
0
100
AcDbLine
 62
7
  6
CONTINUOUS
 10
53.4746529746
 20
148.0291350756
 11
50.5186868713
 21
146.3225174373
  0
LINE
  5
222
100
AcDbEntity
  8
0
100
AcDbLine
 62
7
  6
CONTINUOUS
 10
32.9332756108
 20
136.1287848936
 11
33.6050298497
 21
136.5166200692
  0
LINE
  5
223
100
AcDbEntity
  8
0
100
AcDbLine
 62
7
  6
CONTINUOUS
 10
36.2566980494
 20
138.0475522796
 11
37.7521882614
 21
138.9109688022
  0
LINE
  5
224
100
AcDbEntity
  8
0
100
AcDbLine
 62
7
  6
CONTINUOUS
 10
52.6261389682
 20
146.0695692558
 11
56.5859204566
 21
148.3557365175
  0
LINE
  5
225
100
AcDbEntity
  8
0
100
AcDbLine
 62
7
  6
CONTINUOUS
 10
41.2877368872
 20
138.4211196221
 11
38.4487149808
 21
136.7820193444
  0
LINE
  5
226
100
AcDbEntity
  8
0
100
AcDbLine
 62
7
  6
CONTINUOUS
 10
102.8309559493
 20
47.1919475679
 11
102.4635340176
 21
47.2247684081
  0
LINE
  5
227
100
AcDbEntity
  8
0
100
AcDbLine
 62
7
  6
CONTINUOUS
 10
25.2612304775
 20
94.2829423666
 11
25.2612304775
 21
94.0126468623
  0
LINE
  5
228
100
AcDbEntity
  8
0
100
AcDbLine
 62
7
  6
CONTINUOUS
 10
39.021040769
 20
129.3888463727
 11
38.0310953969
 21
128.8173045573
  0
LINE
  5
229
100
AcDbEntity
  8
0
100
AcDbLine
 62
7
  6
CONTINUOUS
 10
64.3641274332
 20
143.8650882178
 11
60.4043459448
 21
141.5789209561
  0
LINE
  5
22A
100
AcDbEntity
  8
0
100
AcDbLine
 62
7
  6
CONTINUOUS
 10
74.6972458074
 20
55.0460759928
 11
75.0230676963
 21
55.1346285191
  0
LINE
  5
22B
100
AcDbEntity
  8
0
100
AcDbLine
 62
7
  6
CONTINUOUS
 10
75.6424476812
 20
50.4234912648
 11
75.9837924573
 21
50.3013847927
  0
LINE
  5
22C
100
AcDbEntity
  8
0
100
AcDbLine
 62
7
  6
CONTINUOUS
 10
28.5728719307
 20
72.9108599386
 11
60.88778637
 21
54.254257457
  0
LINE
  5
22D
100
AcDbEntity
  8
0
100
AcDbLine
 62
7
  6
CONTINUOUS
 10
59.353254972
 20
55.8071726928
 11
27.0383405328
 21
74.4637751744
  0
LINE
  5
22E
100
AcDbEntity
  8
0
100
AcDbLine
 62
7
  6
CONTINUOUS
 10
16.367876793
 20
80.7484508792
 11
16.5408818349
 21
80.6145434992
  0
LINE
  5
22F
100
AcDbEntity
  8
0
100
AcDbLine
 62
7
  6
CONTINUOUS
 10
28.5728719307
 20
72.9108599386
 11
27.0383405328
 21
74.4637751744
  0
LINE
  5
230
100
AcDbEntity
  8
0
100
AcDbLine
 62
7
  6
CONTINUOUS
 10
32.9332756108
 20
123.0647462195
 11
32.9332756108
 21
136.1287848936
  0
LINE
  5
231
100
AcDbEntity
  8
0
100
AcDbLine
 62
7
  6
CONTINUOUS
 10
39.6508162333
 20
122.2075127423
 11
39.4386850822
 21
121.840088771
  0
LINE
  5
232
100
AcDbEntity
  8
0
100
AcDbLine
 62
7
  6
CONTINUOUS
 10
17.0923804708
 20
85.7106467932
 11
16.5992989428
 21
84.9649026678
  0
LINE
  5
233
100
AcDbEntity
  8
0
100
AcDbLine
 62
7
  6
CONTINUOUS
 10
40.048193814
 20
129.0097705964
 11
39.9336530579
 21
128.9436408548
  0
LINE
  5
234
100
AcDbEntity
  8
0
100
AcDbLine
 62
7
  6
CONTINUOUS
 10
74.5464338762
 20
148.1924827076
 11
76.8586634238
 21
149.5274410907
  0
LINE
  5
235
100
AcDbEntity
  8
0
100
AcDbLine
 62
7
  6
CONTINUOUS
 10
40.6355470482
 20
128.1241234944
 11
39.9336530579
 21
127.7188872291
  0
LINE
  5
236
100
AcDbEntity
  8
0
100
AcDbLine
 62
7
  6
CONTINUOUS
 10
22.8924011224
 20
117.2676792345
 11
24.0237672619
 21
117.9208698807
  0
LINE
  5
237
100
AcDbEntity
  8
0
100
AcDbLine
 62
7
  6
CONTINUOUS
 10
24.5894503317
 20
118.2474652038
 11
32.9332756108
 21
123.0647462195
  0
LINE
  5
238
100
AcDbEntity
  8
0
100
AcDbLine
 62
7
  6
CONTINUOUS
 10
40.92359843
 20
127.4739266274
 11
39.9336530579
 21
126.9023848119
  0
LINE
  5
239
100
AcDbEntity
  8
0
100
AcDbLine
 62
7
  6
CONTINUOUS
 10
41.0340691564
 20
127.3744229981
 11
40.7821847281
 21
127.2289983236
  0
LINE
  5
23A
100
AcDbEntity
  8
0
100
AcDbLine
 62
7
  6
CONTINUOUS
 10
78.4143048192
 20
148.6293114308
 11
79.8497256087
 21
149.4580470631
  0
LINE
  5
23B
100
AcDbEntity
  8
0
100
AcDbLine
 62
7
  6
CONTINUOUS
 10
78.4143048192
 20
147.15960708
 11
80.0741522811
 21
148.1179147386
  0
LINE
  5
23C
100
AcDbEntity
  8
0
100
AcDbLine
 62
7
  6
CONTINUOUS
 10
50.2574473907
 20
129.9643987439
 11
53.7929665768
 21
132.0056195132
  0
LINE
  5
23D
100
AcDbEntity
  8
0
100
AcDbLine
 62
7
  6
CONTINUOUS
 10
81.2427437198
 20
146.9963484127
 11
82.6781645093
 21
147.8250840451
  0
LINE
  5
23E
100
AcDbEntity
  8
0
100
AcDbLine
 62
7
  6
CONTINUOUS
 10
71.3814526117
 20
57.2370684049
 11
71.0556307229
 21
57.1485158786
  0
LINE
  5
23F
100
AcDbEntity
  8
0
100
AcDbLine
 62
7
  6
CONTINUOUS
 10
78.1176824322
 20
53.3824126555
 11
77.2596708394
 21
53.6872849554
  0
LINE
  5
240
100
AcDbEntity
  8
0
100
AcDbLine
 62
7
  6
CONTINUOUS
 10
76.1057786868
 20
53.9759431156
 11
76.3713548087
 21
53.8423720325
  0
LINE
  5
241
100
AcDbEntity
  8
0
100
AcDbLine
 62
7
  6
CONTINUOUS
 10
16.5408388041
 20
80.6144690454
 11
27.0695070531
 21
74.5358771137
  0
LINE
  5
242
100
AcDbEntity
  8
0
100
AcDbLine
 62
7
  6
CONTINUOUS
 10
60.5230637082
 20
55.2218941142
 11
72.1903741731
 21
48.4859216646
  0
LINE
  5
243
100
AcDbEntity
  8
0
100
AcDbLine
 62
7
  6
CONTINUOUS
 10
89.5727645951
 20
39.006659745
 11
73.1523763572
 21
48.4867608458
  0
LINE
  5
244
100
AcDbEntity
  8
0
100
AcDbLine
 62
7
  6
CONTINUOUS
 10
71.6977031757
 20
49.7281452118
 11
60.0303927107
 21
56.4641176614
  0
LINE
  5
245
100
AcDbEntity
  8
0
100
AcDbLine
 62
7
  6
CONTINUOUS
 10
27.4003046798
 20
75.3026815845
 11
16.0481678066
 21
81.8566925926
  0
LINE
  5
246
100
AcDbEntity
  8
0
100
AcDbLine
 62
7
  6
CONTINUOUS
 10
75.3738708561
 20
49.5491820704
 11
78.5319070737
 21
47.7259302575
  0
LINE
  5
247
100
AcDbEntity
  8
0
100
AcDbLine
 62
7
  6
CONTINUOUS
 10
60.2730842281
 20
58.3037249107
 11
27.9581697889
 21
76.9603273922
  0
LINE
  5
248
100
AcDbEntity
  8
0
100
AcDbLine
 62
7
  6
CONTINUOUS
 10
75.7591173076
 20
50.0031899572
 11
78.1176824322
 21
48.6415025531
  0
LINE
  5
249
100
AcDbEntity
  8
0
100
AcDbLine
 62
7
  6
CONTINUOUS
 10
75.9837924573
 20
50.3013847927
 11
75.6749079241
 21
50.4797153267
  0
LINE
  5
24A
100
AcDbEntity
  8
0
100
AcDbLine
 62
7
  6
CONTINUOUS
 10
16.5992989428
 20
84.9649026678
 11
72.2488343118
 21
52.836355287
  0
LINE
  5
24B
100
AcDbEntity
  8
0
100
AcDbLine
 62
7
  6
CONTINUOUS
 10
73.2640509085
 20
52.2762423376
 11
73.8786005541
 21
51.9214399609
  0
LINE
  5
24C
100
AcDbEntity
  8
0
100
AcDbLine
 62
7
  6
CONTINUOUS
 10
74.7503589314
 20
51.7572370174
 11
73.4341402266
 21
52.5171390497
  0
LINE
  5
24D
100
AcDbEntity
  8
0
100
AcDbLine
 62
7
  6
CONTINUOUS
 10
72.7419158399
 20
53.5820994124
 11
17.0923804708
 21
85.7106467932
  0
LINE
  5
24E
100
AcDbEntity
  8
0
100
AcDbLine
 62
7
  6
CONTINUOUS
 10
81.228939316
 20
48.8047719959
 11
80.9460977811
 21
48.9680753012
  0
LINE
  5
24F
100
AcDbEntity
  8
0
100
AcDbLine
 62
7
  6
CONTINUOUS
 10
74.1293807225
 20
53.2331840542
 11
75.3108600132
 21
52.5510720991
  0
LINE
  5
250
100
AcDbEntity
  8
0
100
AcDbLine
 62
7
  6
CONTINUOUS
 10
60.3501016972
 20
55.3558759481
 11
60.523106739
 21
55.2219685681
  0
LINE
  5
251
100
AcDbEntity
  8
0
100
AcDbLine
 62
7
  6
CONTINUOUS
 10
72.1904172039
 20
48.4859961185
 11
72.0174121621
 21
48.6199034985
  0
LINE
  5
252
100
AcDbEntity
  8
0
100
AcDbLine
 62
7
  6
CONTINUOUS
 10
60.88778637
 20
54.254257457
 11
59.353254972
 21
55.8071726928
  0
LINE
  5
253
100
AcDbEntity
  8
0
100
AcDbLine
 62
7
  6
CONTINUOUS
 10
33.6050298497
 20
135.7409561768
 11
33.6050298497
 21
137.2923107693
  0
LINE
  5
254
100
AcDbEntity
  8
0
100
AcDbLine
 62
7
  6
CONTINUOUS
 10
36.5749860799
 20
87.7510902943
 11
36.5749860799
 21
87.48079479
  0
LINE
  5
255
100
AcDbEntity
  8
0
100
AcDbLine
 62
7
  6
CONTINUOUS
 10
37.7521882614
 20
138.9109688022
 11
37.7521882614
 21
140.4623233948
  0
LINE
  5
256
100
AcDbEntity
  8
0
100
AcDbLine
 62
7
  6
CONTINUOUS
 10
17.3961232489
 20
85.5352847857
 11
18.2970941605
 21
86.8113257079
  0
LINE
  5
257
100
AcDbEntity
  8
0
100
AcDbLine
 62
7
  6
CONTINUOUS
 10
51.6009790851
 20
129.1887279065
 11
53.7929665768
 21
130.4542649207
  0
LINE
  5
258
100
AcDbEntity
  8
0
100
AcDbLine
 62
7
  6
CONTINUOUS
 10
65.2834224785
 20
136.3126102773
 11
66.414788618
 21
136.9658009235
  0
LINE
  5
259
100
AcDbEntity
  8
0
100
AcDbLine
 62
7
  6
CONTINUOUS
 10
82.5508967113
 20
146.2411030168
 11
80.7689950415
 21
145.2123277491
  0
LINE
  5
25A
100
AcDbEntity
  8
0
100
AcDbLine
 62
7
  6
CONTINUOUS
 10
69.738176653
 20
138.6395977216
 11
66.7822105497
 21
136.9329800833
  0
LINE
  5
25B
100
AcDbEntity
  8
0
100
AcDbLine
 62
7
  6
CONTINUOUS
 10
65.0712966265
 20
135.4553006136
 11
65.9198212311
 21
135.9451935983
  0
LINE
  5
25C
100
AcDbEntity
  8
0
100
AcDbLine
 62
7
  6
CONTINUOUS
 10
78.7184006847
 20
143.0894620582
 11
70.3745754056
 21
138.2721810425
  0
LINE
  5
25D
100
AcDbEntity
  8
0
100
AcDbLine
 62
7
  6
CONTINUOUS
 10
53.1212417776
 20
128.3110236881
 11
51.1413510334
 21
127.1679400572
  0
LINE
  5
25E
100
AcDbEntity
  8
0
100
AcDbLine
 62
7
  6
CONTINUOUS
 10
61.0408047544
 20
132.8833582114
 11
64.7038746948
 21
134.9982200036
  0
LINE
  5
25F
100
AcDbEntity
  8
0
100
AcDbLine
 62
7
  6
CONTINUOUS
 10
56.6320179229
 20
129.5622952491
 11
61.7125589933
 21
132.4955294946
  0
LINE
  5
260
100
AcDbEntity
  8
0
100
AcDbLine
 62
7
  6
CONTINUOUS
 10
79.3901549236
 20
142.7016333414
 11
85.4712479236
 21
146.2125330647
  0
LINE
  5
261
100
AcDbEntity
  8
0
100
AcDbLine
 62
7
  6
CONTINUOUS
 10
66.4148051043
 20
134.67964318
 11
67.2633297089
 21
135.1695361647
  0
LINE
  5
262
100
AcDbEntity
  8
0
100
AcDbLine
 62
7
  6
CONTINUOUS
 10
45.4269483598
 20
122.3580695035
 11
44.1763161191
 21
121.6360209527
  0
LINE
  5
263
100
AcDbEntity
  8
0
100
AcDbLine
 62
7
  6
CONTINUOUS
 10
80.0619091625
 20
142.3138046246
 11
71.7180838834
 21
137.4965236089
  0
LINE
  5
264
100
AcDbEntity
  8
0
100
AcDbLine
 62
7
  6
CONTINUOUS
 10
62.3843132321
 20
132.1077007778
 11
66.0473831726
 21
134.22256257
  0
LINE
  5
265
100
AcDbEntity
  8
0
100
AcDbLine
 62
7
  6
CONTINUOUS
 10
51.1413510334
 20
125.6165854647
 11
54.4647502553
 21
127.5353662545
  0
LINE
  5
266
100
AcDbEntity
  8
0
100
AcDbLine
 62
7
  6
CONTINUOUS
 10
70.3745754056
 20
136.6391762083
 11
71.7180838834
 21
137.4148465594
  0
LINE
  5
267
100
AcDbEntity
  8
0
100
AcDbLine
 62
7
  6
CONTINUOUS
 10
44.1763161191
 20
121.4727204693
 11
43.6813434331
 21
121.1869495616
  0
LINE
  5
268
100
AcDbEntity
  8
0
100
AcDbLine
 62
7
  6
CONTINUOUS
 10
67.8997284615
 20
134.8021194856
 11
69.0310946011
 21
135.4553101318
  0
LINE
  5
269
100
AcDbEntity
  8
0
100
AcDbLine
 62
7
  6
CONTINUOUS
 10
72.354482636
 20
137.1291069299
 11
69.3985165328
 21
135.4224892916
  0
LINE
  5
26A
100
AcDbEntity
  8
0
100
AcDbLine
 62
7
  6
CONTINUOUS
 10
51.8131052723
 20
125.2287567479
 11
52.4848595111
 21
125.6165919235
  0
LINE
  5
26B
100
AcDbEntity
  8
0
100
AcDbLine
 62
7
  6
CONTINUOUS
 10
55.1365277108
 20
127.1475241339
 11
56.6320179229
 21
128.0109406565
  0
LINE
  5
26C
100
AcDbEntity
  8
0
100
AcDbLine
 62
7
  6
CONTINUOUS
 10
71.5059686296
 20
135.1695411101
 11
75.465750118
 21
137.4557083718
  0
LINE
  5
26D
100
AcDbEntity
  8
0
100
AcDbLine
 62
7
  6
CONTINUOUS
 10
61.2066890161
 20
65.6461592975
 11
61.3521247445
 21
65.6086874856
  0
LINE
  5
26E
100
AcDbEntity
  8
0
100
AcDbLine
 62
7
  6
CONTINUOUS
 10
74.4003237922
 20
53.8855403512
 11
75.1019928514
 21
53.4804406956
  0
LINE
  5
26F
100
AcDbEntity
  8
0
100
AcDbLine
 62
7
  6
CONTINUOUS
 10
75.2994035789
 20
53.4815878636
 11
75.7742861997
 21
53.2074204571
  0
LINE
  5
270
100
AcDbEntity
  8
0
100
AcDbLine
 62
7
  6
CONTINUOUS
 10
84.8351206047
 20
48.0697402699
 11
83.9865889345
 21
48.5596291753
  0
LINE
  5
271
100
AcDbEntity
  8
0
100
AcDbLine
 62
7
  6
CONTINUOUS
 10
74.620255081
 20
54.1970280153
 11
75.0303594937
 21
53.9602594786
  0
LINE
  5
272
100
AcDbEntity
  8
0
100
AcDbLine
 62
7
  6
CONTINUOUS
 10
76.3237056945
 20
53.2783888312
 11
76.6729642216
 21
53.0767488883
  0
LINE
  5
273
100
AcDbEntity
  8
0
100
AcDbLine
 62
7
  6
CONTINUOUS
 10
73.9466295295
 20
54.6827783272
 11
18.2970941605
 21
86.8113257079
  0
LINE
  5
274
100
AcDbEntity
  8
0
100
AcDbLine
 62
7
  6
CONTINUOUS
 10
83.9865889345
 20
49.3761315925
 11
83.1025716432
 21
49.8865076673
  0
LINE
  5
275
100
AcDbEntity
  8
0
100
AcDbLine
 62
7
  6
CONTINUOUS
 10
84.8351206047
 20
48.886242687
 11
85.1647691748
 21
48.6959243019
  0
LINE
  5
276
100
AcDbEntity
  8
0
100
AcDbLine
 62
7
  6
CONTINUOUS
 10
75.8744540683
 20
54.1292513187
 11
76.3713548087
 21
53.8423720325
  0
LINE
  5
277
100
AcDbEntity
  8
0
100
AcDbLine
 62
7
  6
CONTINUOUS
 10
74.7664074392
 20
55.0061464095
 11
19.1168720701
 21
87.1346937902
  0
LINE
  5
278
100
AcDbEntity
  8
0
100
AcDbLine
 62
7
  6
CONTINUOUS
 10
85.0596058924
 20
49.0832106733
 11
84.9765343066
 21
49.1311709908
  0
LINE
  5
279
100
AcDbEntity
  8
0
100
AcDbLine
 62
7
  6
CONTINUOUS
 10
37.4317065395
 20
76.6814264046
 11
38.4230868188
 21
76.1090656821
  0
LINE
  5
27A
100
AcDbEntity
  8
0
100
AcDbLine
 62
7
  6
CONTINUOUS
 10
56.311536201
 20
65.7813982589
 11
57.3029164802
 21
65.2090375364
  0
LINE
  5
27B
100
AcDbEntity
  8
0
100
AcDbLine
 62
7
  6
CONTINUOUS
 10
75.1913658624
 20
54.8813701133
 11
77.25966033
 21
53.6872667598
  0
LINE
  5
27C
100
AcDbEntity
  8
0
100
AcDbLine
 62
7
  6
CONTINUOUS
 10
75.0230676963
 20
55.1346285191
 11
71.3814526117
 21
57.2370684049
  0
LINE
  5
27D
100
AcDbEntity
  8
0
100
AcDbLine
 62
7
  6
CONTINUOUS
 10
60.8840655449
 20
63.2976005461
 11
57.4867465126
 21
65.2589992312
  0
LINE
  5
27E
100
AcDbEntity
  8
0
100
AcDbLine
 62
7
  6
CONTINUOUS
 10
56.1432380348
 20
66.0346566648
 11
52.5016229503
 21
68.1370965505
  0
LINE
  5
27F
100
AcDbEntity
  8
0
100
AcDbLine
 62
7
  6
CONTINUOUS
 10
42.0042358835
 20
74.1976286918
 11
38.6069168512
 21
76.1590273769
  0
LINE
  5
280
100
AcDbEntity
  8
0
100
AcDbLine
 62
7
  6
CONTINUOUS
 10
37.2634083734
 20
76.9346848105
 11
33.6217932889
 21
79.0371246962
  0
LINE
  5
281
100
AcDbEntity
  8
0
100
AcDbLine
 62
7
  6
CONTINUOUS
 10
23.1244062221
 20
85.0976568375
 11
19.7270871898
 21
87.0590555226
  0
LINE
  5
282
100
AcDbEntity
  8
0
100
AcDbLine
 62
7
  6
CONTINUOUS
 10
84.4333886922
 20
50.2612515805
 11
84.0925170153
 21
50.4580494827
  0
LINE
  5
283
100
AcDbEntity
  8
0
100
AcDbLine
 62
7
  6
CONTINUOUS
 10
72.0177056691
 20
58.6252272242
 11
61.7646146554
 21
64.5447181661
  0
LINE
  5
284
100
AcDbEntity
  8
0
100
AcDbLine
 62
7
  6
CONTINUOUS
 10
53.1378760076
 20
69.5252553699
 11
42.884784994
 21
75.4447463118
  0
LINE
  5
285
100
AcDbEntity
  8
0
100
AcDbLine
 62
7
  6
CONTINUOUS
 10
34.2580463462
 20
80.4252835156
 11
24.0049553326
 21
86.3447744575
  0
LINE
  5
286
100
AcDbEntity
  8
0
100
AcDbLine
 62
7
  6
CONTINUOUS
 10
23.549414491
 20
87.3341756907
 11
34.2109463707
 21
81.1788766415
  0
LINE
  5
287
100
AcDbEntity
  8
0
100
AcDbLine
 62
7
  6
CONTINUOUS
 10
42.4292441524
 20
76.434147545
 11
53.0907760321
 21
70.2788484958
  0
LINE
  5
288
100
AcDbEntity
  8
0
100
AcDbLine
 62
7
  6
CONTINUOUS
 10
61.3090738138
 20
65.5341193993
 11
71.9706056935
 21
59.3788203501
  0
LINE
  5
289
100
AcDbEntity
  8
0
100
AcDbLine
 62
7
  6
CONTINUOUS
 10
61.3521247445
 20
65.6086874856
 11
61.1176844584
 21
65.7440385859
  0
LINE
  5
28A
100
AcDbEntity
  8
0
100
AcDbLine
 62
7
  6
CONTINUOUS
 10
42.4722950831
 20
76.5087156313
 11
42.2378547969
 21
76.6440667316
  0
LINE
  5
28B
100
AcDbEntity
  8
0
100
AcDbLine
 62
7
  6
CONTINUOUS
 10
23.5924654217
 20
87.408743777
 11
23.3580251355
 21
87.5440948773
  0
LINE
  5
28C
100
AcDbEntity
  8
0
100
AcDbLine
 62
7
  6
CONTINUOUS
 10
72.0312486344
 20
59.7602149407
 11
61.0587585778
 21
66.0950417156
  0
LINE
  5
28D
100
AcDbEntity
  8
0
100
AcDbLine
 62
7
  6
CONTINUOUS
 10
53.1514189729
 20
70.6602430864
 11
42.1789289163
 21
76.9950698613
  0
LINE
  5
28E
100
AcDbEntity
  8
0
100
AcDbLine
 62
7
  6
CONTINUOUS
 10
34.2715893115
 20
81.5602712321
 11
23.2990992549
 21
87.895098007
  0
LINE
  5
28F
100
AcDbEntity
  8
0
100
AcDbLine
 62
7
  6
CONTINUOUS
 10
72.1735465266
 20
60.6551525147
 11
61.3786254067
 21
66.8874621354
  0
LINE
  5
290
100
AcDbEntity
  8
0
100
AcDbLine
 62
7
  6
CONTINUOUS
 10
53.2937168652
 20
71.5551806604
 11
42.4987957453
 21
77.7874902811
  0
LINE
  5
291
100
AcDbEntity
  8
0
100
AcDbLine
 62
7
  6
CONTINUOUS
 10
34.4138872038
 20
82.4552088061
 11
23.6189660839
 21
88.6875184268
  0
LINE
  5
292
100
AcDbEntity
  8
0
100
AcDbLine
 62
7
  6
CONTINUOUS
 10
39.4386850822
 20
122.3299902213
 11
39.4386850822
 21
121.840088771
  0
LINE
  5
293
100
AcDbEntity
  8
0
100
AcDbLine
 62
7
  6
CONTINUOUS
 10
39.9336530579
 20
126.9023848119
 11
39.9336530579
 21
127.7188872291
  0
LINE
  5
294
100
AcDbEntity
  8
0
100
AcDbLine
 62
7
  6
CONTINUOUS
 10
39.9336530579
 20
128.9436408548
 11
39.9336530579
 21
129.1263986618
  0
LINE
  5
295
100
AcDbEntity
  8
0
100
AcDbLine
 62
7
  6
CONTINUOUS
 10
40.3580231094
 20
85.2967067533
 11
40.3580231094
 21
103.9181579468
  0
LINE
  5
296
100
AcDbEntity
  8
0
100
AcDbLine
 62
7
  6
CONTINUOUS
 10
40.7821847281
 20
127.2289983236
 11
40.7821847281
 21
126.4124959065
  0
LINE
  5
297
100
AcDbEntity
  8
0
100
AcDbLine
 62
7
  6
CONTINUOUS
 10
40.92359843
 20
127.4739266274
 11
40.92359843
 21
127.5822407244
  0
LINE
  5
298
100
AcDbEntity
  8
0
100
AcDbLine
 62
7
  6
CONTINUOUS
 10
43.6813434331
 20
124.9428606804
 11
43.6813434331
 21
121.1869495616
  0
LINE
  5
299
100
AcDbEntity
  8
0
100
AcDbLine
 62
7
  6
CONTINUOUS
 10
44.1410601389
 20
83.3829142209
 11
44.1410601389
 21
83.1126187166
  0
LINE
  5
29A
100
AcDbEntity
  8
0
100
AcDbLine
 62
7
  6
CONTINUOUS
 10
44.1763161191
 20
121.6360209527
 11
44.1763161191
 21
121.4727204693
  0
LINE
  5
29B
100
AcDbEntity
  8
0
100
AcDbLine
 62
7
  6
CONTINUOUS
 10
43.4692799931
 20
107.3474370581
 11
43.1864384582
 21
106.8575384297
  0
LINE
  5
29C
100
AcDbEntity
  8
0
100
AcDbLine
 62
7
  6
CONTINUOUS
 10
24.0050651086
 20
86.3449299328
 11
22.9856335966
 21
84.9011138118
  0
LINE
  5
29D
100
AcDbEntity
  8
0
100
AcDbLine
 62
7
  6
CONTINUOUS
 10
64.7038746948
 20
134.9982200036
 11
65.0712966265
 21
135.4553006136
  0
LINE
  5
29E
100
AcDbEntity
  8
0
100
AcDbLine
 62
7
  6
CONTINUOUS
 10
60.1675665486
 20
127.5210914765
 11
57.3285446422
 21
125.8819911987
  0
LINE
  5
29F
100
AcDbEntity
  8
0
100
AcDbLine
 62
7
  6
CONTINUOUS
 10
51.1059955471
 20
120.6563327579
 11
51.6009682332
 21
120.9421036656
  0
LINE
  5
2A0
100
AcDbEntity
  8
0
100
AcDbLine
 62
7
  6
CONTINUOUS
 10
51.6009682332
 20
120.7788031822
 11
51.8131052723
 21
120.9012798277
  0
LINE
  5
2A1
100
AcDbEntity
  8
0
100
AcDbLine
 62
7
  6
CONTINUOUS
 10
57.4867465126
 20
65.2589992312
 11
57.1609246238
 21
65.1704467049
  0
LINE
  5
2A2
100
AcDbEntity
  8
0
100
AcDbLine
 62
7
  6
CONTINUOUS
 10
55.817416146
 20
65.9461041385
 11
56.1432380348
 21
66.0346566648
  0
LINE
  5
2A3
100
AcDbEntity
  8
0
100
AcDbLine
 62
7
  6
CONTINUOUS
 10
42.3268593547
 20
76.5461874432
 11
42.4722950831
 21
76.5087156313
  0
LINE
  5
2A4
100
AcDbEntity
  8
0
100
AcDbLine
 62
7
  6
CONTINUOUS
 10
74.4426061452
 20
49.9857268781
 11
72.738542795
 21
51.7102050756
  0
LINE
  5
2A5
100
AcDbEntity
  8
0
100
AcDbLine
 62
7
  6
CONTINUOUS
 10
73.2063072058
 20
52.1944601993
 11
73.5430060389
 21
51.8537276809
  0
LINE
  5
2A6
100
AcDbEntity
  8
0
100
AcDbLine
 62
7
  6
CONTINUOUS
 10
73.9502339118
 20
51.4416211778
 11
74.2869327449
 21
51.1008886594
  0
LINE
  5
2A7
100
AcDbEntity
  8
0
100
AcDbLine
 62
7
  6
CONTINUOUS
 10
75.7742861997
 20
53.2074204571
 11
75.4375873666
 21
53.5481529756
  0
LINE
  5
2A8
100
AcDbEntity
  8
0
100
AcDbLine
 62
7
  6
CONTINUOUS
 10
75.0303594937
 20
53.9602594786
 11
74.6936606606
 21
54.300991997
  0
LINE
  5
2A9
100
AcDbEntity
  8
0
100
AcDbLine
 62
7
  6
CONTINUOUS
 10
74.7664074392
 20
55.0061464095
 11
74.9130391811
 21
54.8577580048
  0
LINE
  5
2AA
100
AcDbEntity
  8
0
100
AcDbLine
 62
7
  6
CONTINUOUS
 10
76.6729642216
 20
53.0767488883
 11
76.8195959635
 21
52.9283604836
  0
LINE
  5
2AB
100
AcDbEntity
  8
0
100
AcDbLine
 62
7
  6
CONTINUOUS
 10
66.4148051043
 20
134.67964318
 11
66.0473831726
 21
134.22256257
  0
LINE
  5
2AC
100
AcDbEntity
  8
0
100
AcDbLine
 62
7
  6
CONTINUOUS
 10
57.9008704304
 20
118.488818227
 11
56.9109250583
 21
117.9172764116
  0
LINE
  5
2AD
100
AcDbEntity
  8
0
100
AcDbLine
 62
7
  6
CONTINUOUS
 10
83.2439570946
 20
132.9650600721
 11
79.2841756062
 21
130.6788928104
  0
LINE
  5
2AE
100
AcDbEntity
  8
0
100
AcDbLine
 62
7
  6
CONTINUOUS
 10
58.9280234754
 20
118.1097424507
 11
58.8134827193
 21
118.0436127091
  0
LINE
  5
2AF
100
AcDbEntity
  8
0
100
AcDbLine
 62
7
  6
CONTINUOUS
 10
93.4262635376
 20
137.2924545619
 11
95.7384930853
 21
138.627412945
  0
LINE
  5
2B0
100
AcDbEntity
  8
0
100
AcDbLine
 62
7
  6
CONTINUOUS
 10
59.5153767097
 20
117.2240953487
 11
58.8134827193
 21
116.8188590834
  0
LINE
  5
2B1
100
AcDbEntity
  8
0
100
AcDbLine
 62
7
  6
CONTINUOUS
 10
41.7722307838
 20
106.3676510888
 11
42.9035969234
 21
107.020841735
  0
LINE
  5
2B2
100
AcDbEntity
  8
0
100
AcDbLine
 62
7
  6
CONTINUOUS
 10
43.4692799931
 20
107.3474370581
 11
51.8131052723
 21
112.1647180738
  0
LINE
  5
2B3
100
AcDbEntity
  8
0
100
AcDbLine
 62
7
  6
CONTINUOUS
 10
59.8034280914
 20
116.5738984817
 11
58.8134827193
 21
116.0023566662
  0
LINE
  5
2B4
100
AcDbEntity
  8
0
100
AcDbLine
 62
7
  6
CONTINUOUS
 10
59.9138988178
 20
116.4743948524
 11
59.6620143895
 21
116.328970178
  0
LINE
  5
2B5
100
AcDbEntity
  8
0
100
AcDbLine
 62
7
  6
CONTINUOUS
 10
97.2941344806
 20
137.7292832851
 11
98.7295552701
 21
138.5580189175
  0
LINE
  5
2B6
100
AcDbEntity
  8
0
100
AcDbLine
 62
7
  6
CONTINUOUS
 10
52.5016229503
 20
68.1370965505
 11
52.1758010615
 21
68.0485440243
  0
LINE
  5
2B7
100
AcDbEntity
  8
0
100
AcDbLine
 62
7
  6
CONTINUOUS
 10
23.4470296932
 20
87.4462155888
 11
23.5924654217
 21
87.408743777
  0
LINE
  5
2B8
100
AcDbEntity
  8
0
100
AcDbLine
 62
7
  6
CONTINUOUS
 10
21.478193448
 20
96.196734899
 11
25.2612304775
 21
94.0126468623
  0
LINE
  5
2B9
100
AcDbEntity
  8
0
100
AcDbLine
 62
7
  6
CONTINUOUS
 10
36.5749860799
 20
87.48079479
 11
44.1410601389
 21
83.1126187166
  0
LINE
  5
2BA
100
AcDbEntity
  8
0
100
AcDbLine
 62
7
  6
CONTINUOUS
 10
55.4548157413
 20
76.5807666443
 11
63.0208898004
 21
72.2125905709
  0
LINE
  5
2BB
100
AcDbEntity
  8
0
100
AcDbLine
 62
7
  6
CONTINUOUS
 10
74.3346454027
 20
65.6807384986
 11
78.1176824322
 21
63.4966504619
  0
LINE
  5
2BC
100
AcDbEntity
  8
0
100
AcDbLine
 62
7
  6
CONTINUOUS
 10
74.3346454027
 20
65.9510340029
 11
63.0208898004
 21
72.4828860752
  0
LINE
  5
2BD
100
AcDbEntity
  8
0
100
AcDbLine
 62
7
  6
CONTINUOUS
 10
55.4548157413
 20
76.8510621486
 11
44.1410601389
 21
83.3829142209
  0
LINE
  5
2BE
100
AcDbEntity
  8
0
100
AcDbLine
 62
7
  6
CONTINUOUS
 10
36.5749860799
 20
87.7510902943
 11
25.2612304775
 21
94.2829423666
  0
LINE
  5
2BF
100
AcDbEntity
  8
0
100
AcDbLine
 62
7
  6
CONTINUOUS
 10
107.4978359758
 20
50.8661461261
 11
108.1342347284
 21
50.4987294471
  0
LINE
  5
2C0
100
AcDbEntity
  8
0
100
AcDbLine
 62
7
  6
CONTINUOUS
 10
107.4978359758
 20
52.4991509604
 11
108.1342347284
 21
52.1317342813
  0
LINE
  5
2C1
100
AcDbEntity
  8
0
100
AcDbLine
 62
7
  6
CONTINUOUS
 10
51.1059955471
 20
123.9631675473
 11
51.1059955471
 21
120.6563327579
  0
LINE
  5
2C2
100
AcDbEntity
  8
0
100
AcDbLine
 62
7
  6
CONTINUOUS
 10
51.1413510334
 20
125.6165854647
 11
51.1413510334
 21
127.1679400572
  0
LINE
  5
2C3
100
AcDbEntity
  8
0
100
AcDbLine
 62
7
  6
CONTINUOUS
 10
51.6009682332
 20
120.9421036656
 11
51.6009682332
 21
120.7788031822
  0
LINE
  5
2C4
100
AcDbEntity
  8
0
100
AcDbLine
 62
7
  6
CONTINUOUS
 10
51.8131052723
 20
112.1647180738
 11
51.8131052723
 21
125.2287567479
  0
LINE
  5
2C5
100
AcDbEntity
  8
0
100
AcDbLine
 62
7
  6
CONTINUOUS
 10
52.4848595111
 20
124.8409280311
 11
52.4848595111
 21
126.3922826236
  0
LINE
  5
2C6
100
AcDbEntity
  8
0
100
AcDbLine
 62
7
  6
CONTINUOUS
 10
52.6261495665
 20
144.8448471458
 11
52.6261389682
 21
146.0695692558
  0
LINE
  5
2C7
100
AcDbEntity
  8
0
100
AcDbLine
 62
7
  6
CONTINUOUS
 10
52.8382542219
 20
147.6617122776
 11
52.8382542219
 21
148.3965517546
  0
LINE
  5
2C8
100
AcDbEntity
  8
0
100
AcDbLine
 62
7
  6
CONTINUOUS
 10
53.1212417776
 20
126.7596690955
 11
53.1212417776
 21
128.3110236881
  0
LINE
  5
2C9
100
AcDbEntity
  8
0
100
AcDbLine
 62
7
  6
CONTINUOUS
 10
53.7929665768
 20
130.4542649207
 11
53.7929665768
 21
132.0056195132
  0
LINE
  5
2CA
100
AcDbEntity
  8
0
100
AcDbLine
 62
7
  6
CONTINUOUS
 10
58.5306458948
 20
111.3074845966
 11
58.3185147436
 21
110.9400606253
  0
LINE
  5
2CB
100
AcDbEntity
  8
0
100
AcDbLine
 62
7
  6
CONTINUOUS
 10
33.2387246113
 20
78.9816228712
 11
34.2581609944
 21
80.4254458857
  0
LINE
  5
2CC
100
AcDbEntity
  8
0
100
AcDbLine
 62
7
  6
CONTINUOUS
 10
97.2941344806
 20
136.2595789343
 11
98.9539819425
 21
137.2178865929
  0
LINE
  5
2CD
100
AcDbEntity
  8
0
100
AcDbLine
 62
7
  6
CONTINUOUS
 10
69.1372770521
 20
119.0643705982
 11
72.6727962382
 21
121.1055913675
  0
LINE
  5
2CE
100
AcDbEntity
  8
0
100
AcDbLine
 62
7
  6
CONTINUOUS
 10
100.1225733812
 20
136.096320267
 11
101.5579941707
 21
136.9250558994
  0
LINE
  5
2CF
100
AcDbEntity
  8
0
100
AcDbLine
 62
7
  6
CONTINUOUS
 10
70.4808087465
 20
118.2886997608
 11
72.6727962382
 21
119.554236775
  0
LINE
  5
2D0
100
AcDbEntity
  8
0
100
AcDbLine
 62
7
  6
CONTINUOUS
 10
84.1632521399
 20
125.4125821316
 11
85.2946182795
 21
126.0657727778
  0
LINE
  5
2D1
100
AcDbEntity
  8
0
100
AcDbLine
 62
7
  6
CONTINUOUS
 10
101.4307263727
 20
135.3410748711
 11
99.6488247029
 21
134.3122996034
  0
LINE
  5
2D2
100
AcDbEntity
  8
0
100
AcDbLine
 62
7
  6
CONTINUOUS
 10
88.6180063144
 20
127.7395695759
 11
85.6620402112
 21
126.0329519376
  0
LINE
  5
2D3
100
AcDbEntity
  8
0
100
AcDbLine
 62
7
  6
CONTINUOUS
 10
83.9511262879
 20
124.5552724679
 11
84.7996508926
 21
125.0451654526
  0
LINE
  5
2D4
100
AcDbEntity
  8
0
100
AcDbLine
 62
7
  6
CONTINUOUS
 10
97.5982303461
 20
132.1894339125
 11
89.254405067
 21
127.3721528968
  0
LINE
  5
2D5
100
AcDbEntity
  8
0
100
AcDbLine
 62
7
  6
CONTINUOUS
 10
72.001071439
 20
117.4109955424
 11
70.0211806948
 21
116.2679119115
  0
LINE
  5
2D6
100
AcDbEntity
  8
0
100
AcDbLine
 62
7
  6
CONTINUOUS
 10
79.9206344158
 20
121.9833300657
 11
83.5837043562
 21
124.0981918579
  0
LINE
  5
2D7
100
AcDbEntity
  8
0
100
AcDbLine
 62
7
  6
CONTINUOUS
 10
108.9120436502
 20
53.3156392681
 11
109.5484424029
 21
52.9482225891
  0
LINE
  5
2D8
100
AcDbEntity
  8
0
100
AcDbLine
 62
7
  6
CONTINUOUS
 10
55.4548157413
 20
76.8510621486
 11
55.4548157413
 21
76.5807666443
  0
LINE
  5
2D9
100
AcDbEntity
  8
0
100
AcDbLine
 62
7
  6
CONTINUOUS
 10
56.5859204566
 20
142.5587240755
 11
56.5859204566
 21
148.3557365175
  0
LINE
  5
2DA
100
AcDbEntity
  8
0
100
AcDbLine
 62
7
  6
CONTINUOUS
 10
56.6320179229
 20
128.0109406565
 11
56.6320179229
 21
129.5622952491
  0
LINE
  5
2DB
100
AcDbEntity
  8
0
100
AcDbLine
 62
7
  6
CONTINUOUS
 10
58.3185147436
 20
111.4299620756
 11
58.3185147436
 21
110.9400606253
  0
LINE
  5
2DC
100
AcDbEntity
  8
0
100
AcDbLine
 62
7
  6
CONTINUOUS
 10
58.8134827193
 20
116.0023566662
 11
58.8134827193
 21
116.8188590834
  0
LINE
  5
2DD
100
AcDbEntity
  8
0
100
AcDbLine
 62
7
  6
CONTINUOUS
 10
58.8134827193
 20
118.0436127091
 11
58.8134827193
 21
118.2263705161
  0
LINE
  5
2DE
100
AcDbEntity
  8
0
100
AcDbLine
 62
7
  6
CONTINUOUS
 10
59.2378527708
 20
74.3966786076
 11
59.2378527708
 21
93.0181298011
  0
LINE
  5
2DF
100
AcDbEntity
  8
0
100
AcDbLine
 62
7
  6
CONTINUOUS
 10
59.6620143895
 20
116.328970178
 11
59.6620143895
 21
115.5124677608
  0
LINE
  5
2E0
100
AcDbEntity
  8
0
100
AcDbLine
 62
7
  6
CONTINUOUS
 10
59.8034280914
 20
116.5738984817
 11
59.8034280914
 21
116.6822125787
  0
LINE
  5
2E1
100
AcDbEntity
  8
0
100
AcDbLine
 62
7
  6
CONTINUOUS
 10
75.5118475843
 20
118.6622671034
 11
80.5923886547
 21
121.5955013489
  0
LINE
  5
2E2
100
AcDbEntity
  8
0
100
AcDbLine
 62
7
  6
CONTINUOUS
 10
98.269984585
 20
131.8016051957
 11
104.3510775851
 21
135.312504919
  0
LINE
  5
2E3
100
AcDbEntity
  8
0
100
AcDbLine
 62
7
  6
CONTINUOUS
 10
85.2946347657
 20
123.7796150343
 11
86.1431593703
 21
124.269508019
  0
LINE
  5
2E4
100
AcDbEntity
  8
0
100
AcDbLine
 62
7
  6
CONTINUOUS
 10
64.3067780212
 20
111.4580413578
 11
63.0561457805
 21
110.735992807
  0
LINE
  5
2E5
100
AcDbEntity
  8
0
100
AcDbLine
 62
7
  6
CONTINUOUS
 10
98.9417388239
 20
131.4137764789
 11
90.5979135448
 21
126.5964954632
  0
LINE
  5
2E6
100
AcDbEntity
  8
0
100
AcDbLine
 62
7
  6
CONTINUOUS
 10
81.2641428936
 20
121.2076726321
 11
84.927212834
 21
123.3225344243
  0
LINE
  5
2E7
100
AcDbEntity
  8
0
100
AcDbLine
 62
7
  6
CONTINUOUS
 10
70.0211806948
 20
114.716557319
 11
73.3445799168
 21
116.6353381088
  0
LINE
  5
2E8
100
AcDbEntity
  8
0
100
AcDbLine
 62
7
  6
CONTINUOUS
 10
89.254405067
 20
125.7391480626
 11
90.5979135448
 21
126.5148184137
  0
LINE
  5
2E9
100
AcDbEntity
  8
0
100
AcDbLine
 62
7
  6
CONTINUOUS
 10
63.0561457805
 20
110.5726923236
 11
62.5611730945
 21
110.2869214159
  0
LINE
  5
2EA
100
AcDbEntity
  8
0
100
AcDbLine
 62
7
  6
CONTINUOUS
 10
86.779558123
 20
123.9020913399
 11
87.9109242625
 21
124.5552819861
  0
LINE
  5
2EB
100
AcDbEntity
  8
0
100
AcDbLine
 62
7
  6
CONTINUOUS
 10
91.2343122974
 20
126.2290787842
 11
88.2783461942
 21
124.5224611459
  0
LINE
  5
2EC
100
AcDbEntity
  8
0
100
AcDbLine
 62
7
  6
CONTINUOUS
 10
70.6929349337
 20
114.3287286022
 11
71.3646891726
 21
114.7165637778
  0
LINE
  5
2ED
100
AcDbEntity
  8
0
100
AcDbLine
 62
7
  6
CONTINUOUS
 10
74.0163573722
 20
116.2474959882
 11
75.5118475843
 21
117.1109125108
  0
LINE
  5
2EE
100
AcDbEntity
  8
0
100
AcDbLine
 62
7
  6
CONTINUOUS
 10
90.385798291
 20
124.2695129644
 11
94.3455797794
 21
126.5556802261
  0
LINE
  5
2EF
100
AcDbEntity
  8
0
100
AcDbLine
 62
7
  6
CONTINUOUS
 10
79.04739621
 20
116.6210633308
 11
76.2083743036
 21
114.981963053
  0
LINE
  5
2F0
100
AcDbEntity
  8
0
100
AcDbLine
 62
7
  6
CONTINUOUS
 10
69.9858252085
 20
109.7563046122
 11
70.4807978946
 21
110.0420755199
  0
LINE
  5
2F1
100
AcDbEntity
  8
0
100
AcDbLine
 62
7
  6
CONTINUOUS
 10
70.4807978946
 20
109.8787750365
 11
70.6929349337
 21
110.001251682
  0
LINE
  5
2F2
100
AcDbEntity
  8
0
100
AcDbLine
 62
7
  6
CONTINUOUS
 10
38.6069168512
 20
76.1590273769
 11
38.2810949623
 21
76.0704748506
  0
LINE
  5
2F3
100
AcDbEntity
  8
0
100
AcDbLine
 62
7
  6
CONTINUOUS
 10
36.9375864846
 20
76.8461322842
 11
37.2634083734
 21
76.9346848105
  0
LINE
  5
2F4
100
AcDbEntity
  8
0
100
AcDbLine
 62
7
  6
CONTINUOUS
 10
113.1255606745
 20
55.8708014002
 11
113.3699540429
 21
55.7297040152
  0
LINE
  5
2F5
100
AcDbEntity
  8
0
100
AcDbLine
 62
7
  6
CONTINUOUS
 10
116.5487703913
 20
55.3568348781
 11
117.2205246302
 21
54.9690061613
  0
LINE
  5
2F6
100
AcDbEntity
  8
0
100
AcDbLine
 62
7
  6
CONTINUOUS
 10
72.7419158399
 20
53.5820994124
 11
72.8993213127
 21
53.1994805585
  0
LINE
  5
2F7
100
AcDbEntity
  8
0
100
AcDbLine
 62
7
  6
CONTINUOUS
 10
60.5103252622
 20
152.8259975947
 11
60.5103252622
 21
153.6016614871
  0
LINE
  5
2F8
100
AcDbEntity
  8
0
100
AcDbLine
 62
7
  6
CONTINUOUS
 10
60.8285611437
 20
148.3557467155
 11
60.8285611437
 21
141.8238402534
  0
LINE
  5
2F9
100
AcDbEntity
  8
0
100
AcDbLine
 62
7
  6
CONTINUOUS
 10
62.5611730945
 20
114.0428325347
 11
62.5611730945
 21
110.2869214159
  0
LINE
  5
2FA
100
AcDbEntity
  8
0
100
AcDbLine
 62
7
  6
CONTINUOUS
 10
63.0208898004
 20
72.4828860752
 11
63.0208898004
 21
72.2125905709
  0
LINE
  5
2FB
100
AcDbEntity
  8
0
100
AcDbLine
 62
7
  6
CONTINUOUS
 10
63.0561457805
 20
110.735992807
 11
63.0561457805
 21
110.5726923236
  0
LINE
  5
2FC
100
AcDbEntity
  8
0
100
AcDbLine
 62
7
  6
CONTINUOUS
 10
64.3641097694
 20
143.8650882178
 11
64.3641097694
 21
146.3145429429
  0
LINE
  5
2FD
100
AcDbEntity
  8
0
100
AcDbLine
 62
7
  6
CONTINUOUS
 10
62.3491096546
 20
96.4474089124
 11
62.0662681197
 21
95.957510284
  0
LINE
  5
2FE
100
AcDbEntity
  8
0
100
AcDbLine
 62
7
  6
CONTINUOUS
 10
42.88489477
 20
75.4449017871
 11
41.865463258
 21
74.0010856661
  0
LINE
  5
2FF
100
AcDbEntity
  8
0
100
AcDbLine
 62
7
  6
CONTINUOUS
 10
83.5837043562
 20
124.0981918579
 11
83.9511262879
 21
124.5552724679
  0
LINE
  5
300
100
AcDbEntity
  8
0
100
AcDbLine
 62
7
  6
CONTINUOUS
 10
76.7807000919
 20
107.5887900813
 11
75.7907547198
 21
107.0172482659
  0
LINE
  5
301
100
AcDbEntity
  8
0
100
AcDbLine
 62
7
  6
CONTINUOUS
 10
102.1237867561
 20
122.0650319264
 11
98.1640052677
 21
119.7788646647
  0
LINE
  5
302
100
AcDbEntity
  8
0
100
AcDbLine
 62
7
  6
CONTINUOUS
 10
19.1168720701
 20
87.1346937902
 11
18.2970941605
 21
86.8113257079
  0
LINE
  5
303
100
AcDbEntity
  8
0
100
AcDbLine
 62
7
  6
CONTINUOUS
 10
33.6217932889
 20
79.0371246962
 11
33.2959714
 21
78.94857217
  0
LINE
  5
304
100
AcDbEntity
  8
0
100
AcDbLine
 62
7
  6
CONTINUOUS
 10
78.1176824322
 20
82.1181016554
 11
21.478193448
 21
114.8181860925
  0
LINE
  5
305
100
AcDbEntity
  8
0
100
AcDbLine
 62
7
  6
CONTINUOUS
 10
22.8924011224
 20
117.2676792345
 11
79.5318901067
 21
84.5675947974
  0
LINE
  5
306
100
AcDbEntity
  8
0
100
AcDbLine
 62
7
  6
CONTINUOUS
 10
24.0237672619
 20
117.9208698807
 11
80.9460977811
 21
85.0574821383
  0
LINE
  5
307
100
AcDbEntity
  8
0
100
AcDbLine
 62
7
  6
CONTINUOUS
 10
81.228939316
 20
85.5473807667
 11
24.5894503317
 21
118.2474652038
  0
LINE
  5
308
100
AcDbEntity
  8
0
100
AcDbLine
 62
7
  6
CONTINUOUS
 10
113.3700487621
 20
55.7298679059
 11
113.1549877233
 21
55.8877910133
  0
LINE
  5
309
100
AcDbEntity
  8
0
100
AcDbLine
 62
7
  6
CONTINUOUS
 10
69.738176653
 20
138.6395977216
 11
69.738176653
 21
137.0065928873
  0
LINE
  5
30A
100
AcDbEntity
  8
0
100
AcDbLine
 62
7
  6
CONTINUOUS
 10
69.9858252085
 20
113.0631394016
 11
69.9858252085
 21
109.7563046122
  0
LINE
  5
30B
100
AcDbEntity
  8
0
100
AcDbLine
 62
7
  6
CONTINUOUS
 10
70.0211806948
 20
114.716557319
 11
70.0211806948
 21
116.2679119115
  0
LINE
  5
30C
100
AcDbEntity
  8
0
100
AcDbLine
 62
7
  6
CONTINUOUS
 10
70.3745754056
 20
136.6391762083
 11
70.3745754056
 21
138.2721810425
  0
LINE
  5
30D
100
AcDbEntity
  8
0
100
AcDbLine
 62
7
  6
CONTINUOUS
 10
70.4807978946
 20
110.0420755199
 11
70.4807978946
 21
109.8787750365
  0
LINE
  5
30E
100
AcDbEntity
  8
0
100
AcDbLine
 62
7
  6
CONTINUOUS
 10
70.6929349337
 20
101.2646899281
 11
70.6929349337
 21
114.3287286022
  0
LINE
  5
30F
100
AcDbEntity
  8
0
100
AcDbLine
 62
7
  6
CONTINUOUS
 10
85.2946347657
 20
123.7796150343
 11
84.927212834
 21
123.3225344243
  0
LINE
  5
310
100
AcDbEntity
  8
0
100
AcDbLine
 62
7
  6
CONTINUOUS
 10
77.8078531369
 20
107.209714305
 11
77.6933123807
 21
107.1435845634
  0
LINE
  5
311
100
AcDbEntity
  8
0
100
AcDbLine
 62
7
  6
CONTINUOUS
 10
112.306093199
 20
126.3924264162
 11
114.6183227467
 21
127.7273847993
  0
LINE
  5
312
100
AcDbEntity
  8
0
100
AcDbLine
 62
7
  6
CONTINUOUS
 10
78.3952063711
 20
106.324067203
 11
77.6933123807
 21
105.9188309377
  0
LINE
  5
313
100
AcDbEntity
  8
0
100
AcDbLine
 62
7
  6
CONTINUOUS
 10
60.6520604452
 20
95.4676229431
 11
61.7834265848
 21
96.1208135893
  0
LINE
  5
314
100
AcDbEntity
  8
0
100
AcDbLine
 62
7
  6
CONTINUOUS
 10
62.3491096546
 20
96.4474089124
 11
70.6929349337
 21
101.2646899281
  0
LINE
  5
315
100
AcDbEntity
  8
0
100
AcDbLine
 62
7
  6
CONTINUOUS
 10
78.6832577528
 20
105.673870336
 11
77.6933123807
 21
105.1023285206
  0
LINE
  5
316
100
AcDbEntity
  8
0
100
AcDbLine
 62
7
  6
CONTINUOUS
 10
78.7937284792
 20
105.5743667067
 11
78.5418440509
 21
105.4289420323
  0
LINE
  5
317
100
AcDbEntity
  8
0
100
AcDbLine
 62
7
  6
CONTINUOUS
 10
116.173964142
 20
126.8292551394
 11
117.6093849316
 21
127.6579907718
  0
LINE
  5
318
100
AcDbEntity
  8
0
100
AcDbLine
 62
7
  6
CONTINUOUS
 10
116.173964142
 20
125.3595507886
 11
117.833811604
 21
126.3178584472
  0
LINE
  5
319
100
AcDbEntity
  8
0
100
AcDbLine
 62
7
  6
CONTINUOUS
 10
88.0171067136
 20
108.1643424525
 11
91.5526258996
 21
110.2055632218
  0
LINE
  5
31A
100
AcDbEntity
  8
0
100
AcDbLine
 62
7
  6
CONTINUOUS
 10
71.1523843274
 20
137.0882417181
 11
71.1523843274
 21
136.4350792906
  0
LINE
  5
31B
100
AcDbEntity
  8
0
100
AcDbLine
 62
7
  6
CONTINUOUS
 10
71.3646891726
 20
113.9408998854
 11
71.3646891726
 21
115.4922544779
  0
LINE
  5
31C
100
AcDbEntity
  8
0
100
AcDbLine
 62
7
  6
CONTINUOUS
 10
71.5059792279
 20
133.9448190001
 11
71.5059686296
 21
135.1695411101
  0
LINE
  5
31D
100
AcDbEntity
  8
0
100
AcDbLine
 62
7
  6
CONTINUOUS
 10
71.7180838834
 20
136.7616841319
 11
71.7180838834
 21
137.4965236089
  0
LINE
  5
31E
100
AcDbEntity
  8
0
100
AcDbLine
 62
7
  6
CONTINUOUS
 10
72.001071439
 20
115.8596409498
 11
72.001071439
 21
117.4109955424
  0
LINE
  5
31F
100
AcDbEntity
  8
0
100
AcDbLine
 62
7
  6
CONTINUOUS
 10
72.6727962382
 20
119.554236775
 11
72.6727962382
 21
121.1055913675
  0
LINE
  5
320
100
AcDbEntity
  8
0
100
AcDbLine
 62
7
  6
CONTINUOUS
 10
74.3346454027
 20
65.9510340029
 11
74.3346454027
 21
65.6807384986
  0
LINE
  5
321
100
AcDbEntity
  8
0
100
AcDbLine
 62
7
  6
CONTINUOUS
 10
75.465750118
 20
131.6586959298
 11
75.465750118
 21
137.4557083718
  0
LINE
  5
322
100
AcDbEntity
  8
0
100
AcDbLine
 62
7
  6
CONTINUOUS
 10
75.5118475843
 20
117.1109125108
 11
75.5118475843
 21
118.6622671034
  0
LINE
  5
323
100
AcDbEntity
  8
0
100
AcDbLine
 62
7
  6
CONTINUOUS
 10
77.4104755562
 20
100.4074564509
 11
77.198344405
 21
100.0400324796
  0
LINE
  5
324
100
AcDbEntity
  8
0
100
AcDbLine
 62
7
  6
CONTINUOUS
 10
52.1185542727
 20
68.0815947255
 11
53.1379906558
 21
69.52541774
  0
LINE
  5
325
100
AcDbEntity
  8
0
100
AcDbLine
 62
7
  6
CONTINUOUS
 10
119.0024030426
 20
125.1962921213
 11
120.4378238322
 21
126.0250277537
  0
LINE
  5
326
100
AcDbEntity
  8
0
100
AcDbLine
 62
7
  6
CONTINUOUS
 10
89.3606384079
 20
107.3886716151
 11
91.5526258996
 21
108.6542086293
  0
LINE
  5
327
100
AcDbEntity
  8
0
100
AcDbLine
 62
7
  6
CONTINUOUS
 10
103.0430818014
 20
114.512553986
 11
104.1744479409
 21
115.1657446321
  0
LINE
  5
328
100
AcDbEntity
  8
0
100
AcDbLine
 62
7
  6
CONTINUOUS
 10
120.3105560341
 20
124.4410467255
 11
118.5286543644
 21
123.4122714577
  0
LINE
  5
329
100
AcDbEntity
  8
0
100
AcDbLine
 62
7
  6
CONTINUOUS
 10
107.4978359758
 20
116.8395414302
 11
104.5418698726
 21
115.1329237919
  0
LINE
  5
32A
100
AcDbEntity
  8
0
100
AcDbLine
 62
7
  6
CONTINUOUS
 10
102.8309559493
 20
113.6552443222
 11
103.679480554
 21
114.1451373069
  0
LINE
  5
32B
100
AcDbEntity
  8
0
100
AcDbLine
 62
7
  6
CONTINUOUS
 10
116.4780600076
 20
121.2894057668
 11
108.1342347284
 21
116.4721247511
  0
LINE
  5
32C
100
AcDbEntity
  8
0
100
AcDbLine
 62
7
  6
CONTINUOUS
 10
90.8809011004
 20
106.5109673967
 11
88.9010103562
 21
105.3678837658
  0
LINE
  5
32D
100
AcDbEntity
  8
0
100
AcDbLine
 62
7
  6
CONTINUOUS
 10
98.8004640772
 20
111.08330192
 11
102.4635340176
 21
113.1981637122
  0
LINE
  5
32E
100
AcDbEntity
  8
0
100
AcDbLine
 62
7
  6
CONTINUOUS
 10
95.0881745254
 20
108.1643594492
 11
99.4722183161
 21
110.6954732032
  0
LINE
  5
32F
100
AcDbEntity
  8
0
100
AcDbLine
 62
7
  6
CONTINUOUS
 10
117.1498142464
 20
120.90157705
 11
123.2309072465
 21
124.4124767733
  0
LINE
  5
330
100
AcDbEntity
  8
0
100
AcDbLine
 62
7
  6
CONTINUOUS
 10
83.1866076826
 20
100.5580132121
 11
81.935975442
 21
99.8359646613
  0
LINE
  5
331
100
AcDbEntity
  8
0
100
AcDbLine
 62
7
  6
CONTINUOUS
 10
88.9010103562
 20
103.8165291733
 11
90.8809011004
 21
104.9596128041
  0
LINE
  5
332
100
AcDbEntity
  8
0
100
AcDbLine
 62
7
  6
CONTINUOUS
 10
108.1342347284
 20
114.8391199169
 11
109.5484424029
 21
115.6556082246
  0
LINE
  5
333
100
AcDbEntity
  8
0
100
AcDbLine
 62
7
  6
CONTINUOUS
 10
81.935975442
 20
99.6726641779
 11
81.4410027559
 21
99.3868932702
  0
LINE
  5
334
100
AcDbEntity
  8
0
100
AcDbLine
 62
7
  6
CONTINUOUS
 10
116.4780600076
 20
119.1256743614
 11
114.4981692634
 21
117.9825907306
  0
LINE
  5
335
100
AcDbEntity
  8
0
100
AcDbLine
 62
7
  6
CONTINUOUS
 10
89.5727645951
 20
103.4287004565
 11
95.0881745254
 21
106.6130048567
  0
LINE
  5
336
100
AcDbEntity
  8
0
100
AcDbLine
 62
7
  6
CONTINUOUS
 10
108.9120436502
 20
114.3900200694
 11
105.0675253117
 21
112.1703996211
  0
LINE
  5
337
100
AcDbEntity
  8
0
100
AcDbLine
 62
7
  6
CONTINUOUS
 10
117.1498142464
 20
118.7378456446
 11
115.1699235022
 21
117.5947620138
  0
LINE
  5
338
100
AcDbEntity
  8
0
100
AcDbLine
 62
7
  6
CONTINUOUS
 10
112.5280886352
 20
115.7428926759
 11
109.5484424029
 21
114.0226033904
  0
LINE
  5
339
100
AcDbEntity
  8
0
100
AcDbLine
 62
7
  6
CONTINUOUS
 10
105.4349408943
 20
111.6476863634
 11
99.4722183161
 21
108.2051274271
  0
LINE
  5
33A
100
AcDbEntity
  8
0
100
AcDbLine
 62
7
  6
CONTINUOUS
 10
19.7270871898
 20
87.0590555226
 11
19.4012653009
 21
86.9705029963
  0
LINE
  5
33B
100
AcDbEntity
  8
0
100
AcDbLine
 62
7
  6
CONTINUOUS
 10
93.8507378055
 20
85.9350786062
 11
94.4517810719
 21
85.5880739648
  0
LINE
  5
33C
100
AcDbEntity
  8
0
100
AcDbLine
 62
7
  6
CONTINUOUS
 10
89.5727645951
 20
90.3646617824
 11
32.9332756108
 21
123.0647462195
  0
LINE
  5
33D
100
AcDbEntity
  8
0
100
AcDbLine
 62
7
  6
CONTINUOUS
 10
122.5238034093
 20
73.8709842077
 11
121.1095957348
 21
74.6874589181
  0
LINE
  5
33E
100
AcDbEntity
  8
0
100
AcDbLine
 62
7
  6
CONTINUOUS
 10
39.4386850822
 20
121.840088771
 11
51.8131052723
 21
114.6958755669
  0
LINE
  5
33F
100
AcDbEntity
  8
0
100
AcDbLine
 62
7
  6
CONTINUOUS
 10
58.3185147436
 20
110.9400606253
 11
70.6929349337
 21
103.7958474212
  0
LINE
  5
340
100
AcDbEntity
  8
0
100
AcDbLine
 62
7
  6
CONTINUOUS
 10
77.198344405
 20
100.0400324796
 11
89.5727645951
 21
92.8958192755
  0
LINE
  5
341
100
AcDbEntity
  8
0
100
AcDbLine
 62
7
  6
CONTINUOUS
 10
121.1095957348
 20
75.0957519428
 11
120.5439126651
 21
75.4223418269
  0
LINE
  5
342
100
AcDbEntity
  8
0
100
AcDbLine
 62
7
  6
CONTINUOUS
 10
39.4386850822
 20
122.3299902213
 11
51.8131052723
 21
115.1857770172
  0
LINE
  5
343
100
AcDbEntity
  8
0
100
AcDbLine
 62
7
  6
CONTINUOUS
 10
58.3185147436
 20
111.4299620756
 11
70.6929349337
 21
104.2857488715
  0
LINE
  5
344
100
AcDbEntity
  8
0
100
AcDbLine
 62
7
  6
CONTINUOUS
 10
89.7848957463
 20
93.2632432468
 11
77.198344405
 21
100.5299339299
  0
LINE
  5
345
100
AcDbEntity
  8
0
100
AcDbLine
 62
7
  6
CONTINUOUS
 10
76.8586634238
 20
146.8575465561
 11
76.8586634238
 21
149.5274410907
  0
LINE
  5
346
100
AcDbEntity
  8
0
100
AcDbLine
 62
7
  6
CONTINUOUS
 10
77.198344405
 20
100.5299339299
 11
77.198344405
 21
100.0400324796
  0
LINE
  5
347
100
AcDbEntity
  8
0
100
AcDbLine
 62
7
  6
CONTINUOUS
 10
77.6933123807
 20
105.1023285206
 11
77.6933123807
 21
105.9188309377
  0
LINE
  5
348
100
AcDbEntity
  8
0
100
AcDbLine
 62
7
  6
CONTINUOUS
 10
77.6933123807
 20
107.1435845634
 11
77.6933123807
 21
107.3263423704
  0
LINE
  5
349
100
AcDbEntity
  8
0
100
AcDbLine
 62
7
  6
CONTINUOUS
 10
78.1176824322
 20
48.6415025531
 11
78.1176824322
 21
53.3824126555
  0
LINE
  5
34A
100
AcDbEntity
  8
0
100
AcDbLine
 62
7
  6
CONTINUOUS
 10
78.1176824322
 20
63.4966504619
 11
78.1176824322
 21
82.1181016554
  0
LINE
  5
34B
100
AcDbEntity
  8
0
100
AcDbLine
 62
7
  6
CONTINUOUS
 10
78.4143048192
 20
148.6293114308
 11
78.4143048192
 21
147.15960708
  0
LINE
  5
34C
100
AcDbEntity
  8
0
100
AcDbLine
 62
7
  6
CONTINUOUS
 10
78.5418440509
 20
105.4289420323
 11
78.5418440509
 21
104.6124396151
  0
LINE
  5
34D
100
AcDbEntity
  8
0
100
AcDbLine
 62
7
  6
CONTINUOUS
 10
78.6832577528
 20
105.673870336
 11
78.6832577528
 21
105.782184433
  0
LINE
  5
34E
100
AcDbEntity
  8
0
100
AcDbLine
 62
7
  6
CONTINUOUS
 10
78.7184006847
 20
143.0894620582
 11
78.7184006847
 21
141.5381342734
  0
LINE
  5
34F
100
AcDbEntity
  8
0
100
AcDbLine
 62
7
  6
CONTINUOUS
 10
78.9662070369
 20
76.647526995
 11
78.9662070369
 21
83.3836719364
  0
LINE
  5
350
100
AcDbEntity
  8
0
100
AcDbLine
 62
7
  6
CONTINUOUS
 10
79.3901549236
 20
141.925969449
 11
79.3901549236
 21
142.7016333414
  0
LINE
  5
351
100
AcDbEntity
  8
0
100
AcDbLine
 62
7
  6
CONTINUOUS
 10
79.7083908051
 20
137.4557185698
 11
79.7083908051
 21
130.9238121077
  0
LINE
  5
352
100
AcDbEntity
  8
0
100
AcDbLine
 62
7
  6
CONTINUOUS
 10
81.2427437198
 20
145.5266440619
 11
81.2427437198
 21
146.9963484127
  0
LINE
  5
353
100
AcDbEntity
  8
0
100
AcDbLine
 62
7
  6
CONTINUOUS
 10
81.4410027559
 20
103.142804389
 11
81.4410027559
 21
99.3868932702
  0
LINE
  5
354
100
AcDbEntity
  8
0
100
AcDbLine
 62
7
  6
CONTINUOUS
 10
76.3713548087
 20
53.8423720325
 11
76.3448775877
 21
53.3150604555
  0
LINE
  5
355
100
AcDbEntity
  8
0
100
AcDbLine
 62
7
  6
CONTINUOUS
 10
89.5727645951
 20
101.7548705014
 11
92.1183384091
 21
103.2245494553
  0
LINE
  5
356
100
AcDbEntity
  8
0
100
AcDbLine
 62
7
  6
CONTINUOUS
 10
113.199842874
 20
115.3550639591
 11
99.4722183161
 21
107.4294635347
  0
LINE
  5
357
100
AcDbEntity
  8
0
100
AcDbLine
 62
7
  6
CONTINUOUS
 10
88.86565487
 20
98.8562764665
 11
89.360627556
 21
99.1420473742
  0
LINE
  5
358
100
AcDbEntity
  8
0
100
AcDbLine
 62
7
  6
CONTINUOUS
 10
89.360627556
 20
98.9787468908
 11
90.7041248467
 21
99.7544107832
  0
LINE
  5
359
100
AcDbEntity
  8
0
100
AcDbLine
 62
7
  6
CONTINUOUS
 10
90.7748352304
 20
98.7337820563
 11
89.9263106258
 21
98.2438890716
  0
LINE
  5
35A
100
AcDbEntity
  8
0
100
AcDbLine
 62
7
  6
CONTINUOUS
 10
91.4112286839
 20
98.9379013113
 11
90.9162559979
 21
98.6521304036
  0
LINE
  5
35B
100
AcDbEntity
  8
0
100
AcDbLine
 62
7
  6
CONTINUOUS
 10
90.9162559979
 20
97.6723275031
 11
91.4112286839
 21
97.9580984108
  0
LINE
  5
35C
100
AcDbEntity
  8
0
100
AcDbLine
 62
7
  6
CONTINUOUS
 10
89.9263106258
 20
96.9374852042
 11
90.7748352304
 21
97.4273781889
  0
LINE
  5
35D
100
AcDbEntity
  8
0
100
AcDbLine
 62
7
  6
CONTINUOUS
 10
122.8080052625
 20
75.2598208704
 11
120.5439126651
 21
76.5669657694
  0
LINE
  5
35E
100
AcDbEntity
  8
0
100
AcDbLine
 62
7
  6
CONTINUOUS
 10
43.6813434331
 20
121.1869495616
 11
51.8131052723
 21
116.4921808846
  0
LINE
  5
35F
100
AcDbEntity
  8
0
100
AcDbLine
 62
7
  6
CONTINUOUS
 10
62.5611730945
 20
110.2869214159
 11
70.6929349337
 21
105.5921527389
  0
LINE
  5
360
100
AcDbEntity
  8
0
100
AcDbLine
 62
7
  6
CONTINUOUS
 10
81.4410027559
 20
99.3868932702
 11
89.5727645951
 21
94.6921245932
  0
LINE
  5
361
100
AcDbEntity
  8
0
100
AcDbLine
 62
7
  6
CONTINUOUS
 10
123.3723280139
 20
75.585630818
 11
120.5439126651
 21
77.2185802388
  0
LINE
  5
362
100
AcDbEntity
  8
0
100
AcDbLine
 62
7
  6
CONTINUOUS
 10
123.3723280139
 20
75.585630818
 11
124.4329837697
 21
74.9732434231
  0
LINE
  5
363
100
AcDbEntity
  8
0
100
AcDbLine
 62
7
  6
CONTINUOUS
 10
44.1763161191
 20
121.4727204693
 11
51.8131052723
 21
117.0637179409
  0
LINE
  5
364
100
AcDbEntity
  8
0
100
AcDbLine
 62
7
  6
CONTINUOUS
 10
63.0561457805
 20
110.5726923236
 11
70.6929349337
 21
106.1636897952
  0
LINE
  5
365
100
AcDbEntity
  8
0
100
AcDbLine
 62
7
  6
CONTINUOUS
 10
81.935975442
 20
99.6726641779
 11
90.0677372812
 21
94.9778955009
  0
LINE
  5
366
100
AcDbEntity
  8
0
100
AcDbLine
 62
7
  6
CONTINUOUS
 10
44.1763161191
 20
121.6360209527
 11
51.8131052723
 21
117.2270184244
  0
LINE
  5
367
100
AcDbEntity
  8
0
100
AcDbLine
 62
7
  6
CONTINUOUS
 10
63.0561457805
 20
110.735992807
 11
70.6929349337
 21
106.3269902787
  0
LINE
  5
368
100
AcDbEntity
  8
0
100
AcDbLine
 62
7
  6
CONTINUOUS
 10
81.935975442
 20
99.8359646613
 11
90.0677372812
 21
95.1411959843
  0
LINE
  5
369
100
AcDbEntity
  8
0
100
AcDbLine
 62
7
  6
CONTINUOUS
 10
44.3420059757
 20
122.9844471104
 11
51.7666580897
 21
118.697919188
  0
LINE
  5
36A
100
AcDbEntity
  8
0
100
AcDbLine
 62
7
  6
CONTINUOUS
 10
63.2218356371
 20
112.0844189647
 11
70.6464877512
 21
107.7978910423
  0
LINE
  5
36B
100
AcDbEntity
  8
0
100
AcDbLine
 62
7
  6
CONTINUOUS
 10
82.1016652985
 20
101.184390819
 11
89.5263174126
 21
96.8978628966
  0
LINE
  5
36C
100
AcDbEntity
  8
0
100
AcDbLine
 62
7
  6
CONTINUOUS
 10
91.4112345719
 20
95.9168598767
 11
89.7166903853
 21
96.8951832863
  0
LINE
  5
36D
100
AcDbEntity
  8
0
100
AcDbLine
 62
7
  6
CONTINUOUS
 10
78.5418440509
 20
104.6124396151
 11
77.6933123807
 21
105.1023285206
  0
LINE
  5
36E
100
AcDbEntity
  8
0
100
AcDbLine
 62
7
  6
CONTINUOUS
 10
59.6620143895
 20
115.5124677608
 11
58.8134827193
 21
116.0023566662
  0
LINE
  5
36F
100
AcDbEntity
  8
0
100
AcDbLine
 62
7
  6
CONTINUOUS
 10
40.7821847281
 20
126.4124959065
 11
39.9336530579
 21
126.9023848119
  0
LINE
  5
370
100
AcDbEntity
  8
0
100
AcDbLine
 62
7
  6
CONTINUOUS
 10
43.6813434331
 20
124.9428606804
 11
51.8131052723
 21
120.2480606413
  0
LINE
  5
371
100
AcDbEntity
  8
0
100
AcDbLine
 62
7
  6
CONTINUOUS
 10
62.5611730945
 20
114.0428325347
 11
70.6929349337
 21
109.3480324956
  0
LINE
  5
372
100
AcDbEntity
  8
0
100
AcDbLine
 62
7
  6
CONTINUOUS
 10
81.4410027559
 20
103.142804389
 11
89.9263106258
 21
98.2438890716
  0
LINE
  5
373
100
AcDbEntity
  8
0
100
AcDbLine
 62
7
  6
CONTINUOUS
 10
91.0576677117
 20
97.7539711068
 11
92.1183384091
 21
97.1416064477
  0
LINE
  5
374
100
AcDbEntity
  8
0
100
AcDbLine
 62
7
  6
CONTINUOUS
 10
51.4595438443
 20
120.860452744
 11
51.6009682332
 21
120.7788031822
  0
LINE
  5
375
100
AcDbEntity
  8
0
100
AcDbLine
 62
7
  6
CONTINUOUS
 10
70.3393735057
 20
109.9604245983
 11
70.4807978946
 21
109.8787750365
  0
LINE
  5
376
100
AcDbEntity
  8
0
100
AcDbLine
 62
7
  6
CONTINUOUS
 10
89.2192031671
 20
99.0603964526
 11
89.360627556
 21
98.9787468908
  0
LINE
  5
377
100
AcDbEntity
  8
0
100
AcDbLine
 62
7
  6
CONTINUOUS
 10
77.6933123807
 20
105.9188309377
 11
75.7907547198
 21
107.0172482659
  0
LINE
  5
378
100
AcDbEntity
  8
0
100
AcDbLine
 62
7
  6
CONTINUOUS
 10
58.8134827193
 20
116.8188590834
 11
56.9109250583
 21
117.9172764116
  0
LINE
  5
379
100
AcDbEntity
  8
0
100
AcDbLine
 62
7
  6
CONTINUOUS
 10
39.9336530579
 20
127.7188872291
 11
38.0310953969
 21
128.8173045573
  0
LINE
  5
37A
100
AcDbEntity
  8
0
100
AcDbLine
 62
7
  6
CONTINUOUS
 10
40.7821847281
 20
127.2289983236
 11
41.1118332982
 21
127.0386799385
  0
LINE
  5
37B
100
AcDbEntity
  8
0
100
AcDbLine
 62
7
  6
CONTINUOUS
 10
59.6620143895
 20
116.328970178
 11
59.9916629596
 21
116.1386517928
  0
LINE
  5
37C
100
AcDbEntity
  8
0
100
AcDbLine
 62
7
  6
CONTINUOUS
 10
78.5418440509
 20
105.4289420323
 11
78.871492621
 21
105.2386236472
  0
LINE
  5
37D
100
AcDbEntity
  8
0
100
AcDbLine
 62
7
  6
CONTINUOUS
 10
78.7663293386
 20
105.6259100186
 11
78.6832577528
 21
105.673870336
  0
LINE
  5
37E
100
AcDbEntity
  8
0
100
AcDbLine
 62
7
  6
CONTINUOUS
 10
59.8864996772
 20
116.5259381643
 11
59.8034280914
 21
116.5738984817
  0
LINE
  5
37F
100
AcDbEntity
  8
0
100
AcDbLine
 62
7
  6
CONTINUOUS
 10
41.0066700158
 20
127.4259663099
 11
40.92359843
 21
127.4739266274
  0
LINE
  5
380
100
AcDbEntity
  8
0
100
AcDbLine
 62
7
  6
CONTINUOUS
 10
89.8555767027
 20
99.2645042082
 11
90.9162559979
 21
98.6521304036
  0
LINE
  5
381
100
AcDbEntity
  8
0
100
AcDbLine
 62
7
  6
CONTINUOUS
 10
90.3505457674
 20
99.5502730251
 11
91.4112286839
 21
98.9379013113
  0
LINE
  5
382
100
AcDbEntity
  8
0
100
AcDbLine
 62
7
  6
CONTINUOUS
 10
81.935975442
 20
99.8359646613
 11
81.935975442
 21
99.6726641779
  0
LINE
  5
383
100
AcDbEntity
  8
0
100
AcDbLine
 62
7
  6
CONTINUOUS
 10
83.2439394308
 20
132.9650600721
 11
83.2439394308
 21
135.4145147972
  0
LINE
  5
384
100
AcDbEntity
  8
0
100
AcDbLine
 62
7
  6
CONTINUOUS
 10
83.9865889345
 20
48.5596291753
 11
83.9865889345
 21
49.3761315925
  0
LINE
  5
385
100
AcDbEntity
  8
0
100
AcDbLine
 62
7
  6
CONTINUOUS
 10
84.8351206047
 20
48.886242687
 11
84.8351206047
 21
48.0697402699
  0
LINE
  5
386
100
AcDbEntity
  8
0
100
AcDbLine
 62
7
  6
CONTINUOUS
 10
84.9765343066
 20
49.1311709908
 11
84.9765343066
 21
49.2394850878
  0
LINE
  5
387
100
AcDbEntity
  8
0
100
AcDbLine
 62
7
  6
CONTINUOUS
 10
76.8195959635
 20
52.9283604836
 11
76.6897558981
 21
51.9067890335
  0
LINE
  5
388
100
AcDbEntity
  8
0
100
AcDbLine
 62
7
  6
CONTINUOUS
 10
80.9460977811
 20
85.0574821383
 11
81.228939316
 21
85.5473807667
  0
LINE
  5
389
100
AcDbEntity
  8
0
100
AcDbLine
 62
7
  6
CONTINUOUS
 10
61.7647244315
 20
64.5448736414
 11
60.7452929194
 21
63.1010575204
  0
LINE
  5
38A
100
AcDbEntity
  8
0
100
AcDbLine
 62
7
  6
CONTINUOUS
 10
102.4635340176
 20
113.1981637122
 11
102.8309559493
 21
113.6552443222
  0
LINE
  5
38B
100
AcDbEntity
  8
0
100
AcDbLine
 62
7
  6
CONTINUOUS
 10
91.4112345719
 20
95.9168598767
 11
90.0677372812
 21
95.1411959843
  0
LINE
  5
38C
100
AcDbEntity
  8
0
100
AcDbLine
 62
7
  6
CONTINUOUS
 10
90.0677372812
 20
94.9778955009
 11
89.5727645951
 21
94.6921245932
  0
LINE
  5
38D
100
AcDbEntity
  8
0
100
AcDbLine
 62
7
  6
CONTINUOUS
 10
79.5318901067
 20
84.5675947974
 11
80.6632562462
 21
85.2207854436
  0
LINE
  5
38E
100
AcDbEntity
  8
0
100
AcDbLine
 62
7
  6
CONTINUOUS
 10
81.228939316
 20
85.5473807667
 11
89.5727645951
 21
90.3646617824
  0
LINE
  5
38F
100
AcDbEntity
  8
0
100
AcDbLine
 62
7
  6
CONTINUOUS
 10
120.5439126651
 20
101.7402760959
 11
119.0834062204
 21
101.1944269134
  0
LINE
  5
390
100
AcDbEntity
  8
0
100
AcDbLine
 62
7
  6
CONTINUOUS
 10
119.5539590499
 20
98.9829835459
 11
118.7298521896
 21
98.6749821279
  0
LINE
  5
391
100
AcDbEntity
  8
0
100
AcDbLine
 62
7
  6
CONTINUOUS
 10
78.1401121384
 20
106.8039509257
 11
76.7807000919
 21
107.5887900813
  0
LINE
  5
392
100
AcDbEntity
  8
0
100
AcDbLine
 62
7
  6
CONTINUOUS
 10
59.260282477
 20
117.7039790714
 11
57.9008704304
 21
118.488818227
  0
LINE
  5
393
100
AcDbEntity
  8
0
100
AcDbLine
 62
7
  6
CONTINUOUS
 10
40.3804528156
 20
128.6040072171
 11
39.021040769
 21
129.3888463727
  0
LINE
  5
394
100
AcDbEntity
  8
0
100
AcDbLine
 62
7
  6
CONTINUOUS
 10
77.6933123807
 20
107.1435845634
 11
75.7907547198
 21
108.2420018916
  0
LINE
  5
395
100
AcDbEntity
  8
0
100
AcDbLine
 62
7
  6
CONTINUOUS
 10
58.8134827193
 20
118.0436127091
 11
56.9109250583
 21
119.1420300373
  0
LINE
  5
396
100
AcDbEntity
  8
0
100
AcDbLine
 62
7
  6
CONTINUOUS
 10
39.9336530579
 20
128.9436408548
 11
38.0310953969
 21
130.0420581829
  0
LINE
  5
397
100
AcDbEntity
  8
0
100
AcDbLine
 62
7
  6
CONTINUOUS
 10
91.4112286839
 20
99.3461525199
 11
90.7041157934
 21
99.7543951019
  0
LINE
  5
398
100
AcDbEntity
  8
0
100
AcDbLine
 62
7
  6
CONTINUOUS
 10
51.1059955471
 20
123.9631675473
 11
51.8131052723
 21
123.5549267928
  0
LINE
  5
399
100
AcDbEntity
  8
0
100
AcDbLine
 62
7
  6
CONTINUOUS
 10
69.9858252085
 20
113.0631394016
 11
70.6929349337
 21
112.6548986471
  0
LINE
  5
39A
100
AcDbEntity
  8
0
100
AcDbLine
 62
7
  6
CONTINUOUS
 10
88.86565487
 20
102.1631112559
 11
89.5727645951
 21
101.7548705014
  0
LINE
  5
39B
100
AcDbEntity
  8
0
100
AcDbLine
 62
7
  6
CONTINUOUS
 10
89.5727645951
 20
103.4287004565
 11
88.9010103562
 21
103.8165291733
  0
LINE
  5
39C
100
AcDbEntity
  8
0
100
AcDbLine
 62
7
  6
CONTINUOUS
 10
71.3646891726
 20
113.9408998854
 11
70.0211806948
 21
114.716557319
  0
LINE
  5
39D
100
AcDbEntity
  8
0
100
AcDbLine
 62
7
  6
CONTINUOUS
 10
52.4848595111
 20
124.8409280311
 11
51.1413510334
 21
125.6165854647
  0
LINE
  5
39E
100
AcDbEntity
  8
0
100
AcDbLine
 62
7
  6
CONTINUOUS
 10
33.6050298497
 20
135.7409561768
 11
32.9332756108
 21
136.1287848936
  0
LINE
  5
39F
100
AcDbEntity
  8
0
100
AcDbLine
 62
7
  6
CONTINUOUS
 10
88.9010103562
 20
105.3678837658
 11
71.3646891726
 21
115.4922544779
  0
LINE
  5
3A0
100
AcDbEntity
  8
0
100
AcDbLine
 62
7
  6
CONTINUOUS
 10
70.0211806948
 20
116.2679119115
 11
52.4848595111
 21
126.3922826236
  0
LINE
  5
3A1
100
AcDbEntity
  8
0
100
AcDbLine
 62
7
  6
CONTINUOUS
 10
51.1413510334
 20
127.1679400572
 11
33.6050298497
 21
137.2923107693
  0
LINE
  5
3A2
100
AcDbEntity
  8
0
100
AcDbLine
 62
7
  6
CONTINUOUS
 10
88.6180063144
 20
127.7395695759
 11
88.6180063144
 21
126.1065647416
  0
LINE
  5
3A3
100
AcDbEntity
  8
0
100
AcDbLine
 62
7
  6
CONTINUOUS
 10
88.86565487
 20
102.1631112559
 11
88.86565487
 21
98.8562764665
  0
LINE
  5
3A4
100
AcDbEntity
  8
0
100
AcDbLine
 62
7
  6
CONTINUOUS
 10
88.9010103562
 20
103.8165291733
 11
88.9010103562
 21
105.3678837658
  0
LINE
  5
3A5
100
AcDbEntity
  8
0
100
AcDbLine
 62
7
  6
CONTINUOUS
 10
89.254405067
 20
125.7391480626
 11
89.254405067
 21
127.3721528968
  0
LINE
  5
3A6
100
AcDbEntity
  8
0
100
AcDbLine
 62
7
  6
CONTINUOUS
 10
89.360627556
 20
99.1420473742
 11
89.360627556
 21
98.9787468908
  0
LINE
  5
3A7
100
AcDbEntity
  8
0
100
AcDbLine
 62
7
  6
CONTINUOUS
 10
89.5727645951
 20
39.006659745
 11
89.5727645951
 21
53.6220530116
  0
LINE
  5
3A8
100
AcDbEntity
  8
0
100
AcDbLine
 62
7
  6
CONTINUOUS
 10
89.5727645951
 20
90.3646617824
 11
89.5727645951
 21
92.8958192755
  0
LINE
  5
3A9
100
AcDbEntity
  8
0
100
AcDbLine
 62
7
  6
CONTINUOUS
 10
89.5727645951
 20
93.3857207258
 11
89.5727645951
 21
94.6921245932
  0
LINE
  5
3AA
100
AcDbEntity
  8
0
100
AcDbLine
 62
7
  6
CONTINUOUS
 10
89.5727645951
 20
101.7548705014
 11
89.5727645951
 21
103.4287004565
  0
LINE
  5
3AB
100
AcDbEntity
  8
0
100
AcDbLine
 62
7
  6
CONTINUOUS
 10
90.0322139888
 20
126.1882135724
 11
90.0322139888
 21
125.5350511449
  0
LINE
  5
3AC
100
AcDbEntity
  8
0
100
AcDbLine
 62
7
  6
CONTINUOUS
 10
90.0677372812
 20
95.1411959843
 11
90.0677372812
 21
94.9778955009
  0
LINE
  5
3AD
100
AcDbEntity
  8
0
100
AcDbLine
 62
7
  6
CONTINUOUS
 10
90.3858088893
 20
123.0447908545
 11
90.385798291
 21
124.2695129644
  0
LINE
  5
3AE
100
AcDbEntity
  8
0
100
AcDbLine
 62
7
  6
CONTINUOUS
 10
90.5979135448
 20
125.8616559862
 11
90.5979135448
 21
126.5964954632
  0
LINE
  5
3AF
100
AcDbEntity
  8
0
100
AcDbLine
 62
7
  6
CONTINUOUS
 10
90.8809011004
 20
104.9596128041
 11
90.8809011004
 21
106.5109673967
  0
LINE
  5
3B0
100
AcDbEntity
  8
0
100
AcDbLine
 62
7
  6
CONTINUOUS
 10
91.4112286839
 20
102.8163019021
 11
91.4112286839
 21
99.3461525199
  0
LINE
  5
3B1
100
AcDbEntity
  8
0
100
AcDbLine
 62
7
  6
CONTINUOUS
 10
91.4112286839
 20
98.9379013113
 11
91.4112286839
 21
97.9580984108
  0
LINE
  5
3B2
100
AcDbEntity
  8
0
100
AcDbLine
 62
7
  6
CONTINUOUS
 10
91.5526258996
 20
108.6542086293
 11
91.5526258996
 21
110.2055632218
  0
LINE
  5
3B3
100
AcDbEntity
  8
0
100
AcDbLine
 62
7
  6
CONTINUOUS
 10
92.1183384091
 20
97.1416064477
 11
92.1183384091
 21
103.2245494553
  0
LINE
  5
3B4
100
AcDbEntity
  8
0
100
AcDbLine
 62
7
  6
CONTINUOUS
 10
90.9162559979
 20
97.6723275031
 11
90.7748352304
 21
97.4273781889
  0
LINE
  5
3B5
100
AcDbEntity
  8
0
100
AcDbLine
 62
7
  6
CONTINUOUS
 10
89.5727645951
 20
92.8958192755
 11
89.7848957463
 21
93.2632432468
  0
LINE
  5
3B6
100
AcDbEntity
  8
0
100
AcDbLine
 62
7
  6
CONTINUOUS
 10
78.9662070369
 20
83.3836719364
 11
94.4517810719
 21
92.3242189061
  0
LINE
  5
3B7
100
AcDbEntity
  8
0
100
AcDbLine
 62
7
  6
CONTINUOUS
 10
121.1095957348
 20
104.4898389594
 11
120.5439126651
 21
104.1632436363
  0
LINE
  5
3B8
100
AcDbEntity
  8
0
100
AcDbLine
 62
7
  6
CONTINUOUS
 10
123.0988918839
 20
103.5154464863
 11
122.3969062713
 21
103.1101573232
  0
LINE
  5
3B9
100
AcDbEntity
  8
0
100
AcDbLine
 62
7
  6
CONTINUOUS
 10
118.59041524
 20
97.6813470255
 11
120.5439126651
 21
98.4114464895
  0
LINE
  5
3BA
100
AcDbEntity
  8
0
100
AcDbLine
 62
7
  6
CONTINUOUS
 10
96.4946891345
 20
119.7788606522
 11
98.1640052677
 21
119.7788646647
  0
LINE
  5
3BB
100
AcDbEntity
  8
0
100
AcDbLine
 62
7
  6
CONTINUOUS
 10
95.6184208554
 20
120.023809271
 11
95.7598422116
 21
120.0238096109
  0
LINE
  5
3BC
100
AcDbEntity
  8
0
100
AcDbLine
 62
7
  6
CONTINUOUS
 10
104.1744479409
 20
115.1657446321
 11
104.5418698726
 21
115.1329237919
  0
LINE
  5
3BD
100
AcDbEntity
  8
0
100
AcDbLine
 62
7
  6
CONTINUOUS
 10
90.8809011004
 20
106.5109673967
 11
88.0171067136
 21
108.1643424525
  0
LINE
  5
3BE
100
AcDbEntity
  8
0
100
AcDbLine
 62
7
  6
CONTINUOUS
 10
76.2083743036
 20
114.981963053
 11
73.3445799168
 21
116.6353381088
  0
LINE
  5
3BF
100
AcDbEntity
  8
0
100
AcDbLine
 62
7
  6
CONTINUOUS
 10
72.001071439
 20
117.4109955424
 11
69.1372770521
 21
119.0643705982
  0
LINE
  5
3C0
100
AcDbEntity
  8
0
100
AcDbLine
 62
7
  6
CONTINUOUS
 10
57.3285446422
 20
125.8819911987
 11
54.4647502553
 21
127.5353662545
  0
LINE
  5
3C1
100
AcDbEntity
  8
0
100
AcDbLine
 62
7
  6
CONTINUOUS
 10
53.1212417776
 20
128.3110236881
 11
50.2574473907
 21
129.9643987439
  0
LINE
  5
3C2
100
AcDbEntity
  8
0
100
AcDbLine
 62
7
  6
CONTINUOUS
 10
38.4487149808
 20
136.7820193444
 11
35.5849205939
 21
138.4353944002
  0
LINE
  5
3C3
100
AcDbEntity
  8
0
100
AcDbLine
 62
7
  6
CONTINUOUS
 10
37.7521882614
 20
138.9109688022
 11
39.9442051928
 21
137.645435867
  0
LINE
  5
3C4
100
AcDbEntity
  8
0
100
AcDbLine
 62
7
  6
CONTINUOUS
 10
56.6320179229
 20
128.0109406565
 11
58.8240348543
 21
126.7454077213
  0
LINE
  5
3C5
100
AcDbEntity
  8
0
100
AcDbLine
 62
7
  6
CONTINUOUS
 10
75.5118475843
 20
117.1109125108
 11
77.7038645157
 21
115.8453795756
  0
LINE
  5
3C6
100
AcDbEntity
  8
0
100
AcDbLine
 62
7
  6
CONTINUOUS
 10
53.7929665768
 20
130.4542649207
 11
56.6320179229
 21
128.8151749429
  0
LINE
  5
3C7
100
AcDbEntity
  8
0
100
AcDbLine
 62
7
  6
CONTINUOUS
 10
72.6727962382
 20
119.554236775
 11
75.5118475843
 21
117.9151467973
  0
LINE
  5
3C8
100
AcDbEntity
  8
0
100
AcDbLine
 62
7
  6
CONTINUOUS
 10
91.5526258996
 20
108.6542086293
 11
95.0881745254
 21
106.6130048567
  0
LINE
  5
3C9
100
AcDbEntity
  8
0
100
AcDbLine
 62
7
  6
CONTINUOUS
 10
79.04739621
 20
116.6210633308
 11
75.5118475843
 21
118.6622671034
  0
LINE
  5
3CA
100
AcDbEntity
  8
0
100
AcDbLine
 62
7
  6
CONTINUOUS
 10
60.1675665486
 20
127.5210914765
 11
56.6320179229
 21
129.5622952491
  0
LINE
  5
3CB
100
AcDbEntity
  8
0
100
AcDbLine
 62
7
  6
CONTINUOUS
 10
41.2877368872
 20
138.4211196221
 11
37.7521882614
 21
140.4623233948
  0
LINE
  5
3CC
100
AcDbEntity
  8
0
100
AcDbLine
 62
7
  6
CONTINUOUS
 10
53.7929665768
 20
132.0056195132
 11
57.3285152025
 21
129.9644157406
  0
LINE
  5
3CD
100
AcDbEntity
  8
0
100
AcDbLine
 62
7
  6
CONTINUOUS
 10
72.6727962382
 20
121.1055913675
 11
76.208344864
 21
119.0643875949
  0
LINE
  5
3CE
100
AcDbEntity
  8
0
100
AcDbLine
 62
7
  6
CONTINUOUS
 10
91.5526258996
 20
110.2055632218
 11
95.0881745254
 21
108.1643594492
  0
LINE
  5
3CF
100
AcDbEntity
  8
0
100
AcDbLine
 62
7
  6
CONTINUOUS
 10
65.9198212311
 20
135.9451935983
 11
66.6954763498
 21
134.841687832
  0
LINE
  5
3D0
100
AcDbEntity
  8
0
100
AcDbLine
 62
7
  6
CONTINUOUS
 10
79.8497256087
 20
149.4580470631
 11
80.0741522811
 21
148.1179147386
  0
LINE
  5
3D1
100
AcDbEntity
  8
0
100
AcDbLine
 62
7
  6
CONTINUOUS
 10
93.4618327558
 20
91.752675391
 11
93.4618327558
 21
85.5676625266
  0
LINE
  5
3D2
100
AcDbEntity
  8
0
100
AcDbLine
 62
7
  6
CONTINUOUS
 10
93.8507378055
 20
91.9772084859
 11
93.8507378055
 21
85.9350786062
  0
LINE
  5
3D3
100
AcDbEntity
  8
0
100
AcDbLine
 62
7
  6
CONTINUOUS
 10
94.3455797794
 20
120.7586677841
 11
94.3455797794
 21
126.5556802261
  0
LINE
  5
3D4
100
AcDbEntity
  8
0
100
AcDbLine
 62
7
  6
CONTINUOUS
 10
94.4517810719
 20
92.3242189061
 11
94.4517810719
 21
85.5880739648
  0
LINE
  5
3D5
100
AcDbEntity
  8
0
100
AcDbLine
 62
7
  6
CONTINUOUS
 10
95.0881745254
 20
106.6130048567
 11
95.0881745254
 21
108.1643594492
  0
LINE
  5
3D6
100
AcDbEntity
  8
0
100
AcDbLine
 62
7
  6
CONTINUOUS
 10
95.7384930853
 20
135.9575184104
 11
95.7384930853
 21
138.627412945
  0
LINE
  5
3D7
100
AcDbEntity
  8
0
100
AcDbLine
 62
7
  6
CONTINUOUS
 10
97.2941344806
 20
137.7292832851
 11
97.2941344806
 21
136.2595789343
  0
LINE
  5
3D8
100
AcDbEntity
  8
0
100
AcDbLine
 62
7
  6
CONTINUOUS
 10
97.5982303461
 20
132.1894339125
 11
97.5982303461
 21
130.6381061277
  0
LINE
  5
3D9
100
AcDbEntity
  8
0
100
AcDbLine
 62
7
  6
CONTINUOUS
 10
72.2488343118
 20
52.836355287
 11
72.7419158399
 21
53.5820994124
  0
LINE
  5
3DA
100
AcDbEntity
  8
0
100
AcDbLine
 62
7
  6
CONTINUOUS
 10
70.9983839342
 20
57.1815665798
 11
72.0178203172
 21
58.6253895943
  0
LINE
  5
3DB
100
AcDbEntity
  8
0
100
AcDbLine
 62
7
  6
CONTINUOUS
 10
93.8507378055
 20
85.9350786062
 11
93.4618327558
 21
85.7105455113
  0
LINE
  5
3DC
100
AcDbEntity
  8
0
100
AcDbLine
 62
7
  6
CONTINUOUS
 10
93.4618327558
 20
85.5676625266
 11
78.9662070369
 21
77.1986590719
  0
LINE
  5
3DD
100
AcDbEntity
  8
0
100
AcDbLine
 62
7
  6
CONTINUOUS
 10
94.4517810719
 20
85.5880739648
 11
78.9662070369
 21
76.647526995
  0
LINE
  5
3DE
100
AcDbEntity
  8
0
100
AcDbLine
 62
7
  6
CONTINUOUS
 10
117.4679941926
 20
123.4122689082
 11
118.5286543644
 21
123.4122714577
  0
LINE
  5
3DF
100
AcDbEntity
  8
0
100
AcDbLine
 62
7
  6
CONTINUOUS
 10
119.5539590499
 20
98.9829835459
 11
120.5439126651
 21
98.4114464895
  0
LINE
  5
3E0
100
AcDbEntity
  8
0
100
AcDbLine
 62
7
  6
CONTINUOUS
 10
43.5044835707
 20
143.0077289235
 11
42.8327293318
 21
143.3955576403
  0
LINE
  5
3E1
100
AcDbEntity
  8
0
100
AcDbLine
 62
7
  6
CONTINUOUS
 10
61.0408047544
 20
132.8833582114
 11
62.3843132321
 21
132.1077007778
  0
LINE
  5
3E2
100
AcDbEntity
  8
0
100
AcDbLine
 62
7
  6
CONTINUOUS
 10
79.9206344158
 20
121.9833300657
 11
81.2641428936
 21
121.2076726321
  0
LINE
  5
3E3
100
AcDbEntity
  8
0
100
AcDbLine
 62
7
  6
CONTINUOUS
 10
98.8004640772
 20
111.08330192
 11
99.4722183161
 21
110.6954732032
  0
LINE
  5
3E4
100
AcDbEntity
  8
0
100
AcDbLine
 62
7
  6
CONTINUOUS
 10
84.7996508926
 20
125.0451654526
 11
85.5753060113
 21
123.9416596863
  0
LINE
  5
3E5
100
AcDbEntity
  8
0
100
AcDbLine
 62
7
  6
CONTINUOUS
 10
98.269984585
 20
131.0259413033
 11
98.269984585
 21
131.8016051957
  0
LINE
  5
3E6
100
AcDbEntity
  8
0
100
AcDbLine
 62
7
  6
CONTINUOUS
 10
98.5882204665
 20
126.5556904242
 11
98.5882204665
 21
120.023783962
  0
LINE
  5
3E7
100
AcDbEntity
  8
0
100
AcDbLine
 62
7
  6
CONTINUOUS
 10
99.4722183161
 20
47.9880875677
 11
99.4722183161
 21
44.7220778992
  0
LINE
  5
3E8
100
AcDbEntity
  8
0
100
AcDbLine
 62
7
  6
CONTINUOUS
 10
99.4722183161
 20
107.4294635347
 11
99.4722183161
 21
110.6954732032
  0
LINE
  5
3E9
100
AcDbEntity
  8
0
100
AcDbLine
 62
7
  6
CONTINUOUS
 10
100.1225733812
 20
134.6266159162
 11
100.1225733812
 21
136.096320267
  0
LINE
  5
3EA
100
AcDbEntity
  8
0
100
AcDbLine
 62
7
  6
CONTINUOUS
 10
102.1237690923
 20
122.0650319264
 11
102.1237690923
 21
124.5144866516
  0
LINE
  5
3EB
100
AcDbEntity
  8
0
100
AcDbLine
 62
7
  6
CONTINUOUS
 10
74.9130391811
 20
54.8577580048
 11
72.738542795
 21
51.7102050756
  0
LINE
  5
3EC
100
AcDbEntity
  8
0
100
AcDbLine
 62
7
  6
CONTINUOUS
 10
72.8993213127
 20
53.1994805585
 11
73.9466295295
 21
54.6827783272
  0
LINE
  5
3ED
100
AcDbEntity
  8
0
100
AcDbLine
 62
7
  6
CONTINUOUS
 10
74.6936606606
 20
54.300991997
 11
74.2302344741
 21
53.6446436391
  0
LINE
  5
3EE
100
AcDbEntity
  8
0
100
AcDbLine
 62
7
  6
CONTINUOUS
 10
73.6697333923
 20
52.8508085573
 11
73.2063072058
 21
52.1944601993
  0
LINE
  5
3EF
100
AcDbEntity
  8
0
100
AcDbLine
 62
7
  6
CONTINUOUS
 10
74.2869327449
 20
51.1008886594
 11
74.7503589314
 21
51.7572370174
  0
LINE
  5
3F0
100
AcDbEntity
  8
0
100
AcDbLine
 62
7
  6
CONTINUOUS
 10
75.3108600132
 20
52.5510720991
 11
75.7742861997
 21
53.2074204571
  0
LINE
  5
3F1
100
AcDbEntity
  8
0
100
AcDbLine
 62
7
  6
CONTINUOUS
 10
76.6897558981
 20
51.9067890335
 11
75.6424476812
 21
50.4234912648
  0
LINE
  5
3F2
100
AcDbEntity
  8
0
100
AcDbLine
 62
7
  6
CONTINUOUS
 10
76.3448775877
 20
53.3150604555
 11
74.1545500655
 21
50.2772338981
  0
LINE
  5
3F3
100
AcDbEntity
  8
0
100
AcDbLine
 62
7
  6
CONTINUOUS
 10
74.4426061452
 20
49.9857268781
 11
76.6729642216
 21
53.0767488883
  0
LINE
  5
3F4
100
AcDbEntity
  8
0
100
AcDbLine
 62
7
  6
CONTINUOUS
 10
77.614859473
 20
130.6788887978
 11
79.2841756062
 21
130.6788928104
  0
LINE
  5
3F5
100
AcDbEntity
  8
0
100
AcDbLine
 62
7
  6
CONTINUOUS
 10
88.2783461942
 20
124.5224611459
 11
87.9109242625
 21
124.5552819861
  0
LINE
  5
3F6
100
AcDbEntity
  8
0
100
AcDbLine
 62
7
  6
CONTINUOUS
 10
85.2946182795
 20
126.0657727778
 11
85.6620402112
 21
126.0329519376
  0
LINE
  5
3F7
100
AcDbEntity
  8
0
100
AcDbLine
 62
7
  6
CONTINUOUS
 10
95.7598422116
 20
120.0238096109
 11
96.4946891345
 21
119.7788606522
  0
LINE
  5
3F8
100
AcDbEntity
  8
0
100
AcDbLine
 62
7
  6
CONTINUOUS
 10
102.4635340176
 20
113.1981637122
 11
84.927212834
 21
123.3225344243
  0
LINE
  5
3F9
100
AcDbEntity
  8
0
100
AcDbLine
 62
7
  6
CONTINUOUS
 10
83.5837043562
 20
124.0981918579
 11
66.0473831726
 21
134.22256257
  0
LINE
  5
3FA
100
AcDbEntity
  8
0
100
AcDbLine
 62
7
  6
CONTINUOUS
 10
64.7038746948
 20
134.9982200036
 11
47.1675535112
 21
145.1225907157
  0
LINE
  5
3FB
100
AcDbEntity
  8
0
100
AcDbLine
 62
7
  6
CONTINUOUS
 10
102.8309559493
 20
113.6552443222
 11
85.2946347657
 21
123.7796150343
  0
LINE
  5
3FC
100
AcDbEntity
  8
0
100
AcDbLine
 62
7
  6
CONTINUOUS
 10
83.9511262879
 20
124.5552724679
 11
66.4148051043
 21
134.67964318
  0
LINE
  5
3FD
100
AcDbEntity
  8
0
100
AcDbLine
 62
7
  6
CONTINUOUS
 10
65.0712966265
 20
135.4553006136
 11
47.5349754428
 21
145.5796713257
  0
LINE
  5
3FE
100
AcDbEntity
  8
0
100
AcDbLine
 62
7
  6
CONTINUOUS
 10
122.3969062713
 20
103.1101573232
 11
120.5511507552
 21
104.1757806597
  0
LINE
  5
3FF
100
AcDbEntity
  8
0
100
AcDbLine
 62
7
  6
CONTINUOUS
 10
86.779558123
 20
123.9020913399
 11
86.1431593703
 21
124.269508019
  0
LINE
  5
400
100
AcDbEntity
  8
0
100
AcDbLine
 62
7
  6
CONTINUOUS
 10
67.8997284615
 20
134.8021194856
 11
67.2633297089
 21
135.1695361647
  0
LINE
  5
401
100
AcDbEntity
  8
0
100
AcDbLine
 62
7
  6
CONTINUOUS
 10
49.0198988001
 20
145.7021476313
 11
48.3835000475
 21
146.0695643104
  0
LINE
  5
402
100
AcDbEntity
  8
0
100
AcDbLine
 62
7
  6
CONTINUOUS
 10
65.2834224785
 20
136.3126102773
 11
65.9198212311
 21
135.9451935983
  0
LINE
  5
403
100
AcDbEntity
  8
0
100
AcDbLine
 62
7
  6
CONTINUOUS
 10
84.1632521399
 20
125.4125821316
 11
84.7996508926
 21
125.0451654526
  0
LINE
  5
404
100
AcDbEntity
  8
0
100
AcDbLine
 62
7
  6
CONTINUOUS
 10
103.0430818014
 20
114.512553986
 11
103.679480554
 21
114.1451373069
  0
LINE
  5
405
100
AcDbEntity
  8
0
100
AcDbLine
 62
7
  6
CONTINUOUS
 10
95.6184208554
 20
120.023809271
 11
90.3858088893
 21
123.0447908545
  0
LINE
  5
406
100
AcDbEntity
  8
0
100
AcDbLine
 62
7
  6
CONTINUOUS
 10
76.738591194
 20
130.9238374167
 11
71.5059792279
 21
133.9448190001
  0
LINE
  5
407
100
AcDbEntity
  8
0
100
AcDbLine
 62
7
  6
CONTINUOUS
 10
57.8587615326
 20
141.8238655624
 11
52.6261495665
 21
144.8448471458
  0
LINE
  5
408
100
AcDbEntity
  8
0
100
AcDbLine
 62
7
  6
CONTINUOUS
 10
104.1744479409
 20
115.1657446321
 11
95.7598422116
 21
120.0238096109
  0
LINE
  5
409
100
AcDbEntity
  8
0
100
AcDbLine
 62
7
  6
CONTINUOUS
 10
90.3858083005
 20
123.1264393453
 11
87.9109242625
 21
124.5552819861
  0
LINE
  5
40A
100
AcDbEntity
  8
0
100
AcDbLine
 62
7
  6
CONTINUOUS
 10
85.2946182795
 20
126.0657727778
 11
76.8800125502
 21
130.9238377566
  0
LINE
  5
40B
100
AcDbEntity
  8
0
100
AcDbLine
 62
7
  6
CONTINUOUS
 10
71.5059786391
 20
134.026467491
 11
69.0310946011
 21
135.4553101318
  0
LINE
  5
40C
100
AcDbEntity
  8
0
100
AcDbLine
 62
7
  6
CONTINUOUS
 10
66.414788618
 20
136.9658009235
 11
58.0001828888
 21
141.8238659023
  0
LINE
  5
40D
100
AcDbEntity
  8
0
100
AcDbLine
 62
7
  6
CONTINUOUS
 10
52.6261489777
 20
144.9264956367
 11
50.1512649397
 21
146.3553382775
  0
LINE
  5
40E
100
AcDbEntity
  8
0
100
AcDbLine
 62
7
  6
CONTINUOUS
 10
104.5418698726
 20
115.1329237919
 11
96.4946891345
 21
119.7788606522
  0
LINE
  5
40F
100
AcDbEntity
  8
0
100
AcDbLine
 62
7
  6
CONTINUOUS
 10
90.3858052411
 20
123.3057466236
 11
88.2783461942
 21
124.5224611459
  0
LINE
  5
410
100
AcDbEntity
  8
0
100
AcDbLine
 62
7
  6
CONTINUOUS
 10
85.6620402112
 20
126.0329519376
 11
77.614859473
 21
130.6788887978
  0
LINE
  5
411
100
AcDbEntity
  8
0
100
AcDbLine
 62
7
  6
CONTINUOUS
 10
71.5059755796
 20
134.2057747693
 11
69.3985165328
 21
135.4224892916
  0
LINE
  5
412
100
AcDbEntity
  8
0
100
AcDbLine
 62
7
  6
CONTINUOUS
 10
66.7822105497
 20
136.9329800833
 11
58.7350298116
 21
141.5789169435
  0
LINE
  5
413
100
AcDbEntity
  8
0
100
AcDbLine
 62
7
  6
CONTINUOUS
 10
52.6261459182
 20
145.105802915
 11
50.5186868713
 21
146.3225174373
  0
LINE
  5
414
100
AcDbEntity
  8
0
100
AcDbLine
 62
7
  6
CONTINUOUS
 10
107.4978359758
 20
116.8395414302
 11
107.4978359758
 21
115.2065365959
  0
LINE
  5
415
100
AcDbEntity
  8
0
100
AcDbLine
 62
7
  6
CONTINUOUS
 10
107.4978359758
 20
52.4991509604
 11
107.4978359758
 21
50.8661461261
  0
LINE
  5
416
100
AcDbEntity
  8
0
100
AcDbLine
 62
7
  6
CONTINUOUS
 10
108.1342347284
 20
52.1317342813
 11
108.1342347284
 21
50.4987294471
  0
LINE
  5
417
100
AcDbEntity
  8
0
100
AcDbLine
 62
7
  6
CONTINUOUS
 10
108.1342347284
 20
114.8391199169
 11
108.1342347284
 21
116.4721247511
  0
LINE
  5
418
100
AcDbEntity
  8
0
100
AcDbLine
 62
7
  6
CONTINUOUS
 10
80.9460977811
 20
48.9680753012
 11
80.6632562462
 21
48.4781766728
  0
LINE
  5
419
100
AcDbEntity
  8
0
100
AcDbLine
 62
7
  6
CONTINUOUS
 10
75.9837924573
 20
50.3013847927
 11
75.4516749585
 21
49.5951442928
  0
LINE
  5
41A
100
AcDbEntity
  8
0
100
AcDbLine
 62
7
  6
CONTINUOUS
 10
76.738591194
 20
130.9238374167
 11
76.8800125502
 21
130.9238377566
  0
LINE
  5
41B
100
AcDbEntity
  8
0
100
AcDbLine
 62
7
  6
CONTINUOUS
 10
98.5881645312
 20
134.3122970539
 11
99.6488247029
 21
134.3122996034
  0
LINE
  5
41C
100
AcDbEntity
  8
0
100
AcDbLine
 62
7
  6
CONTINUOUS
 10
69.3985165328
 20
135.4224892916
 11
69.0310946011
 21
135.4553101318
  0
LINE
  5
41D
100
AcDbEntity
  8
0
100
AcDbLine
 62
7
  6
CONTINUOUS
 10
76.8800125502
 20
130.9238377566
 11
77.614859473
 21
130.6788887978
  0
LINE
  5
41E
100
AcDbEntity
  8
0
100
AcDbLine
 62
7
  6
CONTINUOUS
 10
58.0001828888
 20
141.8238659023
 11
58.7350298116
 21
141.5789169435
  0
LINE
  5
41F
100
AcDbEntity
  8
0
100
AcDbLine
 62
7
  6
CONTINUOUS
 10
108.9120436502
 20
114.3900200694
 11
109.5484424029
 21
114.0226033904
  0
LINE
  5
420
100
AcDbEntity
  8
0
100
AcDbLine
 62
7
  6
CONTINUOUS
 10
69.738176653
 20
137.0065928873
 11
70.3745754056
 21
136.6391762083
  0
LINE
  5
421
100
AcDbEntity
  8
0
100
AcDbLine
 62
7
  6
CONTINUOUS
 10
88.6180063144
 20
126.1065647416
 11
89.254405067
 21
125.7391480626
  0
LINE
  5
422
100
AcDbEntity
  8
0
100
AcDbLine
 62
7
  6
CONTINUOUS
 10
107.4978359758
 20
115.2065365959
 11
108.1342347284
 21
114.8391199169
  0
LINE
  5
423
100
AcDbEntity
  8
0
100
AcDbLine
 62
7
  6
CONTINUOUS
 10
91.2343122974
 20
126.2290787842
 11
90.5979135448
 21
126.5964954632
  0
LINE
  5
424
100
AcDbEntity
  8
0
100
AcDbLine
 62
7
  6
CONTINUOUS
 10
72.354482636
 20
137.1291069299
 11
71.7180838834
 21
137.4965236089
  0
LINE
  5
425
100
AcDbEntity
  8
0
100
AcDbLine
 62
7
  6
CONTINUOUS
 10
53.4746529746
 20
148.0291350756
 11
52.8382542219
 21
148.3965517546
  0
LINE
  5
426
100
AcDbEntity
  8
0
100
AcDbLine
 62
7
  6
CONTINUOUS
 10
69.738176653
 20
138.6395977216
 11
70.3745754056
 21
138.2721810425
  0
LINE
  5
427
100
AcDbEntity
  8
0
100
AcDbLine
 62
7
  6
CONTINUOUS
 10
88.6180063144
 20
127.7395695759
 11
89.254405067
 21
127.3721528968
  0
LINE
  5
428
100
AcDbEntity
  8
0
100
AcDbLine
 62
7
  6
CONTINUOUS
 10
107.4978359758
 20
116.8395414302
 11
108.1342347284
 21
116.4721247511
  0
LINE
  5
429
100
AcDbEntity
  8
0
100
AcDbLine
 62
7
  6
CONTINUOUS
 10
113.199842874
 20
115.3550639591
 11
112.5280886352
 21
115.7428926759
  0
LINE
  5
42A
100
AcDbEntity
  8
0
100
AcDbLine
 62
7
  6
CONTINUOUS
 10
103.679480554
 20
114.1451373069
 11
105.4349408943
 21
111.6476863634
  0
LINE
  5
42B
100
AcDbEntity
  8
0
100
AcDbLine
 62
7
  6
CONTINUOUS
 10
98.7295552701
 20
138.5580189175
 11
98.9539819425
 21
137.2178865929
  0
LINE
  5
42C
100
AcDbEntity
  8
0
100
AcDbLine
 62
7
  6
CONTINUOUS
 10
108.9120436502
 20
115.2881854267
 11
108.9120436502
 21
114.3900200694
  0
LINE
  5
42D
100
AcDbEntity
  8
0
100
AcDbLine
 62
7
  6
CONTINUOUS
 10
108.9120436502
 20
53.438140733
 11
108.9120436502
 21
53.3156392681
  0
LINE
  5
42E
100
AcDbEntity
  8
0
100
AcDbLine
 62
7
  6
CONTINUOUS
 10
109.5484424029
 20
115.6556082246
 11
109.5484424029
 21
114.0226033904
  0
LINE
  5
42F
100
AcDbEntity
  8
0
100
AcDbLine
 62
7
  6
CONTINUOUS
 10
109.5484424029
 20
53.8055635309
 11
109.5484424029
 21
52.9482225891
  0
LINE
  5
430
100
AcDbEntity
  8
0
100
AcDbLine
 62
7
  6
CONTINUOUS
 10
73.9466295295
 20
54.6827783272
 11
74.7664074392
 21
55.0061464095
  0
LINE
  5
431
100
AcDbEntity
  8
0
100
AcDbLine
 62
7
  6
CONTINUOUS
 10
66.414788618
 20
136.9658009235
 11
66.7822105497
 21
136.9329800833
  0
LINE
  5
432
100
AcDbEntity
  8
0
100
AcDbLine
 62
7
  6
CONTINUOUS
 10
60.8285611437
 20
148.3557467155
 11
64.3641097694
 21
146.3145429429
  0
LINE
  5
433
100
AcDbEntity
  8
0
100
AcDbLine
 62
7
  6
CONTINUOUS
 10
79.7083908051
 20
137.4557185698
 11
83.2439394308
 21
135.4145147972
  0
LINE
  5
434
100
AcDbEntity
  8
0
100
AcDbLine
 62
7
  6
CONTINUOUS
 10
98.5882204665
 20
126.5556904242
 11
102.1237690923
 21
124.5144866516
  0
LINE
  5
435
100
AcDbEntity
  8
0
100
AcDbLine
 62
7
  6
CONTINUOUS
 10
114.4981692634
 20
117.9825907306
 11
115.1699235022
 21
117.5947620138
  0
LINE
  5
436
100
AcDbEntity
  8
0
100
AcDbLine
 62
7
  6
CONTINUOUS
 10
116.4780600076
 20
119.1256743614
 11
117.1498142464
 21
118.7378456446
  0
LINE
  5
437
100
AcDbEntity
  8
0
100
AcDbLine
 62
7
  6
CONTINUOUS
 10
61.1820795011
 20
153.2138327703
 11
60.5103252622
 21
153.6016614871
  0
LINE
  5
438
100
AcDbEntity
  8
0
100
AcDbLine
 62
7
  6
CONTINUOUS
 10
78.7184006847
 20
143.0894620582
 11
80.0619091625
 21
142.3138046246
  0
LINE
  5
439
100
AcDbEntity
  8
0
100
AcDbLine
 62
7
  6
CONTINUOUS
 10
97.5982303461
 20
132.1894339125
 11
98.9417388239
 21
131.4137764789
  0
LINE
  5
43A
100
AcDbEntity
  8
0
100
AcDbLine
 62
7
  6
CONTINUOUS
 10
116.4780600076
 20
121.2894057668
 11
117.1498142464
 21
120.90157705
  0
LINE
  5
43B
100
AcDbEntity
  8
0
100
AcDbLine
 62
7
  6
CONTINUOUS
 10
122.3969062713
 20
103.1101573232
 11
121.1095957348
 21
104.4898389594
  0
LINE
  5
43C
100
AcDbEntity
  8
0
100
AcDbLine
 62
7
  6
CONTINUOUS
 10
114.6183227467
 20
125.0574902647
 11
114.6183227467
 21
127.7273847993
  0
LINE
  5
43D
100
AcDbEntity
  8
0
100
AcDbLine
 62
7
  6
CONTINUOUS
 10
116.173964142
 20
126.8292551394
 11
116.173964142
 21
125.3595507886
  0
LINE
  5
43E
100
AcDbEntity
  8
0
100
AcDbLine
 62
7
  6
CONTINUOUS
 10
116.4780600076
 20
121.2894057668
 11
116.4780600076
 21
119.1256743614
  0
LINE
  5
43F
100
AcDbEntity
  8
0
100
AcDbLine
 62
7
  6
CONTINUOUS
 10
116.5487703913
 20
56.7040772703
 11
116.5487703913
 21
55.3568348781
  0
LINE
  5
440
100
AcDbEntity
  8
0
100
AcDbLine
 62
7
  6
CONTINUOUS
 10
117.1498142464
 20
118.7378456446
 11
117.1498142464
 21
120.90157705
  0
LINE
  5
441
100
AcDbEntity
  8
0
100
AcDbLine
 62
7
  6
CONTINUOUS
 10
117.2205246302
 20
57.0919124459
 11
117.2205246302
 21
54.9690061613
  0
LINE
  5
442
100
AcDbEntity
  8
0
100
AcDbLine
 62
7
  6
CONTINUOUS
 10
119.0024030426
 20
123.7265877705
 11
119.0024030426
 21
125.1962921213
  0
LINE
  5
443
100
AcDbEntity
  8
0
100
AcDbLine
 62
7
  6
CONTINUOUS
 10
119.0834062204
 20
101.1944269134
 11
118.59041524
 21
97.6813470255
  0
LINE
  5
444
100
AcDbEntity
  8
0
100
AcDbLine
 62
7
  6
CONTINUOUS
 10
120.5439126651
 20
74.7691566197
 11
121.1095957348
 21
75.0957519428
  0
LINE
  5
445
100
AcDbEntity
  8
0
100
AcDbLine
 62
7
  6
CONTINUOUS
 10
122.8080052625
 20
75.2598208704
 11
123.3723280139
 21
75.585630818
  0
LINE
  5
446
100
AcDbEntity
  8
0
100
AcDbLine
 62
7
  6
CONTINUOUS
 10
121.1095957348
 20
73.0544959
 11
122.5238034093
 21
73.8709842077
  0
LINE
  5
447
100
AcDbEntity
  8
0
100
AcDbLine
 62
7
  6
CONTINUOUS
 10
89.5727645951
 20
53.6220530116
 11
81.228939316
 21
48.8047719959
  0
LINE
  5
448
100
AcDbEntity
  8
0
100
AcDbLine
 62
7
  6
CONTINUOUS
 10
80.6632562462
 20
48.4781766728
 11
79.5318901067
 21
47.8249860266
  0
LINE
  5
449
100
AcDbEntity
  8
0
100
AcDbLine
 62
7
  6
CONTINUOUS
 10
58.7350298116
 20
141.5789169435
 11
60.4043459448
 21
141.5789209561
  0
LINE
  5
44A
100
AcDbEntity
  8
0
100
AcDbLine
 62
7
  6
CONTINUOUS
 10
57.8587615326
 20
141.8238655624
 11
58.0001828888
 21
141.8238659023
  0
LINE
  5
44B
100
AcDbEntity
  8
0
100
AcDbLine
 62
7
  6
CONTINUOUS
 10
79.7083348697
 20
145.2123251996
 11
80.7689950415
 21
145.2123277491
  0
LINE
  5
44C
100
AcDbEntity
  8
0
100
AcDbLine
 62
7
  6
CONTINUOUS
 10
50.5186868713
 20
146.3225174373
 11
50.1512649397
 21
146.3553382775
  0
LINE
  5
44D
100
AcDbEntity
  8
0
100
AcDbLine
 62
7
  6
CONTINUOUS
 10
74.5464338762
 20
148.1924827076
 11
79.7083348697
 21
145.2123251996
  0
LINE
  5
44E
100
AcDbEntity
  8
0
100
AcDbLine
 62
7
  6
CONTINUOUS
 10
93.4262635376
 20
137.2924545619
 11
98.5881645312
 21
134.3122970539
  0
LINE
  5
44F
100
AcDbEntity
  8
0
100
AcDbLine
 62
7
  6
CONTINUOUS
 10
112.306093199
 20
126.3924264162
 11
117.4679941926
 21
123.4122689082
  0
LINE
  5
450
100
AcDbEntity
  8
0
100
AcDbLine
 62
7
  6
CONTINUOUS
 10
76.8586634238
 20
149.5274410907
 11
78.4143048192
 21
148.6293114308
  0
LINE
  5
451
100
AcDbEntity
  8
0
100
AcDbLine
 62
7
  6
CONTINUOUS
 10
81.2427437198
 20
146.9963484127
 11
82.5508967113
 21
146.2411030168
  0
LINE
  5
452
100
AcDbEntity
  8
0
100
AcDbLine
 62
7
  6
CONTINUOUS
 10
95.7384930853
 20
138.627412945
 11
97.2941344806
 21
137.7292832851
  0
LINE
  5
453
100
AcDbEntity
  8
0
100
AcDbLine
 62
7
  6
CONTINUOUS
 10
100.1225733812
 20
136.096320267
 11
101.4307263727
 21
135.3410748711
  0
LINE
  5
454
100
AcDbEntity
  8
0
100
AcDbLine
 62
7
  6
CONTINUOUS
 10
114.6183227467
 20
127.7273847993
 11
116.173964142
 21
126.8292551394
  0
LINE
  5
455
100
AcDbEntity
  8
0
100
AcDbLine
 62
7
  6
CONTINUOUS
 10
119.0024030426
 20
125.1962921213
 11
120.3105560341
 21
124.4410467255
  0
LINE
  5
456
100
AcDbEntity
  8
0
100
AcDbLine
 62
7
  6
CONTINUOUS
 10
119.5539590499
 20
101.370291168
 11
119.5539590499
 21
98.9829835459
  0
LINE
  5
457
100
AcDbEntity
  8
0
100
AcDbLine
 62
7
  6
CONTINUOUS
 10
120.5439126651
 20
104.1632436363
 11
120.5439126651
 21
101.7402760959
  0
LINE
  5
458
100
AcDbEntity
  8
0
100
AcDbLine
 62
7
  6
CONTINUOUS
 10
120.5439126651
 20
98.4114464895
 11
120.5439126651
 21
74.7691566197
  0
LINE
  5
459
100
AcDbEntity
  8
0
100
AcDbLine
 62
7
  6
CONTINUOUS
 10
121.1095957348
 20
75.0957519428
 11
121.1095957348
 21
73.0544959
  0
LINE
  5
45A
100
AcDbEntity
  8
0
100
AcDbLine
 62
7
  6
CONTINUOUS
 10
124.4329837697
 20
113.0222560614
 11
123.0988918839
 21
103.5154464863
  0
LINE
  5
45B
100
AcDbEntity
  8
0
100
AcDbLine
 62
7
  6
CONTINUOUS
 10
105.0471133349
 20
51.2067354948
 11
103.679480554
 21
47.6818405525
  0
LINE
  5
45C
100
AcDbEntity
  8
0
100
AcDbLine
 62
7
  6
CONTINUOUS
 10
84.6884829249
 20
49.7813678578
 11
83.9865889345
 21
49.3761315925
  0
LINE
  5
45D
100
AcDbEntity
  8
0
100
AcDbLine
 62
7
  6
CONTINUOUS
 10
84.9765343066
 20
49.1311709908
 11
83.9865889345
 21
48.5596291753
  0
LINE
  5
45E
100
AcDbEntity
  8
0
100
AcDbLine
 62
7
  6
CONTINUOUS
 10
85.087005033
 20
49.0316673615
 11
84.8351206047
 21
48.886242687
  0
LINE
  5
45F
100
AcDbEntity
  8
0
100
AcDbLine
 62
7
  6
CONTINUOUS
 10
123.2309072465
 20
124.4124767733
 11
120.4378238322
 21
126.0250277537
  0
LINE
  5
460
100
AcDbEntity
  8
0
100
AcDbLine
 62
7
  6
CONTINUOUS
 10
117.6093849316
 20
127.6579907718
 11
101.5579941707
 21
136.9250558994
  0
LINE
  5
461
100
AcDbEntity
  8
0
100
AcDbLine
 62
7
  6
CONTINUOUS
 10
98.7295552701
 20
138.5580189175
 11
82.6781645093
 21
147.8250840451
  0
LINE
  5
462
100
AcDbEntity
  8
0
100
AcDbLine
 62
7
  6
CONTINUOUS
 10
79.8497256087
 20
149.4580470631
 11
66.5914182622
 21
157.1125612104
  0
LINE
  5
463
100
AcDbEntity
  8
0
100
AcDbLine
 62
7
  6
CONTINUOUS
 10
117.6093849316
 20
127.6579907718
 11
117.833811604
 21
126.3178584472
  0
LINE
  5
464
100
AcDbEntity
  8
0
100
AcDbLine
 62
7
  6
CONTINUOUS
 10
124.4329837697
 20
117.2344458012
 11
124.4329837697
 21
113.0222560614
  0
LINE
  5
465
100
AcDbEntity
  8
0
100
AcDbLine
 62
7
  6
CONTINUOUS
 10
124.4329837697
 20
74.9732434231
 11
124.4329837697
 21
59.1330965308
  0
LINE
  5
466
100
AcDbEntity
  8
0
100
AcDbLine
 62
7
  6
CONTINUOUS
 10
122.5238034093
 20
73.8709842077
 11
122.8080052625
 21
75.2598208704
  0
LINE
  5
467
100
AcDbEntity
  8
0
100
AcDbLine
 62
7
  6
CONTINUOUS
 10
104.5418698726
 20
49.1595284879
 11
104.1744479409
 21
48.7024478778
  0
LINE
  5
468
100
AcDbEntity
  8
0
100
AcDbLine
 62
7
  6
CONTINUOUS
 10
99.4722183161
 20
47.9880875677
 11
113.1549877233
 21
55.8877910133
  0
LINE
  5
469
100
AcDbEntity
  8
0
100
AcDbLine
 62
7
  6
CONTINUOUS
 10
108.9120436502
 20
53.3156392681
 11
107.4978359758
 21
52.4991509604
  0
LINE
  5
46A
100
AcDbEntity
  8
0
100
AcDbLine
 62
7
  6
CONTINUOUS
 10
109.5484424029
 20
52.9482225891
 11
108.1342347284
 21
52.1317342813
  0
LINE
  5
46B
100
AcDbEntity
  8
0
100
AcDbLine
 62
7
  6
CONTINUOUS
 10
115.1699235022
 20
55.9080043997
 11
117.2205246302
 21
57.0919124459
  0
LINE
  5
46C
100
AcDbEntity
  8
0
100
AcDbLine
 62
7
  6
CONTINUOUS
 10
123.2309072465
 20
124.4124767733
 11
124.4329837697
 21
117.2344458012
  0
LINE
  5
46D
100
AcDbEntity
  8
0
100
AcDbLine
 62
7
  6
CONTINUOUS
 10
107.4978359758
 20
50.8661461261
 11
104.5418698726
 21
49.1595284879
  0
LINE
  5
46E
100
AcDbEntity
  8
0
100
AcDbLine
 62
7
  6
CONTINUOUS
 10
104.0468961365
 20
48.6288062488
 11
104.1744479409
 21
48.7024478778
  0
LINE
  5
46F
100
AcDbEntity
  8
0
100
AcDbLine
 62
7
  6
CONTINUOUS
 10
116.5487703913
 20
55.3568348781
 11
108.1342347284
 21
50.4987294471
  0
LINE
  5
470
100
AcDbEntity
  8
0
100
AcDbLine
 62
7
  6
CONTINUOUS
 10
102.4635340176
 20
47.2247684081
 11
99.4722183161
 21
45.4977417916
  0
LINE
  5
471
100
AcDbEntity
  8
0
100
AcDbLine
 62
7
  6
CONTINUOUS
 10
103.679480554
 20
47.6818405525
 11
102.8309559493
 21
47.1919475679
  0
LINE
  5
472
100
AcDbEntity
  8
0
100
AcDbLine
 62
7
  6
CONTINUOUS
 10
124.4329837697
 20
59.1330965308
 11
117.2205246302
 21
54.9690061613
  0
LINE
  5
473
100
AcDbEntity
  8
0
100
AcDbLine
 62
7
  6
CONTINUOUS
 10
99.4722183161
 20
44.7220778992
 11
89.5727645951
 21
39.006659745
  0
ARC
  5
474
100
AcDbEntity
  8
0
100
AcDbCircle
 62
7
  6
CONTINUOUS
 10
70.1308219627
 20
44.6160630103
 40
13.3539694159
100
AcDbArc
 50
130.8339599338
 51
133.8010511103
  0
ARC
  5
475
100
AcDbEntity
  8
0
100
AcDbCircle
 62
7
  6
CONTINUOUS
 10
30.6831920515
 20
87.9220443178
 40
7.1207638242
100
AcDbArc
 50
173.8839115409
 51
174.735503955
  0
ARC
  5
476
100
AcDbEntity
  8
0
100
AcDbCircle
 62
7
  6
CONTINUOUS
 10
49.5630217129
 20
77.0220161721
 40
7.1207638242
100
AcDbArc
 50
173.8839115409
 51
174.735503955
  0
ARC
  5
477
100
AcDbEntity
  8
0
100
AcDbCircle
 62
7
  6
CONTINUOUS
 10
68.4428513744
 20
66.1219880264
 40
7.1207638242
100
AcDbArc
 50
173.8839115409
 51
174.735503955
  0
ARC
  5
478
100
AcDbEntity
  8
0
100
AcDbCircle
 62
7
  6
CONTINUOUS
 10
43.1655365099
 20
130.1233444001
 40
4.209077369
100
AcDbArc
 50
188.8085648503
 51
190.0497564295
  0
ARC
  5
479
100
AcDbEntity
  8
0
100
AcDbCircle
 62
7
  6
CONTINUOUS
 10
62.0453661713
 20
119.2233162544
 40
4.209077369
100
AcDbArc
 50
188.8085648503
 51
190.0497564295
  0
ARC
  5
47A
100
AcDbEntity
  8
0
100
AcDbCircle
 62
7
  6
CONTINUOUS
 10
80.9251958322
 20
108.3232881086
 40
4.2090773684
100
AcDbArc
 50
188.8085648502
 51
190.0497564296
  0
ARC
  5
47B
100
AcDbEntity
  8
0
100
AcDbCircle
 62
7
  6
CONTINUOUS
 10
43.6975527533
 20
103.6191306641
 40
3.3798354825
100
AcDbArc
 50
149.9420545019
 51
158.731572934
  0
ARC
  5
47C
100
AcDbEntity
  8
0
100
AcDbCircle
 62
7
  6
CONTINUOUS
 10
62.5773824146
 20
92.7191025185
 40
3.3798354824
100
AcDbArc
 50
149.9420545128
 51
158.7315729341
  0
ARC
  5
47D
100
AcDbEntity
  8
0
100
AcDbCircle
 62
7
  6
CONTINUOUS
 10
45.7162290006
 20
76.5986893907
 40
3.213134802
100
AcDbArc
 50
202.84034443
 51
203.6203307178
  0
ARC
  5
47E
100
AcDbEntity
  8
0
100
AcDbCircle
 62
7
  6
CONTINUOUS
 10
26.8363993388
 20
87.4987175362
 40
3.2131348016
100
AcDbArc
 50
202.8403444299
 51
203.6203307178
  0
ARC
  5
47F
100
AcDbEntity
  8
0
100
AcDbCircle
 62
7
  6
CONTINUOUS
 10
64.5960586616
 20
65.6986612448
 40
3.2131348016
100
AcDbArc
 50
202.8403444299
 51
203.6203307178
  0
ARC
  5
480
100
AcDbEntity
  8
0
100
AcDbCircle
 62
7
  6
CONTINUOUS
 10
79.4175127833
 20
145.5264945543
 40
1.8252309426
100
AcDbArc
 50
358.5121220021
 51
0.0046931899
  0
ARC
  5
481
100
AcDbEntity
  8
0
100
AcDbCircle
 62
7
  6
CONTINUOUS
 10
98.2973424447
 20
134.6264664086
 40
1.8252309426
100
AcDbArc
 50
358.5121220021
 51
0.0046931899
  0
ARC
  5
482
100
AcDbEntity
  8
0
100
AcDbCircle
 62
7
  6
CONTINUOUS
 10
117.1771721063
 20
123.7264382629
 40
1.8252309425
100
AcDbArc
 50
358.512122002
 51
0.00469319
  0
ARC
  5
483
100
AcDbEntity
  8
0
100
AcDbCircle
 62
7
  6
CONTINUOUS
 10
51.9022170091
 20
118.9330594414
 40
0.2713721852
100
AcDbArc
 50
240.0364540559
 51
250.6187637476
  0
ARC
  5
484
100
AcDbEntity
  8
0
100
AcDbCircle
 62
7
  6
CONTINUOUS
 10
70.7820466706
 20
108.0330312957
 40
0.2713721852
100
AcDbArc
 50
240.0364540559
 51
250.6187637476
  0
SPLINE
  5
485
100
AcDbEntity
  8
0
100
AcDbSpline
 62
7
  6
CONTINUOUS
 70
0
 71
3
 72
17
 73
13
 74
0
 42
0.0000001
 43
0.0000001
 44
0.0000000001
 40
0.0
 40
0.0
 40
0.0
 40
0.0
 40
0.0991125271
 40
0.1523968206
 40
0.2081347258
 40
0.2662501586
 40
0.3266109207
 40
0.453266357
 40
0.5863152539
 40
0.7234843551
 40
0.8622505988
 40
1.0
 40
1.0
 40
1.0
 40
1.0
 10
85.1816702498
 20
46.6905507503
 30
0.0
 10
85.0486358773
 20
46.714929356
 30
0.0
 10
84.8478043189
 20
46.7749638031
 30
0.0
 10
84.587962249
 20
46.8899595866
 30
0.0
 10
84.3870667291
 20
46.998481691
 30
0.0
 10
84.1864463268
 20
47.126371868
 30
0.0
 10
83.916810298
 20
47.3246950363
 30
0.0
 10
83.5900314238
 20
47.6161451399
 30
0.0
 10
83.22707091
 20
48.0193694547
 30
0.0
 10
82.8970149847
 20
48.4705744565
 30
0.0
 10
82.6090961694
 20
48.9571107181
 30
0.0
 10
82.4489194206
 20
49.299563303
 30
0.0
 10
82.3780074544
 20
49.4736484219
 30
0.0
  0
SPLINE
  5
486
100
AcDbEntity
  8
0
100
AcDbSpline
 62
7
  6
CONTINUOUS
 70
0
 71
3
 72
20
 73
16
 74
0
 42
0.0000001
 43
0.0000001
 44
0.0000000001
 40
0.0
 40
0.0
 40
0.0
 40
0.0
 40
0.0992324191
 40
0.1534615711
 40
0.2106463615
 40
0.2705979393
 40
0.3330394501
 40
0.3976231374
 40
0.4639451953
 40
0.5999241975
 40
0.7371814346
 40
0.8050739221
 40
0.8718020306
 40
0.9369236059
 40
1.0
 40
1.0
 40
1.0
 40
1.0
 10
41.1287343732
 20
125.0333063869
 30
0.0
 10
40.9615581001
 20
125.0639415105
 30
0.0
 10
40.708958051
 20
125.1470325762
 30
0.0
 10
40.3865218494
 20
125.3092957399
 30
0.0
 10
40.1371117116
 20
125.4648822822
 30
0.0
 10
39.8902962857
 20
125.6489080966
 30
0.0
 10
39.6485908096
 20
125.8594307935
 30
0.0
 10
39.4146252
 20
126.0941609962
 30
0.0
 10
39.1139448132
 20
126.4388244173
 30
0.0
 10
38.7741973474
 20
126.9127788853
 30
0.0
 10
38.4922449377
 20
127.426223495
 30
0.0
 10
38.3062588321
 20
127.8534016073
 30
0.0
 10
38.1895555645
 20
128.1752505859
 30
0.0
 10
38.0964574477
 20
128.4961094999
 30
0.0
 10
38.0499445757
 20
128.7109277016
 30
0.0
 10
38.0310953969
 20
128.8173045573
 30
0.0
  0
SPLINE
  5
487
100
AcDbEntity
  8
0
100
AcDbSpline
 62
7
  6
CONTINUOUS
 70
0
 71
3
 72
9
 73
5
 74
0
 42
0.0000001
 43
0.0000001
 44
0.0000000001
 40
0.0
 40
0.0
 40
0.0
 40
0.0
 40
0.255276007
 40
1.0
 40
1.0
 40
1.0
 40
1.0
 10
38.0310953969
 20
130.0420581829
 30
0.0
 10
38.0354034001
 20
130.0613964042
 30
0.0
 10
38.0533013313
 20
130.1369171716
 30
0.0
 10
38.0753621207
 20
130.2114677393
 30
0.0
 10
38.0943165215
 20
130.2660703102
 30
0.0
  0
SPLINE
  5
488
100
AcDbEntity
  8
0
100
AcDbSpline
 62
7
  6
CONTINUOUS
 70
0
 71
3
 72
20
 73
16
 74
0
 42
0.0000001
 43
0.0000001
 44
0.0000000001
 40
0.0
 40
0.0
 40
0.0
 40
0.0
 40
0.0992324191
 40
0.1534615711
 40
0.2106463615
 40
0.2705979393
 40
0.3330394501
 40
0.3976231374
 40
0.4639451953
 40
0.5999241975
 40
0.7371814346
 40
0.8050739221
 40
0.8718020306
 40
0.9369236059
 40
1.0
 40
1.0
 40
1.0
 40
1.0
 10
60.0085640346
 20
114.1332782412
 30
0.0
 10
59.8413877616
 20
114.1639133648
 30
0.0
 10
59.5887877124
 20
114.2470044305
 30
0.0
 10
59.2663515108
 20
114.4092675942
 30
0.0
 10
59.016941373
 20
114.5648541365
 30
0.0
 10
58.7701259471
 20
114.7488799509
 30
0.0
 10
58.5284204711
 20
114.9594026478
 30
0.0
 10
58.2944548614
 20
115.1941328505
 30
0.0
 10
57.9937744747
 20
115.5387962716
 30
0.0
 10
57.6540270088
 20
116.0127507396
 30
0.0
 10
57.3720745992
 20
116.5261953494
 30
0.0
 10
57.1860884935
 20
116.9533734616
 30
0.0
 10
57.069385226
 20
117.2752224402
 30
0.0
 10
56.9762871091
 20
117.5960813542
 30
0.0
 10
56.9297742372
 20
117.8108995559
 30
0.0
 10
56.9109250583
 20
117.9172764116
 30
0.0
  0
SPLINE
  5
489
100
AcDbEntity
  8
0
100
AcDbSpline
 62
7
  6
CONTINUOUS
 70
0
 71
3
 72
9
 73
5
 74
0
 42
0.0000001
 43
0.0000001
 44
0.0000000001
 40
0.0
 40
0.0
 40
0.0
 40
0.0
 40
0.255276007
 40
1.0
 40
1.0
 40
1.0
 40
1.0
 10
56.9109250583
 20
119.1420300373
 30
0.0
 10
56.9152330616
 20
119.1613682585
 30
0.0
 10
56.9331309927
 20
119.2368890259
 30
0.0
 10
56.9551917821
 20
119.3114395936
 30
0.0
 10
56.9741461829
 20
119.3660421645
 30
0.0
  0
SPLINE
  5
48A
100
AcDbEntity
  8
0
100
AcDbSpline
 62
7
  6
CONTINUOUS
 70
0
 71
3
 72
20
 73
16
 74
0
 42
0.0000001
 43
0.0000001
 44
0.0000000001
 40
0.0
 40
0.0
 40
0.0
 40
0.0
 40
0.0992324191
 40
0.1534615711
 40
0.2106463615
 40
0.2705979393
 40
0.3330394501
 40
0.3976231374
 40
0.4639451953
 40
0.5999241975
 40
0.7371814346
 40
0.8050739221
 40
0.8718020306
 40
0.9369236059
 40
1.0
 40
1.0
 40
1.0
 40
1.0
 10
78.888393696
 20
103.2332500955
 30
0.0
 10
78.721217423
 20
103.2638852191
 30
0.0
 10
78.4686173738
 20
103.3469762848
 30
0.0
 10
78.1461811722
 20
103.5092394486
 30
0.0
 10
77.8967710344
 20
103.6648259908
 30
0.0
 10
77.6499556086
 20
103.8488518052
 30
0.0
 10
77.4082501325
 20
104.0593745021
 30
0.0
 10
77.1742845228
 20
104.2941047048
 30
0.0
 10
76.8736041361
 20
104.6387681259
 30
0.0
 10
76.5338566702
 20
105.1127225939
 30
0.0
 10
76.2519042606
 20
105.6261672037
 30
0.0
 10
76.065918155
 20
106.0533453159
 30
0.0
 10
75.9492148874
 20
106.3751942945
 30
0.0
 10
75.8561167705
 20
106.6960532086
 30
0.0
 10
75.8096038986
 20
106.9108714102
 30
0.0
 10
75.7907547198
 20
107.0172482659
 30
0.0
  0
SPLINE
  5
48B
100
AcDbEntity
  8
0
100
AcDbSpline
 62
7
  6
CONTINUOUS
 70
0
 71
3
 72
9
 73
5
 74
0
 42
0.0000001
 43
0.0000001
 44
0.0000000001
 40
0.0
 40
0.0
 40
0.0
 40
0.0
 40
0.255276007
 40
1.0
 40
1.0
 40
1.0
 40
1.0
 10
75.7907547198
 20
108.2420018916
 30
0.0
 10
75.795062723
 20
108.2613401128
 30
0.0
 10
75.8129606541
 20
108.3368608802
 30
0.0
 10
75.8350214435
 20
108.4114114479
 30
0.0
 10
75.8539758443
 20
108.4660140188
 30
0.0
  0
SPLINE
  5
48C
100
AcDbEntity
  8
0
100
AcDbSpline
 62
7
  6
CONTINUOUS
 70
0
 71
3
 72
9
 73
5
 74
0
 42
0.0000001
 43
0.0000001
 44
0.0000000001
 40
0.0
 40
0.0
 40
0.0
 40
0.0
 40
0.2551083352
 40
1.0
 40
1.0
 40
1.0
 40
1.0
 10
37.2634083734
 20
76.9346848105
 30
0.0
 10
37.2849647772
 20
76.8938672621
 30
0.0
 10
37.3726100416
 20
76.7355582125
 30
0.0
 10
37.4731028367
 20
76.5842807314
 30
0.0
 10
37.5550787595
 20
76.4772929836
 30
0.0
  0
SPLINE
  5
48D
100
AcDbEntity
  8
0
100
AcDbSpline
 62
7
  6
CONTINUOUS
 70
0
 71
3
 72
9
 73
5
 74
0
 42
0.0000001
 43
0.0000001
 44
0.0000000001
 40
0.0
 40
0.0
 40
0.0
 40
0.0
 40
0.2551083352
 40
1.0
 40
1.0
 40
1.0
 40
1.0
 10
56.1432380348
 20
66.0346566648
 30
0.0
 10
56.1647944386
 20
65.9938391164
 30
0.0
 10
56.252439703
 20
65.8355300668
 30
0.0
 10
56.3529324981
 20
65.6842525857
 30
0.0
 10
56.434908421
 20
65.5772648379
 30
0.0
  0
SPLINE
  5
48E
100
AcDbEntity
  8
0
100
AcDbSpline
 62
7
  6
CONTINUOUS
 70
0
 71
3
 72
11
 73
7
 74
0
 42
0.0000001
 43
0.0000001
 44
0.0000000001
 40
0.0
 40
0.0
 40
0.0
 40
0.0
 40
0.2130439917
 40
0.4442980368
 40
0.7055294406
 40
1.0
 40
1.0
 40
1.0
 40
1.0
 10
73.8785973167
 20
51.921434321
 30
0.0
 10
73.8987932778
 20
51.9097779731
 30
0.0
 10
73.936357045
 20
51.8768332209
 30
0.0
 10
73.9737660682
 20
51.8078861077
 30
0.0
 10
73.9928524541
 20
51.7230496209
 30
0.0
 10
73.9933659526
 20
51.6618097967
 30
0.0
 10
73.9910324215
 20
51.6296635778
 30
0.0
  0
SPLINE
  5
48F
100
AcDbEntity
  8
0
100
AcDbSpline
 62
7
  6
CONTINUOUS
 70
0
 71
3
 72
11
 73
7
 74
0
 42
0.0000001
 43
0.0000001
 44
0.0000000001
 40
0.0
 40
0.0
 40
0.0
 40
0.0
 40
0.2616655977
 40
0.5136144538
 40
0.758574714
 40
1.0
 40
1.0
 40
1.0
 40
1.0
 10
75.0230676963
 20
55.1346285191
 30
0.0
 10
75.08847761
 20
55.0107733366
 30
0.0
 10
75.2316420478
 20
54.7750386954
 30
0.0
 10
75.4874308994
 20
54.4580510213
 30
0.0
 10
75.7778923556
 20
54.1880316506
 30
0.0
 10
75.9938372842
 20
54.0405187155
 30
0.0
 10
76.1057541166
 20
53.9759005587
 30
0.0
  0
SPLINE
  5
490
100
AcDbEntity
  8
0
100
AcDbSpline
 62
7
  6
CONTINUOUS
 70
0
 71
3
 72
9
 73
5
 74
0
 42
0.0000001
 43
0.0000001
 44
0.0000000001
 40
0.0
 40
0.0
 40
0.0
 40
0.0
 40
0.2376330698
 40
1.0
 40
1.0
 40
1.0
 40
1.0
 10
73.9910324215
 20
51.6296635778
 30
0.0
 10
73.989927068
 20
51.6144364661
 30
0.0
 10
73.9827755118
 20
51.55054639
 30
0.0
 10
73.9664652168
 20
51.4878332315
 30
0.0
 10
73.9502339118
 20
51.4416211778
 30
0.0
  0
SPLINE
  5
491
100
AcDbEntity
  8
0
100
AcDbSpline
 62
7
  6
CONTINUOUS
 70
0
 71
3
 72
11
 73
7
 74
0
 42
0.0000001
 43
0.0000001
 44
0.0000000001
 40
0.0
 40
0.0
 40
0.0
 40
0.0
 40
0.2977928379
 40
0.5605488738
 40
0.7905454513
 40
1.0
 40
1.0
 40
1.0
 40
1.0
 10
75.4375873666
 20
53.5481529756
 30
0.0
 10
75.4090491156
 20
53.5264782252
 30
0.0
 10
75.3517666284
 20
53.4899546378
 30
0.0
 10
75.2615547365
 20
53.456910997
 30
0.0
 10
75.1757714184
 20
53.4511669407
 30
0.0
 10
75.1238265216
 20
53.467846632
 30
0.0
 10
75.1019960888
 20
53.4804463354
 30
0.0
  0
SPLINE
  5
492
100
AcDbEntity
  8
0
100
AcDbSpline
 62
7
  6
CONTINUOUS
 70
0
 71
3
 72
9
 73
5
 74
0
 42
0.0000001
 43
0.0000001
 44
0.0000000001
 40
0.0
 40
0.0
 40
0.0
 40
0.0
 40
0.23832025
 40
1.0
 40
1.0
 40
1.0
 40
1.0
 10
74.2302344741
 20
53.6446436391
 30
0.0
 10
74.2314861297
 20
53.6362040531
 30
0.0
 10
74.235613952
 20
53.6006265368
 30
0.0
 10
74.2354790707
 20
53.5646141636
 30
0.0
 10
74.2335048328
 20
53.5374174906
 30
0.0
  0
SPLINE
  5
493
100
AcDbEntity
  8
0
100
AcDbSpline
 62
7
  6
CONTINUOUS
 70
0
 71
3
 72
14
 73
10
 74
0
 42
0.0000001
 43
0.0000001
 44
0.0000000001
 40
0.0
 40
0.0
 40
0.0
 40
0.0
 40
0.1261309702
 40
0.2619253113
 40
0.4023829825
 40
0.5420634432
 40
0.6755448499
 40
0.7982146526
 40
1.0
 40
1.0
 40
1.0
 40
1.0
 10
74.2335048328
 20
53.5374174906
 30
0.0
 10
74.2306082746
 20
53.4975151304
 30
0.0
 10
74.2162243124
 20
53.4151685527
 30
0.0
 10
74.1745779892
 20
53.2940741265
 30
0.0
 10
74.1141235509
 20
53.1762945327
 30
0.0
 10
74.0384966832
 20
53.0686494765
 30
0.0
 10
73.9515074627
 20
52.977052683
 30
0.0
 10
73.8360413582
 20
52.8895614646
 30
0.0
 10
73.7337342152
 20
52.8501619335
 30
0.0
 10
73.6697333923
 20
52.8508085573
 30
0.0
  0
SPLINE
  5
494
100
AcDbEntity
  8
0
100
AcDbSpline
 62
7
  6
CONTINUOUS
 70
0
 71
3
 72
11
 73
7
 74
0
 42
0.0000001
 43
0.0000001
 44
0.0000000001
 40
0.0
 40
0.0
 40
0.0
 40
0.0
 40
0.2977928379
 40
0.5605488738
 40
0.7905454513
 40
1.0
 40
1.0
 40
1.0
 40
1.0
 10
73.5430060389
 20
51.8537276809
 30
0.0
 10
73.5715442899
 20
51.8754024313
 30
0.0
 10
73.628826777
 20
51.9119260187
 30
0.0
 10
73.719038669
 20
51.9449696595
 30
0.0
 10
73.8048219871
 20
51.9507137158
 30
0.0
 10
73.8567668839
 20
51.9340340245
 30
0.0
 10
73.8785973167
 20
51.921434321
 30
0.0
  0
SPLINE
  5
495
100
AcDbEntity
  8
0
100
AcDbSpline
 62
7
  6
CONTINUOUS
 70
0
 71
3
 72
9
 73
5
 74
0
 42
0.0000001
 43
0.0000001
 44
0.0000000001
 40
0.0
 40
0.0
 40
0.0
 40
0.0
 40
0.23832025
 40
1.0
 40
1.0
 40
1.0
 40
1.0
 10
74.7503589314
 20
51.7572370174
 30
0.0
 10
74.7491072757
 20
51.7656766033
 30
0.0
 10
74.7449794535
 20
51.8012541196
 30
0.0
 10
74.7451143348
 20
51.8372664928
 30
0.0
 10
74.7470885726
 20
51.8644631658
 30
0.0
  0
SPLINE
  5
496
100
AcDbEntity
  8
0
100
AcDbSpline
 62
7
  6
CONTINUOUS
 70
0
 71
3
 72
14
 73
10
 74
0
 42
0.0000001
 43
0.0000001
 44
0.0000000001
 40
0.0
 40
0.0
 40
0.0
 40
0.0
 40
0.1261309702
 40
0.2619253113
 40
0.4023829825
 40
0.5420634432
 40
0.6755448499
 40
0.7982146526
 40
1.0
 40
1.0
 40
1.0
 40
1.0
 10
74.7470885726
 20
51.8644631658
 30
0.0
 10
74.7499851309
 20
51.904365526
 30
0.0
 10
74.7643690931
 20
51.9867121037
 30
0.0
 10
74.8060154163
 20
52.10780653
 30
0.0
 10
74.8664698546
 20
52.2255861237
 30
0.0
 10
74.9420967223
 20
52.33323118
 30
0.0
 10
75.0290859428
 20
52.4248279734
 30
0.0
 10
75.1445520473
 20
52.5123191919
 30
0.0
 10
75.2468591903
 20
52.551718723
 30
0.0
 10
75.3108600132
 20
52.5510720991
 30
0.0
  0
SPLINE
  5
497
100
AcDbEntity
  8
0
100
AcDbSpline
 62
7
  6
CONTINUOUS
 70
0
 71
3
 72
9
 73
5
 74
0
 42
0.0000001
 43
0.0000001
 44
0.0000000001
 40
0.0
 40
0.0
 40
0.0
 40
0.0
 40
0.2376330698
 40
1.0
 40
1.0
 40
1.0
 40
1.0
 10
74.9895609839
 20
53.7722170786
 30
0.0
 10
74.9906663375
 20
53.7874441904
 30
0.0
 10
74.9978178936
 20
53.8513342664
 30
0.0
 10
75.0141281886
 20
53.914047425
 30
0.0
 10
75.0303594937
 20
53.9602594786
 30
0.0
  0
SPLINE
  5
498
100
AcDbEntity
  8
0
100
AcDbSpline
 62
7
  6
CONTINUOUS
 70
0
 71
3
 72
11
 73
7
 74
0
 42
0.0000001
 43
0.0000001
 44
0.0000000001
 40
0.0
 40
0.0
 40
0.0
 40
0.0
 40
0.2130439917
 40
0.4442980368
 40
0.7055294406
 40
1.0
 40
1.0
 40
1.0
 40
1.0
 10
75.1019960888
 20
53.4804463354
 30
0.0
 10
75.0818001276
 20
53.4921026834
 30
0.0
 10
75.0442363605
 20
53.5250474355
 30
0.0
 10
75.0068273373
 20
53.5939945488
 30
0.0
 10
74.9877409514
 20
53.6788310356
 30
0.0
 10
74.9872274529
 20
53.7400708597
 30
0.0
 10
74.9895609839
 20
53.7722170786
 30
0.0
  0
SPLINE
  5
499
100
AcDbEntity
  8
0
100
AcDbSpline
 62
7
  6
CONTINUOUS
 70
0
 71
3
 72
9
 73
5
 74
0
 42
0.0000001
 43
0.0000001
 44
0.0000000001
 40
0.0
 40
0.0
 40
0.0
 40
0.0
 40
0.5140786034
 40
1.0
 40
1.0
 40
1.0
 40
1.0
 10
16.5992989428
 20
84.9649026678
 30
0.0
 10
16.4503938128
 20
84.4440428268
 30
0.0
 10
16.2089000861
 20
83.416273898
 30
0.0
 10
16.0789879635
 20
82.3678192859
 30
0.0
 10
16.0481678066
 20
81.8566925926
 30
0.0
  0
SPLINE
  5
49A
100
AcDbEntity
  8
0
100
AcDbSpline
 62
7
  6
CONTINUOUS
 70
0
 71
3
 72
11
 73
7
 74
0
 42
0.0000001
 43
0.0000001
 44
0.0000000001
 40
0.0
 40
0.0
 40
0.0
 40
0.0
 40
0.2868601778
 40
0.5478462718
 40
0.7838929835
 40
1.0
 40
1.0
 40
1.0
 40
1.0
 10
16.0481678066
 20
81.8566925926
 30
0.0
 10
16.0413484736
 20
81.7435996206
 30
0.0
 10
16.0428480528
 20
81.5262716444
 30
0.0
 10
16.0965376851
 20
81.2195919757
 30
0.0
 10
16.2012837528
 20
80.9557093299
 30
0.0
 10
16.3078830533
 20
80.8091633499
 30
0.0
 10
16.367876793
 20
80.7484508792
 30
0.0
  0
SPLINE
  5
49B
100
AcDbEntity
  8
0
100
AcDbSpline
 62
7
  6
CONTINUOUS
 70
0
 71
3
 72
9
 73
5
 74
0
 42
0.0000001
 43
0.0000001
 44
0.0000000001
 40
0.0
 40
0.0
 40
0.0
 40
0.0
 40
0.2447671636
 40
1.0
 40
1.0
 40
1.0
 40
1.0
 10
27.9581697473
 20
76.9603272662
 30
0.0
 10
27.9009464952
 20
76.7507778361
 30
0.0
 10
27.6478430906
 20
75.9000090797
 30
0.0
 10
27.3207660747
 20
75.0716078299
 30
0.0
 10
27.0383405328
 20
74.4637751744
 30
0.0
  0
SPLINE
  5
49C
100
AcDbEntity
  8
0
100
AcDbSpline
 62
7
  6
CONTINUOUS
 70
0
 71
3
 72
9
 73
5
 74
0
 42
0.0000001
 43
0.0000001
 44
0.0000000001
 40
0.0
 40
0.0
 40
0.0
 40
0.0
 40
0.5204949862
 40
1.0
 40
1.0
 40
1.0
 40
1.0
 10
75.4516749585
 20
49.5951442928
 30
0.0
 10
75.0532946219
 20
49.3364214731
 30
0.0
 10
74.2574185906
 20
48.8840496432
 30
0.0
 10
73.4034790022
 20
48.5497351274
 30
0.0
 10
72.9834255689
 20
48.4270197372
 30
0.0
  0
SPLINE
  5
49D
100
AcDbEntity
  8
0
100
AcDbSpline
 62
7
  6
CONTINUOUS
 70
0
 71
3
 72
11
 73
7
 74
0
 42
0.0000001
 43
0.0000001
 44
0.0000000001
 40
0.0
 40
0.0
 40
0.0
 40
0.0
 40
0.2742000452
 40
0.528969928
 40
0.7685130287
 40
1.0
 40
1.0
 40
1.0
 40
1.0
 10
72.9834255689
 20
48.4270197372
 30
0.0
 10
72.9118078543
 20
48.406097171
 30
0.0
 10
72.770317132
 20
48.3758548603
 30
0.0
 10
72.5600454069
 20
48.3689592783
 30
0.0
 10
72.3640372323
 20
48.4034414622
 30
0.0
 10
72.2449398058
 20
48.4544543026
 30
0.0
 10
72.1903970397
 20
48.4859611986
 30
0.0
  0
SPLINE
  5
49E
100
AcDbEntity
  8
0
100
AcDbSpline
 62
7
  6
CONTINUOUS
 70
0
 71
3
 72
11
 73
7
 74
0
 42
0.0000001
 43
0.0000001
 44
0.0000000001
 40
0.0
 40
0.0
 40
0.0
 40
0.0
 40
0.2868601778
 40
0.5478462718
 40
0.7838929835
 40
1.0
 40
1.0
 40
1.0
 40
1.0
 10
60.0303927107
 20
56.4641176614
 30
0.0
 10
60.0235733777
 20
56.3510246894
 30
0.0
 10
60.0250729569
 20
56.1336967132
 30
0.0
 10
60.0787625893
 20
55.8270170445
 30
0.0
 10
60.183508657
 20
55.5631343987
 30
0.0
 10
60.2901079574
 20
55.4165884188
 30
0.0
 10
60.3501016972
 20
55.3558759481
 30
0.0
  0
SPLINE
  5
49F
100
AcDbEntity
  8
0
100
AcDbSpline
 62
7
  6
CONTINUOUS
 70
0
 71
3
 72
9
 73
5
 74
0
 42
0.0000001
 43
0.0000001
 44
0.0000000001
 40
0.0
 40
0.0
 40
0.0
 40
0.0
 40
0.2569400142
 40
1.0
 40
1.0
 40
1.0
 40
1.0
 10
60.2730841865
 20
58.3037247846
 30
0.0
 10
60.2419637467
 20
58.1478107202
 30
0.0
 10
60.1304372144
 20
57.5391567114
 30
0.0
 10
60.0580671545
 20
56.9230753171
 30
0.0
 10
60.0303927107
 20
56.4641176614
 30
0.0
  0
SPLINE
  5
4A0
100
AcDbEntity
  8
0
100
AcDbSpline
 62
7
  6
CONTINUOUS
 70
0
 71
3
 72
11
 73
7
 74
0
 42
0.0000001
 43
0.0000001
 44
0.0000000001
 40
0.0
 40
0.0
 40
0.0
 40
0.0
 40
0.2161070165
 40
0.4521537282
 40
0.7131398222
 40
1.0
 40
1.0
 40
1.0
 40
1.0
 10
72.0174121621
 20
48.6199034985
 30
0.0
 10
71.9574184223
 20
48.6806159692
 30
0.0
 10
71.8508191219
 20
48.8271619491
 30
0.0
 10
71.7460730542
 20
49.0910445949
 30
0.0
 10
71.6923834218
 20
49.3977242637
 30
0.0
 10
71.6908838426
 20
49.6150522398
 30
0.0
 10
71.6977031757
 20
49.7281452118
 30
0.0
  0
SPLINE
  5
4A1
100
AcDbEntity
  8
0
100
AcDbSpline
 62
7
  6
CONTINUOUS
 70
0
 71
3
 72
9
 73
5
 74
0
 42
0.0000001
 43
0.0000001
 44
0.0000000001
 40
0.0
 40
0.0
 40
0.0
 40
0.0
 40
0.4859213966
 40
1.0
 40
1.0
 40
1.0
 40
1.0
 10
71.6977031757
 20
49.7281452118
 30
0.0
 10
71.7285233325
 20
50.2392719052
 30
0.0
 10
71.8584354551
 20
51.2877265173
 30
0.0
 10
72.0999291819
 20
52.315495446
 30
0.0
 10
72.2488343118
 20
52.836355287
 30
0.0
  0
SPLINE
  5
4A2
100
AcDbEntity
  8
0
100
AcDbSpline
 62
7
  6
CONTINUOUS
 70
0
 71
3
 72
9
 73
5
 74
0
 42
0.0000001
 43
0.0000001
 44
0.0000000001
 40
0.0
 40
0.0
 40
0.0
 40
0.0
 40
0.2546978188
 40
1.0
 40
1.0
 40
1.0
 40
1.0
 10
59.353254972
 20
55.8071726928
 30
0.0
 10
59.4484996485
 20
56.0121570729
 30
0.0
 10
59.8062538213
 20
56.8243423295
 30
0.0
 10
60.0988456751
 20
57.6656698088
 30
0.0
 10
60.2730841865
 20
58.3037247846
 30
0.0
  0
SPLINE
  5
4A3
100
AcDbEntity
  8
0
100
AcDbSpline
 62
7
  6
CONTINUOUS
 70
0
 71
3
 72
13
 73
9
 74
0
 42
0.0000001
 43
0.0000001
 44
0.0000000001
 40
0.0
 40
0.0
 40
0.0
 40
0.0
 40
0.1142247162
 40
0.2375579183
 40
0.4999983243
 40
0.7624396433
 40
0.8857739388
 40
1.0
 40
1.0
 40
1.0
 40
1.0
 10
22.8924011224
 20
117.2676792345
 30
0.0
 10
22.7956142397
 20
117.2117996353
 30
0.0
 10
22.6043742277
 20
117.07771154
 30
0.0
 10
22.2463155251
 20
116.7426493266
 30
0.0
 10
21.8681450699
 20
116.226044506
 30
0.0
 10
21.609839994
 20
115.6402346747
 30
0.0
 10
21.4986974356
 20
115.1626121926
 30
0.0
 10
21.478193448
 20
114.9299471073
 30
0.0
 10
21.478193448
 20
114.8181860925
 30
0.0
  0
SPLINE
  5
4A4
100
AcDbEntity
  8
0
100
AcDbSpline
 62
7
  6
CONTINUOUS
 70
0
 71
3
 72
11
 73
7
 74
0
 42
0.0000001
 43
0.0000001
 44
0.0000000001
 40
0.0
 40
0.0
 40
0.0
 40
0.0
 40
0.2625477462
 40
0.5234418031
 40
0.7722107283
 40
1.0
 40
1.0
 40
1.0
 40
1.0
 10
21.478193448
 20
96.196734899
 30
0.0
 10
21.1105748295
 20
95.7103428272
 30
0.0
 10
20.4487616917
 20
94.6848782658
 30
0.0
 10
19.6965775946
 20
93.0503293201
 30
0.0
 10
19.217547098
 20
91.3994696093
 30
0.0
 10
19.093132205
 20
90.2915812665
 30
0.0
 10
19.093132205
 20
89.7626084648
 30
0.0
  0
SPLINE
  5
4A5
100
AcDbEntity
  8
0
100
AcDbSpline
 62
7
  6
CONTINUOUS
 70
0
 71
3
 72
11
 73
7
 74
0
 42
0.0000001
 43
0.0000001
 44
0.0000000001
 40
0.0
 40
0.0
 40
0.0
 40
0.0
 40
0.2786495629
 40
0.5375345855
 40
0.7770980435
 40
1.0
 40
1.0
 40
1.0
 40
1.0
 10
19.093132205
 20
89.7626084648
 30
0.0
 10
19.093132205
 20
89.5031185175
 30
0.0
 10
19.1211050269
 20
89.0018583179
 30
0.0
 10
19.2570647681
 20
88.2885874535
 30
0.0
 10
19.4842144798
 20
87.6532753761
 30
0.0
 10
19.7017668974
 20
87.277833898
 30
0.0
 10
19.8243259115
 20
87.1103022049
 30
0.0
  0
SPLINE
  5
4A6
100
AcDbEntity
  8
0
100
AcDbSpline
 62
7
  6
CONTINUOUS
 70
0
 71
3
 72
11
 73
7
 74
0
 42
0.0000001
 43
0.0000001
 44
0.0000000001
 40
0.0
 40
0.0
 40
0.0
 40
0.0
 40
0.2177805602
 40
0.4509248779
 40
0.7102605592
 40
1.0
 40
1.0
 40
1.0
 40
1.0
 10
40.6311936612
 20
124.3470084946
 30
0.0
 10
40.7425336318
 20
124.4112642245
 30
0.0
 10
40.9508186501
 20
124.5864104454
 30
0.0
 10
41.1725664579
 20
124.9489556603
 30
0.0
 10
41.304317551
 20
125.3957793384
 30
0.0
 10
41.3302065409
 20
125.7209918687
 30
0.0
 10
41.3302065409
 20
125.892018735
 30
0.0
  0
SPLINE
  5
4A7
100
AcDbEntity
  8
0
100
AcDbSpline
 62
7
  6
CONTINUOUS
 70
0
 71
3
 72
11
 73
7
 74
0
 42
0.0000001
 43
0.0000001
 44
0.0000000001
 40
0.0
 40
0.0
 40
0.0
 40
0.0
 40
0.2625477462
 40
0.5234418031
 40
0.7722107283
 40
1.0
 40
1.0
 40
1.0
 40
1.0
 10
36.5749860799
 20
87.48079479
 30
0.0
 10
36.2073674614
 20
86.9944027182
 30
0.0
 10
35.5455543235
 20
85.9689381568
 30
0.0
 10
34.7933702265
 20
84.3343892111
 30
0.0
 10
34.3143397299
 20
82.6835295003
 30
0.0
 10
34.1899248369
 20
81.5756411575
 30
0.0
 10
34.1899248369
 20
81.0466683557
 30
0.0
  0
SPLINE
  5
4A8
100
AcDbEntity
  8
0
100
AcDbSpline
 62
7
  6
CONTINUOUS
 70
0
 71
3
 72
11
 73
7
 74
0
 42
0.0000001
 43
0.0000001
 44
0.0000000001
 40
0.0
 40
0.0
 40
0.0
 40
0.0
 40
0.2817165139
 40
0.5411039141
 40
0.7792223256
 40
1.0
 40
1.0
 40
1.0
 40
1.0
 10
34.1899248369
 20
81.0466683557
 30
0.0
 10
34.1899248369
 20
80.759654542
 30
0.0
 10
34.2239240574
 20
80.2074088442
 30
0.0
 10
34.3910037409
 20
79.4277509487
 30
0.0
 10
34.6703007962
 20
78.7467010642
 30
0.0
 10
34.9373983101
 20
78.3571422965
 30
0.0
 10
35.086603463
 20
78.188824374
 30
0.0
  0
SPLINE
  5
4A9
100
AcDbEntity
  8
0
100
AcDbSpline
 62
7
  6
CONTINUOUS
 70
0
 71
3
 72
17
 73
13
 74
0
 42
0.0000001
 43
0.0000001
 44
0.0000000001
 40
0.0
 40
0.0
 40
0.0
 40
0.0
 40
0.128693823
 40
0.2702783937
 40
0.4174341197
 40
0.5617778654
 40
0.6954482313
 40
0.8127107819
 40
0.8646769687
 40
0.9125095959
 40
0.9571396392
 40
1.0
 40
1.0
 40
1.0
 40
1.0
 10
41.3302065409
 20
125.892018735
 30
0.0
 10
41.3302065409
 20
126.1805089121
 30
0.0
 10
41.2495079286
 20
126.7870799612
 30
0.0
 10
40.9482567714
 20
127.6776855209
 30
0.0
 10
40.4841138248
 20
128.5356316878
 30
0.0
 10
39.8943306408
 20
129.2905592908
 30
0.0
 10
39.2271099594
 20
129.8814995217
 30
0.0
 10
38.6231691256
 20
130.2116559126
 30
0.0
 10
38.1507654825
 20
130.3374107704
 30
0.0
 10
37.8256202948
 20
130.3612505516
 30
0.0
 10
37.522847487
 20
130.3169493446
 30
0.0
 10
37.3394443132
 20
130.2406788259
 30
0.0
 10
37.2562287759
 20
130.1926540684
 30
0.0
  0
SPLINE
  5
4AA
100
AcDbEntity
  8
0
100
AcDbSpline
 62
7
  6
CONTINUOUS
 70
0
 71
3
 72
11
 73
7
 74
0
 42
0.0000001
 43
0.0000001
 44
0.0000000001
 40
0.0
 40
0.0
 40
0.0
 40
0.0
 40
0.2897776971
 40
0.5490719787
 40
0.7822272299
 40
1.0
 40
1.0
 40
1.0
 40
1.0
 10
64.3641274332
 20
143.8650882178
 30
0.0
 10
64.4957973318
 20
143.9411074154
 30
0.0
 10
64.7346483156
 20
144.1055518875
 30
0.0
 10
65.020013878
 20
144.4055812423
 30
0.0
 10
65.2005794856
 20
144.7373692227
 30
0.0
 10
65.2427762069
 20
144.9755505812
 30
0.0
 10
65.2427762054
 20
145.0898104813
 30
0.0
  0
SPLINE
  5
4AB
100
AcDbEntity
  8
0
100
AcDbSpline
 62
7
  6
CONTINUOUS
 70
0
 71
3
 72
9
 73
5
 74
0
 42
0.0000001
 43
0.0000001
 44
0.0000000001
 40
0.0
 40
0.0
 40
0.0
 40
0.0
 40
0.2642865852
 40
1.0
 40
1.0
 40
1.0
 40
1.0
 10
23.5924654217
 20
87.408743777
 30
0.0
 10
23.6032463351
 20
87.3041446641
 30
0.0
 10
23.6563824775
 20
86.9099296308
 30
0.0
 10
23.7615765768
 20
86.5212603372
 30
0.0
 10
23.875206255
 20
86.2514923064
 30
0.0
  0
SPLINE
  5
4AC
100
AcDbEntity
  8
0
100
AcDbSpline
 62
7
  6
CONTINUOUS
 70
0
 71
3
 72
11
 73
7
 74
0
 42
0.0000001
 43
0.0000001
 44
0.0000000001
 40
0.0
 40
0.0
 40
0.0
 40
0.0
 40
0.2896784336
 40
0.5491208899
 40
0.7822333041
 40
1.0
 40
1.0
 40
1.0
 40
1.0
 10
23.2813397333
 20
87.8124443282
 30
0.0
 10
23.2813397333
 20
87.7719132138
 30
0.0
 10
23.2874908728
 20
87.6948205071
 30
0.0
 10
23.3187128455
 20
87.588905675
 30
0.0
 10
23.3712658862
 20
87.5029484447
 30
0.0
 10
23.420644118
 20
87.4614532234
 30
0.0
 10
23.4470300708
 20
87.4462162427
 30
0.0
  0
SPLINE
  5
4AD
100
AcDbEntity
  8
0
100
AcDbSpline
 62
7
  6
CONTINUOUS
 70
0
 71
3
 72
10
 73
6
 74
0
 42
0.0000001
 43
0.0000001
 44
0.0000000001
 40
0.0
 40
0.0
 40
0.0
 40
0.0
 40
0.5202790309
 40
0.771268491
 40
1.0
 40
1.0
 40
1.0
 40
1.0
 10
23.5924654217
 20
88.5753997349
 30
0.0
 10
23.4975864121
 20
88.4654149652
 30
0.0
 10
23.3830754849
 20
88.2771685961
 30
0.0
 10
23.2980570428
 20
88.0104526385
 30
0.0
 10
23.2813397333
 20
87.8763026167
 30
0.0
 10
23.2813397333
 20
87.8124443282
 30
0.0
  0
SPLINE
  5
4AE
100
AcDbEntity
  8
0
100
AcDbSpline
 62
7
  6
CONTINUOUS
 70
0
 71
3
 72
11
 73
7
 74
0
 42
0.0000001
 43
0.0000001
 44
0.0000000001
 40
0.0
 40
0.0
 40
0.0
 40
0.0
 40
0.2561996309
 40
0.5143204117
 40
0.7650712106
 40
1.0
 40
1.0
 40
1.0
 40
1.0
 10
25.9124118215
 20
93.9125790882
 30
0.0
 10
25.597556121
 20
93.5312387644
 30
0.0
 10
25.0198061829
 20
92.7193800432
 30
0.0
 10
24.3296567589
 20
91.4089707116
 30
0.0
 10
23.8375876787
 20
90.055493543
 30
0.0
 10
23.6512573125
 20
89.1316013123
 30
0.0
 10
23.6029591426
 20
88.6807138079
 30
0.0
  0
SPLINE
  5
4AF
100
AcDbEntity
  8
0
100
AcDbSpline
 62
7
  6
CONTINUOUS
 70
0
 71
3
 72
15
 73
11
 74
0
 42
0.0000001
 43
0.0000001
 44
0.0000000001
 40
0.0
 40
0.0
 40
0.0
 40
0.0
 40
0.1141474765
 40
0.2373368178
 40
0.3669776594
 40
0.5000010819
 40
0.633024354
 40
0.7626647561
 40
0.8858534048
 40
1.0
 40
1.0
 40
1.0
 40
1.0
 10
35.585001172
 20
129.617180317
 30
0.0
 10
35.5850011718
 20
129.3237522921
 30
0.0
 10
35.6387854008
 20
128.7130882142
 30
0.0
 10
35.8530021316
 20
127.7918485744
 30
0.0
 10
36.1963274035
 20
126.8587272408
 30
0.0
 10
36.6556727206
 20
125.9487874856
 30
0.0
 10
37.2140344348
 20
125.0960164821
 30
0.0
 10
37.8504804968
 20
124.3321332649
 30
0.0
 10
38.5411894111
 20
123.6860042092
 30
0.0
 10
39.0431475382
 20
123.3341000661
 30
0.0
 10
39.2972631372
 20
123.1873896756
 30
0.0
  0
SPLINE
  5
4B0
100
AcDbEntity
  8
0
100
AcDbSpline
 62
7
  6
CONTINUOUS
 70
0
 71
3
 72
17
 73
13
 74
0
 42
0.0000001
 43
0.0000001
 44
0.0000000001
 40
0.0
 40
0.0
 40
0.0
 40
0.0
 40
0.1447771882
 40
0.2743250026
 40
0.3908140607
 40
0.4459174568
 40
0.4999980194
 40
0.554078673
 40
0.6091823343
 40
0.7256723493
 40
0.8552214523
 40
1.0
 40
1.0
 40
1.0
 40
1.0
 10
39.2972631372
 20
123.1873896756
 30
0.0
 10
39.5276849875
 20
123.0543585679
 30
0.0
 10
39.9860201335
 20
122.8363505174
 30
0.0
 10
40.6899630951
 20
122.666067413
 30
0.0
 10
41.2520285835
 20
122.6811211287
 30
0.0
 10
41.6534319894
 20
122.7921553406
 30
0.0
 10
41.926477845
 20
122.9200456905
 30
0.0
 10
42.173753162
 20
123.0925715926
 30
0.0
 10
42.4706080731
 20
123.3846887701
 30
0.0
 10
42.7646700919
 20
123.8639347471
 30
0.0
 10
42.9691632739
 20
124.5587180559
 30
0.0
 10
43.0095251021
 20
125.0646571716
 30
0.0
 10
43.0095251023
 20
125.3307263998
 30
0.0
  0
SPLINE
  5
4B1
100
AcDbEntity
  8
0
100
AcDbSpline
 62
7
  6
CONTINUOUS
 70
0
 71
3
 72
15
 73
11
 74
0
 42
0.0000001
 43
0.0000001
 44
0.0000000001
 40
0.0
 40
0.0
 40
0.0
 40
0.0
 40
0.1141474765
 40
0.2373368178
 40
0.3669776594
 40
0.5000010819
 40
0.633024354
 40
0.7626647561
 40
0.8858534048
 40
1.0
 40
1.0
 40
1.0
 40
1.0
 10
43.0095251023
 20
125.3307263998
 30
0.0
 10
43.0095251025
 20
125.6241544247
 30
0.0
 10
42.9557408735
 20
126.2348185026
 30
0.0
 10
42.7415241427
 20
127.1560581423
 30
0.0
 10
42.3981988708
 20
128.089179476
 30
0.0
 10
41.9388535537
 20
128.9991192312
 30
0.0
 10
41.3804918395
 20
129.8518902346
 30
0.0
 10
40.7440457775
 20
130.6157734518
 30
0.0
 10
40.0533368632
 20
131.2619025076
 30
0.0
 10
39.5513787361
 20
131.6138066507
 30
0.0
 10
39.2972631372
 20
131.7605170412
 30
0.0
  0
SPLINE
  5
4B2
100
AcDbEntity
  8
0
100
AcDbSpline
 62
7
  6
CONTINUOUS
 70
0
 71
3
 72
17
 73
13
 74
0
 42
0.0000001
 43
0.0000001
 44
0.0000000001
 40
0.0
 40
0.0
 40
0.0
 40
0.0
 40
0.1447771882
 40
0.2743250026
 40
0.3908140607
 40
0.4459174568
 40
0.4999980194
 40
0.554078673
 40
0.6091823343
 40
0.7256723493
 40
0.8552214523
 40
1.0
 40
1.0
 40
1.0
 40
1.0
 10
39.2972631372
 20
131.7605170412
 30
0.0
 10
39.0668412868
 20
131.8935481489
 30
0.0
 10
38.6085061408
 20
132.1115561994
 30
0.0
 10
37.9045631792
 20
132.2818393038
 30
0.0
 10
37.3424976908
 20
132.2667855881
 30
0.0
 10
36.9410942849
 20
132.1557513762
 30
0.0
 10
36.6680484293
 20
132.0278610263
 30
0.0
 10
36.4207731123
 20
131.8553351242
 30
0.0
 10
36.1239182012
 20
131.5632179466
 30
0.0
 10
35.8298561824
 20
131.0839719697
 30
0.0
 10
35.6253630004
 20
130.3891886609
 30
0.0
 10
35.5850011722
 20
129.8832495452
 30
0.0
 10
35.585001172
 20
129.617180317
 30
0.0
  0
SPLINE
  5
4B3
100
AcDbEntity
  8
0
100
AcDbSpline
 62
7
  6
CONTINUOUS
 70
0
 71
3
 72
17
 73
13
 74
0
 42
0.0000001
 43
0.0000001
 44
0.0000000001
 40
0.0
 40
0.0
 40
0.0
 40
0.0
 40
0.128693823
 40
0.2702783937
 40
0.4174341197
 40
0.5617778654
 40
0.6954482313
 40
0.8127107819
 40
0.8646769687
 40
0.9125095959
 40
0.9571396392
 40
1.0
 40
1.0
 40
1.0
 40
1.0
 10
36.5572158962
 20
128.647643828
 30
0.0
 10
36.5572158962
 20
128.3591536509
 30
0.0
 10
36.6379145085
 20
127.7525826018
 30
0.0
 10
36.9391656657
 20
126.861977042
 30
0.0
 10
37.4033086123
 20
126.0040308752
 30
0.0
 10
37.9930917963
 20
125.2491032721
 30
0.0
 10
38.6603124777
 20
124.6581630413
 30
0.0
 10
39.2642533114
 20
124.3280066504
 30
0.0
 10
39.7366569546
 20
124.2022517925
 30
0.0
 10
40.0618021423
 20
124.1784120113
 30
0.0
 10
40.3645749501
 20
124.2227132183
 30
0.0
 10
40.5479781239
 20
124.298983737
 30
0.0
 10
40.6311936612
 20
124.3470084946
 30
0.0
  0
SPLINE
  5
4B4
100
AcDbEntity
  8
0
100
AcDbSpline
 62
7
  6
CONTINUOUS
 70
0
 71
3
 72
11
 73
7
 74
0
 42
0.0000001
 43
0.0000001
 44
0.0000000001
 40
0.0
 40
0.0
 40
0.0
 40
0.0
 40
0.2177805602
 40
0.4509248779
 40
0.7102605592
 40
1.0
 40
1.0
 40
1.0
 40
1.0
 10
37.2562287759
 20
130.1926540684
 30
0.0
 10
37.1448888052
 20
130.1283983384
 30
0.0
 10
36.936603787
 20
129.9532521175
 30
0.0
 10
36.7148559791
 20
129.5907069027
 30
0.0
 10
36.5831048861
 20
129.1438832245
 30
0.0
 10
36.5572158962
 20
128.8186706942
 30
0.0
 10
36.5572158962
 20
128.647643828
 30
0.0
  0
SPLINE
  5
4B5
100
AcDbEntity
  8
0
100
AcDbSpline
 62
7
  6
CONTINUOUS
 70
0
 71
3
 72
15
 73
11
 74
0
 42
0.0000001
 43
0.0000001
 44
0.0000000001
 40
0.0
 40
0.0
 40
0.0
 40
0.0
 40
0.1141465952
 40
0.2373352439
 40
0.366975646
 40
0.4999989181
 40
0.6330223406
 40
0.7626631822
 40
0.8858525235
 40
1.0
 40
1.0
 40
1.0
 40
1.0
 10
38.9437112185
 20
130.7399475499
 30
0.0
 10
39.1494262713
 20
130.6211805957
 30
0.0
 10
39.5557781166
 20
130.336302455
 30
0.0
 10
40.1149300196
 20
129.8132394344
 30
0.0
 10
40.6301543338
 20
129.1948504927
 30
0.0
 10
41.0821667641
 20
128.5045039235
 30
0.0
 10
41.4540221186
 20
127.7678773429
 30
0.0
 10
41.731955377
 20
127.0124845015
 30
0.0
 10
41.9053709652
 20
126.2667102876
 30
0.0
 10
41.9489110924
 20
125.7723573494
 30
0.0
 10
41.9489110922
 20
125.5348175767
 30
0.0
  0
SPLINE
  5
4B6
100
AcDbEntity
  8
0
100
AcDbSpline
 62
7
  6
CONTINUOUS
 70
0
 71
3
 72
15
 73
11
 74
0
 42
0.0000001
 43
0.0000001
 44
0.0000000001
 40
0.0
 40
0.0
 40
0.0
 40
0.0
 40
0.1474561271
 40
0.2805074424
 40
0.4007281392
 40
0.5123987031
 40
0.6219064243
 40
0.736309081
 40
0.8612387697
 40
1.0
 40
1.0
 40
1.0
 40
1.0
 10
35.9385113449
 20
129.0048449862
 30
0.0
 10
35.938511345
 20
129.2059108426
 30
0.0
 10
35.967093457
 20
129.5895119584
 30
0.0
 10
36.110870319
 20
130.1207621813
 30
0.0
 10
36.352535827
 20
130.562292775
 30
0.0
 10
36.6881290504
 20
130.8955661927
 30
0.0
 10
37.1055919451
 20
131.1017345087
 30
0.0
 10
37.5830316635
 20
131.1714839818
 30
0.0
 10
38.0995314119
 20
131.1078187893
 30
0.0
 10
38.4410056562
 20
130.987087978
 30
0.0
 10
38.6135722826
 20
130.9094921585
 30
0.0
  0
SPLINE
  5
4B7
100
AcDbEntity
  8
0
100
AcDbSpline
 62
7
  6
CONTINUOUS
 70
0
 71
3
 72
9
 73
5
 74
0
 42
0.0000001
 43
0.0000001
 44
0.0000000001
 40
0.0
 40
0.0
 40
0.0
 40
0.0
 40
0.244818263
 40
1.0
 40
1.0
 40
1.0
 40
1.0
 10
38.6135722826
 20
130.9094921585
 30
0.0
 10
38.641201348
 20
130.8970685514
 30
0.0
 10
38.7533719497
 20
130.8448074425
 30
0.0
 10
38.8627841542
 20
130.7866697553
 30
0.0
 10
38.9437112185
 20
130.7399475499
 30
0.0
  0
SPLINE
  5
4B8
100
AcDbEntity
  8
0
100
AcDbSpline
 62
7
  6
CONTINUOUS
 70
0
 71
3
 72
15
 73
11
 74
0
 42
0.0000001
 43
0.0000001
 44
0.0000000001
 40
0.0
 40
0.0
 40
0.0
 40
0.0
 40
0.1141465952
 40
0.2373352439
 40
0.366975646
 40
0.4999989181
 40
0.6330223406
 40
0.7626631822
 40
0.8858525235
 40
1.0
 40
1.0
 40
1.0
 40
1.0
 10
38.9437112185
 20
123.799715013
 30
0.0
 10
38.7379961658
 20
123.9184819672
 30
0.0
 10
38.3316443204
 20
124.203360108
 30
0.0
 10
37.7724924175
 20
124.7264231285
 30
0.0
 10
37.2572681033
 20
125.3448120702
 30
0.0
 10
36.805255673
 20
126.0351586395
 30
0.0
 10
36.4334003185
 20
126.77178522
 30
0.0
 10
36.1554670601
 20
127.5271780614
 30
0.0
 10
35.9820514719
 20
128.2729522754
 30
0.0
 10
35.9385113447
 20
128.7673052135
 30
0.0
 10
35.9385113449
 20
129.0048449862
 30
0.0
  0
SPLINE
  5
4B9
100
AcDbEntity
  8
0
100
AcDbSpline
 62
7
  6
CONTINUOUS
 70
0
 71
3
 72
9
 73
5
 74
0
 42
0.0000001
 43
0.0000001
 44
0.0000000001
 40
0.0
 40
0.0
 40
0.0
 40
0.0
 40
0.2552016628
 40
1.0
 40
1.0
 40
1.0
 40
1.0
 10
41.9489110922
 20
125.5348175767
 30
0.0
 10
41.9489110922
 20
125.5032338855
 30
0.0
 10
41.9474349959
 20
125.3794810091
 30
0.0
 10
41.9399666486
 20
125.2557803329
 30
0.0
 10
41.9306694064
 20
125.1640743621
 30
0.0
  0
SPLINE
  5
4BA
100
AcDbEntity
  8
0
100
AcDbSpline
 62
7
  6
CONTINUOUS
 70
0
 71
3
 72
15
 73
11
 74
0
 42
0.0000001
 43
0.0000001
 44
0.0000000001
 40
0.0
 40
0.0
 40
0.0
 40
0.0
 40
0.1387616578
 40
0.2636918858
 40
0.37809509
 40
0.487603182
 40
0.5992737759
 40
0.7194941081
 40
0.8525447398
 40
1.0
 40
1.0
 40
1.0
 40
1.0
 10
41.9306694064
 20
125.1640743621
 30
0.0
 10
41.911585184
 20
124.9758317531
 30
0.0
 10
41.8454029905
 20
124.6197454617
 30
0.0
 10
41.6422901644
 20
124.1406168481
 30
0.0
 10
41.3431698652
 20
123.762020248
 30
0.0
 10
40.955898334
 20
123.5035713135
 30
0.0
 10
40.4994868198
 20
123.3795725968
 30
0.0
 10
39.9962862379
 20
123.3910432183
 30
0.0
 10
39.4643306047
 20
123.5321451557
 30
0.0
 10
39.1178366806
 20
123.6991859049
 30
0.0
 10
38.9437112185
 20
123.799715013
 30
0.0
  0
SPLINE
  5
4BB
100
AcDbEntity
  8
0
100
AcDbSpline
 62
7
  6
CONTINUOUS
 70
0
 71
3
 72
11
 73
7
 74
0
 42
0.0000001
 43
0.0000001
 44
0.0000000001
 40
0.0
 40
0.0
 40
0.0
 40
0.0
 40
0.2177442246
 40
0.4508817658
 40
0.7104588047
 40
1.0
 40
1.0
 40
1.0
 40
1.0
 10
51.7666804708
 20
118.6979579534
 30
0.0
 10
51.7402963172
 20
118.7131905211
 30
0.0
 10
51.6908815618
 20
118.7546377228
 30
0.0
 10
51.638316354
 20
118.8406226568
 30
0.0
 10
51.607153818
 20
118.9465515507
 30
0.0
 10
51.6009682332
 20
119.023637019
 30
0.0
 10
51.6009682332
 20
119.0641481062
 30
0.0
  0
SPLINE
  5
4BC
100
AcDbEntity
  8
0
100
AcDbSpline
 62
7
  6
CONTINUOUS
 70
0
 71
3
 72
11
 73
7
 74
0
 42
0.0000001
 43
0.0000001
 44
0.0000000001
 40
0.0
 40
0.0
 40
0.0
 40
0.0
 40
0.2895411595
 40
0.5491183966
 40
0.7822559144
 40
1.0
 40
1.0
 40
1.0
 40
1.0
 10
44.1763161191
 20
123.3506760287
 30
0.0
 10
44.1763161191
 20
123.3101649472
 30
0.0
 10
44.1825017523
 20
123.2330794653
 30
0.0
 10
44.2136642388
 20
123.1271505347
 30
0.0
 10
44.2662294904
 20
123.0411656252
 30
0.0
 10
44.3156442118
 20
122.9997184198
 30
0.0
 10
44.3420283563
 20
122.9844858761
 30
0.0
  0
SPLINE
  5
4BD
100
AcDbEntity
  8
0
100
AcDbSpline
 62
7
  6
CONTINUOUS
 70
0
 71
3
 72
11
 73
7
 74
0
 42
0.0000001
 43
0.0000001
 44
0.0000000001
 40
0.0
 40
0.0
 40
0.0
 40
0.0
 40
0.2372518718
 40
0.4999985497
 40
0.7627460178
 40
1.0
 40
1.0
 40
1.0
 40
1.0
 10
44.7419991889
 20
124.3304732855
 30
0.0
 10
44.6616840156
 20
124.2841035754
 30
0.0
 10
44.5096947888
 20
124.1562020476
 30
0.0
 10
44.3323705931
 20
123.9137765132
 30
0.0
 10
44.2110871885
 20
123.6389950653
 30
0.0
 10
44.1763161191
 20
123.443416689
 30
0.0
 10
44.1763161191
 20
123.3506760287
 30
0.0
  0
SPLINE
  5
4BE
100
AcDbEntity
  8
0
100
AcDbSpline
 62
7
  6
CONTINUOUS
 70
0
 71
3
 72
9
 73
5
 74
0
 42
0.0000001
 43
0.0000001
 44
0.0000000001
 40
0.0
 40
0.0
 40
0.0
 40
0.0
 40
0.4749297831
 40
1.0
 40
1.0
 40
1.0
 40
1.0
 10
51.6009682332
 20
119.0641481062
 30
0.0
 10
51.6009682332
 20
119.1701166429
 30
0.0
 10
51.6458668558
 20
119.3931839937
 30
0.0
 10
51.7460989362
 20
119.5951393103
 30
0.0
 10
51.8106942577
 20
119.692878744
 30
0.0
  0
SPLINE
  5
4BF
100
AcDbEntity
  8
0
100
AcDbSpline
 62
7
  6
CONTINUOUS
 70
0
 71
3
 72
9
 73
5
 74
0
 42
0.0000001
 43
0.0000001
 44
0.0000000001
 40
0.0
 40
0.0
 40
0.0
 40
0.0
 40
0.2424016808
 40
1.0
 40
1.0
 40
1.0
 40
1.0
 10
23.3277585458
 20
85.3884778271
 30
0.0
 10
23.3012773142
 20
85.4417757276
 30
0.0
 10
23.1977209216
 20
85.6644594425
 30
0.0
 10
23.1166143396
 20
85.8973491697
 30
0.0
 10
23.066538218
 20
86.0764858831
 30
0.0
  0
SPLINE
  5
4C0
100
AcDbEntity
  8
0
100
AcDbSpline
 62
7
  6
CONTINUOUS
 70
0
 71
3
 72
9
 73
5
 74
0
 42
0.0000001
 43
0.0000001
 44
0.0000000001
 40
0.0
 40
0.0
 40
0.0
 40
0.0
 40
0.2362530433
 40
1.0
 40
1.0
 40
1.0
 40
1.0
 10
23.066538218
 20
86.0764858831
 30
0.0
 10
23.0343806791
 20
86.1915226638
 30
0.0
 10
22.9179464364
 20
86.6839211529
 30
0.0
 10
22.8761692346
 20
87.192378412
 30
0.0
 10
22.8761692346
 20
87.5785204281
 30
0.0
  0
SPLINE
  5
4C1
100
AcDbEntity
  8
0
100
AcDbSpline
 62
7
  6
CONTINUOUS
 70
0
 71
3
 72
11
 73
7
 74
0
 42
0.0000001
 43
0.0000001
 44
0.0000000001
 40
0.0
 40
0.0
 40
0.0
 40
0.0
 40
0.2277892717
 40
0.4765581969
 40
0.7374522538
 40
1.0
 40
1.0
 40
1.0
 40
1.0
 10
22.8761692346
 20
87.5785204281
 30
0.0
 10
22.8761692346
 20
88.1074932299
 30
0.0
 10
23.0005841276
 20
89.2153815726
 30
0.0
 10
23.4796146242
 20
90.8662412834
 30
0.0
 10
24.2317987212
 20
92.5007902291
 30
0.0
 10
24.893611859
 20
93.5262547905
 30
0.0
 10
25.2612304775
 20
94.0126468623
 30
0.0
  0
SPLINE
  5
4C2
100
AcDbEntity
  8
0
100
AcDbSpline
 62
7
  6
CONTINUOUS
 70
0
 71
3
 72
10
 73
6
 74
0
 42
0.0000001
 43
0.0000001
 44
0.0000000001
 40
0.0
 40
0.0
 40
0.0
 40
0.0
 40
0.2281450702
 40
0.4752816799
 40
1.0
 40
1.0
 40
1.0
 40
1.0
 10
78.4143048192
 20
147.15960708
 30
0.0
 10
78.4143048192
 20
147.0408532981
 30
0.0
 10
78.4375076692
 20
146.7931659339
 30
0.0
 10
78.5618245362
 20
146.2865860269
 30
0.0
 10
78.7338696453
 20
145.9174500441
 30
0.0
 10
78.8768052589
 20
145.6847118534
 30
0.0
  0
SPLINE
  5
4C3
100
AcDbEntity
  8
0
100
AcDbSpline
 62
7
  6
CONTINUOUS
 70
0
 71
3
 72
13
 73
9
 74
0
 42
0.0000001
 43
0.0000001
 44
0.0000000001
 40
0.0
 40
0.0
 40
0.0
 40
0.0
 40
0.1142487484
 40
0.2375477548
 40
0.5000005226
 40
0.7624530043
 40
0.8857516767
 40
1.0
 40
1.0
 40
1.0
 40
1.0
 10
60.8285611437
 20
148.3557467155
 30
0.0
 10
60.6833495739
 20
148.4395827578
 30
0.0
 10
60.3657631977
 20
148.5874758698
 30
0.0
 10
59.6619317768
 20
148.8012345101
 30
0.0
 10
58.7072374769
 20
148.9050710373
 30
0.0
 10
57.7525440951
 20
148.801230096
 30
0.0
 10
57.0487153117
 20
148.5874679934
 30
0.0
 10
56.7311308815
 20
148.439573295
 30
0.0
 10
56.5859204566
 20
148.3557365175
 30
0.0
  0
SPLINE
  5
4C4
100
AcDbEntity
  8
0
100
AcDbSpline
 62
7
  6
CONTINUOUS
 70
0
 71
3
 72
9
 73
5
 74
0
 42
0.0000001
 43
0.0000001
 44
0.0000000001
 40
0.0
 40
0.0
 40
0.0
 40
0.0
 40
0.4807985494
 40
1.0
 40
1.0
 40
1.0
 40
1.0
 10
37.9729618665
 20
78.8625803191
 30
0.0
 10
37.9729618665
 20
79.2815186801
 30
0.0
 10
38.0509380341
 20
80.1535620289
 30
0.0
 10
38.2517481963
 20
81.004251239
 30
0.0
 10
38.3823640416
 20
81.4373857751
 30
0.0
  0
SPLINE
  5
4C5
100
AcDbEntity
  8
0
100
AcDbSpline
 62
7
  6
CONTINUOUS
 70
0
 71
3
 72
9
 73
5
 74
0
 42
0.0000001
 43
0.0000001
 44
0.0000000001
 40
0.0
 40
0.0
 40
0.0
 40
0.0
 40
0.2462888798
 40
1.0
 40
1.0
 40
1.0
 40
1.0
 10
38.3823640416
 20
81.4373857751
 30
0.0
 10
38.4162393734
 20
81.5497195898
 30
0.0
 10
38.5610985441
 20
82.0035960224
 30
0.0
 10
38.7342482452
 20
82.4483711222
 30
0.0
 10
38.8789408418
 20
82.776989916
 30
0.0
  0
SPLINE
  5
4C6
100
AcDbEntity
  8
0
100
AcDbSpline
 62
7
  6
CONTINUOUS
 70
0
 71
3
 72
9
 73
5
 74
0
 42
0.0000001
 43
0.0000001
 44
0.0000000001
 40
0.0
 40
0.0
 40
0.0
 40
0.0
 40
0.5004157498
 40
1.0
 40
1.0
 40
1.0
 40
1.0
 10
38.8789408418
 20
82.776989916
 30
0.0
 10
39.0756628747
 20
83.2237754367
 30
0.0
 10
39.5218750159
 20
84.0940218865
 30
0.0
 10
40.0641605342
 20
84.9079004753
 30
0.0
 10
40.3580231094
 20
85.2967067533
 30
0.0
  0
SPLINE
  5
4C7
100
AcDbEntity
  8
0
100
AcDbSpline
 62
7
  6
CONTINUOUS
 70
0
 71
3
 72
9
 73
5
 74
0
 42
0.0000001
 43
0.0000001
 44
0.0000000001
 40
0.0
 40
0.0
 40
0.0
 40
0.0
 40
0.4773773815
 40
1.0
 40
1.0
 40
1.0
 40
1.0
 10
40.3580231094
 20
103.9181579468
 30
0.0
 10
40.3580231094
 20
104.0693528826
 30
0.0
 10
40.3954683228
 20
104.3863668456
 30
0.0
 10
40.4879758193
 20
104.6908327445
 30
0.0
 10
40.5479136194
 20
104.8451246343
 30
0.0
  0
SPLINE
  5
4C8
100
AcDbEntity
  8
0
100
AcDbSpline
 62
7
  6
CONTINUOUS
 70
0
 71
3
 72
9
 73
5
 74
0
 42
0.0000001
 43
0.0000001
 44
0.0000000001
 40
0.0
 40
0.0
 40
0.0
 40
0.0
 40
0.2518834874
 40
1.0
 40
1.0
 40
1.0
 40
1.0
 10
40.7722399424
 20
105.3120077557
 30
0.0
 10
40.7939966559
 20
105.349691691
 30
0.0
 10
40.8832033647
 20
105.4976435461
 30
0.0
 10
40.9834775096
 20
105.6389586642
 30
0.0
 10
41.0644067787
 20
105.739721994
 30
0.0
  0
SPLINE
  5
4C9
100
AcDbEntity
  8
0
100
AcDbSpline
 62
7
  6
CONTINUOUS
 70
0
 71
3
 72
9
 73
5
 74
0
 42
0.0000001
 43
0.0000001
 44
0.0000000001
 40
0.0
 40
0.0
 40
0.0
 40
0.0
 40
0.5226236696
 40
1.0
 40
1.0
 40
1.0
 40
1.0
 10
41.0644067787
 20
105.739721994
 30
0.0
 10
41.1680573583
 20
105.8687751493
 30
0.0
 10
41.3854760802
 20
106.1011207364
 30
0.0
 10
41.6412933631
 20
106.292054785
 30
0.0
 10
41.7722307838
 20
106.3676510888
 30
0.0
  0
SPLINE
  5
4CA
100
AcDbEntity
  8
0
100
AcDbSpline
 62
7
  6
CONTINUOUS
 70
0
 71
3
 72
11
 73
7
 74
0
 42
0.0000001
 43
0.0000001
 44
0.0000000001
 40
0.0
 40
0.0
 40
0.0
 40
0.0
 40
0.2177723091
 40
0.4509273687
 40
0.7102218233
 40
1.0
 40
1.0
 40
1.0
 40
1.0
 10
65.2427762054
 20
145.0898104813
 30
0.0
 10
65.2427762039
 20
145.2040716115
 30
0.0
 10
65.2005785191
 20
145.4422557182
 30
0.0
 10
65.0200090052
 20
145.774046911
 30
0.0
 10
64.7346376471
 20
146.0740784898
 30
0.0
 10
64.4957821304
 20
146.2385235897
 30
0.0
 10
64.3641097694
 20
146.3145429429
 30
0.0
  0
SPLINE
  5
4CB
100
AcDbEntity
  8
0
100
AcDbSpline
 62
7
  6
CONTINUOUS
 70
0
 71
3
 72
9
 73
5
 74
0
 42
0.0000001
 43
0.0000001
 44
0.0000000001
 40
0.0
 40
0.0
 40
0.0
 40
0.0
 40
0.2439673731
 40
1.0
 40
1.0
 40
1.0
 40
1.0
 10
38.7041555729
 20
76.2102740592
 30
0.0
 10
38.6735208265
 20
76.252150138
 30
0.0
 10
38.5525228544
 20
76.4271182436
 30
0.0
 10
38.4498788371
 20
76.6145823906
 30
0.0
 10
38.3823640416
 20
76.7605089532
 30
0.0
  0
SPLINE
  5
4CC
100
AcDbEntity
  8
0
100
AcDbSpline
 62
7
  6
CONTINUOUS
 70
0
 71
3
 72
13
 73
9
 74
0
 42
0.0000001
 43
0.0000001
 44
0.0000000001
 40
0.0
 40
0.0
 40
0.0
 40
0.0
 40
0.1142247162
 40
0.2375579183
 40
0.4999983243
 40
0.7624396433
 40
0.8857739388
 40
1.0
 40
1.0
 40
1.0
 40
1.0
 10
41.7722307838
 20
106.3676510888
 30
0.0
 10
41.6754439012
 20
106.3117714896
 30
0.0
 10
41.4842038891
 20
106.1776833943
 30
0.0
 10
41.1261451865
 20
105.8426211809
 30
0.0
 10
40.7479747314
 20
105.3260163604
 30
0.0
 10
40.4896696554
 20
104.740206529
 30
0.0
 10
40.378527097
 20
104.2625840469
 30
0.0
 10
40.3580231094
 20
104.0299189616
 30
0.0
 10
40.3580231094
 20
103.9181579468
 30
0.0
  0
SPLINE
  5
4CD
100
AcDbEntity
  8
0
100
AcDbSpline
 62
7
  6
CONTINUOUS
 70
0
 71
3
 72
11
 73
7
 74
0
 42
0.0000001
 43
0.0000001
 44
0.0000000001
 40
0.0
 40
0.0
 40
0.0
 40
0.0
 40
0.2625477462
 40
0.5234418031
 40
0.7722107283
 40
1.0
 40
1.0
 40
1.0
 40
1.0
 10
40.3580231094
 20
85.2967067533
 30
0.0
 10
39.9904044909
 20
84.8103146815
 30
0.0
 10
39.3285913531
 20
83.7848501201
 30
0.0
 10
38.5764072561
 20
82.1503011744
 30
0.0
 10
38.0973767594
 20
80.4994414636
 30
0.0
 10
37.9729618665
 20
79.3915531208
 30
0.0
 10
37.9729618665
 20
78.8625803191
 30
0.0
  0
SPLINE
  5
4CE
100
AcDbEntity
  8
0
100
AcDbSpline
 62
7
  6
CONTINUOUS
 70
0
 71
3
 72
11
 73
7
 74
0
 42
0.0000001
 43
0.0000001
 44
0.0000000001
 40
0.0
 40
0.0
 40
0.0
 40
0.0
 40
0.2786495629
 40
0.5375345855
 40
0.7770980435
 40
1.0
 40
1.0
 40
1.0
 40
1.0
 10
37.9729618665
 20
78.8625803191
 30
0.0
 10
37.9729618665
 20
78.6030903718
 30
0.0
 10
38.0009346884
 20
78.1018301723
 30
0.0
 10
38.1368944295
 20
77.3885593078
 30
0.0
 10
38.3640441412
 20
76.7532472304
 30
0.0
 10
38.5815965588
 20
76.3778057523
 30
0.0
 10
38.7041555729
 20
76.2102740592
 30
0.0
  0
SPLINE
  5
4CF
100
AcDbEntity
  8
0
100
AcDbSpline
 62
7
  6
CONTINUOUS
 70
0
 71
3
 72
11
 73
7
 74
0
 42
0.0000001
 43
0.0000001
 44
0.0000000001
 40
0.0
 40
0.0
 40
0.0
 40
0.0
 40
0.2177805602
 40
0.4509248779
 40
0.7102605592
 40
1.0
 40
1.0
 40
1.0
 40
1.0
 10
59.5110233226
 20
113.4469803489
 30
0.0
 10
59.6223632933
 20
113.5112360788
 30
0.0
 10
59.8306483115
 20
113.6863822997
 30
0.0
 10
60.0523961194
 20
114.0489275146
 30
0.0
 10
60.1841472124
 20
114.4957511928
 30
0.0
 10
60.2100362023
 20
114.820963723
 30
0.0
 10
60.2100362023
 20
114.9919905893
 30
0.0
  0
SPLINE
  5
4D0
100
AcDbEntity
  8
0
100
AcDbSpline
 62
7
  6
CONTINUOUS
 70
0
 71
3
 72
11
 73
7
 74
0
 42
0.0000001
 43
0.0000001
 44
0.0000000001
 40
0.0
 40
0.0
 40
0.0
 40
0.0
 40
0.2625477462
 40
0.5234418031
 40
0.7722107283
 40
1.0
 40
1.0
 40
1.0
 40
1.0
 10
55.4548157413
 20
76.5807666443
 30
0.0
 10
55.0871971228
 20
76.0943745725
 30
0.0
 10
54.425383985
 20
75.0689100111
 30
0.0
 10
53.673199888
 20
73.4343610654
 30
0.0
 10
53.1941693913
 20
71.7835013546
 30
0.0
 10
53.0697544984
 20
70.6756130118
 30
0.0
 10
53.0697544984
 20
70.1466402101
 30
0.0
  0
SPLINE
  5
4D1
100
AcDbEntity
  8
0
100
AcDbSpline
 62
7
  6
CONTINUOUS
 70
0
 71
3
 72
11
 73
7
 74
0
 42
0.0000001
 43
0.0000001
 44
0.0000000001
 40
0.0
 40
0.0
 40
0.0
 40
0.0
 40
0.2817165139
 40
0.5411039141
 40
0.7792223256
 40
1.0
 40
1.0
 40
1.0
 40
1.0
 10
53.0697544984
 20
70.1466402101
 30
0.0
 10
53.0697544984
 20
69.8596263963
 30
0.0
 10
53.1037537188
 20
69.3073806985
 30
0.0
 10
53.2708334023
 20
68.527722803
 30
0.0
 10
53.5501304576
 20
67.8466729185
 30
0.0
 10
53.8172279715
 20
67.4571141508
 30
0.0
 10
53.9664331244
 20
67.2887962283
 30
0.0
  0
SPLINE
  5
4D2
100
AcDbEntity
  8
0
100
AcDbSpline
 62
7
  6
CONTINUOUS
 70
0
 71
3
 72
17
 73
13
 74
0
 42
0.0000001
 43
0.0000001
 44
0.0000000001
 40
0.0
 40
0.0
 40
0.0
 40
0.0
 40
0.128693823
 40
0.2702783937
 40
0.4174341197
 40
0.5617778654
 40
0.6954482313
 40
0.8127107819
 40
0.8646769687
 40
0.9125095959
 40
0.9571396392
 40
1.0
 40
1.0
 40
1.0
 40
1.0
 10
60.2100362023
 20
114.9919905893
 30
0.0
 10
60.2100362023
 20
115.2804807664
 30
0.0
 10
60.12933759
 20
115.8870518155
 30
0.0
 10
59.8280864329
 20
116.7776573752
 30
0.0
 10
59.3639434862
 20
117.6356035421
 30
0.0
 10
58.7741603022
 20
118.3905311451
 30
0.0
 10
58.1069396209
 20
118.981471376
 30
0.0
 10
57.5029987871
 20
119.3116277669
 30
0.0
 10
57.0305951439
 20
119.4373826247
 30
0.0
 10
56.7054499562
 20
119.4612224059
 30
0.0
 10
56.4026771485
 20
119.4169211989
 30
0.0
 10
56.2192739746
 20
119.3406506802
 30
0.0
 10
56.1360584373
 20
119.2926259227
 30
0.0
  0
SPLINE
  5
4D3
100
AcDbEntity
  8
0
100
AcDbSpline
 62
7
  6
CONTINUOUS
 70
0
 71
3
 72
11
 73
7
 74
0
 42
0.0000001
 43
0.0000001
 44
0.0000000001
 40
0.0
 40
0.0
 40
0.0
 40
0.0
 40
0.2897776971
 40
0.5490719787
 40
0.7822272299
 40
1.0
 40
1.0
 40
1.0
 40
1.0
 10
83.2439570946
 20
132.9650600721
 30
0.0
 10
83.3756269933
 20
133.0410792697
 30
0.0
 10
83.6144779771
 20
133.2055237418
 30
0.0
 10
83.8998435394
 20
133.5055530966
 30
0.0
 10
84.0804091471
 20
133.837341077
 30
0.0
 10
84.1226058683
 20
134.0755224355
 30
0.0
 10
84.1226058668
 20
134.1897823356
 30
0.0
  0
SPLINE
  5
4D4
100
AcDbEntity
  8
0
100
AcDbSpline
 62
7
  6
CONTINUOUS
 70
0
 71
3
 72
9
 73
5
 74
0
 42
0.0000001
 43
0.0000001
 44
0.0000000001
 40
0.0
 40
0.0
 40
0.0
 40
0.0
 40
0.2642865852
 40
1.0
 40
1.0
 40
1.0
 40
1.0
 10
42.4722950831
 20
76.5087156313
 30
0.0
 10
42.4830759966
 20
76.4041165184
 30
0.0
 10
42.5362121389
 20
76.0099014851
 30
0.0
 10
42.6414062382
 20
75.6212321916
 30
0.0
 10
42.7550359164
 20
75.3514641607
 30
0.0
  0
SPLINE
  5
4D5
100
AcDbEntity
  8
0
100
AcDbSpline
 62
7
  6
CONTINUOUS
 70
0
 71
3
 72
11
 73
7
 74
0
 42
0.0000001
 43
0.0000001
 44
0.0000000001
 40
0.0
 40
0.0
 40
0.0
 40
0.0
 40
0.2896784336
 40
0.5491208899
 40
0.7822333041
 40
1.0
 40
1.0
 40
1.0
 40
1.0
 10
42.1611693947
 20
76.9124161825
 30
0.0
 10
42.1611693947
 20
76.8718850681
 30
0.0
 10
42.1673205342
 20
76.7947923614
 30
0.0
 10
42.198542507
 20
76.6888775293
 30
0.0
 10
42.2510955476
 20
76.602920299
 30
0.0
 10
42.3004737794
 20
76.5614250777
 30
0.0
 10
42.3268597322
 20
76.546188097
 30
0.0
  0
SPLINE
  5
4D6
100
AcDbEntity
  8
0
100
AcDbSpline
 62
7
  6
CONTINUOUS
 70
0
 71
3
 72
10
 73
6
 74
0
 42
0.0000001
 43
0.0000001
 44
0.0000000001
 40
0.0
 40
0.0
 40
0.0
 40
0.0
 40
0.5202790309
 40
0.771268491
 40
1.0
 40
1.0
 40
1.0
 40
1.0
 10
42.4722950831
 20
77.6753715892
 30
0.0
 10
42.3774160735
 20
77.5653868195
 30
0.0
 10
42.2629051463
 20
77.3771404504
 30
0.0
 10
42.1778867042
 20
77.1104244928
 30
0.0
 10
42.1611693947
 20
76.976274471
 30
0.0
 10
42.1611693947
 20
76.9124161825
 30
0.0
  0
SPLINE
  5
4D7
100
AcDbEntity
  8
0
100
AcDbSpline
 62
7
  6
CONTINUOUS
 70
0
 71
3
 72
11
 73
7
 74
0
 42
0.0000001
 43
0.0000001
 44
0.0000000001
 40
0.0
 40
0.0
 40
0.0
 40
0.0
 40
0.2561996309
 40
0.5143204117
 40
0.7650712106
 40
1.0
 40
1.0
 40
1.0
 40
1.0
 10
44.7922414829
 20
83.0125509426
 30
0.0
 10
44.4773857824
 20
82.6312106187
 30
0.0
 10
43.8996358443
 20
81.8193518975
 30
0.0
 10
43.2094864203
 20
80.5089425659
 30
0.0
 10
42.7174173401
 20
79.1554653974
 30
0.0
 10
42.5310869739
 20
78.2315731666
 30
0.0
 10
42.482788804
 20
77.7806856622
 30
0.0
  0
SPLINE
  5
4D8
100
AcDbEntity
  8
0
100
AcDbSpline
 62
7
  6
CONTINUOUS
 70
0
 71
3
 72
11
 73
7
 74
0
 42
0.0000001
 43
0.0000001
 44
0.0000000001
 40
0.0
 40
0.0
 40
0.0
 40
0.0
 40
0.2281287802
 40
0.4780938035
 40
0.7394666838
 40
1.0
 40
1.0
 40
1.0
 40
1.0
 10
54.4648308335
 20
118.7171521713
 30
0.0
 10
54.4648308332
 20
118.3111505555
 30
0.0
 10
54.567710921
 20
117.4593231914
 30
0.0
 10
54.9589205236
 20
116.1970299019
 30
0.0
 10
55.5685406647
 20
114.960148878
 30
0.0
 10
56.1030514741
 20
114.1950778541
 30
0.0
 10
56.3987664757
 20
113.8379442081
 30
0.0
  0
SPLINE
  5
4D9
100
AcDbEntity
  8
0
100
AcDbSpline
 62
7
  6
CONTINUOUS
 70
0
 71
3
 72
9
 73
5
 74
0
 42
0.0000001
 43
0.0000001
 44
0.0000000001
 40
0.0
 40
0.0
 40
0.0
 40
0.0
 40
0.5220273383
 40
1.0
 40
1.0
 40
1.0
 40
1.0
 10
56.3987664757
 20
113.8379442081
 30
0.0
 10
56.6616137139
 20
113.5205048086
 30
0.0
 10
57.2103673942
 20
112.9481028215
 30
0.0
 10
57.8502913971
 20
112.4760361387
 30
0.0
 10
58.1770927986
 20
112.28736153
 30
0.0
  0
SPLINE
  5
4DA
100
AcDbEntity
  8
0
100
AcDbSpline
 62
7
  6
CONTINUOUS
 70
0
 71
3
 72
17
 73
13
 74
0
 42
0.0000001
 43
0.0000001
 44
0.0000000001
 40
0.0
 40
0.0
 40
0.0
 40
0.0
 40
0.1447771882
 40
0.2743250026
 40
0.3908140607
 40
0.4459174568
 40
0.4999980194
 40
0.554078673
 40
0.6091823343
 40
0.7256723493
 40
0.8552214523
 40
1.0
 40
1.0
 40
1.0
 40
1.0
 10
58.1770927986
 20
112.28736153
 30
0.0
 10
58.4075146489
 20
112.1543304222
 30
0.0
 10
58.8658497949
 20
111.9363223717
 30
0.0
 10
59.5697927565
 20
111.7660392673
 30
0.0
 10
60.1318582449
 20
111.781092983
 30
0.0
 10
60.5332616509
 20
111.8921271949
 30
0.0
 10
60.8063075065
 20
112.0200175448
 30
0.0
 10
61.0535828234
 20
112.1925434469
 30
0.0
 10
61.3504377345
 20
112.4846606245
 30
0.0
 10
61.6444997533
 20
112.9639066014
 30
0.0
 10
61.8489929353
 20
113.6586899102
 30
0.0
 10
61.8893547635
 20
114.1646290259
 30
0.0
 10
61.8893547637
 20
114.4306982541
 30
0.0
  0
SPLINE
  5
4DB
100
AcDbEntity
  8
0
100
AcDbSpline
 62
7
  6
CONTINUOUS
 70
0
 71
3
 72
15
 73
11
 74
0
 42
0.0000001
 43
0.0000001
 44
0.0000000001
 40
0.0
 40
0.0
 40
0.0
 40
0.0
 40
0.1141474765
 40
0.2373368178
 40
0.3669776594
 40
0.5000010819
 40
0.633024354
 40
0.7626647561
 40
0.8858534048
 40
1.0
 40
1.0
 40
1.0
 40
1.0
 10
61.8893547637
 20
114.4306982541
 30
0.0
 10
61.8893547639
 20
114.724126279
 30
0.0
 10
61.8355705349
 20
115.3347903569
 30
0.0
 10
61.6213538041
 20
116.2560299967
 30
0.0
 10
61.2780285322
 20
117.1891513303
 30
0.0
 10
60.8186832151
 20
118.0990910855
 30
0.0
 10
60.2603215009
 20
118.951862089
 30
0.0
 10
59.6238754389
 20
119.7157453062
 30
0.0
 10
58.9331665246
 20
120.3618743619
 30
0.0
 10
58.4312083976
 20
120.713778505
 30
0.0
 10
58.1770927986
 20
120.8604888955
 30
0.0
  0
SPLINE
  5
4DC
100
AcDbEntity
  8
0
100
AcDbSpline
 62
7
  6
CONTINUOUS
 70
0
 71
3
 72
17
 73
13
 74
0
 42
0.0000001
 43
0.0000001
 44
0.0000000001
 40
0.0
 40
0.0
 40
0.0
 40
0.0
 40
0.1447771882
 40
0.2743250026
 40
0.3908140607
 40
0.4459174568
 40
0.4999980194
 40
0.554078673
 40
0.6091823343
 40
0.7256723493
 40
0.8552214523
 40
1.0
 40
1.0
 40
1.0
 40
1.0
 10
58.1770927986
 20
120.8604888955
 30
0.0
 10
57.9466709483
 20
120.9935200032
 30
0.0
 10
57.4883358022
 20
121.2115280537
 30
0.0
 10
56.7843928406
 20
121.3818111581
 30
0.0
 10
56.2223273523
 20
121.3667574424
 30
0.0
 10
55.8209239463
 20
121.2557232305
 30
0.0
 10
55.5478780907
 20
121.1278328806
 30
0.0
 10
55.3006027737
 20
120.9553069785
 30
0.0
 10
55.0037478626
 20
120.663189801
 30
0.0
 10
54.7096858439
 20
120.183943824
 30
0.0
 10
54.5051926618
 20
119.4891605152
 30
0.0
 10
54.4648308336
 20
118.9832213995
 30
0.0
 10
54.4648308335
 20
118.7171521713
 30
0.0
  0
SPLINE
  5
4DD
100
AcDbEntity
  8
0
100
AcDbSpline
 62
7
  6
CONTINUOUS
 70
0
 71
3
 72
17
 73
13
 74
0
 42
0.0000001
 43
0.0000001
 44
0.0000000001
 40
0.0
 40
0.0
 40
0.0
 40
0.0
 40
0.128693823
 40
0.2702783937
 40
0.4174341197
 40
0.5617778654
 40
0.6954482313
 40
0.8127107819
 40
0.8646769687
 40
0.9125095959
 40
0.9571396392
 40
1.0
 40
1.0
 40
1.0
 40
1.0
 10
55.4370455576
 20
117.7476156823
 30
0.0
 10
55.4370455576
 20
117.4591255052
 30
0.0
 10
55.51774417
 20
116.8525544561
 30
0.0
 10
55.8189953271
 20
115.9619488963
 30
0.0
 10
56.2831382737
 20
115.1040027295
 30
0.0
 10
56.8729214577
 20
114.3490751264
 30
0.0
 10
57.5401421391
 20
113.7581348956
 30
0.0
 10
58.1440829729
 20
113.4279785047
 30
0.0
 10
58.616486616
 20
113.3022236468
 30
0.0
 10
58.9416318037
 20
113.2783838656
 30
0.0
 10
59.2444046115
 20
113.3226850726
 30
0.0
 10
59.4278077853
 20
113.3989555914
 30
0.0
 10
59.5110233226
 20
113.4469803489
 30
0.0
  0
SPLINE
  5
4DE
100
AcDbEntity
  8
0
100
AcDbSpline
 62
7
  6
CONTINUOUS
 70
0
 71
3
 72
11
 73
7
 74
0
 42
0.0000001
 43
0.0000001
 44
0.0000000001
 40
0.0
 40
0.0
 40
0.0
 40
0.0
 40
0.2177805602
 40
0.4509248779
 40
0.7102605592
 40
1.0
 40
1.0
 40
1.0
 40
1.0
 10
56.1360584373
 20
119.2926259227
 30
0.0
 10
56.0247184667
 20
119.2283701927
 30
0.0
 10
55.8164334484
 20
119.0532239718
 30
0.0
 10
55.5946856406
 20
118.690678757
 30
0.0
 10
55.4629345475
 20
118.2438550788
 30
0.0
 10
55.4370455576
 20
117.9186425485
 30
0.0
 10
55.4370455576
 20
117.7476156823
 30
0.0
  0
SPLINE
  5
4DF
100
AcDbEntity
  8
0
100
AcDbSpline
 62
7
  6
CONTINUOUS
 70
0
 71
3
 72
15
 73
11
 74
0
 42
0.0000001
 43
0.0000001
 44
0.0000000001
 40
0.0
 40
0.0
 40
0.0
 40
0.0
 40
0.1141465952
 40
0.2373352439
 40
0.366975646
 40
0.4999989181
 40
0.6330223406
 40
0.7626631822
 40
0.8858525235
 40
1.0
 40
1.0
 40
1.0
 40
1.0
 10
57.82354088
 20
119.8399194042
 30
0.0
 10
58.0292559327
 20
119.72115245
 30
0.0
 10
58.4356077781
 20
119.4362743093
 30
0.0
 10
58.994759681
 20
118.9132112887
 30
0.0
 10
59.5099839952
 20
118.294822347
 30
0.0
 10
59.9619964255
 20
117.6044757778
 30
0.0
 10
60.33385178
 20
116.8678491972
 30
0.0
 10
60.6117850384
 20
116.1124563558
 30
0.0
 10
60.7852006266
 20
115.3666821419
 30
0.0
 10
60.8287407538
 20
114.8723292037
 30
0.0
 10
60.8287407536
 20
114.634789431
 30
0.0
  0
SPLINE
  5
4E0
100
AcDbEntity
  8
0
100
AcDbSpline
 62
7
  6
CONTINUOUS
 70
0
 71
3
 72
15
 73
11
 74
0
 42
0.0000001
 43
0.0000001
 44
0.0000000001
 40
0.0
 40
0.0
 40
0.0
 40
0.0
 40
0.1474561271
 40
0.2805074424
 40
0.4007281392
 40
0.5123987031
 40
0.6219064243
 40
0.736309081
 40
0.8612387697
 40
1.0
 40
1.0
 40
1.0
 40
1.0
 10
54.8183410063
 20
118.1048168405
 30
0.0
 10
54.8183410065
 20
118.3058826969
 30
0.0
 10
54.8469231184
 20
118.6894838127
 30
0.0
 10
54.9906999804
 20
119.2207340356
 30
0.0
 10
55.2323654885
 20
119.6622646293
 30
0.0
 10
55.5679587118
 20
119.995538047
 30
0.0
 10
55.9854216065
 20
120.2017063631
 30
0.0
 10
56.4628613249
 20
120.2714558361
 30
0.0
 10
56.9793610733
 20
120.2077906436
 30
0.0
 10
57.3208353176
 20
120.0870598323
 30
0.0
 10
57.493401944
 20
120.0094640128
 30
0.0
  0
SPLINE
  5
4E1
100
AcDbEntity
  8
0
100
AcDbSpline
 62
7
  6
CONTINUOUS
 70
0
 71
3
 72
9
 73
5
 74
0
 42
0.0000001
 43
0.0000001
 44
0.0000000001
 40
0.0
 40
0.0
 40
0.0
 40
0.0
 40
0.244818263
 40
1.0
 40
1.0
 40
1.0
 40
1.0
 10
57.493401944
 20
120.0094640128
 30
0.0
 10
57.5210310094
 20
119.9970404057
 30
0.0
 10
57.6332016111
 20
119.9447792968
 30
0.0
 10
57.7426138156
 20
119.8866416096
 30
0.0
 10
57.82354088
 20
119.8399194042
 30
0.0
  0
SPLINE
  5
4E2
100
AcDbEntity
  8
0
100
AcDbSpline
 62
7
  6
CONTINUOUS
 70
0
 71
3
 72
9
 73
5
 74
0
 42
0.0000001
 43
0.0000001
 44
0.0000000001
 40
0.0
 40
0.0
 40
0.0
 40
0.0
 40
0.4795701682
 40
1.0
 40
1.0
 40
1.0
 40
1.0
 10
57.82354088
 20
112.8996868673
 30
0.0
 10
57.5927111033
 20
113.0329534862
 30
0.0
 10
57.1383598428
 20
113.3585310815
 30
0.0
 10
56.7401796665
 20
113.7491522574
 30
0.0
 10
56.547437787
 20
113.9648241325
 30
0.0
  0
SPLINE
  5
4E3
100
AcDbEntity
  8
0
100
AcDbSpline
 62
7
  6
CONTINUOUS
 70
0
 71
3
 72
11
 73
7
 74
0
 42
0.0000001
 43
0.0000001
 44
0.0000000001
 40
0.0
 40
0.0
 40
0.0
 40
0.0
 40
0.2585816729
 40
0.5202972419
 40
0.7713938219
 40
1.0
 40
1.0
 40
1.0
 40
1.0
 10
56.547437787
 20
113.9648241325
 30
0.0
 10
56.2848394781
 20
114.258663073
 30
0.0
 10
55.808587016
 20
114.8981039017
 30
0.0
 10
55.2637891911
 20
115.9454173392
 30
0.0
 10
54.9118634893
 20
117.0245210112
 30
0.0
 10
54.8183410061
 20
117.7564195057
 30
0.0
 10
54.8183410063
 20
118.1048168405
 30
0.0
  0
SPLINE
  5
4E4
100
AcDbEntity
  8
0
100
AcDbSpline
 62
7
  6
CONTINUOUS
 70
0
 71
3
 72
9
 73
5
 74
0
 42
0.0000001
 43
0.0000001
 44
0.0000000001
 40
0.0
 40
0.0
 40
0.0
 40
0.0
 40
0.2552016628
 40
1.0
 40
1.0
 40
1.0
 40
1.0
 10
60.8287407536
 20
114.634789431
 30
0.0
 10
60.8287407536
 20
114.6032057398
 30
0.0
 10
60.8272646574
 20
114.4794528634
 30
0.0
 10
60.81979631
 20
114.3557521872
 30
0.0
 10
60.8104990678
 20
114.2640462164
 30
0.0
  0
SPLINE
  5
4E5
100
AcDbEntity
  8
0
100
AcDbSpline
 62
7
  6
CONTINUOUS
 70
0
 71
3
 72
15
 73
11
 74
0
 42
0.0000001
 43
0.0000001
 44
0.0000000001
 40
0.0
 40
0.0
 40
0.0
 40
0.0
 40
0.1387616578
 40
0.2636918858
 40
0.37809509
 40
0.487603182
 40
0.5992737759
 40
0.7194941081
 40
0.8525447398
 40
1.0
 40
1.0
 40
1.0
 40
1.0
 10
60.8104990678
 20
114.2640462164
 30
0.0
 10
60.7914148454
 20
114.0758036074
 30
0.0
 10
60.725232652
 20
113.719717316
 30
0.0
 10
60.5221198258
 20
113.2405887024
 30
0.0
 10
60.2229995267
 20
112.8619921023
 30
0.0
 10
59.8357279954
 20
112.6035431678
 30
0.0
 10
59.3793164812
 20
112.4795444511
 30
0.0
 10
58.8761158994
 20
112.4910150726
 30
0.0
 10
58.3441602661
 20
112.63211701
 30
0.0
 10
57.997666342
 20
112.7991577592
 30
0.0
 10
57.82354088
 20
112.8996868673
 30
0.0
  0
SPLINE
  5
4E6
100
AcDbEntity
  8
0
100
AcDbSpline
 62
7
  6
CONTINUOUS
 70
0
 71
3
 72
11
 73
7
 74
0
 42
0.0000001
 43
0.0000001
 44
0.0000000001
 40
0.0
 40
0.0
 40
0.0
 40
0.0
 40
0.2177442246
 40
0.4508817658
 40
0.7104588047
 40
1.0
 40
1.0
 40
1.0
 40
1.0
 10
70.6465101323
 20
107.7979298077
 30
0.0
 10
70.6201259786
 20
107.8131623754
 30
0.0
 10
70.5707112233
 20
107.8546095771
 30
0.0
 10
70.5181460154
 20
107.9405945111
 30
0.0
 10
70.4869834795
 20
108.046523405
 30
0.0
 10
70.4807978946
 20
108.1236088733
 30
0.0
 10
70.4807978946
 20
108.1641199605
 30
0.0
  0
SPLINE
  5
4E7
100
AcDbEntity
  8
0
100
AcDbSpline
 62
7
  6
CONTINUOUS
 70
0
 71
3
 72
11
 73
7
 74
0
 42
0.0000001
 43
0.0000001
 44
0.0000000001
 40
0.0
 40
0.0
 40
0.0
 40
0.0
 40
0.2895411595
 40
0.5491183966
 40
0.7822559144
 40
1.0
 40
1.0
 40
1.0
 40
1.0
 10
63.0561457805
 20
112.450647883
 30
0.0
 10
63.0561457805
 20
112.4101368015
 30
0.0
 10
63.0623314137
 20
112.3330513196
 30
0.0
 10
63.0934939002
 20
112.227122389
 30
0.0
 10
63.1460591519
 20
112.1411374795
 30
0.0
 10
63.1954738732
 20
112.0996902741
 30
0.0
 10
63.2218580177
 20
112.0844577304
 30
0.0
  0
SPLINE
  5
4E8
100
AcDbEntity
  8
0
100
AcDbSpline
 62
7
  6
CONTINUOUS
 70
0
 71
3
 72
11
 73
7
 74
0
 42
0.0000001
 43
0.0000001
 44
0.0000000001
 40
0.0
 40
0.0
 40
0.0
 40
0.0
 40
0.2372518718
 40
0.4999985497
 40
0.7627460178
 40
1.0
 40
1.0
 40
1.0
 40
1.0
 10
63.6218288503
 20
113.4304451398
 30
0.0
 10
63.5415136771
 20
113.3840754297
 30
0.0
 10
63.3895244502
 20
113.2561739019
 30
0.0
 10
63.2122002545
 20
113.0137483675
 30
0.0
 10
63.09091685
 20
112.7389669196
 30
0.0
 10
63.0561457805
 20
112.5433885433
 30
0.0
 10
63.0561457805
 20
112.450647883
 30
0.0
  0
SPLINE
  5
4E9
100
AcDbEntity
  8
0
100
AcDbSpline
 62
7
  6
CONTINUOUS
 70
0
 71
3
 72
9
 73
5
 74
0
 42
0.0000001
 43
0.0000001
 44
0.0000000001
 40
0.0
 40
0.0
 40
0.0
 40
0.0
 40
0.4749297831
 40
1.0
 40
1.0
 40
1.0
 40
1.0
 10
70.4807978946
 20
108.1641199605
 30
0.0
 10
70.4807978946
 20
108.2700884972
 30
0.0
 10
70.5256965173
 20
108.493155848
 30
0.0
 10
70.6259285977
 20
108.6951111646
 30
0.0
 10
70.6905239192
 20
108.7928505983
 30
0.0
  0
SPLINE
  5
4EA
100
AcDbEntity
  8
0
100
AcDbSpline
 62
7
  6
CONTINUOUS
 70
0
 71
3
 72
9
 73
5
 74
0
 42
0.0000001
 43
0.0000001
 44
0.0000000001
 40
0.0
 40
0.0
 40
0.0
 40
0.0
 40
0.2424016808
 40
1.0
 40
1.0
 40
1.0
 40
1.0
 10
42.2075882073
 20
74.4884496814
 30
0.0
 10
42.1811069756
 20
74.5417475819
 30
0.0
 10
42.0775505831
 20
74.7644312968
 30
0.0
 10
41.9964440011
 20
74.997321024
 30
0.0
 10
41.9463678794
 20
75.1764577375
 30
0.0
  0
SPLINE
  5
4EB
100
AcDbEntity
  8
0
100
AcDbSpline
 62
7
  6
CONTINUOUS
 70
0
 71
3
 72
9
 73
5
 74
0
 42
0.0000001
 43
0.0000001
 44
0.0000000001
 40
0.0
 40
0.0
 40
0.0
 40
0.0
 40
0.2362530433
 40
1.0
 40
1.0
 40
1.0
 40
1.0
 10
41.9463678794
 20
75.1764577375
 30
0.0
 10
41.9142103406
 20
75.2914945181
 30
0.0
 10
41.7977760978
 20
75.7838930072
 30
0.0
 10
41.755998896
 20
76.2923502663
 30
0.0
 10
41.755998896
 20
76.6784922824
 30
0.0
  0
SPLINE
  5
4EC
100
AcDbEntity
  8
0
100
AcDbSpline
 62
7
  6
CONTINUOUS
 70
0
 71
3
 72
11
 73
7
 74
0
 42
0.0000001
 43
0.0000001
 44
0.0000000001
 40
0.0
 40
0.0
 40
0.0
 40
0.0
 40
0.2277892717
 40
0.4765581969
 40
0.7374522538
 40
1.0
 40
1.0
 40
1.0
 40
1.0
 10
41.755998896
 20
76.6784922824
 30
0.0
 10
41.755998896
 20
77.2074650842
 30
0.0
 10
41.880413789
 20
78.3153534269
 30
0.0
 10
42.3594442856
 20
79.9662131377
 30
0.0
 10
43.1116283826
 20
81.6007620835
 30
0.0
 10
43.7734415204
 20
82.6262266448
 30
0.0
 10
44.1410601389
 20
83.1126187166
 30
0.0
  0
SPLINE
  5
4ED
100
AcDbEntity
  8
0
100
AcDbSpline
 62
7
  6
CONTINUOUS
 70
0
 71
3
 72
10
 73
6
 74
0
 42
0.0000001
 43
0.0000001
 44
0.0000000001
 40
0.0
 40
0.0
 40
0.0
 40
0.0
 40
0.2281450702
 40
0.4752816799
 40
1.0
 40
1.0
 40
1.0
 40
1.0
 10
97.2941344806
 20
136.2595789343
 30
0.0
 10
97.2941344806
 20
136.1408251524
 30
0.0
 10
97.3173373306
 20
135.8931377882
 30
0.0
 10
97.4416541976
 20
135.3865578812
 30
0.0
 10
97.6136993067
 20
135.0174218984
 30
0.0
 10
97.7566349203
 20
134.7846837077
 30
0.0
  0
SPLINE
  5
4EE
100
AcDbEntity
  8
0
100
AcDbSpline
 62
7
  6
CONTINUOUS
 70
0
 71
3
 72
13
 73
9
 74
0
 42
0.0000001
 43
0.0000001
 44
0.0000000001
 40
0.0
 40
0.0
 40
0.0
 40
0.0
 40
0.1142487484
 40
0.2375477548
 40
0.5000005226
 40
0.7624530043
 40
0.8857516767
 40
1.0
 40
1.0
 40
1.0
 40
1.0
 10
79.7083908051
 20
137.4557185698
 30
0.0
 10
79.5631792354
 20
137.5395546121
 30
0.0
 10
79.2455928591
 20
137.6874477241
 30
0.0
 10
78.5417614382
 20
137.9012063644
 30
0.0
 10
77.5870671383
 20
138.0050428916
 30
0.0
 10
76.6323737565
 20
137.9012019503
 30
0.0
 10
75.9285449732
 20
137.6874398477
 30
0.0
 10
75.6109605429
 20
137.5395451493
 30
0.0
 10
75.465750118
 20
137.4557083718
 30
0.0
  0
SPLINE
  5
4EF
100
AcDbEntity
  8
0
100
AcDbSpline
 62
7
  6
CONTINUOUS
 70
0
 71
3
 72
9
 73
5
 74
0
 42
0.0000001
 43
0.0000001
 44
0.0000000001
 40
0.0
 40
0.0
 40
0.0
 40
0.0
 40
0.4807985494
 40
1.0
 40
1.0
 40
1.0
 40
1.0
 10
56.8527915279
 20
67.9625521734
 30
0.0
 10
56.8527915279
 20
68.3814905344
 30
0.0
 10
56.9307676956
 20
69.2535338832
 30
0.0
 10
57.1315778577
 20
70.1042230933
 30
0.0
 10
57.262193703
 20
70.5373576294
 30
0.0
  0
SPLINE
  5
4F0
100
AcDbEntity
  8
0
100
AcDbSpline
 62
7
  6
CONTINUOUS
 70
0
 71
3
 72
9
 73
5
 74
0
 42
0.0000001
 43
0.0000001
 44
0.0000000001
 40
0.0
 40
0.0
 40
0.0
 40
0.0
 40
0.2462888798
 40
1.0
 40
1.0
 40
1.0
 40
1.0
 10
57.262193703
 20
70.5373576294
 30
0.0
 10
57.2960690349
 20
70.6496914441
 30
0.0
 10
57.4409282055
 20
71.1035678767
 30
0.0
 10
57.6140779066
 20
71.5483429765
 30
0.0
 10
57.7587705033
 20
71.8769617703
 30
0.0
  0
SPLINE
  5
4F1
100
AcDbEntity
  8
0
100
AcDbSpline
 62
7
  6
CONTINUOUS
 70
0
 71
3
 72
9
 73
5
 74
0
 42
0.0000001
 43
0.0000001
 44
0.0000000001
 40
0.0
 40
0.0
 40
0.0
 40
0.0
 40
0.5004157498
 40
1.0
 40
1.0
 40
1.0
 40
1.0
 10
57.7587705033
 20
71.8769617703
 30
0.0
 10
57.9554925361
 20
72.323747291
 30
0.0
 10
58.4017046774
 20
73.1939937408
 30
0.0
 10
58.9439901956
 20
74.0078723296
 30
0.0
 10
59.2378527708
 20
74.3966786076
 30
0.0
  0
SPLINE
  5
4F2
100
AcDbEntity
  8
0
100
AcDbSpline
 62
7
  6
CONTINUOUS
 70
0
 71
3
 72
9
 73
5
 74
0
 42
0.0000001
 43
0.0000001
 44
0.0000000001
 40
0.0
 40
0.0
 40
0.0
 40
0.0
 40
0.4773773815
 40
1.0
 40
1.0
 40
1.0
 40
1.0
 10
59.2378527708
 20
93.0181298011
 30
0.0
 10
59.2378527708
 20
93.1693247369
 30
0.0
 10
59.2752979843
 20
93.4863386999
 30
0.0
 10
59.3678054807
 20
93.7908045988
 30
0.0
 10
59.4277432808
 20
93.9450964886
 30
0.0
  0
SPLINE
  5
4F3
100
AcDbEntity
  8
0
100
AcDbSpline
 62
7
  6
CONTINUOUS
 70
0
 71
3
 72
9
 73
5
 74
0
 42
0.0000001
 43
0.0000001
 44
0.0000000001
 40
0.0
 40
0.0
 40
0.0
 40
0.0
 40
0.2518834874
 40
1.0
 40
1.0
 40
1.0
 40
1.0
 10
59.6520696035
 20
94.4119796094
 30
0.0
 10
59.673826317
 20
94.4496635448
 30
0.0
 10
59.7630330259
 20
94.5976154001
 30
0.0
 10
59.8633071709
 20
94.7389305184
 30
0.0
 10
59.9442364401
 20
94.8396938483
 30
0.0
  0
SPLINE
  5
4F4
100
AcDbEntity
  8
0
100
AcDbSpline
 62
7
  6
CONTINUOUS
 70
0
 71
3
 72
9
 73
5
 74
0
 42
0.0000001
 43
0.0000001
 44
0.0000000001
 40
0.0
 40
0.0
 40
0.0
 40
0.0
 40
0.5226236696
 40
1.0
 40
1.0
 40
1.0
 40
1.0
 10
59.9442364401
 20
94.8396938483
 30
0.0
 10
60.0478870197
 20
94.9687470036
 30
0.0
 10
60.2653057416
 20
95.2010925907
 30
0.0
 10
60.5211230245
 20
95.3920266393
 30
0.0
 10
60.6520604452
 20
95.4676229431
 30
0.0
  0
SPLINE
  5
4F5
100
AcDbEntity
  8
0
100
AcDbSpline
 62
7
  6
CONTINUOUS
 70
0
 71
3
 72
11
 73
7
 74
0
 42
0.0000001
 43
0.0000001
 44
0.0000000001
 40
0.0
 40
0.0
 40
0.0
 40
0.0
 40
0.2177723091
 40
0.4509273687
 40
0.7102218233
 40
1.0
 40
1.0
 40
1.0
 40
1.0
 10
84.1226058668
 20
134.1897823356
 30
0.0
 10
84.1226058654
 20
134.3040434658
 30
0.0
 10
84.0804081805
 20
134.5422275725
 30
0.0
 10
83.8998386666
 20
134.8740187654
 30
0.0
 10
83.6144673085
 20
135.1740503441
 30
0.0
 10
83.3756117918
 20
135.338495444
 30
0.0
 10
83.2439394308
 20
135.4145147972
 30
0.0
  0
SPLINE
  5
4F6
100
AcDbEntity
  8
0
100
AcDbSpline
 62
7
  6
CONTINUOUS
 70
0
 71
3
 72
9
 73
5
 74
0
 42
0.0000001
 43
0.0000001
 44
0.0000000001
 40
0.0
 40
0.0
 40
0.0
 40
0.0
 40
0.2439673731
 40
1.0
 40
1.0
 40
1.0
 40
1.0
 10
57.5839852343
 20
65.3102459135
 30
0.0
 10
57.5533504879
 20
65.3521219923
 30
0.0
 10
57.4323525158
 20
65.5270900979
 30
0.0
 10
57.3297084985
 20
65.7145542449
 30
0.0
 10
57.262193703
 20
65.8604808075
 30
0.0
  0
SPLINE
  5
4F7
100
AcDbEntity
  8
0
100
AcDbSpline
 62
7
  6
CONTINUOUS
 70
0
 71
3
 72
13
 73
9
 74
0
 42
0.0000001
 43
0.0000001
 44
0.0000000001
 40
0.0
 40
0.0
 40
0.0
 40
0.0
 40
0.1142247162
 40
0.2375579183
 40
0.4999983243
 40
0.7624396433
 40
0.8857739388
 40
1.0
 40
1.0
 40
1.0
 40
1.0
 10
60.6520604452
 20
95.4676229431
 30
0.0
 10
60.5552735626
 20
95.4117433439
 30
0.0
 10
60.3640335506
 20
95.2776552486
 30
0.0
 10
60.005974848
 20
94.9425930352
 30
0.0
 10
59.6278043928
 20
94.4259882147
 30
0.0
 10
59.3694993169
 20
93.8401783833
 30
0.0
 10
59.2583567585
 20
93.3625559012
 30
0.0
 10
59.2378527708
 20
93.1298908159
 30
0.0
 10
59.2378527708
 20
93.0181298011
 30
0.0
  0
SPLINE
  5
4F8
100
AcDbEntity
  8
0
100
AcDbSpline
 62
7
  6
CONTINUOUS
 70
0
 71
3
 72
11
 73
7
 74
0
 42
0.0000001
 43
0.0000001
 44
0.0000000001
 40
0.0
 40
0.0
 40
0.0
 40
0.0
 40
0.2625477462
 40
0.5234418031
 40
0.7722107283
 40
1.0
 40
1.0
 40
1.0
 40
1.0
 10
59.2378527708
 20
74.3966786076
 30
0.0
 10
58.8702341523
 20
73.9102865358
 30
0.0
 10
58.2084210145
 20
72.8848219744
 30
0.0
 10
57.4562369175
 20
71.2502730287
 30
0.0
 10
56.9772064209
 20
69.5994133179
 30
0.0
 10
56.8527915279
 20
68.4915249752
 30
0.0
 10
56.8527915279
 20
67.9625521734
 30
0.0
  0
SPLINE
  5
4F9
100
AcDbEntity
  8
0
100
AcDbSpline
 62
7
  6
CONTINUOUS
 70
0
 71
3
 72
11
 73
7
 74
0
 42
0.0000001
 43
0.0000001
 44
0.0000000001
 40
0.0
 40
0.0
 40
0.0
 40
0.0
 40
0.2786495629
 40
0.5375345855
 40
0.7770980435
 40
1.0
 40
1.0
 40
1.0
 40
1.0
 10
56.8527915279
 20
67.9625521734
 30
0.0
 10
56.8527915279
 20
67.7030622261
 30
0.0
 10
56.8807643498
 20
67.2018020266
 30
0.0
 10
57.016724091
 20
66.4885311621
 30
0.0
 10
57.2438738026
 20
65.8532190847
 30
0.0
 10
57.4614262202
 20
65.4777776066
 30
0.0
 10
57.5839852343
 20
65.3102459135
 30
0.0
  0
SPLINE
  5
4FA
100
AcDbEntity
  8
0
100
AcDbSpline
 62
7
  6
CONTINUOUS
 70
0
 71
3
 72
17
 73
13
 74
0
 42
0.0000001
 43
0.0000001
 44
0.0000000001
 40
0.0
 40
0.0
 40
0.0
 40
0.0
 40
0.0428590154
 40
0.087484945
 40
0.1353191404
 40
0.1872810096
 40
0.3045411455
 40
0.4382064078
 40
0.5825480614
 40
0.7297123844
 40
0.8713056989
 40
1.0
 40
1.0
 40
1.0
 40
1.0
 10
118.965471843
 20
115.8012992912
 30
0.0
 10
118.903841713
 20
115.8368868643
 30
0.0
 10
118.7679671017
 20
115.8933055181
 30
0.0
 10
118.5437184424
 20
115.9262186647
 30
0.0
 10
118.3028825614
 20
115.9084719648
 30
0.0
 10
117.9529537452
 20
115.815398511
 30
0.0
 10
117.5056246274
 20
115.5707904367
 30
0.0
 10
117.0113975538
 20
115.1330936418
 30
0.0
 10
116.5745023976
 20
114.5739009318
 30
0.0
 10
116.230671401
 20
113.9383732714
 30
0.0
 10
116.0075147715
 20
113.2786405156
 30
0.0
 10
115.9477377232
 20
112.8293163648
 30
0.0
 10
115.9477377232
 20
112.6156205292
 30
0.0
  0
SPLINE
  5
4FB
100
AcDbEntity
  8
0
100
AcDbSpline
 62
7
  6
CONTINUOUS
 70
0
 71
3
 72
17
 73
13
 74
0
 42
0.0000001
 43
0.0000001
 44
0.0000000001
 40
0.0
 40
0.0
 40
0.0
 40
0.0
 40
0.0428590154
 40
0.087484945
 40
0.1353191404
 40
0.1872810096
 40
0.3045411455
 40
0.4382064078
 40
0.5825480614
 40
0.7297123844
 40
0.8713056989
 40
1.0
 40
1.0
 40
1.0
 40
1.0
 10
119.3190237616
 20
66.1972429032
 30
0.0
 10
119.2573936316
 20
66.2328304763
 30
0.0
 10
119.1215190203
 20
66.2892491301
 30
0.0
 10
118.897270361
 20
66.3221622767
 30
0.0
 10
118.65643448
 20
66.3044155768
 30
0.0
 10
118.3065056638
 20
66.211342123
 30
0.0
 10
117.859176546
 20
65.9667340487
 30
0.0
 10
117.3649494724
 20
65.5290372538
 30
0.0
 10
116.9280543162
 20
64.9698445438
 30
0.0
 10
116.5842233196
 20
64.3343168834
 30
0.0
 10
116.3610666901
 20
63.6745841276
 30
0.0
 10
116.3012896418
 20
63.2252599768
 30
0.0
 10
116.3012896418
 20
63.0115641412
 30
0.0
  0
SPLINE
  5
4FC
100
AcDbEntity
  8
0
100
AcDbSpline
 62
7
  6
CONTINUOUS
 70
0
 71
3
 72
17
 73
13
 74
0
 42
0.0000001
 43
0.0000001
 44
0.0000000001
 40
0.0
 40
0.0
 40
0.0
 40
0.0
 40
0.0428590154
 40
0.087484945
 40
0.1353191404
 40
0.1872810096
 40
0.3045411455
 40
0.4382064078
 40
0.5825480614
 40
0.7297123844
 40
0.8713056989
 40
1.0
 40
1.0
 40
1.0
 40
1.0
 10
83.9656392991
 20
54.3607341031
 30
0.0
 10
83.9040091692
 20
54.3963216762
 30
0.0
 10
83.7681345578
 20
54.45274033
 30
0.0
 10
83.5438858985
 20
54.4856534766
 30
0.0
 10
83.3030500175
 20
54.4679067767
 30
0.0
 10
82.9531212013
 20
54.3748333229
 30
0.0
 10
82.5057920835
 20
54.1302252486
 30
0.0
 10
82.01156501
 20
53.6925284537
 30
0.0
 10
81.5746698537
 20
53.1333357437
 30
0.0
 10
81.2308388571
 20
52.4978080833
 30
0.0
 10
81.0076822277
 20
51.8380753275
 30
0.0
 10
80.9479051793
 20
51.3887511767
 30
0.0
 10
80.9479051793
 20
51.1750553411
 30
0.0
  0
SPLINE
  5
4FD
100
AcDbEntity
  8
0
100
AcDbSpline
 62
7
  6
CONTINUOUS
 70
0
 71
3
 72
11
 73
7
 74
0
 42
0.0000001
 43
0.0000001
 44
0.0000000001
 40
0.0
 40
0.0
 40
0.0
 40
0.0
 40
0.2897400625
 40
0.5490239094
 40
0.7821404002
 40
1.0
 40
1.0
 40
1.0
 40
1.0
 10
115.1699235022
 20
55.9080043997
 30
0.0
 10
115.0119407095
 20
55.8167935362
 30
0.0
 10
114.6977633022
 20
55.6672424731
 30
0.0
 10
114.2148035224
 20
55.550744501
 30
0.0
 10
113.7616298762
 20
55.5620395294
 30
0.0
 10
113.4887695436
 20
55.661166216
 30
0.0
 10
113.3699825347
 20
55.7297531981
 30
0.0
  0
SPLINE
  5
4FE
100
AcDbEntity
  8
0
100
AcDbSpline
 62
7
  6
CONTINUOUS
 70
0
 71
3
 72
11
 73
7
 74
0
 42
0.0000001
 43
0.0000001
 44
0.0000000001
 40
0.0
 40
0.0
 40
0.0
 40
0.0
 40
0.289702809
 40
0.549088757
 40
0.7822160314
 40
1.0
 40
1.0
 40
1.0
 40
1.0
 10
79.5318901067
 20
47.8249860266
 30
0.0
 10
79.444133704
 20
47.7743201463
 30
0.0
 10
79.2695579452
 20
47.6912693881
 30
0.0
 10
79.0012312406
 20
47.6264709182
 30
0.0
 10
78.749462008
 20
47.6328435176
 30
0.0
 10
78.5978831748
 20
47.6878513154
 30
0.0
 10
78.5319120635
 20
47.7259389002
 30
0.0
  0
SPLINE
  5
4FF
100
AcDbEntity
  8
0
100
AcDbSpline
 62
7
  6
CONTINUOUS
 70
0
 71
3
 72
11
 73
7
 74
0
 42
0.0000001
 43
0.0000001
 44
0.0000000001
 40
0.0
 40
0.0
 40
0.0
 40
0.0
 40
0.2897026209
 40
0.5490908265
 40
0.782219764
 40
1.0
 40
1.0
 40
1.0
 40
1.0
 10
80.9479051793
 20
51.1750553411
 30
0.0
 10
80.9479051793
 20
51.0483848543
 30
0.0
 10
80.9671100468
 20
50.8074834524
 30
0.0
 10
81.0646668777
 20
50.4764954498
 30
0.0
 10
81.2289322429
 20
50.2079184231
 30
0.0
 10
81.3832279103
 20
50.0782142266
 30
0.0
 10
81.4656902456
 20
50.0305973484
 30
0.0
  0
SPLINE
  5
500
100
AcDbEntity
  8
0
100
AcDbSpline
 62
7
  6
CONTINUOUS
 70
0
 71
3
 72
11
 73
7
 74
0
 42
0.0000001
 43
0.0000001
 44
0.0000000001
 40
0.0
 40
0.0
 40
0.0
 40
0.0
 40
0.2897026209
 40
0.5490908265
 40
0.782219764
 40
1.0
 40
1.0
 40
1.0
 40
1.0
 10
116.3012896418
 20
63.0115641412
 30
0.0
 10
116.3012896418
 20
62.8848936545
 30
0.0
 10
116.3204945093
 20
62.6439922525
 30
0.0
 10
116.4180513401
 20
62.3130042499
 30
0.0
 10
116.5823167054
 20
62.0444272232
 30
0.0
 10
116.7366123727
 20
61.9147230267
 30
0.0
 10
116.8190747081
 20
61.8671061485
 30
0.0
  0
SPLINE
  5
501
100
AcDbEntity
  8
0
100
AcDbSpline
 62
7
  6
CONTINUOUS
 70
0
 71
3
 72
11
 73
7
 74
0
 42
0.0000001
 43
0.0000001
 44
0.0000000001
 40
0.0
 40
0.0
 40
0.0
 40
0.0
 40
0.2897026209
 40
0.5490908265
 40
0.782219764
 40
1.0
 40
1.0
 40
1.0
 40
1.0
 10
115.9477377232
 20
112.6156205292
 30
0.0
 10
115.9477377232
 20
112.4889500425
 30
0.0
 10
115.9669425907
 20
112.2480486405
 30
0.0
 10
116.0644994215
 20
111.9170606379
 30
0.0
 10
116.2287647868
 20
111.6484836112
 30
0.0
 10
116.3830604541
 20
111.5187794147
 30
0.0
 10
116.4655227895
 20
111.4711625365
 30
0.0
  0
SPLINE
  5
502
100
AcDbEntity
  8
0
100
AcDbSpline
 62
7
  6
CONTINUOUS
 70
0
 71
3
 72
11
 73
7
 74
0
 42
0.0000001
 43
0.0000001
 44
0.0000000001
 40
0.0
 40
0.0
 40
0.0
 40
0.0
 40
0.2893975675
 40
0.5491290883
 40
0.7823145228
 40
1.0
 40
1.0
 40
1.0
 40
1.0
 10
76.137791688
 20
57.2964479278
 30
0.0
 10
76.137791688
 20
57.2559572464
 30
0.0
 10
76.1440145764
 20
57.1788792181
 30
0.0
 10
76.1751153282
 20
57.0729183961
 30
0.0
 10
76.2277313683
 20
56.9869483829
 30
0.0
 10
76.2771109767
 20
56.9454582344
 30
0.0
 10
76.3034985715
 20
56.9302485483
 30
0.0
  0
SPLINE
  5
503
100
AcDbEntity
  8
0
100
AcDbSpline
 62
7
  6
CONTINUOUS
 70
0
 71
3
 72
11
 73
7
 74
0
 42
0.0000001
 43
0.0000001
 44
0.0000000001
 40
0.0
 40
0.0
 40
0.0
 40
0.0
 40
0.2177805602
 40
0.4509248779
 40
0.7102605592
 40
1.0
 40
1.0
 40
1.0
 40
1.0
 10
78.390852984
 20
102.5469522032
 30
0.0
 10
78.5021929547
 20
102.6112079331
 30
0.0
 10
78.7104779729
 20
102.786354154
 30
0.0
 10
78.9322257808
 20
103.1488993689
 30
0.0
 10
79.0639768739
 20
103.5957230471
 30
0.0
 10
79.0898658638
 20
103.9209355773
 30
0.0
 10
79.0898658638
 20
104.0919624436
 30
0.0
  0
SPLINE
  5
504
100
AcDbEntity
  8
0
100
AcDbSpline
 62
7
  6
CONTINUOUS
 70
0
 71
3
 72
11
 73
7
 74
0
 42
0.0000001
 43
0.0000001
 44
0.0000000001
 40
0.0
 40
0.0
 40
0.0
 40
0.0
 40
0.2625477462
 40
0.5234418031
 40
0.7722107283
 40
1.0
 40
1.0
 40
1.0
 40
1.0
 10
74.3346454027
 20
65.6807384986
 30
0.0
 10
73.9670267842
 20
65.1943464268
 30
0.0
 10
73.3052136464
 20
64.1688818654
 30
0.0
 10
72.5530295494
 20
62.5343329197
 30
0.0
 10
72.0739990528
 20
60.8834732089
 30
0.0
 10
71.9495841598
 20
59.7755848661
 30
0.0
 10
71.9495841598
 20
59.2466120644
 30
0.0
  0
SPLINE
  5
505
100
AcDbEntity
  8
0
100
AcDbSpline
 62
7
  6
CONTINUOUS
 70
0
 71
3
 72
11
 73
7
 74
0
 42
0.0000001
 43
0.0000001
 44
0.0000000001
 40
0.0
 40
0.0
 40
0.0
 40
0.0
 40
0.2817165139
 40
0.5411039141
 40
0.7792223256
 40
1.0
 40
1.0
 40
1.0
 40
1.0
 10
71.9495841598
 20
59.2466120644
 30
0.0
 10
71.9495841598
 20
58.9595982506
 30
0.0
 10
71.9835833802
 20
58.4073525528
 30
0.0
 10
72.1506630637
 20
57.6276946573
 30
0.0
 10
72.429960119
 20
56.9466447728
 30
0.0
 10
72.697057633
 20
56.5570860051
 30
0.0
 10
72.8462627858
 20
56.3887680826
 30
0.0
  0
SPLINE
  5
506
100
AcDbEntity
  8
0
100
AcDbSpline
 62
7
  6
CONTINUOUS
 70
0
 71
3
 72
11
 73
7
 74
0
 42
0.0000001
 43
0.0000001
 44
0.0000000001
 40
0.0
 40
0.0
 40
0.0
 40
0.0
 40
0.2177456295
 40
0.4508837762
 40
0.7104602913
 40
1.0
 40
1.0
 40
1.0
 40
1.0
 10
91.2040883875
 20
99.8038902106
 30
0.0
 10
91.171109279
 20
99.8229302713
 30
0.0
 10
91.0953595334
 20
99.8505167691
 30
0.0
 10
90.9694296501
 20
99.8536790493
 30
0.0
 10
90.8352872509
 20
99.8212092978
 30
0.0
 10
90.747977488
 20
99.7797289663
 30
0.0
 10
90.7041248467
 20
99.7544107832
 30
0.0
  0
SPLINE
  5
507
100
AcDbEntity
  8
0
100
AcDbSpline
 62
7
  6
CONTINUOUS
 70
0
 71
3
 72
15
 73
11
 74
0
 42
0.0000001
 43
0.0000001
 44
0.0000000001
 40
0.0
 40
0.0
 40
0.0
 40
0.0
 40
0.0869252176
 40
0.1863952294
 40
0.3037887542
 40
0.4375985707
 40
0.5820955914
 40
0.7293795809
 40
0.8712014596
 40
1.0
 40
1.0
 40
1.0
 40
1.0
 10
77.1034509441
 20
58.3158379536
 30
0.0
 10
77.0634780697
 20
58.3388781311
 30
0.0
 10
76.9631223117
 20
58.3647492761
 30
0.0
 10
76.8015113075
 20
58.3323571949
 30
0.0
 10
76.636435512
 20
58.242177218
 30
0.0
 10
76.4781279244
 20
58.1020024225
 30
0.0
 10
76.3384115031
 20
57.9230971103
 30
0.0
 10
76.2283063026
 20
57.7197362112
 30
0.0
 10
76.1569615761
 20
57.5086060393
 30
0.0
 10
76.137791688
 20
57.3648108145
 30
0.0
 10
76.137791688
 20
57.2964479278
 30
0.0
  0
SPLINE
  5
508
100
AcDbEntity
  8
0
100
AcDbSpline
 62
7
  6
CONTINUOUS
 70
0
 71
3
 72
11
 73
7
 74
0
 42
0.0000001
 43
0.0000001
 44
0.0000000001
 40
0.0
 40
0.0
 40
0.0
 40
0.0
 40
0.2177805602
 40
0.4509248779
 40
0.7102605592
 40
1.0
 40
1.0
 40
1.0
 40
1.0
 10
84.6841295378
 20
46.0042528579
 30
0.0
 10
84.7954695085
 20
46.0685085879
 30
0.0
 10
85.0037545267
 20
46.2436548088
 30
0.0
 10
85.2255023346
 20
46.6062000237
 30
0.0
 10
85.3572534277
 20
47.0530237018
 30
0.0
 10
85.3831424176
 20
47.3782362321
 30
0.0
 10
85.3831424176
 20
47.5492630984
 30
0.0
  0
SPLINE
  5
509
100
AcDbEntity
  8
0
100
AcDbSpline
 62
7
  6
CONTINUOUS
 70
0
 71
3
 72
17
 73
13
 74
0
 42
0.0000001
 43
0.0000001
 44
0.0000000001
 40
0.0
 40
0.0
 40
0.0
 40
0.0
 40
0.128693823
 40
0.2702783937
 40
0.4174341197
 40
0.5617778654
 40
0.6954482313
 40
0.8127107819
 40
0.8646769687
 40
0.9125095959
 40
0.9571396392
 40
1.0
 40
1.0
 40
1.0
 40
1.0
 10
79.0898658638
 20
104.0919624436
 30
0.0
 10
79.0898658638
 20
104.3804526207
 30
0.0
 10
79.0091672514
 20
104.9870236698
 30
0.0
 10
78.7079160943
 20
105.8776292295
 30
0.0
 10
78.2437731476
 20
106.7355753964
 30
0.0
 10
77.6539899636
 20
107.4905029994
 30
0.0
 10
76.9867692823
 20
108.0814432303
 30
0.0
 10
76.3828284485
 20
108.4115996212
 30
0.0
 10
75.9104248053
 20
108.537354479
 30
0.0
 10
75.5852796177
 20
108.5611942602
 30
0.0
 10
75.2825068099
 20
108.5168930532
 30
0.0
 10
75.099103636
 20
108.4406225345
 30
0.0
 10
75.0158880988
 20
108.392597777
 30
0.0
  0
SPLINE
  5
50A
100
AcDbEntity
  8
0
100
AcDbSpline
 62
7
  6
CONTINUOUS
 70
0
 71
3
 72
11
 73
7
 74
0
 42
0.0000001
 43
0.0000001
 44
0.0000000001
 40
0.0
 40
0.0
 40
0.0
 40
0.0
 40
0.2895396729
 40
0.5491163863
 40
0.7822545095
 40
1.0
 40
1.0
 40
1.0
 40
1.0
 10
89.9263106258
 20
96.9374852042
 30
0.0
 10
89.8912285176
 20
96.9172306605
 30
0.0
 10
89.8213806715
 20
96.8840464304
 30
0.0
 10
89.7140667451
 20
96.8580705681
 30
0.0
 10
89.6133228377
 20
96.8606004424
 30
0.0
 10
89.5527230551
 20
96.8826696093
 30
0.0
 10
89.5263397937
 20
96.897901662
 30
0.0
  0
SPLINE
  5
50B
100
AcDbEntity
  8
0
100
AcDbSpline
 62
7
  6
CONTINUOUS
 70
0
 71
3
 72
11
 73
7
 74
0
 42
0.0000001
 43
0.0000001
 44
0.0000000001
 40
0.0
 40
0.0
 40
0.0
 40
0.0
 40
0.2897776971
 40
0.5490719787
 40
0.7822272299
 40
1.0
 40
1.0
 40
1.0
 40
1.0
 10
102.1237867561
 20
122.0650319264
 30
0.0
 10
102.2554566547
 20
122.141051124
 30
0.0
 10
102.4943076385
 20
122.3054955961
 30
0.0
 10
102.7796732008
 20
122.6055249509
 30
0.0
 10
102.9602388085
 20
122.9373129313
 30
0.0
 10
103.0024355297
 20
123.1754942898
 30
0.0
 10
103.0024355283
 20
123.2897541899
 30
0.0
  0
SPLINE
  5
50C
100
AcDbEntity
  8
0
100
AcDbSpline
 62
7
  6
CONTINUOUS
 70
0
 71
3
 72
9
 73
5
 74
0
 42
0.0000001
 43
0.0000001
 44
0.0000000001
 40
0.0
 40
0.0
 40
0.0
 40
0.0
 40
0.2642865852
 40
1.0
 40
1.0
 40
1.0
 40
1.0
 10
61.3521247445
 20
65.6086874856
 30
0.0
 10
61.362905658
 20
65.5040883727
 30
0.0
 10
61.4160418004
 20
65.1098733394
 30
0.0
 10
61.5212358996
 20
64.7212040459
 30
0.0
 10
61.6348655778
 20
64.451436015
 30
0.0
  0
SPLINE
  5
50D
100
AcDbEntity
  8
0
100
AcDbSpline
 62
7
  6
CONTINUOUS
 70
0
 71
3
 72
11
 73
7
 74
0
 42
0.0000001
 43
0.0000001
 44
0.0000000001
 40
0.0
 40
0.0
 40
0.0
 40
0.0
 40
0.2896784336
 40
0.5491208899
 40
0.7822333041
 40
1.0
 40
1.0
 40
1.0
 40
1.0
 10
61.0409990562
 20
66.0123880369
 30
0.0
 10
61.0409990562
 20
65.9718569225
 30
0.0
 10
61.0471501956
 20
65.8947642157
 30
0.0
 10
61.0783721684
 20
65.7888493836
 30
0.0
 10
61.130925209
 20
65.7028921533
 30
0.0
 10
61.1803034409
 20
65.661396932
 30
0.0
 10
61.2066893936
 20
65.6461599513
 30
0.0
  0
SPLINE
  5
50E
100
AcDbEntity
  8
0
100
AcDbSpline
 62
7
  6
CONTINUOUS
 70
0
 71
3
 72
10
 73
6
 74
0
 42
0.0000001
 43
0.0000001
 44
0.0000000001
 40
0.0
 40
0.0
 40
0.0
 40
0.0
 40
0.5202790309
 40
0.771268491
 40
1.0
 40
1.0
 40
1.0
 40
1.0
 10
61.3521247445
 20
66.7753434435
 30
0.0
 10
61.257245735
 20
66.6653586738
 30
0.0
 10
61.1427348077
 20
66.4771123047
 30
0.0
 10
61.0577163656
 20
66.2103963472
 30
0.0
 10
61.0409990562
 20
66.0762463253
 30
0.0
 10
61.0409990562
 20
66.0123880369
 30
0.0
  0
SPLINE
  5
50F
100
AcDbEntity
  8
0
100
AcDbSpline
 62
7
  6
CONTINUOUS
 70
0
 71
3
 72
11
 73
7
 74
0
 42
0.0000001
 43
0.0000001
 44
0.0000000001
 40
0.0
 40
0.0
 40
0.0
 40
0.0
 40
0.2561996309
 40
0.5143204117
 40
0.7650712106
 40
1.0
 40
1.0
 40
1.0
 40
1.0
 10
63.6720711443
 20
72.1125227969
 30
0.0
 10
63.3572154438
 20
71.731182473
 30
0.0
 10
62.7794655057
 20
70.9193237518
 30
0.0
 10
62.0893160817
 20
69.6089144202
 30
0.0
 10
61.5972470015
 20
68.2554372517
 30
0.0
 10
61.4109166353
 20
67.3315450209
 30
0.0
 10
61.3626184654
 20
66.8806575165
 30
0.0
  0
SPLINE
  5
510
100
AcDbEntity
  8
0
100
AcDbSpline
 62
7
  6
CONTINUOUS
 70
0
 71
3
 72
11
 73
7
 74
0
 42
0.0000001
 43
0.0000001
 44
0.0000000001
 40
0.0
 40
0.0
 40
0.0
 40
0.0
 40
0.2278672079
 40
0.4770044088
 40
0.7380705498
 40
1.0
 40
1.0
 40
1.0
 40
1.0
 10
85.3831424176
 20
47.5492630984
 30
0.0
 10
85.3831424176
 20
47.7973877356
 30
0.0
 10
85.3233428815
 20
48.3173758267
 30
0.0
 10
85.0940371977
 20
49.0909196041
 30
0.0
 10
84.7347633736
 20
49.8543444423
 30
0.0
 10
84.4190748832
 20
50.3312581807
 30
0.0
 10
84.2439097896
 20
50.5563465999
 30
0.0
  0
SPLINE
  5
511
100
AcDbEntity
  8
0
100
AcDbSpline
 62
7
  6
CONTINUOUS
 70
0
 71
3
 72
11
 73
7
 74
0
 42
0.0000001
 43
0.0000001
 44
0.0000000001
 40
0.0
 40
0.0
 40
0.0
 40
0.0
 40
0.2281287802
 40
0.4780938035
 40
0.7394666838
 40
1.0
 40
1.0
 40
1.0
 40
1.0
 10
73.3446604949
 20
107.8171240256
 30
0.0
 10
73.3446604946
 20
107.4111224098
 30
0.0
 10
73.4475405824
 20
106.5592950457
 30
0.0
 10
73.8387501851
 20
105.2970017562
 30
0.0
 10
74.4483703262
 20
104.0601207323
 30
0.0
 10
74.9828811355
 20
103.2950497084
 30
0.0
 10
75.2785961371
 20
102.9379160624
 30
0.0
  0
SPLINE
  5
512
100
AcDbEntity
  8
0
100
AcDbSpline
 62
7
  6
CONTINUOUS
 70
0
 71
3
 72
9
 73
5
 74
0
 42
0.0000001
 43
0.0000001
 44
0.0000000001
 40
0.0
 40
0.0
 40
0.0
 40
0.0
 40
0.5220273383
 40
1.0
 40
1.0
 40
1.0
 40
1.0
 10
75.2785961371
 20
102.9379160624
 30
0.0
 10
75.5414433753
 20
102.6204766629
 30
0.0
 10
76.0901970556
 20
102.0480746758
 30
0.0
 10
76.7301210585
 20
101.576007993
 30
0.0
 10
77.05692246
 20
101.3873333843
 30
0.0
  0
SPLINE
  5
513
100
AcDbEntity
  8
0
100
AcDbSpline
 62
7
  6
CONTINUOUS
 70
0
 71
3
 72
17
 73
13
 74
0
 42
0.0000001
 43
0.0000001
 44
0.0000000001
 40
0.0
 40
0.0
 40
0.0
 40
0.0
 40
0.1447771882
 40
0.2743250026
 40
0.3908140607
 40
0.4459174568
 40
0.4999980194
 40
0.554078673
 40
0.6091823343
 40
0.7256723493
 40
0.8552214523
 40
1.0
 40
1.0
 40
1.0
 40
1.0
 10
77.05692246
 20
101.3873333843
 30
0.0
 10
77.2873443103
 20
101.2543022765
 30
0.0
 10
77.7456794564
 20
101.036294226
 30
0.0
 10
78.4496224179
 20
100.8660111216
 30
0.0
 10
79.0116879063
 20
100.8810648373
 30
0.0
 10
79.4130913123
 20
100.9920990492
 30
0.0
 10
79.6861371679
 20
101.1199893991
 30
0.0
 10
79.9334124849
 20
101.2925153012
 30
0.0
 10
80.2302673959
 20
101.5846324788
 30
0.0
 10
80.5243294147
 20
102.0638784557
 30
0.0
 10
80.7288225968
 20
102.7586617645
 30
0.0
 10
80.7691844249
 20
103.2646008802
 30
0.0
 10
80.7691844251
 20
103.5306701084
 30
0.0
  0
SPLINE
  5
514
100
AcDbEntity
  8
0
100
AcDbSpline
 62
7
  6
CONTINUOUS
 70
0
 71
3
 72
15
 73
11
 74
0
 42
0.0000001
 43
0.0000001
 44
0.0000000001
 40
0.0
 40
0.0
 40
0.0
 40
0.0
 40
0.1141474765
 40
0.2373368178
 40
0.3669776594
 40
0.5000010819
 40
0.633024354
 40
0.7626647561
 40
0.8858534048
 40
1.0
 40
1.0
 40
1.0
 40
1.0
 10
80.7691844251
 20
103.5306701084
 30
0.0
 10
80.7691844253
 20
103.8240981333
 30
0.0
 10
80.7154001963
 20
104.4347622112
 30
0.0
 10
80.5011834656
 20
105.356001851
 30
0.0
 10
80.1578581936
 20
106.2891231846
 30
0.0
 10
79.6985128765
 20
107.1990629398
 30
0.0
 10
79.1401511623
 20
108.0518339433
 30
0.0
 10
78.5037051004
 20
108.8157171605
 30
0.0
 10
77.812996186
 20
109.4618462162
 30
0.0
 10
77.311038059
 20
109.8137503593
 30
0.0
 10
77.05692246
 20
109.9604607498
 30
0.0
  0
SPLINE
  5
515
100
AcDbEntity
  8
0
100
AcDbSpline
 62
7
  6
CONTINUOUS
 70
0
 71
3
 72
17
 73
13
 74
0
 42
0.0000001
 43
0.0000001
 44
0.0000000001
 40
0.0
 40
0.0
 40
0.0
 40
0.0
 40
0.1447771882
 40
0.2743250026
 40
0.3908140607
 40
0.4459174568
 40
0.4999980194
 40
0.554078673
 40
0.6091823343
 40
0.7256723493
 40
0.8552214523
 40
1.0
 40
1.0
 40
1.0
 40
1.0
 10
77.05692246
 20
109.9604607498
 30
0.0
 10
76.8265006097
 20
110.0934918575
 30
0.0
 10
76.3681654637
 20
110.311499908
 30
0.0
 10
75.6642225021
 20
110.4817830124
 30
0.0
 10
75.1021570137
 20
110.4667292967
 30
0.0
 10
74.7007536077
 20
110.3556950848
 30
0.0
 10
74.4277077521
 20
110.2278047349
 30
0.0
 10
74.1804324351
 20
110.0552788328
 30
0.0
 10
73.8835775241
 20
109.7631616553
 30
0.0
 10
73.5895155053
 20
109.2839156783
 30
0.0
 10
73.3850223232
 20
108.5891323695
 30
0.0
 10
73.3446604951
 20
108.0831932538
 30
0.0
 10
73.3446604949
 20
107.8171240256
 30
0.0
  0
SPLINE
  5
516
100
AcDbEntity
  8
0
100
AcDbSpline
 62
7
  6
CONTINUOUS
 70
0
 71
3
 72
17
 73
13
 74
0
 42
0.0000001
 43
0.0000001
 44
0.0000000001
 40
0.0
 40
0.0
 40
0.0
 40
0.0
 40
0.128693823
 40
0.2702783937
 40
0.4174341197
 40
0.5617778654
 40
0.6954482313
 40
0.8127107819
 40
0.8646769687
 40
0.9125095959
 40
0.9571396392
 40
1.0
 40
1.0
 40
1.0
 40
1.0
 10
74.316875219
 20
106.8475875366
 30
0.0
 10
74.316875219
 20
106.5590973595
 30
0.0
 10
74.3975738314
 20
105.9525263104
 30
0.0
 10
74.6988249885
 20
105.0619207506
 30
0.0
 10
75.1629679352
 20
104.2039745838
 30
0.0
 10
75.7527511192
 20
103.4490469807
 30
0.0
 10
76.4199718005
 20
102.8581067499
 30
0.0
 10
77.0239126343
 20
102.527950359
 30
0.0
 10
77.4963162774
 20
102.4021955011
 30
0.0
 10
77.8214614651
 20
102.3783557199
 30
0.0
 10
78.1242342729
 20
102.4226569269
 30
0.0
 10
78.3076374467
 20
102.4989274457
 30
0.0
 10
78.390852984
 20
102.5469522032
 30
0.0
  0
SPLINE
  5
517
100
AcDbEntity
  8
0
100
AcDbSpline
 62
7
  6
CONTINUOUS
 70
0
 71
3
 72
11
 73
7
 74
0
 42
0.0000001
 43
0.0000001
 44
0.0000000001
 40
0.0
 40
0.0
 40
0.0
 40
0.0
 40
0.2177805602
 40
0.4509248779
 40
0.7102605592
 40
1.0
 40
1.0
 40
1.0
 40
1.0
 10
75.0158880988
 20
108.392597777
 30
0.0
 10
74.9045481281
 20
108.328342047
 30
0.0
 10
74.6962631099
 20
108.1531958261
 30
0.0
 10
74.474515302
 20
107.7906506113
 30
0.0
 10
74.3427642089
 20
107.3438269331
 30
0.0
 10
74.316875219
 20
107.0186144029
 30
0.0
 10
74.316875219
 20
106.8475875366
 30
0.0
  0
SPLINE
  5
518
100
AcDbEntity
  8
0
100
AcDbSpline
 62
7
  6
CONTINUOUS
 70
0
 71
3
 72
15
 73
11
 74
0
 42
0.0000001
 43
0.0000001
 44
0.0000000001
 40
0.0
 40
0.0
 40
0.0
 40
0.0
 40
0.1141465952
 40
0.2373352439
 40
0.366975646
 40
0.4999989181
 40
0.6330223406
 40
0.7626631822
 40
0.8858525235
 40
1.0
 40
1.0
 40
1.0
 40
1.0
 10
76.7033705414
 20
108.9398912585
 30
0.0
 10
76.9090855942
 20
108.8211243043
 30
0.0
 10
77.3154374395
 20
108.5362461636
 30
0.0
 10
77.8745893425
 20
108.013183143
 30
0.0
 10
78.3898136566
 20
107.3947942013
 30
0.0
 10
78.841826087
 20
106.7044476321
 30
0.0
 10
79.2136814415
 20
105.9678210515
 30
0.0
 10
79.4916146998
 20
105.2124282101
 30
0.0
 10
79.665030288
 20
104.4666539962
 30
0.0
 10
79.7085704152
 20
103.972301058
 30
0.0
 10
79.7085704151
 20
103.7347612853
 30
0.0
  0
SPLINE
  5
519
100
AcDbEntity
  8
0
100
AcDbSpline
 62
7
  6
CONTINUOUS
 70
0
 71
3
 72
15
 73
11
 74
0
 42
0.0000001
 43
0.0000001
 44
0.0000000001
 40
0.0
 40
0.0
 40
0.0
 40
0.0
 40
0.1474561271
 40
0.2805074424
 40
0.4007281392
 40
0.5123987031
 40
0.6219064243
 40
0.736309081
 40
0.8612387697
 40
1.0
 40
1.0
 40
1.0
 40
1.0
 10
73.6981706677
 20
107.2047886948
 30
0.0
 10
73.6981706679
 20
107.4058545513
 30
0.0
 10
73.7267527798
 20
107.789455667
 30
0.0
 10
73.8705296419
 20
108.3207058899
 30
0.0
 10
74.1121951499
 20
108.7622364836
 30
0.0
 10
74.4477883732
 20
109.0955099013
 30
0.0
 10
74.8652512679
 20
109.3016782174
 30
0.0
 10
75.3426909863
 20
109.3714276904
 30
0.0
 10
75.8591907348
 20
109.3077624979
 30
0.0
 10
76.2006649791
 20
109.1870316866
 30
0.0
 10
76.3732316054
 20
109.1094358671
 30
0.0
  0
SPLINE
  5
51A
100
AcDbEntity
  8
0
100
AcDbSpline
 62
7
  6
CONTINUOUS
 70
0
 71
3
 72
9
 73
5
 74
0
 42
0.0000001
 43
0.0000001
 44
0.0000000001
 40
0.0
 40
0.0
 40
0.0
 40
0.0
 40
0.244818263
 40
1.0
 40
1.0
 40
1.0
 40
1.0
 10
76.3732316054
 20
109.1094358671
 30
0.0
 10
76.4008606708
 20
109.09701226
 30
0.0
 10
76.5130312725
 20
109.0447511511
 30
0.0
 10
76.622443477
 20
108.9866134639
 30
0.0
 10
76.7033705414
 20
108.9398912585
 30
0.0
  0
SPLINE
  5
51B
100
AcDbEntity
  8
0
100
AcDbSpline
 62
7
  6
CONTINUOUS
 70
0
 71
3
 72
9
 73
5
 74
0
 42
0.0000001
 43
0.0000001
 44
0.0000000001
 40
0.0
 40
0.0
 40
0.0
 40
0.0
 40
0.4795701682
 40
1.0
 40
1.0
 40
1.0
 40
1.0
 10
76.7033705414
 20
101.9996587216
 30
0.0
 10
76.4725407647
 20
102.1329253405
 30
0.0
 10
76.0181895043
 20
102.4585029358
 30
0.0
 10
75.6200093279
 20
102.8491241117
 30
0.0
 10
75.4272674485
 20
103.0647959868
 30
0.0
  0
SPLINE
  5
51C
100
AcDbEntity
  8
0
100
AcDbSpline
 62
7
  6
CONTINUOUS
 70
0
 71
3
 72
11
 73
7
 74
0
 42
0.0000001
 43
0.0000001
 44
0.0000000001
 40
0.0
 40
0.0
 40
0.0
 40
0.0
 40
0.2585816729
 40
0.5202972419
 40
0.7713938219
 40
1.0
 40
1.0
 40
1.0
 40
1.0
 10
75.4272674485
 20
103.0647959868
 30
0.0
 10
75.1646691395
 20
103.3586349273
 30
0.0
 10
74.6884166774
 20
103.998075756
 30
0.0
 10
74.1436188525
 20
105.0453891935
 30
0.0
 10
73.7916931507
 20
106.1244928655
 30
0.0
 10
73.6981706675
 20
106.85639136
 30
0.0
 10
73.6981706677
 20
107.2047886948
 30
0.0
  0
SPLINE
  5
51D
100
AcDbEntity
  8
0
100
AcDbSpline
 62
7
  6
CONTINUOUS
 70
0
 71
3
 72
9
 73
5
 74
0
 42
0.0000001
 43
0.0000001
 44
0.0000000001
 40
0.0
 40
0.0
 40
0.0
 40
0.0
 40
0.2552016628
 40
1.0
 40
1.0
 40
1.0
 40
1.0
 10
79.7085704151
 20
103.7347612853
 30
0.0
 10
79.708570415
 20
103.7031775941
 30
0.0
 10
79.7070943188
 20
103.5794247177
 30
0.0
 10
79.6996259715
 20
103.4557240416
 30
0.0
 10
79.6903287292
 20
103.3640180707
 30
0.0
  0
SPLINE
  5
51E
100
AcDbEntity
  8
0
100
AcDbSpline
 62
7
  6
CONTINUOUS
 70
0
 71
3
 72
15
 73
11
 74
0
 42
0.0000001
 43
0.0000001
 44
0.0000000001
 40
0.0
 40
0.0
 40
0.0
 40
0.0
 40
0.1387616578
 40
0.2636918858
 40
0.37809509
 40
0.487603182
 40
0.5992737759
 40
0.7194941081
 40
0.8525447398
 40
1.0
 40
1.0
 40
1.0
 40
1.0
 10
79.6903287292
 20
103.3640180707
 30
0.0
 10
79.6712445068
 20
103.1757754617
 30
0.0
 10
79.6050623134
 20
102.8196891703
 30
0.0
 10
79.4019494873
 20
102.3405605567
 30
0.0
 10
79.1028291881
 20
101.9619639566
 30
0.0
 10
78.7155576568
 20
101.7035150221
 30
0.0
 10
78.2591461426
 20
101.5795163054
 30
0.0
 10
77.7559455608
 20
101.5909869269
 30
0.0
 10
77.2239899276
 20
101.7320888643
 30
0.0
 10
76.8774960034
 20
101.8991296135
 30
0.0
 10
76.7033705414
 20
101.9996587216
 30
0.0
  0
SPLINE
  5
51F
100
AcDbEntity
  8
0
100
AcDbSpline
 62
7
  6
CONTINUOUS
 70
0
 71
3
 72
11
 73
7
 74
0
 42
0.0000001
 43
0.0000001
 44
0.0000000001
 40
0.0
 40
0.0
 40
0.0
 40
0.0
 40
0.2177442246
 40
0.4508817658
 40
0.7104588047
 40
1.0
 40
1.0
 40
1.0
 40
1.0
 10
89.5263397937
 20
96.897901662
 30
0.0
 10
89.4999556401
 20
96.9131342297
 30
0.0
 10
89.4505408847
 20
96.9545814314
 30
0.0
 10
89.3979756768
 20
97.0405663654
 30
0.0
 10
89.3668131409
 20
97.1464952593
 30
0.0
 10
89.360627556
 20
97.2235807277
 30
0.0
 10
89.360627556
 20
97.2640918148
 30
0.0
  0
SPLINE
  5
520
100
AcDbEntity
  8
0
100
AcDbSpline
 62
7
  6
CONTINUOUS
 70
0
 71
3
 72
11
 73
7
 74
0
 42
0.0000001
 43
0.0000001
 44
0.0000000001
 40
0.0
 40
0.0
 40
0.0
 40
0.0
 40
0.2895411595
 40
0.5491183966
 40
0.7822559144
 40
1.0
 40
1.0
 40
1.0
 40
1.0
 10
91.4112286839
 20
99.3461525199
 30
0.0
 10
91.4112286839
 20
99.3967913718
 30
0.0
 10
91.4034966425
 20
99.4931482241
 30
0.0
 10
91.3645435343
 20
99.6255593874
 30
0.0
 10
91.2988369698
 20
99.7330405243
 30
0.0
 10
91.2370685681
 20
99.784849531
 30
0.0
 10
91.2040883875
 20
99.8038902106
 30
0.0
  0
SPLINE
  5
521
100
AcDbEntity
  8
0
100
AcDbSpline
 62
7
  6
CONTINUOUS
 70
0
 71
3
 72
11
 73
7
 74
0
 42
0.0000001
 43
0.0000001
 44
0.0000000001
 40
0.0
 40
0.0
 40
0.0
 40
0.0
 40
0.2895411595
 40
0.5491183966
 40
0.7822559144
 40
1.0
 40
1.0
 40
1.0
 40
1.0
 10
81.935975442
 20
101.5506197373
 30
0.0
 10
81.935975442
 20
101.5101086558
 30
0.0
 10
81.9421610751
 20
101.4330231739
 30
0.0
 10
81.9733235616
 20
101.3270942433
 30
0.0
 10
82.0258888133
 20
101.2411093338
 30
0.0
 10
82.0753035346
 20
101.1996621285
 30
0.0
 10
82.1016876791
 20
101.1844295847
 30
0.0
  0
SPLINE
  5
522
100
AcDbEntity
  8
0
100
AcDbSpline
 62
7
  6
CONTINUOUS
 70
0
 71
3
 72
11
 73
7
 74
0
 42
0.0000001
 43
0.0000001
 44
0.0000000001
 40
0.0
 40
0.0
 40
0.0
 40
0.0
 40
0.2372518718
 40
0.4999985497
 40
0.7627460178
 40
1.0
 40
1.0
 40
1.0
 40
1.0
 10
82.5016585117
 20
102.5304169941
 30
0.0
 10
82.4213433385
 20
102.484047284
 30
0.0
 10
82.2693541116
 20
102.3561457562
 30
0.0
 10
82.0920299159
 20
102.1137202218
 30
0.0
 10
81.9707465114
 20
101.8389387739
 30
0.0
 10
81.935975442
 20
101.6433603976
 30
0.0
 10
81.935975442
 20
101.5506197373
 30
0.0
  0
SPLINE
  5
523
100
AcDbEntity
  8
0
100
AcDbSpline
 62
7
  6
CONTINUOUS
 70
0
 71
3
 72
15
 73
11
 74
0
 42
0.0000001
 43
0.0000001
 44
0.0000000001
 40
0.0
 40
0.0
 40
0.0
 40
0.0
 40
0.0869252176
 40
0.1863952294
 40
0.3037887542
 40
0.4375985707
 40
0.5820955914
 40
0.7293795809
 40
0.8712014596
 40
1.0
 40
1.0
 40
1.0
 40
1.0
 10
76.3034985715
 20
56.9302485483
 30
0.0
 10
76.3434714459
 20
56.9072083708
 30
0.0
 10
76.443827204
 20
56.8813372258
 30
0.0
 10
76.6054382081
 20
56.913729307
 30
0.0
 10
76.7705140036
 20
57.0039092839
 30
0.0
 10
76.9288215912
 20
57.1440840794
 30
0.0
 10
77.0685380125
 20
57.3229893916
 30
0.0
 10
77.178643213
 20
57.5263502907
 30
0.0
 10
77.2499879396
 20
57.7374804626
 30
0.0
 10
77.2691578276
 20
57.8812756873
 30
0.0
 10
77.2691578276
 20
57.949638574
 30
0.0
  0
SPLINE
  5
524
100
AcDbEntity
  8
0
100
AcDbSpline
 62
7
  6
CONTINUOUS
 70
0
 71
3
 72
11
 73
7
 74
0
 42
0.0000001
 43
0.0000001
 44
0.0000000001
 40
0.0
 40
0.0
 40
0.0
 40
0.0
 40
0.2372542275
 40
0.5000017852
 40
0.7627483734
 40
1.0
 40
1.0
 40
1.0
 40
1.0
 10
89.360627556
 20
97.2640918148
 30
0.0
 10
89.360627556
 20
97.356832571
 30
0.0
 10
89.3953986823
 20
97.5524110781
 30
0.0
 10
89.516682194
 20
97.8271925835
 30
0.0
 10
89.6940063935
 20
98.0696179963
 30
0.0
 10
89.8459955356
 20
98.1975194095
 30
0.0
 10
89.9263106258
 20
98.2438890716
 30
0.0
  0
SPLINE
  5
525
100
AcDbEntity
  8
0
100
AcDbSpline
 62
7
  6
CONTINUOUS
 70
0
 71
3
 72
17
 73
13
 74
0
 42
0.0000001
 43
0.0000001
 44
0.0000000001
 40
0.0
 40
0.0
 40
0.0
 40
0.0
 40
0.0428590154
 40
0.087484945
 40
0.1353191404
 40
0.1872810096
 40
0.3045411455
 40
0.4382064078
 40
0.5825480614
 40
0.7297123844
 40
0.8713056989
 40
1.0
 40
1.0
 40
1.0
 40
1.0
 10
116.4655227895
 20
111.4711625365
 30
0.0
 10
116.5271529194
 20
111.4355749634
 30
0.0
 10
116.6630275308
 20
111.3791563096
 30
0.0
 10
116.88727619
 20
111.346243163
 30
0.0
 10
117.128112071
 20
111.3639898629
 30
0.0
 10
117.4780408872
 20
111.4570633167
 30
0.0
 10
117.9253700051
 20
111.701671391
 30
0.0
 10
118.4195970786
 20
112.1393681859
 30
0.0
 10
118.8564922349
 20
112.6985608959
 30
0.0
 10
119.2003232315
 20
113.3340885563
 30
0.0
 10
119.4234798609
 20
113.9938213121
 30
0.0
 10
119.4832569093
 20
114.4431454629
 30
0.0
 10
119.4832569093
 20
114.6568412985
 30
0.0
  0
SPLINE
  5
526
100
AcDbEntity
  8
0
100
AcDbSpline
 62
7
  6
CONTINUOUS
 70
0
 71
3
 72
9
 73
5
 74
0
 42
0.0000001
 43
0.0000001
 44
0.0000000001
 40
0.0
 40
0.0
 40
0.0
 40
0.0
 40
0.2424016808
 40
1.0
 40
1.0
 40
1.0
 40
1.0
 10
61.0874178687
 20
63.5884215357
 30
0.0
 10
61.060936637
 20
63.6417194362
 30
0.0
 10
60.9573802445
 20
63.8644031511
 30
0.0
 10
60.8762736625
 20
64.0972928783
 30
0.0
 10
60.8261975408
 20
64.2764295918
 30
0.0
  0
SPLINE
  5
527
100
AcDbEntity
  8
0
100
AcDbSpline
 62
7
  6
CONTINUOUS
 70
0
 71
3
 72
9
 73
5
 74
0
 42
0.0000001
 43
0.0000001
 44
0.0000000001
 40
0.0
 40
0.0
 40
0.0
 40
0.0
 40
0.2362530433
 40
1.0
 40
1.0
 40
1.0
 40
1.0
 10
60.8261975408
 20
64.2764295918
 30
0.0
 10
60.794040002
 20
64.3914663724
 30
0.0
 10
60.6776057592
 20
64.8838648615
 30
0.0
 10
60.6358285574
 20
65.3923221206
 30
0.0
 10
60.6358285574
 20
65.7784641367
 30
0.0
  0
SPLINE
  5
528
100
AcDbEntity
  8
0
100
AcDbSpline
 62
7
  6
CONTINUOUS
 70
0
 71
3
 72
11
 73
7
 74
0
 42
0.0000001
 43
0.0000001
 44
0.0000000001
 40
0.0
 40
0.0
 40
0.0
 40
0.0
 40
0.2372518718
 40
0.4999985497
 40
0.7627460178
 40
1.0
 40
1.0
 40
1.0
 40
1.0
 10
91.4112345719
 20
95.9168598767
 30
0.0
 10
91.5116285384
 20
95.9748220143
 30
0.0
 10
91.701615072
 20
96.1346989241
 30
0.0
 10
91.9232703166
 20
96.437730842
 30
0.0
 10
92.0748745723
 20
96.781207652
 30
0.0
 10
92.1183384091
 20
97.0256806223
 30
0.0
 10
92.1183384091
 20
97.1416064477
 30
0.0
  0
SPLINE
  5
529
100
AcDbEntity
  8
0
100
AcDbSpline
 62
7
  6
CONTINUOUS
 70
0
 71
3
 72
11
 73
7
 74
0
 42
0.0000001
 43
0.0000001
 44
0.0000000001
 40
0.0
 40
0.0
 40
0.0
 40
0.0
 40
0.2277892717
 40
0.4765581969
 40
0.7374522538
 40
1.0
 40
1.0
 40
1.0
 40
1.0
 10
60.6358285574
 20
65.7784641367
 30
0.0
 10
60.6358285574
 20
66.3074369385
 30
0.0
 10
60.7602434504
 20
67.4153252812
 30
0.0
 10
61.239273947
 20
69.066184992
 30
0.0
 10
61.991458044
 20
70.7007339378
 30
0.0
 10
62.6532711819
 20
71.7261984991
 30
0.0
 10
63.0208898004
 20
72.2125905709
 30
0.0
  0
SPLINE
  5
52A
100
AcDbEntity
  8
0
100
AcDbSpline
 62
7
  6
CONTINUOUS
 70
0
 71
3
 72
10
 73
6
 74
0
 42
0.0000001
 43
0.0000001
 44
0.0000000001
 40
0.0
 40
0.0
 40
0.0
 40
0.0
 40
0.2281450702
 40
0.4752816799
 40
1.0
 40
1.0
 40
1.0
 40
1.0
 10
116.173964142
 20
125.3595507886
 30
0.0
 10
116.173964142
 20
125.2407970067
 30
0.0
 10
116.1971669921
 20
124.9931096425
 30
0.0
 10
116.321483859
 20
124.4865297355
 30
0.0
 10
116.4935289681
 20
124.1173937527
 30
0.0
 10
116.6364645818
 20
123.884655562
 30
0.0
  0
SPLINE
  5
52B
100
AcDbEntity
  8
0
100
AcDbSpline
 62
7
  6
CONTINUOUS
 70
0
 71
3
 72
13
 73
9
 74
0
 42
0.0000001
 43
0.0000001
 44
0.0000000001
 40
0.0
 40
0.0
 40
0.0
 40
0.0
 40
0.1142487484
 40
0.2375477548
 40
0.5000005226
 40
0.7624530043
 40
0.8857516767
 40
1.0
 40
1.0
 40
1.0
 40
1.0
 10
98.5882204665
 20
126.5556904242
 30
0.0
 10
98.4430088968
 20
126.6395264664
 30
0.0
 10
98.1254225206
 20
126.7874195784
 30
0.0
 10
97.4215910997
 20
127.0011782187
 30
0.0
 10
96.4668967998
 20
127.1050147459
 30
0.0
 10
95.5122034179
 20
127.0011738046
 30
0.0
 10
94.8083746346
 20
126.787411702
 30
0.0
 10
94.4907902044
 20
126.6395170036
 30
0.0
 10
94.3455797794
 20
126.5556802261
 30
0.0
  0
SPLINE
  5
52C
100
AcDbEntity
  8
0
100
AcDbSpline
 62
7
  6
CONTINUOUS
 70
0
 71
3
 72
11
 73
7
 74
0
 42
0.0000001
 43
0.0000001
 44
0.0000000001
 40
0.0
 40
0.0
 40
0.0
 40
0.0
 40
0.2639050385
 40
0.5243837017
 40
0.7722876283
 40
1.0
 40
1.0
 40
1.0
 40
1.0
 10
80.3626074306
 20
48.3117588251
 30
0.0
 10
80.5351575403
 20
47.9419166177
 30
0.0
 10
80.9287812869
 20
47.2296459662
 30
0.0
 10
81.6427690752
 20
46.2677214433
 30
0.0
 10
82.4463038913
 20
45.4559244828
 30
0.0
 10
83.0452317557
 20
45.0207029844
 30
0.0
 10
83.3501990138
 20
44.844634039
 30
0.0
  0
SPLINE
  5
52D
100
AcDbEntity
  8
0
100
AcDbSpline
 62
7
  6
CONTINUOUS
 70
0
 71
3
 72
17
 73
13
 74
0
 42
0.0000001
 43
0.0000001
 44
0.0000000001
 40
0.0
 40
0.0
 40
0.0
 40
0.0
 40
0.1447771882
 40
0.2743250026
 40
0.3908140607
 40
0.4459174568
 40
0.4999980194
 40
0.554078673
 40
0.6091823343
 40
0.7256723493
 40
0.8552214523
 40
1.0
 40
1.0
 40
1.0
 40
1.0
 10
83.3501990138
 20
44.844634039
 30
0.0
 10
83.5806208641
 20
44.7116029313
 30
0.0
 10
84.0389560102
 20
44.4935948808
 30
0.0
 10
84.7428989718
 20
44.3233117764
 30
0.0
 10
85.3049644601
 20
44.3383654921
 30
0.0
 10
85.7063678661
 20
44.449399704
 30
0.0
 10
85.9794137217
 20
44.5772900539
 30
0.0
 10
86.2266890387
 20
44.749815956
 30
0.0
 10
86.5235439498
 20
45.0419331335
 30
0.0
 10
86.8176059685
 20
45.5211791105
 30
0.0
 10
87.0220991506
 20
46.2159624193
 30
0.0
 10
87.0624609787
 20
46.721901535
 30
0.0
 10
87.0624609789
 20
46.9879707632
 30
0.0
  0
SPLINE
  5
52E
100
AcDbEntity
  8
0
100
AcDbSpline
 62
7
  6
CONTINUOUS
 70
0
 71
3
 72
11
 73
7
 74
0
 42
0.0000001
 43
0.0000001
 44
0.0000000001
 40
0.0
 40
0.0
 40
0.0
 40
0.0
 40
0.2277133044
 40
0.4756173838
 40
0.7360956208
 40
1.0
 40
1.0
 40
1.0
 40
1.0
 10
87.0624609789
 20
46.9879707632
 30
0.0
 10
87.0624609792
 20
47.3401102714
 30
0.0
 10
86.9850088371
 20
48.0763965508
 30
0.0
 10
86.6837426344
 20
49.1781588402
 30
0.0
 10
86.2076957456
 20
50.2774338793
 30
0.0
 10
85.7876739036
 20
50.974446115
 30
0.0
 10
85.5536624796
 20
51.3087949355
 30
0.0
  0
SPLINE
  5
52F
100
AcDbEntity
  8
0
100
AcDbSpline
 62
7
  6
CONTINUOUS
 70
0
 71
3
 72
11
 73
7
 74
0
 42
0.0000001
 43
0.0000001
 44
0.0000000001
 40
0.0
 40
0.0
 40
0.0
 40
0.0
 40
0.2277892717
 40
0.4765581969
 40
0.7374522538
 40
1.0
 40
1.0
 40
1.0
 40
1.0
 10
75.7326211893
 20
57.0625240277
 30
0.0
 10
75.7326211893
 20
57.5914968295
 30
0.0
 10
75.8570360823
 20
58.6993851722
 30
0.0
 10
76.3360665789
 20
60.350244883
 30
0.0
 10
77.0882506759
 20
61.9847938288
 30
0.0
 10
77.7500638137
 20
63.0102583901
 30
0.0
 10
78.1176824322
 20
63.4966504619
 30
0.0
  0
SPLINE
  5
530
100
AcDbEntity
  8
0
100
AcDbSpline
 62
7
  6
CONTINUOUS
 70
0
 71
3
 72
13
 73
9
 74
0
 42
0.0000001
 43
0.0000001
 44
0.0000000001
 40
0.0
 40
0.0
 40
0.0
 40
0.0
 40
0.1142260229
 40
0.2375602528
 40
0.5000015383
 40
0.7624419778
 40
0.8857752456
 40
1.0
 40
1.0
 40
1.0
 40
1.0
 10
78.1176824322
 20
82.1181016554
 30
0.0
 10
78.1176824322
 20
82.2298626328
 30
0.0
 10
78.1381863763
 20
82.4625276192
 30
0.0
 10
78.2493289081
 20
82.9401499706
 30
0.0
 10
78.5076338802
 20
83.5259597676
 30
0.0
 10
78.8858043133
 20
84.0425646952
 30
0.0
 10
79.2438631157
 20
84.377626997
 30
0.0
 10
79.4351031916
 20
84.5117151795
 30
0.0
 10
79.5318901067
 20
84.5675947974
 30
0.0
  0
SPLINE
  5
531
100
AcDbEntity
  8
0
100
AcDbSpline
 62
7
  6
CONTINUOUS
 70
0
 71
3
 72
11
 73
7
 74
0
 42
0.0000001
 43
0.0000001
 44
0.0000000001
 40
0.0
 40
0.0
 40
0.0
 40
0.0
 40
0.2277405459
 40
0.475241044
 40
0.7354778696
 40
1.0
 40
1.0
 40
1.0
 40
1.0
 10
114.4981692634
 20
117.9825907306
 30
0.0
 10
114.2995427225
 20
117.8679143283
 30
0.0
 10
113.9089227414
 20
117.5862772277
 30
0.0
 10
113.3818002935
 20
117.0625125141
 30
0.0
 10
112.909346482
 20
116.4419088144
 30
0.0
 10
112.6453586282
 20
115.9820883335
 30
0.0
 10
112.5280886352
 20
115.7428926759
 30
0.0
  0
SPLINE
  5
532
100
AcDbEntity
  8
0
100
AcDbSpline
 62
7
  6
CONTINUOUS
 70
0
 71
3
 72
11
 73
7
 74
0
 42
0.0000001
 43
0.0000001
 44
0.0000000001
 40
0.0
 40
0.0
 40
0.0
 40
0.0
 40
0.2177723091
 40
0.4509273687
 40
0.7102218233
 40
1.0
 40
1.0
 40
1.0
 40
1.0
 10
103.0024355283
 20
123.2897541899
 30
0.0
 10
103.0024355268
 20
123.4040153201
 30
0.0
 10
102.960237842
 20
123.6421994268
 30
0.0
 10
102.7796683281
 20
123.9739906197
 30
0.0
 10
102.4942969699
 20
124.2740221984
 30
0.0
 10
102.2554414532
 20
124.4384672983
 30
0.0
 10
102.1237690923
 20
124.5144866516
 30
0.0
  0
SPLINE
  5
533
100
AcDbEntity
  8
0
100
AcDbSpline
 62
7
  6
CONTINUOUS
 70
0
 71
3
 72
11
 73
7
 74
0
 42
0.0000001
 43
0.0000001
 44
0.0000000001
 40
0.0
 40
0.0
 40
0.0
 40
0.0
 40
0.2177825102
 40
0.4509091639
 40
0.7102957096
 40
1.0
 40
1.0
 40
1.0
 40
1.0
 10
78.5319120635
 20
47.7259389002
 30
0.0
 10
78.4659387808
 20
47.7640277387
 30
0.0
 10
78.3425053099
 20
47.8677970453
 30
0.0
 10
78.2110959252
 20
48.0826569357
 30
0.0
 10
78.1330465232
 20
48.3474449744
 30
0.0
 10
78.1176824322
 20
48.5401658069
 30
0.0
 10
78.1176824322
 20
48.6415025531
 30
0.0
  0
SPLINE
  5
534
100
AcDbEntity
  8
0
100
AcDbSpline
 62
7
  6
CONTINUOUS
 70
0
 71
3
 72
12
 73
8
 74
0
 42
0.0000001
 43
0.0000001
 44
0.0000000001
 40
0.0
 40
0.0
 40
0.0
 40
0.0
 40
0.1081709576
 40
0.2183599935
 40
0.4513630804
 40
0.7104204736
 40
1.0
 40
1.0
 40
1.0
 40
1.0
 10
77.259659681
 20
53.6872656267
 30
0.0
 10
77.1387597536
 20
53.7570528185
 30
0.0
 10
76.9063592186
 20
53.9192849256
 30
0.0
 10
76.4894298858
 20
54.3293731791
 30
0.0
 10
76.0765482919
 20
55.0025518271
 30
0.0
 10
75.7892514024
 20
55.9782606693
 30
0.0
 10
75.7326211893
 20
56.6888179439
 30
0.0
 10
75.7326211893
 20
57.0625240277
 30
0.0
  0
SPLINE
  5
535
100
AcDbEntity
  8
0
100
AcDbSpline
 62
7
  6
CONTINUOUS
 70
0
 71
3
 72
16
 73
12
 74
0
 42
0.0000001
 43
0.0000001
 44
0.0000000001
 40
0.0
 40
0.0
 40
0.0
 40
0.0
 40
0.1500712728
 40
0.3004171445
 40
0.4460042749
 40
0.5822903038
 40
0.7058515479
 40
0.8151319443
 40
0.9113967577
 40
0.9562409972
 40
1.0
 40
1.0
 40
1.0
 40
1.0
 10
80.9579650563
 20
48.6715900716
 30
0.0
 10
81.0526154069
 20
48.4373981675
 30
0.0
 10
81.2741839923
 20
47.9809516936
 30
0.0
 10
81.6872187007
 20
47.3517026539
 30
0.0
 10
82.1648394155
 20
46.7998461475
 30
0.0
 10
82.6838009397
 20
46.35244621
 30
0.0
 10
83.2200688846
 20
46.0312578946
 30
0.0
 10
83.7497008539
 20
45.852173485
 30
0.0
 10
84.1789804274
 20
45.8335958854
 30
0.0
 10
84.483414433
 20
45.9055329733
 30
0.0
 10
84.6203368498
 20
45.9674372767
 30
0.0
 10
84.6841295378
 20
46.0042528579
 30
0.0
  0
SPLINE
  5
536
100
AcDbEntity
  8
0
100
AcDbSpline
 62
7
  6
CONTINUOUS
 70
0
 71
3
 72
11
 73
7
 74
0
 42
0.0000001
 43
0.0000001
 44
0.0000000001
 40
0.0
 40
0.0
 40
0.0
 40
0.0
 40
0.2631245503
 40
0.5238630415
 40
0.7722623789
 40
1.0
 40
1.0
 40
1.0
 40
1.0
 10
84.6901868045
 20
50.8159213749
 30
0.0
 10
84.8928763465
 20
50.539270534
 30
0.0
 10
85.2573146504
 20
49.9587588671
 30
0.0
 10
85.6710705273
 20
49.0375733671
 30
0.0
 10
85.9338735439
 20
48.1101671251
 30
0.0
 10
86.0018469691
 20
47.4888945885
 30
0.0
 10
86.0018469689
 20
47.1920619401
 30
0.0
  0
SPLINE
  5
537
100
AcDbEntity
  8
0
100
AcDbSpline
 62
7
  6
CONTINUOUS
 70
0
 71
3
 72
11
 73
7
 74
0
 42
0.0000001
 43
0.0000001
 44
0.0000000001
 40
0.0
 40
0.0
 40
0.0
 40
0.0
 40
0.2897026209
 40
0.5490908265
 40
0.782219764
 40
1.0
 40
1.0
 40
1.0
 40
1.0
 10
84.4834243654
 20
53.2162761104
 30
0.0
 10
84.4834243654
 20
53.3429465971
 30
0.0
 10
84.4642194979
 20
53.5838479991
 30
0.0
 10
84.366662667
 20
53.9148360017
 30
0.0
 10
84.2023973018
 20
54.1834130284
 30
0.0
 10
84.0481016344
 20
54.3131172249
 30
0.0
 10
83.9656392991
 20
54.3607341031
 30
0.0
  0
SPLINE
  5
538
100
AcDbEntity
  8
0
100
AcDbSpline
 62
7
  6
CONTINUOUS
 70
0
 71
3
 72
11
 73
7
 74
0
 42
0.0000001
 43
0.0000001
 44
0.0000000001
 40
0.0
 40
0.0
 40
0.0
 40
0.0
 40
0.2277366822
 40
0.4761358749
 40
0.7368747997
 40
1.0
 40
1.0
 40
1.0
 40
1.0
 10
82.9966470952
 20
45.4569593764
 30
0.0
 10
82.7395780226
 20
45.6053749171
 30
0.0
 10
82.2355177439
 20
45.9748801374
 30
0.0
 10
81.5637508206
 20
46.6661868658
 30
0.0
 10
80.9728499418
 20
47.4851177495
 30
0.0
 10
80.6523280069
 20
48.0909986693
 30
0.0
 10
80.5140853046
 20
48.4048648732
 30
0.0
  0
SPLINE
  5
539
100
AcDbEntity
  8
0
100
AcDbSpline
 62
7
  6
CONTINUOUS
 70
0
 71
3
 72
9
 73
5
 74
0
 42
0.0000001
 43
0.0000001
 44
0.0000000001
 40
0.0
 40
0.0
 40
0.0
 40
0.0
 40
0.2552016628
 40
1.0
 40
1.0
 40
1.0
 40
1.0
 10
86.0018469689
 20
47.1920619401
 30
0.0
 10
86.0018469688
 20
47.1604782489
 30
0.0
 10
86.0003708726
 20
47.0367253725
 30
0.0
 10
85.9929025253
 20
46.9130246963
 30
0.0
 10
85.983605283
 20
46.8213187255
 30
0.0
  0
SPLINE
  5
53A
100
AcDbEntity
  8
0
100
AcDbSpline
 62
7
  6
CONTINUOUS
 70
0
 71
3
 72
15
 73
11
 74
0
 42
0.0000001
 43
0.0000001
 44
0.0000000001
 40
0.0
 40
0.0
 40
0.0
 40
0.0
 40
0.1387616578
 40
0.2636918858
 40
0.37809509
 40
0.487603182
 40
0.5992737759
 40
0.7194941081
 40
0.8525447398
 40
1.0
 40
1.0
 40
1.0
 40
1.0
 10
85.983605283
 20
46.8213187255
 30
0.0
 10
85.9645210606
 20
46.6330761165
 30
0.0
 10
85.8983388672
 20
46.2769898251
 30
0.0
 10
85.6952260411
 20
45.7978612115
 30
0.0
 10
85.3961057419
 20
45.4192646114
 30
0.0
 10
85.0088342107
 20
45.1608156769
 30
0.0
 10
84.5524226964
 20
45.0368169602
 30
0.0
 10
84.0492221146
 20
45.0482875817
 30
0.0
 10
83.5172664814
 20
45.1893895191
 30
0.0
 10
83.1707725572
 20
45.3564302683
 30
0.0
 10
82.9966470952
 20
45.4569593764
 30
0.0
  0
SPLINE
  5
53B
100
AcDbEntity
  8
0
100
AcDbSpline
 62
7
  6
CONTINUOUS
 70
0
 71
3
 72
11
 73
7
 74
0
 42
0.0000001
 43
0.0000001
 44
0.0000000001
 40
0.0
 40
0.0
 40
0.0
 40
0.0
 40
0.2897026209
 40
0.5490908265
 40
0.782219764
 40
1.0
 40
1.0
 40
1.0
 40
1.0
 10
119.8368088279
 20
65.0527849105
 30
0.0
 10
119.8368088279
 20
65.1794553972
 30
0.0
 10
119.8176039604
 20
65.4203567992
 30
0.0
 10
119.7200471295
 20
65.7513448018
 30
0.0
 10
119.5557817642
 20
66.0199218285
 30
0.0
 10
119.4014860969
 20
66.149626025
 30
0.0
 10
119.3190237616
 20
66.1972429032
 30
0.0
  0
SPLINE
  5
53C
100
AcDbEntity
  8
0
100
AcDbSpline
 62
7
  6
CONTINUOUS
 70
0
 71
3
 72
11
 73
7
 74
0
 42
0.0000001
 43
0.0000001
 44
0.0000000001
 40
0.0
 40
0.0
 40
0.0
 40
0.0
 40
0.2645221304
 40
0.524758956
 40
0.7722594541
 40
1.0
 40
1.0
 40
1.0
 40
1.0
 10
113.199842874
 20
115.3550639591
 30
0.0
 10
113.3171128671
 20
115.5942596167
 30
0.0
 10
113.5811007208
 20
116.0540800976
 30
0.0
 10
114.0535545324
 20
116.6746837973
 30
0.0
 10
114.5806769802
 20
117.1984485109
 30
0.0
 10
114.9712969614
 20
117.4800856115
 30
0.0
 10
115.1699235022
 20
117.5947620138
 30
0.0
  0
SPLINE
  5
53D
100
AcDbEntity
  8
0
100
AcDbSpline
 62
7
  6
CONTINUOUS
 70
0
 71
3
 72
11
 73
7
 74
0
 42
0.0000001
 43
0.0000001
 44
0.0000000001
 40
0.0
 40
0.0
 40
0.0
 40
0.0
 40
0.2897026209
 40
0.5490908265
 40
0.782219764
 40
1.0
 40
1.0
 40
1.0
 40
1.0
 10
119.4832569093
 20
114.6568412985
 30
0.0
 10
119.4832569093
 20
114.7835117852
 30
0.0
 10
119.4640520418
 20
115.0244131872
 30
0.0
 10
119.3664952109
 20
115.3554011898
 30
0.0
 10
119.2022298456
 20
115.6239782165
 30
0.0
 10
119.0479341783
 20
115.753682413
 30
0.0
 10
118.965471843
 20
115.8012992912
 30
0.0
  0
SPLINE
  5
53E
100
AcDbEntity
  8
0
100
AcDbSpline
 62
7
  6
CONTINUOUS
 70
0
 71
3
 72
11
 73
7
 74
0
 42
0.0000001
 43
0.0000001
 44
0.0000000001
 40
0.0
 40
0.0
 40
0.0
 40
0.0
 40
0.2893975675
 40
0.5491290883
 40
0.7823145228
 40
1.0
 40
1.0
 40
1.0
 40
1.0
 10
77.2691578276
 20
57.949638574
 30
0.0
 10
77.2691578276
 20
57.9901292555
 30
0.0
 10
77.2629349392
 20
58.0672072838
 30
0.0
 10
77.2318341874
 20
58.1731681058
 30
0.0
 10
77.1792181474
 20
58.2591381189
 30
0.0
 10
77.1298385389
 20
58.3006282675
 30
0.0
 10
77.1034509441
 20
58.3158379536
 30
0.0
  0
SPLINE
  5
53F
100
AcDbEntity
  8
0
100
AcDbSpline
 62
7
  6
CONTINUOUS
 70
0
 71
3
 72
17
 73
13
 74
0
 42
0.0000001
 43
0.0000001
 44
0.0000000001
 40
0.0
 40
0.0
 40
0.0
 40
0.0
 40
0.0428590154
 40
0.087484945
 40
0.1353191404
 40
0.1872810096
 40
0.3045411455
 40
0.4382064078
 40
0.5825480614
 40
0.7297123844
 40
0.8713056989
 40
1.0
 40
1.0
 40
1.0
 40
1.0
 10
116.8190747081
 20
61.8671061485
 30
0.0
 10
116.880704838
 20
61.8315185754
 30
0.0
 10
117.0165794494
 20
61.7750999216
 30
0.0
 10
117.2408281086
 20
61.742186775
 30
0.0
 10
117.4816639896
 20
61.7599334749
 30
0.0
 10
117.8315928058
 20
61.8530069287
 30
0.0
 10
118.2789219237
 20
62.097615003
 30
0.0
 10
118.7731489972
 20
62.5353117979
 30
0.0
 10
119.2100441535
 20
63.0945045079
 30
0.0
 10
119.5538751501
 20
63.7300321683
 30
0.0
 10
119.7770317795
 20
64.3897649241
 30
0.0
 10
119.8368088279
 20
64.8390890749
 30
0.0
 10
119.8368088279
 20
65.0527849105
 30
0.0
  0
SPLINE
  5
540
100
AcDbEntity
  8
0
100
AcDbSpline
 62
7
  6
CONTINUOUS
 70
0
 71
3
 72
17
 73
13
 74
0
 42
0.0000001
 43
0.0000001
 44
0.0000000001
 40
0.0
 40
0.0
 40
0.0
 40
0.0
 40
0.0428590154
 40
0.087484945
 40
0.1353191404
 40
0.1872810096
 40
0.3045411455
 40
0.4382064078
 40
0.5825480614
 40
0.7297123844
 40
0.8713056989
 40
1.0
 40
1.0
 40
1.0
 40
1.0
 10
81.4656902456
 20
50.0305973484
 30
0.0
 10
81.5273203755
 20
49.9950097753
 30
0.0
 10
81.6631949869
 20
49.9385911215
 30
0.0
 10
81.8874436462
 20
49.9056779749
 30
0.0
 10
82.1282795272
 20
49.9234246747
 30
0.0
 10
82.4782083434
 20
50.0164981286
 30
0.0
 10
82.9255374612
 20
50.2611062029
 30
0.0
 10
83.4197645347
 20
50.6988029978
 30
0.0
 10
83.856659691
 20
51.2579957078
 30
0.0
 10
84.2004906876
 20
51.8935233682
 30
0.0
 10
84.423647317
 20
52.5532561239
 30
0.0
 10
84.4834243654
 20
53.0025802748
 30
0.0
 10
84.4834243654
 20
53.2162761104
 30
0.0
  0
ELLIPSE
  5
541
100
AcDbEntity
  8
0
100
AcDbEllipse
 62
7
  6
CONTINUOUS
 10
81.4883717314
 20
147.3014332295
 30
0.0
 11
-1.2246670841
 21
1.5979848223
 31
0.0
 40
0.4692948502
 41
0.7239831172
 42
1.9430984412
  0
ELLIPSE
  5
542
100
AcDbEntity
  8
0
100
AcDbEllipse
 62
7
  6
CONTINUOUS
 10
100.3682013928
 20
136.4014050839
 30
0.0
 11
-1.2246670841
 21
1.5979848223
 31
0.0
 40
0.4692948502
 41
0.7239831172
 42
1.9430984412
  0
ELLIPSE
  5
543
100
AcDbEntity
  8
0
100
AcDbEllipse
 62
7
  6
CONTINUOUS
 10
119.2480310543
 20
125.5013769382
 30
0.0
 11
-1.2246670841
 21
1.5979848223
 31
0.0
 40
0.4692948502
 41
0.7239831172
 42
1.9430984412
  0
ENDSEC
  0
SECTION
  2
OBJECTS
  0
DICTIONARY
  5
C
100
AcDbDictionary
280
0
281
1
  3
ACAD_GROUP
350
D
  3
ACAD_MLINESTYLE
350
17
  3
ACAD_LAYOUT
350
1A
  3
ACAD_PLOTSETTINGS
350
19
  3
ACAD_PLOTSTYLENAME
350
E
  0
DICTIONARY
  5
D
102
{ACAD_REACTORS
330
C
102
}
100
AcDbDictionary
280
0
281
1
  0
ACDBDICTIONARYWDFLT
  5
E
102
{ACAD_REACTORS
330
C
102
}
100
AcDbDictionary
281
1
  3
Normal
350
F
100
AcDbDictionaryWithDefault
340
F
  0
DICTIONARY
  5
17
102
{ACAD_REACTORS
330
C
102
}
100
AcDbDictionary
280
0
281
1
  3
Standard
350
18
  0
DICTIONARY
  5
19
102
{ACAD_REACTORS
330
C
102
}
100
AcDbDictionary
281
1
  0
DICTIONARY
  5
1A
102
{ACAD_REACTORS
330
C
102
}
100
AcDbDictionary
281
1
  3
Model
350
544
  3
Layout1
350
545
  0
ACDBPLACEHOLDER
  5
F
102
{ACAD_REACTORS
330
E
102
}
  0
MLINESTYLE
  5
18
102
{ACAD_REACTORS
330
17
102
}
100
AcDbMlineStyle
  2
STANDARD
 70
0
  3

 62
256
 51
90.0
 52
90.0
 71
2
 49
0.5
 62
256
  6
BYLAYER
 49
-0.5
 62
256
  6
BYLAYER
  0
LAYOUT
  5
544
102
{ACAD_REACTORS
330
1A
102
}
100
AcDbPlotSettings
  1

  2
none_device
  4

  6

 40
0.0
 41
0.0
 42
0.0
 43
0.0
 44
210.0
 45
297.0
 46
0.0
 47
0.0
 48
0.0
 49
0.0
140
0.0
141
0.0
142
1.0
143
1.0
 70
1024
 72
1
 73
0
 74
0
  7

 75
0
147
1.0
148
0.0
149
0.0
100
AcDbLayout
  1
Model
 70
0
 71
0
 10
0.0
 20
0.0
 11
210.0
 21
297.0
 12
0.0
 22
0.0
 32
0.0
 14
0.0
 24
0.0
 34
0.0
 15
0.0
 25
0.0
 35
0.0
146
0.0
 13
0.0
 23
0.0
 33
0.0
 16
1.0
 26
0.0
 36
0.0
 17
0.0
 27
1.0
 37
0.0
 76
0
330
210
345
0
346
0
  0
LAYOUT
  5
545
102
{ACAD_REACTORS
330
1A
102
}
100
AcDbPlotSettings
  1

  2
none_device
  4

  6

 40
0.0
 41
0.0
 42
0.0
 43
0.0
 44
210.0
 45
297.0
 46
0.0
 47
0.0
 48
0.0
 49
0.0
140
0.0
141
0.0
142
1.0
143
1.0
 70
0
 72
1
 73
0
 74
0
  7

 75
0
147
1.0
148
0.0
149
0.0
100
AcDbLayout
  1
Layout1
 70
0
 71
1
 10
0.0
 20
0.0
 11
210.0
 21
297.0
 12
0.0
 22
0.0
 32
0.0
 14
0.0
 24
0.0
 34
0.0
 15
0.0
 25
0.0
 35
0.0
146
0.0
 13
0.0
 23
0.0
 33
0.0
 16
1.0
 26
0.0
 36
0.0
 17
0.0
 27
1.0
 37
0.0
 76
0
330
211
345
0
346
0
  0
ENDSEC
  0
EOF
