999
DXF file: C:\Users\sesa63760\Documents\7-Dev\_Creo\CAD\MCADFD0001388_3D-CAD\drw0001_1.dxf
999
Pro/ENGINEER 2019471 by Parametric Technology Corporation
  0
SECTION
  2
HEADER
  9
$ACADVER
  1
AC1024
  9
$DWGCODEPAGE
  3
ANSI_1252
  9
$EXTMAX
 10
162.4290570074
 20
229.7210949105
 30
0.0
  9
$EXTMIN
 10
0.0
 20
0.0
 30
0.0
  9
$LIMMIN
 10
0.0
 20
0.0
  9
$LIMMAX
 10
162.4290570074
 20
229.7210949105
  9
$VIEWCTR
 10
81.2145285037
 20
114.8605474552
  9
$VIEWSIZE
 40
229.7210949105
  9
$CLAYER
  8
0
  9
$LTSCALE
 40
14.9744121127
  9
$CELTYPE
  6
BYLAYER
  9
$DIMSCALE
 40
1.0
  9
$DIMASZ
 40
1.9336792501
  9
$DIMEXO
 40
1.0
  9
$DIMDLI
 40
10.3459574597
  9
$DIMEXE
 40
1.0
  9
$DIMCEN
 40
2.4503583457
  9
$DIMLFAC
 40
1.0
  9
$DIMBLK
  1
_FILLED
  9
$DIMALT
 70
0
  9
$DIMALTF
 40
0.0393700787
  9
$DIMTXT
 40
2.7071509501
  9
$DIMTOL
 70
1
  9
$DIMLIM
 70
0
  9
$DIMTFAC
 40
1.0
  9
$DIMTP
 40
0.01
  9
$DIMTM
 40
0.01
  9
$DIMGAP
 40
0.625
  9
$DIMDSEP
 70
46
  9
$AUNITS
 70
0
  9
$PDMODE
 70
3
  9
$PDSIZE
 40
0.3125
  9
$HANDSEED
  5
606
  9
$TILEMODE
 70
1
  9
$MEASUREMENT
 70
1
  9
$INSUNITS
 70
4
  0
ENDSEC
  0
SECTION
  2
CLASSES
  0
CLASS
  1
ACDBDICTIONARYWDFLT
  2
AcDbDictionaryWithDefault
  3
AutoCAD 2000
 90
0
 91
1
280
0
281
0
  0
CLASS
  1
ACDBPLACEHOLDER
  2
AcDbPlaceHolder
  3
AutoCAD 2000
 90
0
 91
1
280
0
281
0
  0
CLASS
  1
LAYOUT
  2
AcDbLayout
  3
AutoCAD 2000
 90
0
 91
0
280
0
281
0
  0
ENDSEC
  0
SECTION
  2
TABLES
  0
TABLE
  2
VPORT
  5
8
100
AcDbSymbolTable
 70
2
  0
VPORT
  5
1F4
100
AcDbSymbolTableRecord
100
AcDbViewportTableRecord
  2
*ACTIVE
 70
0
 10
0.0
 20
0.0
 11
1.0
 21
1.0
 12
81.2145285037
 22
114.8605474552
 13
0.0
 23
0.0
 14
1.0
 24
1.0
 15
0.0
 25
0.0
 16
0.0
 26
0.0
 36
1.0
 17
0.0
 27
0.0
 37
0.0
 40
229.7210949105
 41
0.7070707071
 42
50.0
 43
0.0
 44
0.0
 50
0.0
 51
0.0
 71
0
 72
100
 73
1
 74
1
 75
0
 76
0
 77
0
 78
0
  0
ENDTAB
  0
TABLE
  2
LTYPE
  5
5
100
AcDbSymbolTable
 70
6
  0
LTYPE
  5
14
100
AcDbSymbolTableRecord
100
AcDbLinetypeTableRecord
  2
BYBLOCK
 70
0
  3

 72
65
 73
0
 40
0.0
  0
LTYPE
  5
15
100
AcDbSymbolTableRecord
100
AcDbLinetypeTableRecord
  2
BYLAYER
 70
0
  3

 72
65
 73
0
 40
0.0
  0
LTYPE
  5
16
100
AcDbSymbolTableRecord
100
AcDbLinetypeTableRecord
  2
CONTINUOUS
 70
64
  3
Solid line
 72
65
 73
0
 40
0.0
  0
LTYPE
  5
1F5
100
AcDbSymbolTableRecord
100
AcDbLinetypeTableRecord
  2
CENTER
 70
64
  3
____ _ ____ _ ____ _ ____ _ ____ _ ____ _ ____
 72
65
 73
4
 40
0.6
 49
0.375
 74
0
 49
-0.075
 74
0
 49
0.075
 74
0
 49
-0.075
 74
0
  0
LTYPE
  5
1F6
100
AcDbSymbolTableRecord
100
AcDbLinetypeTableRecord
  2
HIDDEN
 70
64
  3
- - - - - - - - - - - - - - - - - - - -
 72
65
 73
2
 40
0.2
 49
0.1
 74
0
 49
-0.1
 74
0
  0
LTYPE
  5
1F7
100
AcDbSymbolTableRecord
100
AcDbLinetypeTableRecord
  2
PHANTOM
 70
64
  3
_____ _ _ _____ _ _ _____ _ _ _____
 72
65
 73
6
 40
0.8
 49
0.45
 74
0
 49
-0.05
 74
0
 49
0.1
 74
0
 49
-0.05
 74
0
 49
0.1
 74
0
 49
-0.05
 74
0
  0
LTYPE
  5
1F8
100
AcDbSymbolTableRecord
100
AcDbLinetypeTableRecord
  2
DOT
 70
64
  3
. . . . . . . . . . . . . . . . . . . .
 72
65
 73
2
 40
0.2
 49
0.1
 74
0
 49
-0.1
 74
0
  0
LTYPE
  5
1F9
100
AcDbSymbolTableRecord
100
AcDbLinetypeTableRecord
  2
DASHED
 70
64
  3
- - - - - - - - - - - - - - - - - - - -
 72
65
 73
2
 40
0.2
 49
0.1
 74
0
 49
-0.1
 74
0
  0
ENDTAB
  0
TABLE
  2
LAYER
  5
2
100
AcDbSymbolTable
 70
36
  0
LAYER
  5
10
100
AcDbSymbolTableRecord
100
AcDbLayerTableRecord
  2
0
 70
0
 62
7
  6
CONTINUOUS
370
-3
390
F
  0
LAYER
  5
1FA
100
AcDbSymbolTableRecord
100
AcDbLayerTableRecord
  2
DEFAULT_1
 70
0
 62
7
  6
CENTER
370
-3
390
F
  0
LAYER
  5
1FB
100
AcDbSymbolTableRecord
100
AcDbLayerTableRecord
  2
DEFAULT_2
 70
0
 62
8
  6
HIDDEN
370
-3
390
F
  0
LAYER
  5
1FC
100
AcDbSymbolTableRecord
100
AcDbLayerTableRecord
  2
DEFAULT_3
 70
0
 62
7
  6
PHANTOM
370
-3
390
F
  0
LAYER
  5
1FD
100
AcDbSymbolTableRecord
100
AcDbLayerTableRecord
  2
00_COMPONENTS
 70
0
 62
7
  6
CONTINUOUS
370
-3
390
F
  0
LAYER
  5
1FE
100
AcDbSymbolTableRecord
100
AcDbLayerTableRecord
  2
01_1_DEFAULT_DATUMS
 70
0
 62
7
  6
CONTINUOUS
370
-3
390
F
  0
LAYER
  5
1FF
100
AcDbSymbolTableRecord
100
AcDbLayerTableRecord
  2
01_PLANES
 70
0
 62
7
  6
CONTINUOUS
370
-3
390
F
  0
LAYER
  5
200
100
AcDbSymbolTableRecord
100
AcDbLayerTableRecord
  2
02_COORD_SYS
 70
0
 62
7
  6
CONTINUOUS
370
-3
390
F
  0
LAYER
  5
201
100
AcDbSymbolTableRecord
100
AcDbLayerTableRecord
  2
03_AXES
 70
0
 62
7
  6
CONTINUOUS
370
-3
390
F
  0
LAYER
  5
202
100
AcDbSymbolTableRecord
100
AcDbLayerTableRecord
  2
04_POINTS
 70
0
 62
7
  6
CONTINUOUS
370
-3
390
F
  0
LAYER
  5
203
100
AcDbSymbolTableRecord
100
AcDbLayerTableRecord
  2
05_CURVES
 70
0
 62
7
  6
CONTINUOUS
370
-3
390
F
  0
LAYER
  5
204
100
AcDbSymbolTableRecord
100
AcDbLayerTableRecord
  2
06_SURFS
 70
0
 62
7
  6
CONTINUOUS
370
-3
390
F
  0
LAYER
  5
205
100
AcDbSymbolTableRecord
100
AcDbLayerTableRecord
  2
07_COSMETICS
 70
0
 62
7
  6
CONTINUOUS
370
-3
390
F
  0
LAYER
  5
206
100
AcDbSymbolTableRecord
100
AcDbLayerTableRecord
  2
10_NOTES
 70
0
 62
7
  6
CONTINUOUS
370
-3
390
F
  0
LAYER
  5
207
100
AcDbSymbolTableRecord
100
AcDbLayerTableRecord
  2
11_NOTES_PUB
 70
0
 62
7
  6
CONTINUOUS
370
-3
390
F
  0
LAYER
  5
208
100
AcDbSymbolTableRecord
100
AcDbLayerTableRecord
  2
13_REF_GTOL
 70
0
 62
7
  6
CONTINUOUS
370
-3
390
F
  0
LAYER
  5
209
100
AcDbSymbolTableRecord
100
AcDbLayerTableRecord
  2
16_MISC
 70
0
 62
7
  6
CONTINUOUS
370
-3
390
F
  0
LAYER
  5
20A
100
AcDbSymbolTableRecord
100
AcDbLayerTableRecord
  2
17_NO_PRINT
 70
0
 62
7
  6
CONTINUOUS
370
-3
390
F
  0
LAYER
  5
20B
100
AcDbSymbolTableRecord
100
AcDbLayerTableRecord
  2
18_DATUM_CAMS_JOINTS
 70
0
 62
7
  6
CONTINUOUS
370
-3
390
F
  0
LAYER
  5
20C
100
AcDbSymbolTableRecord
100
AcDbLayerTableRecord
  2
19_DATUM_FUNCTIONAL
 70
0
 62
7
  6
CONTINUOUS
370
-3
390
F
  0
LAYER
  5
20D
100
AcDbSymbolTableRecord
100
AcDbLayerTableRecord
  2
20_DATUM_KINEMATIC_SCHEME
 70
0
 62
7
  6
CONTINUOUS
370
-3
390
F
  0
ENDTAB
  0
TABLE
  2
STYLE
  5
3
100
AcDbSymbolTable
 70
1
  0
STYLE
  5
11
100
AcDbSymbolTableRecord
100
AcDbTextStyleTableRecord
  2
STANDARD
 70
0
 40
0.0
 41
0.8
 50
0.0
 71
0
 42
0.2
  3
txt
  4

  0
STYLE
  5
20E
100
AcDbSymbolTableRecord
100
AcDbTextStyleTableRecord
  2
TEXTSTYLE_1
 70
0
 40
0.0
 41
0.8
 50
0.0
 71
0
 42
0.2
  3
gdt
  4

  0
ENDTAB
  0
TABLE
  2
VIEW
  5
6
100
AcDbSymbolTable
 70
0
  0
ENDTAB
  0
TABLE
  2
UCS
  5
7
100
AcDbSymbolTable
 70
0
  0
ENDTAB
  0
TABLE
  2
APPID
  5
9
100
AcDbSymbolTable
 70
1
  0
APPID
  5
20F
100
AcDbSymbolTableRecord
100
AcDbRegAppTableRecord
  2
ACAD
 70
0
  0
ENDTAB
  0
TABLE
  2
BLOCK_RECORD
  5
1
100
AcDbSymbolTable
 70
0
  0
BLOCK_RECORD
  5
210
100
AcDbSymbolTableRecord
100
AcDbBlockTableRecord
  2
*Model_Space
  0
BLOCK_RECORD
  5
211
100
AcDbSymbolTableRecord
100
AcDbBlockTableRecord
  2
*Paper_Space
  0
BLOCK_RECORD
  5
212
100
AcDbSymbolTableRecord
100
AcDbBlockTableRecord
  2
_FILLED
  0
ENDTAB
  0
TABLE
  2
DIMSTYLE
  5
A
100
AcDbSymbolTable
 70
1
100
AcDbDimStyleTable
 71
0
  0
DIMSTYLE
105
213
100
AcDbSymbolTableRecord
100
AcDbDimStyleTableRecord
  2
STANDARD
 70
0
  3

  4

 40
1.0
 41
1.9336792501
 42
1.0
 43
0.38
 44
1.0
 45
0.0
 46
0.0
 47
0.01
 48
0.01
140
2.7071509501
141
0.09
142
0.0
143
25.4
144
1.0
145
0.0
146
1.0
147
0.625
 71
1
 72
0
 73
0
 74
0
 75
0
 76
0
 77
1
 78
8
 79
2
170
0
171
1
172
0
173
0
174
0
175
0
176
0
177
0
178
0
270
2
179
2
271
2
272
2
273
2
274
2
275
0
280
0
281
0
282
0
283
1
284
8
285
0
286
0
287
3
288
0
340
11
278
46
341
212
342
212
343
212
344
212
  0
ENDTAB
  0
ENDSEC
  0
SECTION
  2
BLOCKS
  0
BLOCK
  5
20
100
AcDbEntity
  8
0
100
AcDbBlockBegin
  2
*Model_Space
 70
0
 10
0.0
 20
0.0
 30
0.0
  3
*Model_Space
  1

  0
ENDBLK
  5
21
100
AcDbEntity
  8
0
100
AcDbBlockEnd
  0
BLOCK
  5
1C
100
AcDbEntity
  8
0
100
AcDbBlockBegin
  2
*Paper_Space
 70
0
 10
0.0
 20
0.0
 30
0.0
  3
*Paper_Space
  1

  0
ENDBLK
  5
1D
100
AcDbEntity
  8
0
100
AcDbBlockEnd
  0
BLOCK
  5
214
100
AcDbEntity
  8
0
100
AcDbBlockBegin
  2
_FILLED
 70
64
 10
0.0
 20
0.0
  3
_FILLED
  1

  0
SOLID
  5
215
100
AcDbEntity
  8
0
  6
BYBLOCK
 62
0
100
AcDbTrace
 10
0.0
 20
0.0
 11
-1.0
 21
0.25
 12
-1.0
 22
-0.25
 13
-1.0
 23
-0.25
  0
ENDBLK
  5
216
100
AcDbEntity
  8
0
  6
BYBLOCK
 62
0
100
AcDbBlockEnd
  0
ENDSEC
  0
SECTION
  2
ENTITIES
  0
LINE
  5
217
100
AcDbEntity
  8
0
100
AcDbLine
 62
7
  6
CONTINUOUS
 10
27.3849219287
 20
140.7787348569
 11
27.1020803938
 21
140.2888362285
  0
LINE
  5
218
100
AcDbEntity
  8
0
100
AcDbLine
 62
7
  6
CONTINUOUS
 10
40.5476598584
 20
162.9935930478
 11
45.6282009288
 21
165.9268272934
  0
LINE
  5
219
100
AcDbEntity
  8
0
100
AcDbLine
 62
7
  6
CONTINUOUS
 10
63.3057968591
 20
176.1329311402
 11
69.3868898592
 21
179.6438308635
  0
LINE
  5
21A
100
AcDbEntity
  8
0
100
AcDbLine
 62
7
  6
CONTINUOUS
 10
50.3304470398
 20
168.1109409788
 11
51.1789716445
 21
168.6008339635
  0
LINE
  5
21B
100
AcDbEntity
  8
0
100
AcDbLine
 62
7
  6
CONTINUOUS
 10
63.977551098
 20
175.7451024234
 11
55.6337258189
 21
170.9278214077
  0
LINE
  5
21C
100
AcDbEntity
  8
0
100
AcDbLine
 62
7
  6
CONTINUOUS
 10
38.3803921909
 20
160.9666640533
 11
36.4005014467
 21
159.8235804224
  0
LINE
  5
21D
100
AcDbEntity
  8
0
100
AcDbLine
 62
7
  6
CONTINUOUS
 10
46.2999551677
 20
165.5389985766
 11
49.9630251081
 21
167.6538603688
  0
LINE
  5
21E
100
AcDbEntity
  8
0
100
AcDbLine
 62
7
  6
CONTINUOUS
 10
51.8153703971
 20
168.2334172844
 11
52.9467365366
 21
168.8866079306
  0
LINE
  5
21F
100
AcDbEntity
  8
0
100
AcDbLine
 62
7
  6
CONTINUOUS
 10
56.2701245715
 20
170.5604047287
 11
53.3141584683
 21
168.8537870904
  0
LINE
  5
220
100
AcDbEntity
  8
0
100
AcDbLine
 62
7
  6
CONTINUOUS
 10
35.7287472078
 20
158.6600545467
 11
36.4005014467
 21
159.0478897223
  0
LINE
  5
221
100
AcDbEntity
  8
0
100
AcDbLine
 62
7
  6
CONTINUOUS
 10
39.0521696463
 20
160.5788219327
 11
40.5476598584
 21
161.4422384553
  0
LINE
  5
222
100
AcDbEntity
  8
0
100
AcDbLine
 62
7
  6
CONTINUOUS
 10
55.4216105652
 20
168.6008389089
 11
59.3813920536
 21
170.8870061706
  0
LINE
  5
223
100
AcDbEntity
  8
0
100
AcDbLine
 62
7
  6
CONTINUOUS
 10
24.2736650449
 20
118.7280045521
 11
24.2736650449
 21
137.3494557456
  0
LINE
  5
224
100
AcDbEntity
  8
0
100
AcDbLine
 62
7
  6
CONTINUOUS
 10
28.0567020745
 20
116.8142120197
 11
28.0567020745
 21
116.5439165154
  0
LINE
  5
225
100
AcDbEntity
  8
0
100
AcDbLine
 62
7
  6
CONTINUOUS
 10
50.3304470398
 20
168.1109409788
 11
49.9630251081
 21
167.6538603688
  0
LINE
  5
226
100
AcDbEntity
  8
0
100
AcDbLine
 62
7
  6
CONTINUOUS
 10
44.0832084841
 20
160.9523892752
 11
41.2441865777
 21
159.3132889974
  0
LINE
  5
227
100
AcDbEntity
  8
0
100
AcDbLine
 62
7
  6
CONTINUOUS
 10
42.4462878303
 20
144.7387823954
 11
42.2341566791
 21
144.3713584241
  0
LINE
  5
228
100
AcDbEntity
  8
0
100
AcDbLine
 62
7
  6
CONTINUOUS
 10
19.8878520678
 20
108.2419164463
 11
19.3947705397
 21
107.4961723208
  0
LINE
  5
229
100
AcDbEntity
  8
0
100
AcDbLine
 62
7
  6
CONTINUOUS
 10
41.816512366
 20
151.9201160258
 11
40.8265669939
 21
151.3485742103
  0
LINE
  5
22A
100
AcDbEntity
  8
0
100
AcDbLine
 62
7
  6
CONTINUOUS
 10
67.1595990302
 20
166.3963578709
 11
63.1998175418
 21
164.1101906092
  0
LINE
  5
22B
100
AcDbEntity
  8
0
100
AcDbLine
 62
7
  6
CONTINUOUS
 10
42.843665411
 20
151.5410402495
 11
42.7291246548
 21
151.4749105079
  0
LINE
  5
22C
100
AcDbEntity
  8
0
100
AcDbLine
 62
7
  6
CONTINUOUS
 10
77.3419054731
 20
170.7237523607
 11
79.6541350208
 21
172.0587107438
  0
LINE
  5
22D
100
AcDbEntity
  8
0
100
AcDbLine
 62
7
  6
CONTINUOUS
 10
43.4310186452
 20
150.6553931475
 11
42.7291246548
 21
150.2501568822
  0
LINE
  5
22E
100
AcDbEntity
  8
0
100
AcDbLine
 62
7
  6
CONTINUOUS
 10
25.6878727194
 20
139.7989488876
 11
26.8192388589
 21
140.4521395338
  0
LINE
  5
22F
100
AcDbEntity
  8
0
100
AcDbLine
 62
7
  6
CONTINUOUS
 10
27.3849219287
 20
140.7787348569
 11
35.7287472078
 21
145.5960158726
  0
LINE
  5
230
100
AcDbEntity
  8
0
100
AcDbLine
 62
7
  6
CONTINUOUS
 10
43.7190700269
 20
150.0051962805
 11
42.7291246548
 21
149.433654465
  0
LINE
  5
231
100
AcDbEntity
  8
0
100
AcDbLine
 62
7
  6
CONTINUOUS
 10
43.8295407533
 20
149.9056926512
 11
43.577656325
 21
149.7602679767
  0
LINE
  5
232
100
AcDbEntity
  8
0
100
AcDbLine
 62
7
  6
CONTINUOUS
 10
81.2097764161
 20
171.1605810839
 11
82.6451972057
 21
171.9893167162
  0
LINE
  5
233
100
AcDbEntity
  8
0
100
AcDbLine
 62
7
  6
CONTINUOUS
 10
81.2097764161
 20
169.690876733
 11
82.8696238781
 21
170.6491843917
  0
LINE
  5
234
100
AcDbEntity
  8
0
100
AcDbLine
 62
7
  6
CONTINUOUS
 10
96.3725470658
 20
66.6773175002
 11
96.6983689546
 21
66.7658700265
  0
LINE
  5
235
100
AcDbEntity
  8
0
100
AcDbLine
 62
7
  6
CONTINUOUS
 10
124.5062572077
 20
58.8231890753
 11
124.138835276
 21
58.8560099155
  0
LINE
  5
236
100
AcDbEntity
  8
0
100
AcDbLine
 62
7
  6
CONTINUOUS
 10
19.16334839
 20
103.2797205323
 11
19.3363534318
 21
103.1458131523
  0
LINE
  5
237
100
AcDbEntity
  8
0
100
AcDbLine
 62
7
  6
CONTINUOUS
 10
38.4394407792
 20
91.3597220465
 11
36.9049093812
 21
92.9126372823
  0
LINE
  5
238
100
AcDbEntity
  8
0
100
AcDbLine
 62
7
  6
CONTINUOUS
 10
35.7287472078
 20
145.5960158726
 11
35.7287472078
 21
158.6600545467
  0
LINE
  5
239
100
AcDbEntity
  8
0
100
AcDbLine
 62
7
  6
CONTINUOUS
 10
36.4005014467
 20
158.2722258299
 11
36.4005014467
 21
159.8235804224
  0
LINE
  5
23A
100
AcDbEntity
  8
0
100
AcDbLine
 62
7
  6
CONTINUOUS
 10
39.3704576768
 20
110.2823599474
 11
39.3704576768
 21
110.0120644431
  0
LINE
  5
23B
100
AcDbEntity
  8
0
100
AcDbLine
 62
7
  6
CONTINUOUS
 10
40.5476598584
 20
161.4422384553
 11
40.5476598584
 21
162.9935930478
  0
LINE
  5
23C
100
AcDbEntity
  8
0
100
AcDbLine
 62
7
  6
CONTINUOUS
 10
20.1915948458
 20
108.0665544388
 11
21.0925657574
 21
109.342595361
  0
LINE
  5
23D
100
AcDbEntity
  8
0
100
AcDbLine
 62
7
  6
CONTINUOUS
 10
26.8005367056
 20
108.8761995859
 11
25.7811051935
 21
107.4323834649
  0
LINE
  5
23E
100
AcDbEntity
  8
0
100
AcDbLine
 62
7
  6
CONTINUOUS
 10
53.0529189877
 20
152.495668397
 11
56.5884381738
 21
154.5368891663
  0
LINE
  5
23F
100
AcDbEntity
  8
0
100
AcDbLine
 62
7
  6
CONTINUOUS
 10
84.0382153167
 20
169.5276180658
 11
85.4736361063
 21
170.3563536982
  0
LINE
  5
240
100
AcDbEntity
  8
0
100
AcDbLine
 62
7
  6
CONTINUOUS
 10
54.396450682
 20
151.7199975596
 11
56.5884381738
 21
152.9855345738
  0
LINE
  5
241
100
AcDbEntity
  8
0
100
AcDbLine
 62
7
  6
CONTINUOUS
 10
68.0788940755
 20
158.8438799304
 11
69.210260215
 21
159.4970705766
  0
LINE
  5
242
100
AcDbEntity
  8
0
100
AcDbLine
 62
7
  6
CONTINUOUS
 10
85.3463683082
 20
168.7723726699
 11
83.5644666385
 21
167.7435974022
  0
LINE
  5
243
100
AcDbEntity
  8
0
100
AcDbLine
 62
7
  6
CONTINUOUS
 10
72.5336482499
 20
161.1708673747
 11
69.5776821467
 21
159.4642497364
  0
LINE
  5
244
100
AcDbEntity
  8
0
100
AcDbLine
 62
7
  6
CONTINUOUS
 10
67.8667682234
 20
157.9865702667
 11
68.7152928281
 21
158.4764632514
  0
LINE
  5
245
100
AcDbEntity
  8
0
100
AcDbLine
 62
7
  6
CONTINUOUS
 10
81.5138722817
 20
165.6207317113
 11
73.1700470025
 21
160.8034506956
  0
LINE
  5
246
100
AcDbEntity
  8
0
100
AcDbLine
 62
7
  6
CONTINUOUS
 10
55.9167133745
 20
150.8422933412
 11
53.9368226303
 21
149.6992097103
  0
LINE
  5
247
100
AcDbEntity
  8
0
100
AcDbLine
 62
7
  6
CONTINUOUS
 10
63.8362763513
 20
155.4146278645
 11
67.4993462918
 21
157.5294896567
  0
LINE
  5
248
100
AcDbEntity
  8
0
100
AcDbLine
 62
7
  6
CONTINUOUS
 10
59.4274895198
 20
152.0935649022
 11
64.5080305902
 21
155.0267991477
  0
LINE
  5
249
100
AcDbEntity
  8
0
100
AcDbLine
 62
7
  6
CONTINUOUS
 10
82.1856265206
 20
165.2329029945
 11
88.2667195206
 21
168.7438027178
  0
LINE
  5
24A
100
AcDbEntity
  8
0
100
AcDbLine
 62
7
  6
CONTINUOUS
 10
69.2102767012
 20
157.2109128331
 11
70.0588013059
 21
157.7008058178
  0
LINE
  5
24B
100
AcDbEntity
  8
0
100
AcDbLine
 62
7
  6
CONTINUOUS
 10
48.2224199568
 20
144.8893391566
 11
46.9717877161
 21
144.1672906058
  0
LINE
  5
24C
100
AcDbEntity
  8
0
100
AcDbLine
 62
7
  6
CONTINUOUS
 10
82.8573807594
 20
164.8450742777
 11
74.5135554803
 21
160.027793262
  0
LINE
  5
24D
100
AcDbEntity
  8
0
100
AcDbLine
 62
7
  6
CONTINUOUS
 10
65.1797848291
 20
154.6389704309
 11
68.8428547695
 21
156.7538322231
  0
LINE
  5
24E
100
AcDbEntity
  8
0
100
AcDbLine
 62
7
  6
CONTINUOUS
 10
53.9368226303
 20
148.1478551178
 11
57.2602218523
 21
150.0666359076
  0
LINE
  5
24F
100
AcDbEntity
  8
0
100
AcDbLine
 62
7
  6
CONTINUOUS
 10
73.1700470025
 20
159.1704458614
 11
74.5135554803
 21
159.9461162125
  0
LINE
  5
250
100
AcDbEntity
  8
0
100
AcDbLine
 62
7
  6
CONTINUOUS
 10
46.9717877161
 20
144.0039901224
 11
46.47681503
 21
143.7182192147
  0
LINE
  5
251
100
AcDbEntity
  8
0
100
AcDbLine
 62
7
  6
CONTINUOUS
 10
70.6952000585
 20
157.3333891387
 11
71.8265661981
 21
157.9865797849
  0
LINE
  5
252
100
AcDbEntity
  8
0
100
AcDbLine
 62
7
  6
CONTINUOUS
 10
75.149954233
 20
159.660376583
 11
72.1939881297
 21
157.9537589447
  0
LINE
  5
253
100
AcDbEntity
  8
0
100
AcDbLine
 62
7
  6
CONTINUOUS
 10
54.6085768692
 20
147.760026401
 11
55.2803311081
 21
148.1478615766
  0
LINE
  5
254
100
AcDbEntity
  8
0
100
AcDbLine
 62
7
  6
CONTINUOUS
 10
57.9319993077
 20
149.678793787
 11
59.4274895198
 21
150.5422103096
  0
LINE
  5
255
100
AcDbEntity
  8
0
100
AcDbLine
 62
7
  6
CONTINUOUS
 10
93.0567538701
 20
68.8683099123
 11
92.7309319813
 21
68.779757386
  0
LINE
  5
256
100
AcDbEntity
  8
0
100
AcDbLine
 62
7
  6
CONTINUOUS
 10
97.3177489396
 20
62.0547327722
 11
97.6590937156
 21
61.9326263001
  0
LINE
  5
257
100
AcDbEntity
  8
0
100
AcDbLine
 62
7
  6
CONTINUOUS
 10
38.4394407792
 20
91.3597220465
 11
75.4919903769
 21
69.9679065096
  0
LINE
  5
258
100
AcDbEntity
  8
0
100
AcDbLine
 62
7
  6
CONTINUOUS
 10
73.9574589789
 20
71.5208217454
 11
36.9049093812
 21
92.9126372823
  0
LINE
  5
259
100
AcDbEntity
  8
0
100
AcDbLine
 62
7
  6
CONTINUOUS
 10
19.336310401
 20
103.1457386985
 11
36.9439214493
 21
92.980209695
  0
LINE
  5
25A
100
AcDbEntity
  8
0
100
AcDbLine
 62
7
  6
CONTINUOUS
 10
75.1272677151
 20
70.9355431668
 11
93.8656754315
 21
60.117163172
  0
LINE
  5
25B
100
AcDbEntity
  8
0
100
AcDbLine
 62
7
  6
CONTINUOUS
 10
111.2480658535
 20
50.6379012524
 11
94.8276776156
 21
60.1180023532
  0
LINE
  5
25C
100
AcDbEntity
  8
0
100
AcDbLine
 62
7
  6
CONTINUOUS
 10
42.2341566791
 20
144.8612598744
 11
42.2341566791
 21
144.3713584241
  0
LINE
  5
25D
100
AcDbEntity
  8
0
100
AcDbLine
 62
7
  6
CONTINUOUS
 10
42.7291246548
 20
149.433654465
 11
42.7291246548
 21
150.2501568822
  0
LINE
  5
25E
100
AcDbEntity
  8
0
100
AcDbLine
 62
7
  6
CONTINUOUS
 10
42.7291246548
 20
151.4749105079
 11
42.7291246548
 21
151.6576683149
  0
LINE
  5
25F
100
AcDbEntity
  8
0
100
AcDbLine
 62
7
  6
CONTINUOUS
 10
43.1534947064
 20
107.8279764064
 11
43.1534947064
 21
126.4494275999
  0
LINE
  5
260
100
AcDbEntity
  8
0
100
AcDbLine
 62
7
  6
CONTINUOUS
 10
43.577656325
 20
149.7602679767
 11
43.577656325
 21
148.9437655596
  0
LINE
  5
261
100
AcDbEntity
  8
0
100
AcDbLine
 62
7
  6
CONTINUOUS
 10
43.7190700269
 20
150.0051962805
 11
43.7190700269
 21
150.1135103775
  0
LINE
  5
262
100
AcDbEntity
  8
0
100
AcDbLine
 62
7
  6
CONTINUOUS
 10
46.47681503
 20
147.4741303335
 11
46.47681503
 21
143.7182192147
  0
LINE
  5
263
100
AcDbEntity
  8
0
100
AcDbLine
 62
7
  6
CONTINUOUS
 10
46.9365317359
 20
105.914183874
 11
46.9365317359
 21
105.6438883697
  0
LINE
  5
264
100
AcDbEntity
  8
0
100
AcDbLine
 62
7
  6
CONTINUOUS
 10
46.9717877161
 20
144.1672906058
 11
46.9717877161
 21
144.0039901224
  0
LINE
  5
265
100
AcDbEntity
  8
0
100
AcDbLine
 62
7
  6
CONTINUOUS
 10
46.2647515901
 20
129.8787067112
 11
45.9819100552
 21
129.3888080828
  0
LINE
  5
266
100
AcDbEntity
  8
0
100
AcDbLine
 62
7
  6
CONTINUOUS
 10
67.4993462918
 20
157.5294896567
 11
67.8667682234
 21
157.9865702667
  0
LINE
  5
267
100
AcDbEntity
  8
0
100
AcDbLine
 62
7
  6
CONTINUOUS
 10
69.2102767012
 20
157.2109128331
 11
68.8428547695
 21
156.7538322231
  0
LINE
  5
268
100
AcDbEntity
  8
0
100
AcDbLine
 62
7
  6
CONTINUOUS
 10
74.3014402266
 20
157.7008107632
 11
78.261221715
 21
159.9869780249
  0
LINE
  5
269
100
AcDbEntity
  8
0
100
AcDbLine
 62
7
  6
CONTINUOUS
 10
62.9630381456
 20
150.0523611296
 11
60.1240162392
 21
148.4132608518
  0
LINE
  5
26A
100
AcDbEntity
  8
0
100
AcDbLine
 62
7
  6
CONTINUOUS
 10
53.9014671441
 20
143.187602411
 11
54.3964398301
 21
143.4733733187
  0
LINE
  5
26B
100
AcDbEntity
  8
0
100
AcDbLine
 62
7
  6
CONTINUOUS
 10
54.3964398301
 20
143.3100728353
 11
54.6085768692
 21
143.4325494808
  0
LINE
  5
26C
100
AcDbEntity
  8
0
100
AcDbLine
 62
7
  6
CONTINUOUS
 10
79.162047771
 20
76.8902407386
 11
78.8362258821
 21
76.8016882123
  0
LINE
  5
26D
100
AcDbEntity
  8
0
100
AcDbLine
 62
7
  6
CONTINUOUS
 10
82.8819902745
 20
77.2774008049
 11
83.0274260029
 21
77.239928993
  0
LINE
  5
26E
100
AcDbEntity
  8
0
100
AcDbLine
 62
7
  6
CONTINUOUS
 10
99.7929836906
 20
65.0136541629
 11
98.9349720978
 21
65.3185264628
  0
LINE
  5
26F
100
AcDbEntity
  8
0
100
AcDbLine
 62
7
  6
CONTINUOUS
 10
97.7810799452
 20
65.607184623
 11
98.0466560671
 21
65.4736135399
  0
LINE
  5
270
100
AcDbEntity
  8
0
100
AcDbLine
 62
7
  6
CONTINUOUS
 10
93.373004434
 20
61.3593867192
 11
74.6345967176
 21
72.177766714
  0
LINE
  5
271
100
AcDbEntity
  8
0
100
AcDbLine
 62
7
  6
CONTINUOUS
 10
37.2668735283
 20
93.7515436923
 11
18.8436394035
 21
104.3879622457
  0
LINE
  5
272
100
AcDbEntity
  8
0
100
AcDbLine
 62
7
  6
CONTINUOUS
 10
97.0491721145
 20
61.1804235778
 11
100.2072083321
 21
59.3571717649
  0
LINE
  5
273
100
AcDbEntity
  8
0
100
AcDbLine
 62
7
  6
CONTINUOUS
 10
74.877288235
 20
74.0173739633
 11
37.8247386373
 21
95.4091895002
  0
LINE
  5
274
100
AcDbEntity
  8
0
100
AcDbLine
 62
7
  6
CONTINUOUS
 10
97.434418566
 20
61.6344314646
 11
99.7929836906
 21
60.2727440605
  0
LINE
  5
275
100
AcDbEntity
  8
0
100
AcDbLine
 62
7
  6
CONTINUOUS
 10
97.6590937156
 20
61.9326263001
 11
97.3502091825
 21
62.1109568341
  0
LINE
  5
276
100
AcDbEntity
  8
0
100
AcDbLine
 62
7
  6
CONTINUOUS
 10
19.3947705397
 20
107.4961723208
 11
93.9241355702
 21
64.4675967944
  0
LINE
  5
277
100
AcDbEntity
  8
0
100
AcDbLine
 62
7
  6
CONTINUOUS
 10
94.9393521668
 20
63.907483845
 11
95.5539018125
 21
63.5526814683
  0
LINE
  5
278
100
AcDbEntity
  8
0
100
AcDbLine
 62
7
  6
CONTINUOUS
 10
96.4256601898
 20
63.3884785248
 11
95.1094414849
 21
64.1483805571
  0
LINE
  5
279
100
AcDbEntity
  8
0
100
AcDbLine
 62
7
  6
CONTINUOUS
 10
94.4172170983
 20
65.2133409198
 11
19.8878520678
 21
108.2419164463
  0
LINE
  5
27A
100
AcDbEntity
  8
0
100
AcDbLine
 62
7
  6
CONTINUOUS
 10
102.9042405744
 20
60.4360135033
 11
102.6213990395
 21
60.5993168086
  0
LINE
  5
27B
100
AcDbEntity
  8
0
100
AcDbLine
 62
7
  6
CONTINUOUS
 10
95.8046819809
 20
64.8644255616
 11
96.9861612716
 21
64.1823136066
  0
LINE
  5
27C
100
AcDbEntity
  8
0
100
AcDbLine
 62
7
  6
CONTINUOUS
 10
96.0756250506
 20
65.5167818586
 11
96.7772941098
 21
65.111682203
  0
LINE
  5
27D
100
AcDbEntity
  8
0
100
AcDbLine
 62
7
  6
CONTINUOUS
 10
96.9747048373
 20
65.112829371
 11
97.4495874581
 21
64.8386619645
  0
LINE
  5
27E
100
AcDbEntity
  8
0
100
AcDbLine
 62
7
  6
CONTINUOUS
 10
106.5104218631
 20
59.7009817773
 11
105.6618901929
 21
60.1908706827
  0
LINE
  5
27F
100
AcDbEntity
  8
0
100
AcDbLine
 62
7
  6
CONTINUOUS
 10
96.2955563394
 20
65.8282695227
 11
96.7056607521
 21
65.591500986
  0
LINE
  5
280
100
AcDbEntity
  8
0
100
AcDbLine
 62
7
  6
CONTINUOUS
 10
97.9990069529
 20
64.9096303386
 11
98.3482654799
 21
64.7079903957
  0
LINE
  5
281
100
AcDbEntity
  8
0
100
AcDbLine
 62
7
  6
CONTINUOUS
 10
95.6219307879
 20
66.3140198346
 11
21.0925657574
 21
109.342595361
  0
LINE
  5
282
100
AcDbEntity
  8
0
100
AcDbLine
 62
7
  6
CONTINUOUS
 10
74.9543057041
 20
71.0695250007
 11
75.1273107459
 21
70.9356176207
  0
LINE
  5
283
100
AcDbEntity
  8
0
100
AcDbLine
 62
7
  6
CONTINUOUS
 10
93.8657184623
 20
60.1172376259
 11
93.6927134205
 21
60.2511450059
  0
LINE
  5
284
100
AcDbEntity
  8
0
100
AcDbLine
 62
7
  6
CONTINUOUS
 10
75.4919903769
 20
69.9679065096
 11
73.9574589789
 21
71.5208217454
  0
LINE
  5
285
100
AcDbEntity
  8
0
100
AcDbLine
 62
7
  6
CONTINUOUS
 10
36.0341962083
 20
101.5128925243
 11
37.0536325913
 21
102.9567155388
  0
LINE
  5
286
100
AcDbEntity
  8
0
100
AcDbLine
 62
7
  6
CONTINUOUS
 10
60.6963420274
 20
141.0200878801
 11
59.7063966553
 21
140.4485460647
  0
LINE
  5
287
100
AcDbEntity
  8
0
100
AcDbLine
 62
7
  6
CONTINUOUS
 10
86.0394286916
 20
155.4963297252
 11
82.0796472032
 21
153.2101624635
  0
LINE
  5
288
100
AcDbEntity
  8
0
100
AcDbLine
 62
7
  6
CONTINUOUS
 10
61.7234950724
 20
140.6410121038
 11
61.6089543163
 21
140.5748823622
  0
LINE
  5
289
100
AcDbEntity
  8
0
100
AcDbLine
 62
7
  6
CONTINUOUS
 10
96.2217351345
 20
159.823724215
 11
98.5339646822
 21
161.1586825981
  0
LINE
  5
28A
100
AcDbEntity
  8
0
100
AcDbLine
 62
7
  6
CONTINUOUS
 10
62.3108483066
 20
139.7553650018
 11
61.6089543163
 21
139.3501287365
  0
LINE
  5
28B
100
AcDbEntity
  8
0
100
AcDbLine
 62
7
  6
CONTINUOUS
 10
44.5677023808
 20
128.8989207419
 11
45.6990685203
 21
129.5521113881
  0
LINE
  5
28C
100
AcDbEntity
  8
0
100
AcDbLine
 62
7
  6
CONTINUOUS
 10
46.2647515901
 20
129.8787067112
 11
54.6085768692
 21
134.6959877269
  0
LINE
  5
28D
100
AcDbEntity
  8
0
100
AcDbLine
 62
7
  6
CONTINUOUS
 10
62.5988996884
 20
139.1051681348
 11
61.6089543163
 21
138.5336263193
  0
LINE
  5
28E
100
AcDbEntity
  8
0
100
AcDbLine
 62
7
  6
CONTINUOUS
 10
62.7093704148
 20
139.0056645055
 11
62.4574859864
 21
138.860239831
  0
LINE
  5
28F
100
AcDbEntity
  8
0
100
AcDbLine
 62
7
  6
CONTINUOUS
 10
100.0896060776
 20
160.2605529382
 11
101.5250268671
 21
161.0892885705
  0
LINE
  5
290
100
AcDbEntity
  8
0
100
AcDbLine
 62
7
  6
CONTINUOUS
 10
77.4927174044
 20
77.5773456459
 11
77.8185392932
 21
77.6658981722
  0
LINE
  5
291
100
AcDbEntity
  8
0
100
AcDbLine
 62
7
  6
CONTINUOUS
 10
74.1769242087
 20
79.7683380579
 11
73.8511023198
 21
79.6797855317
  0
LINE
  5
292
100
AcDbEntity
  8
0
100
AcDbLine
 62
7
  6
CONTINUOUS
 10
64.0021606131
 20
88.1774289506
 11
64.1475963415
 21
88.1399571387
  0
LINE
  5
293
100
AcDbEntity
  8
0
100
AcDbLine
 62
7
  6
CONTINUOUS
 10
105.6618901929
 20
61.0073730999
 11
104.7778729016
 21
61.5177491747
  0
LINE
  5
294
100
AcDbEntity
  8
0
100
AcDbLine
 62
7
  6
CONTINUOUS
 10
106.5104218631
 20
60.5174841944
 11
106.8400704332
 21
60.3271658093
  0
LINE
  5
295
100
AcDbEntity
  8
0
100
AcDbLine
 62
7
  6
CONTINUOUS
 10
97.5497553267
 20
65.7604928261
 11
98.0466560671
 21
65.4736135399
  0
LINE
  5
296
100
AcDbEntity
  8
0
100
AcDbLine
 62
7
  6
CONTINUOUS
 10
96.4417086975
 20
66.6373879169
 11
21.912343667
 21
109.6659634433
  0
LINE
  5
297
100
AcDbEntity
  8
0
100
AcDbLine
 62
7
  6
CONTINUOUS
 10
106.7349071508
 20
60.7144521807
 11
106.651835565
 21
60.7624124982
  0
LINE
  5
298
100
AcDbEntity
  8
0
100
AcDbLine
 62
7
  6
CONTINUOUS
 10
40.2271781365
 20
99.2126960577
 11
41.2185584158
 21
98.6403353352
  0
LINE
  5
299
100
AcDbEntity
  8
0
100
AcDbLine
 62
7
  6
CONTINUOUS
 10
59.1070077979
 20
88.312667912
 11
60.0983880772
 21
87.7403071895
  0
LINE
  5
29A
100
AcDbEntity
  8
0
100
AcDbLine
 62
7
  6
CONTINUOUS
 10
77.9868374594
 20
77.4126397663
 11
78.9782177386
 21
76.8402790438
  0
LINE
  5
29B
100
AcDbEntity
  8
0
100
AcDbLine
 62
7
  6
CONTINUOUS
 10
96.8666671208
 20
66.5126116207
 11
98.9349615884
 21
65.3185082672
  0
LINE
  5
29C
100
AcDbEntity
  8
0
100
AcDbLine
 62
7
  6
CONTINUOUS
 10
96.6983689546
 20
66.7658700265
 11
93.0567538701
 21
68.8683099123
  0
LINE
  5
29D
100
AcDbEntity
  8
0
100
AcDbLine
 62
7
  6
CONTINUOUS
 10
82.5593668033
 20
74.9288420535
 11
79.162047771
 21
76.8902407386
  0
LINE
  5
29E
100
AcDbEntity
  8
0
100
AcDbLine
 62
7
  6
CONTINUOUS
 10
77.8185392932
 20
77.6658981722
 11
74.1769242087
 21
79.7683380579
  0
LINE
  5
29F
100
AcDbEntity
  8
0
100
AcDbLine
 62
7
  6
CONTINUOUS
 10
63.6795371419
 20
85.8288701992
 11
60.2822181096
 21
87.7902688843
  0
LINE
  5
2A0
100
AcDbEntity
  8
0
100
AcDbLine
 62
7
  6
CONTINUOUS
 10
58.9387096318
 20
88.5659263179
 11
55.2970945473
 21
90.6683662036
  0
LINE
  5
2A1
100
AcDbEntity
  8
0
100
AcDbLine
 62
7
  6
CONTINUOUS
 10
44.7997074805
 20
96.7288983449
 11
41.4023884482
 21
98.69029703
  0
LINE
  5
2A2
100
AcDbEntity
  8
0
100
AcDbLine
 62
7
  6
CONTINUOUS
 10
40.0588799704
 20
99.4659544636
 11
36.4172648859
 21
101.5683943493
  0
LINE
  5
2A3
100
AcDbEntity
  8
0
100
AcDbLine
 62
7
  6
CONTINUOUS
 10
25.919877819
 20
107.6289264906
 11
22.5225587867
 21
109.5903251757
  0
LINE
  5
2A4
100
AcDbEntity
  8
0
100
AcDbLine
 62
7
  6
CONTINUOUS
 10
106.1086899506
 20
61.8924930879
 11
105.7678182737
 21
62.0892909901
  0
LINE
  5
2A5
100
AcDbEntity
  8
0
100
AcDbLine
 62
7
  6
CONTINUOUS
 10
93.6930069275
 20
70.2564687316
 11
83.4399159138
 21
76.1759596735
  0
LINE
  5
2A6
100
AcDbEntity
  8
0
100
AcDbLine
 62
7
  6
CONTINUOUS
 10
74.813177266
 20
81.1564968773
 11
64.5600862524
 21
87.0759878192
  0
LINE
  5
2A7
100
AcDbEntity
  8
0
100
AcDbLine
 62
7
  6
CONTINUOUS
 10
55.9333476046
 20
92.056525023
 11
45.680256591
 21
97.9760159649
  0
LINE
  5
2A8
100
AcDbEntity
  8
0
100
AcDbLine
 62
7
  6
CONTINUOUS
 10
37.0535179432
 20
102.9565531687
 11
26.8004269296
 21
108.8760441106
  0
LINE
  5
2A9
100
AcDbEntity
  8
0
100
AcDbLine
 62
7
  6
CONTINUOUS
 10
26.3448860879
 20
109.8654453438
 11
37.0064179676
 21
103.7101462946
  0
LINE
  5
2AA
100
AcDbEntity
  8
0
100
AcDbLine
 62
7
  6
CONTINUOUS
 10
45.2247157493
 20
98.9654171981
 11
55.886247629
 21
92.8101181489
  0
LINE
  5
2AB
100
AcDbEntity
  8
0
100
AcDbLine
 62
7
  6
CONTINUOUS
 10
64.1045454108
 20
88.0653890524
 11
74.7660772905
 21
81.9100900032
  0
LINE
  5
2AC
100
AcDbEntity
  8
0
100
AcDbLine
 62
7
  6
CONTINUOUS
 10
82.9843750722
 20
77.1653609067
 11
93.6459069519
 21
71.0100618575
  0
LINE
  5
2AD
100
AcDbEntity
  8
0
100
AcDbLine
 62
7
  6
CONTINUOUS
 10
83.0274260029
 20
77.239928993
 11
82.7929857167
 21
77.3752800933
  0
LINE
  5
2AE
100
AcDbEntity
  8
0
100
AcDbLine
 62
7
  6
CONTINUOUS
 10
64.1475963415
 20
88.1399571387
 11
63.9131560553
 21
88.275308239
  0
LINE
  5
2AF
100
AcDbEntity
  8
0
100
AcDbLine
 62
7
  6
CONTINUOUS
 10
45.2677666801
 20
99.0399852844
 11
45.0333263939
 21
99.1753363847
  0
LINE
  5
2B0
100
AcDbEntity
  8
0
100
AcDbLine
 62
7
  6
CONTINUOUS
 10
26.3879370186
 20
109.9400134301
 11
26.1534967325
 21
110.0753645304
  0
LINE
  5
2B1
100
AcDbEntity
  8
0
100
AcDbLine
 62
7
  6
CONTINUOUS
 10
93.7065498927
 20
71.3914564481
 11
82.7340598362
 21
77.726283223
  0
LINE
  5
2B2
100
AcDbEntity
  8
0
100
AcDbLine
 62
7
  6
CONTINUOUS
 10
74.8267202313
 20
82.2914845938
 11
63.8542301747
 21
88.6263113687
  0
LINE
  5
2B3
100
AcDbEntity
  8
0
100
AcDbLine
 62
7
  6
CONTINUOUS
 10
55.9468905699
 20
93.1915127395
 11
44.9744005133
 21
99.5263395144
  0
LINE
  5
2B4
100
AcDbEntity
  8
0
100
AcDbLine
 62
7
  6
CONTINUOUS
 10
37.0670609085
 20
104.0915408852
 11
26.0945708519
 21
110.4263676601
  0
LINE
  5
2B5
100
AcDbEntity
  8
0
100
AcDbLine
 62
7
  6
CONTINUOUS
 10
93.848847785
 20
72.2863940221
 11
83.0539266651
 21
78.5187036428
  0
LINE
  5
2B6
100
AcDbEntity
  8
0
100
AcDbLine
 62
7
  6
CONTINUOUS
 10
74.9690181236
 20
83.1864221678
 11
64.1740970037
 21
89.4187317885
  0
LINE
  5
2B7
100
AcDbEntity
  8
0
100
AcDbLine
 62
7
  6
CONTINUOUS
 10
56.0891884621
 20
94.0864503135
 11
45.2942673423
 21
100.3187599342
  0
LINE
  5
2B8
100
AcDbEntity
  8
0
100
AcDbLine
 62
7
  6
CONTINUOUS
 10
37.2093588007
 20
104.9864784592
 11
26.4144376808
 21
111.2187880799
  0
LINE
  5
2B9
100
AcDbEntity
  8
0
100
AcDbLine
 62
7
  6
CONTINUOUS
 10
53.9014671441
 20
146.4944372004
 11
53.9014671441
 21
143.187602411
  0
LINE
  5
2BA
100
AcDbEntity
  8
0
100
AcDbLine
 62
7
  6
CONTINUOUS
 10
53.9368226303
 20
148.1478551178
 11
53.9368226303
 21
149.6992097103
  0
LINE
  5
2BB
100
AcDbEntity
  8
0
100
AcDbLine
 62
7
  6
CONTINUOUS
 10
54.3964398301
 20
143.4733733187
 11
54.3964398301
 21
143.3100728353
  0
LINE
  5
2BC
100
AcDbEntity
  8
0
100
AcDbLine
 62
7
  6
CONTINUOUS
 10
54.6085768692
 20
134.6959877269
 11
54.6085768692
 21
147.760026401
  0
LINE
  5
2BD
100
AcDbEntity
  8
0
100
AcDbLine
 62
7
  6
CONTINUOUS
 10
55.2803311081
 20
147.3721976842
 11
55.2803311081
 21
148.9235522767
  0
LINE
  5
2BE
100
AcDbEntity
  8
0
100
AcDbLine
 62
7
  6
CONTINUOUS
 10
55.4216211634
 20
167.3761167989
 11
55.4216105652
 21
168.6008389089
  0
LINE
  5
2BF
100
AcDbEntity
  8
0
100
AcDbLine
 62
7
  6
CONTINUOUS
 10
55.6337258189
 20
170.1929819307
 11
55.6337258189
 21
170.9278214077
  0
LINE
  5
2C0
100
AcDbEntity
  8
0
100
AcDbLine
 62
7
  6
CONTINUOUS
 10
55.9167133745
 20
149.2909387486
 11
55.9167133745
 21
150.8422933412
  0
LINE
  5
2C1
100
AcDbEntity
  8
0
100
AcDbLine
 62
7
  6
CONTINUOUS
 10
56.5884381738
 20
152.9855345738
 11
56.5884381738
 21
154.5368891663
  0
LINE
  5
2C2
100
AcDbEntity
  8
0
100
AcDbLine
 62
7
  6
CONTINUOUS
 10
58.2502873382
 20
99.3823318017
 11
58.2502873382
 21
99.1120362974
  0
LINE
  5
2C3
100
AcDbEntity
  8
0
100
AcDbLine
 62
7
  6
CONTINUOUS
 10
61.3261174917
 20
133.8387542497
 11
61.1139863406
 21
133.4713302784
  0
LINE
  5
2C4
100
AcDbEntity
  8
0
100
AcDbLine
 62
7
  6
CONTINUOUS
 10
100.0896060776
 20
158.7908485874
 11
101.7494535395
 21
159.749156246
  0
LINE
  5
2C5
100
AcDbEntity
  8
0
100
AcDbLine
 62
7
  6
CONTINUOUS
 10
71.9327486491
 20
141.5956402513
 11
75.4682678352
 21
143.6368610206
  0
LINE
  5
2C6
100
AcDbEntity
  8
0
100
AcDbLine
 62
7
  6
CONTINUOUS
 10
102.9180449781
 20
158.6275899201
 11
104.3534657677
 21
159.4563255525
  0
LINE
  5
2C7
100
AcDbEntity
  8
0
100
AcDbLine
 62
7
  6
CONTINUOUS
 10
73.2762803434
 20
140.8199694139
 11
75.4682678352
 21
142.0855064281
  0
LINE
  5
2C8
100
AcDbEntity
  8
0
100
AcDbLine
 62
7
  6
CONTINUOUS
 10
86.9587237369
 20
147.9438517847
 11
88.0900898764
 21
148.5970424309
  0
LINE
  5
2C9
100
AcDbEntity
  8
0
100
AcDbLine
 62
7
  6
CONTINUOUS
 10
104.2261979697
 20
157.8723445242
 11
102.4442962999
 21
156.8435692565
  0
LINE
  5
2CA
100
AcDbEntity
  8
0
100
AcDbLine
 62
7
  6
CONTINUOUS
 10
91.4134779113
 20
150.270839229
 11
88.4575118081
 21
148.5642215907
  0
LINE
  5
2CB
100
AcDbEntity
  8
0
100
AcDbLine
 62
7
  6
CONTINUOUS
 10
86.7465978849
 20
147.086542121
 11
87.5951224895
 21
147.5764351057
  0
LINE
  5
2CC
100
AcDbEntity
  8
0
100
AcDbLine
 62
7
  6
CONTINUOUS
 10
100.3937019431
 20
154.7207035656
 11
92.049876664
 21
149.9034225499
  0
LINE
  5
2CD
100
AcDbEntity
  8
0
100
AcDbLine
 62
7
  6
CONTINUOUS
 10
74.796543036
 20
139.9422651955
 11
72.8166522918
 21
138.7991815646
  0
LINE
  5
2CE
100
AcDbEntity
  8
0
100
AcDbLine
 62
7
  6
CONTINUOUS
 10
82.7161060127
 20
144.5145997188
 11
86.3791759532
 21
146.629461511
  0
LINE
  5
2CF
100
AcDbEntity
  8
0
100
AcDbLine
 62
7
  6
CONTINUOUS
 10
78.3073191813
 20
141.1935367565
 11
83.3878602516
 21
144.126771002
  0
LINE
  5
2D0
100
AcDbEntity
  8
0
100
AcDbLine
 62
7
  6
CONTINUOUS
 10
101.065456182
 20
154.3328748488
 11
107.146549182
 21
157.8437745721
  0
LINE
  5
2D1
100
AcDbEntity
  8
0
100
AcDbLine
 62
7
  6
CONTINUOUS
 10
88.0901063626
 20
146.3108846874
 11
88.9386309673
 21
146.8007776721
  0
LINE
  5
2D2
100
AcDbEntity
  8
0
100
AcDbLine
 62
7
  6
CONTINUOUS
 10
67.1022496182
 20
133.9893110109
 11
65.8516173775
 21
133.2672624601
  0
LINE
  5
2D3
100
AcDbEntity
  8
0
100
AcDbLine
 62
7
  6
CONTINUOUS
 10
101.7372104209
 20
153.945046132
 11
93.3933851417
 21
149.1277651163
  0
LINE
  5
2D4
100
AcDbEntity
  8
0
100
AcDbLine
 62
7
  6
CONTINUOUS
 10
84.0596144905
 20
143.7389422852
 11
87.722684431
 21
145.8538040774
  0
LINE
  5
2D5
100
AcDbEntity
  8
0
100
AcDbLine
 62
7
  6
CONTINUOUS
 10
72.8166522918
 20
137.2478269721
 11
76.1400515137
 21
139.1666077619
  0
LINE
  5
2D6
100
AcDbEntity
  8
0
100
AcDbLine
 62
7
  6
CONTINUOUS
 10
92.049876664
 20
148.2704177157
 11
93.3933851417
 21
149.0460880668
  0
LINE
  5
2D7
100
AcDbEntity
  8
0
100
AcDbLine
 62
7
  6
CONTINUOUS
 10
65.8516173775
 20
133.1039619767
 11
65.3566446915
 21
132.818191069
  0
LINE
  5
2D8
100
AcDbEntity
  8
0
100
AcDbLine
 62
7
  6
CONTINUOUS
 10
89.5750297199
 20
146.433360993
 11
90.7063958595
 21
147.0865516392
  0
LINE
  5
2D9
100
AcDbEntity
  8
0
100
AcDbLine
 62
7
  6
CONTINUOUS
 10
45.1223309516
 20
99.0774570962
 11
45.2677666801
 21
99.0399852844
  0
LINE
  5
2DA
100
AcDbEntity
  8
0
100
AcDbLine
 62
7
  6
CONTINUOUS
 10
24.2736650449
 20
118.7280045521
 11
28.0567020745
 21
116.5439165154
  0
LINE
  5
2DB
100
AcDbEntity
  8
0
100
AcDbLine
 62
7
  6
CONTINUOUS
 10
39.3704576768
 20
110.0120644431
 11
46.9365317359
 21
105.6438883697
  0
LINE
  5
2DC
100
AcDbEntity
  8
0
100
AcDbLine
 62
7
  6
CONTINUOUS
 10
58.2502873382
 20
99.1120362974
 11
65.8163613973
 21
94.743860224
  0
LINE
  5
2DD
100
AcDbEntity
  8
0
100
AcDbLine
 62
7
  6
CONTINUOUS
 10
77.1301169997
 20
88.2120081517
 11
84.6961910587
 21
83.8438320783
  0
LINE
  5
2DE
100
AcDbEntity
  8
0
100
AcDbLine
 62
7
  6
CONTINUOUS
 10
96.0099466611
 20
77.311980006
 11
99.7929836906
 21
75.1278919693
  0
LINE
  5
2DF
100
AcDbEntity
  8
0
100
AcDbLine
 62
7
  6
CONTINUOUS
 10
96.0099466611
 20
77.5822755103
 11
84.6961910587
 21
84.1141275827
  0
LINE
  5
2E0
100
AcDbEntity
  8
0
100
AcDbLine
 62
7
  6
CONTINUOUS
 10
77.1301169997
 20
88.482303656
 11
65.8163613973
 21
95.0141557283
  0
LINE
  5
2E1
100
AcDbEntity
  8
0
100
AcDbLine
 62
7
  6
CONTINUOUS
 10
58.2502873382
 20
99.3823318017
 11
46.9365317359
 21
105.914183874
  0
LINE
  5
2E2
100
AcDbEntity
  8
0
100
AcDbLine
 62
7
  6
CONTINUOUS
 10
39.3704576768
 20
110.2823599474
 11
28.0567020745
 21
116.8142120197
  0
LINE
  5
2E3
100
AcDbEntity
  8
0
100
AcDbLine
 62
7
  6
CONTINUOUS
 10
96.1179074036
 20
61.6169683855
 11
94.4138440534
 21
63.341446583
  0
LINE
  5
2E4
100
AcDbEntity
  8
0
100
AcDbLine
 62
7
  6
CONTINUOUS
 10
94.8816084641
 20
63.8257017067
 11
95.2183072973
 21
63.4849691883
  0
LINE
  5
2E5
100
AcDbEntity
  8
0
100
AcDbLine
 62
7
  6
CONTINUOUS
 10
95.6255351702
 20
63.0728626852
 11
95.9622340033
 21
62.7321301668
  0
LINE
  5
2E6
100
AcDbEntity
  8
0
100
AcDbLine
 62
7
  6
CONTINUOUS
 10
97.4495874581
 20
64.8386619645
 11
97.112888625
 21
65.179394483
  0
LINE
  5
2E7
100
AcDbEntity
  8
0
100
AcDbLine
 62
7
  6
CONTINUOUS
 10
96.7056607521
 20
65.591500986
 11
96.368961919
 21
65.9322335044
  0
LINE
  5
2E8
100
AcDbEntity
  8
0
100
AcDbLine
 62
7
  6
CONTINUOUS
 10
96.4417086975
 20
66.6373879169
 11
96.5883404394
 21
66.4889995122
  0
LINE
  5
2E9
100
AcDbEntity
  8
0
100
AcDbLine
 62
7
  6
CONTINUOUS
 10
98.3482654799
 20
64.7079903957
 11
98.4948972219
 21
64.559601991
  0
LINE
  5
2EA
100
AcDbEntity
  8
0
100
AcDbLine
 62
7
  6
CONTINUOUS
 10
59.3813920536
 20
165.0899937286
 11
59.3813920536
 21
170.8870061706
  0
LINE
  5
2EB
100
AcDbEntity
  8
0
100
AcDbLine
 62
7
  6
CONTINUOUS
 10
59.4274895198
 20
150.5422103096
 11
59.4274895198
 21
152.0935649022
  0
LINE
  5
2EC
100
AcDbEntity
  8
0
100
AcDbLine
 62
7
  6
CONTINUOUS
 10
61.1139863406
 20
133.9612317287
 11
61.1139863406
 21
133.4713302784
  0
LINE
  5
2ED
100
AcDbEntity
  8
0
100
AcDbLine
 62
7
  6
CONTINUOUS
 10
61.6089543163
 20
138.5336263193
 11
61.6089543163
 21
139.3501287365
  0
LINE
  5
2EE
100
AcDbEntity
  8
0
100
AcDbLine
 62
7
  6
CONTINUOUS
 10
61.6089543163
 20
140.5748823622
 11
61.6089543163
 21
140.7576401692
  0
LINE
  5
2EF
100
AcDbEntity
  8
0
100
AcDbLine
 62
7
  6
CONTINUOUS
 10
62.0333243678
 20
96.9279482607
 11
62.0333243678
 21
115.5493994542
  0
LINE
  5
2F0
100
AcDbEntity
  8
0
100
AcDbLine
 62
7
  6
CONTINUOUS
 10
62.4574859864
 20
138.860239831
 11
62.4574859864
 21
138.0437374139
  0
LINE
  5
2F1
100
AcDbEntity
  8
0
100
AcDbLine
 62
7
  6
CONTINUOUS
 10
62.5988996884
 20
139.1051681348
 11
62.5988996884
 21
139.2134822318
  0
LINE
  5
2F2
100
AcDbEntity
  8
0
100
AcDbLine
 62
7
  6
CONTINUOUS
 10
63.3057968591
 20
175.3572672478
 11
63.3057968591
 21
176.1329311402
  0
LINE
  5
2F3
100
AcDbEntity
  8
0
100
AcDbLine
 62
7
  6
CONTINUOUS
 10
63.6240327406
 20
170.8870163686
 11
63.6240327406
 21
164.3551099065
  0
LINE
  5
2F4
100
AcDbEntity
  8
0
100
AcDbLine
 62
7
  6
CONTINUOUS
 10
45.680366367
 20
97.9761714402
 11
44.6609348549
 21
96.5323553192
  0
LINE
  5
2F5
100
AcDbEntity
  8
0
100
AcDbLine
 62
7
  6
CONTINUOUS
 10
94.0297838944
 20
148.7603484373
 11
91.0738177912
 21
147.053730799
  0
LINE
  5
2F6
100
AcDbEntity
  8
0
100
AcDbLine
 62
7
  6
CONTINUOUS
 10
73.4884065306
 20
136.8599982553
 11
74.1601607695
 21
137.2478334309
  0
LINE
  5
2F7
100
AcDbEntity
  8
0
100
AcDbLine
 62
7
  6
CONTINUOUS
 10
76.8118289692
 20
138.7787656413
 11
78.3073191813
 21
139.6421821639
  0
LINE
  5
2F8
100
AcDbEntity
  8
0
100
AcDbLine
 62
7
  6
CONTINUOUS
 10
93.181269888
 20
146.8007826175
 11
97.1410513764
 21
149.0869498792
  0
LINE
  5
2F9
100
AcDbEntity
  8
0
100
AcDbLine
 62
7
  6
CONTINUOUS
 10
81.842867807
 20
139.1523329839
 11
79.0038459006
 21
137.5132327061
  0
LINE
  5
2FA
100
AcDbEntity
  8
0
100
AcDbLine
 62
7
  6
CONTINUOUS
 10
72.7812968055
 20
132.2875742653
 11
73.2762694915
 21
132.573345173
  0
LINE
  5
2FB
100
AcDbEntity
  8
0
100
AcDbLine
 62
7
  6
CONTINUOUS
 10
73.2762694915
 20
132.4100446896
 11
73.4884065306
 21
132.5325213351
  0
LINE
  5
2FC
100
AcDbEntity
  8
0
100
AcDbLine
 62
7
  6
CONTINUOUS
 10
60.2822181096
 20
87.7902688843
 11
59.9563962207
 21
87.701716358
  0
LINE
  5
2FD
100
AcDbEntity
  8
0
100
AcDbLine
 62
7
  6
CONTINUOUS
 10
58.6128877429
 20
88.4773737916
 11
58.9387096318
 21
88.5659263179
  0
LINE
  5
2FE
100
AcDbEntity
  8
0
100
AcDbLine
 62
7
  6
CONTINUOUS
 10
26.2425012902
 20
109.9774852419
 11
26.3879370186
 21
109.9400134301
  0
LINE
  5
2FF
100
AcDbEntity
  8
0
100
AcDbLine
 62
7
  6
CONTINUOUS
 10
129.1731372342
 20
62.4973876335
 11
129.8095359868
 21
62.1299709545
  0
LINE
  5
300
100
AcDbEntity
  8
0
100
AcDbLine
 62
7
  6
CONTINUOUS
 10
129.1731372342
 20
64.1303924678
 11
129.8095359868
 21
63.7629757887
  0
LINE
  5
301
100
AcDbEntity
  8
0
100
AcDbLine
 62
7
  6
CONTINUOUS
 10
130.5873449086
 20
64.9468807755
 11
131.2237436612
 21
64.5794640965
  0
LINE
  5
302
100
AcDbEntity
  8
0
100
AcDbLine
 62
7
  6
CONTINUOUS
 10
65.3566446915
 20
136.5741021878
 11
65.3566446915
 21
132.818191069
  0
LINE
  5
303
100
AcDbEntity
  8
0
100
AcDbLine
 62
7
  6
CONTINUOUS
 10
65.8163613973
 20
95.0141557283
 11
65.8163613973
 21
94.743860224
  0
LINE
  5
304
100
AcDbEntity
  8
0
100
AcDbLine
 62
7
  6
CONTINUOUS
 10
65.8516173775
 20
133.2672624601
 11
65.8516173775
 21
133.1039619767
  0
LINE
  5
305
100
AcDbEntity
  8
0
100
AcDbLine
 62
7
  6
CONTINUOUS
 10
67.1595813664
 20
166.3963578709
 11
67.1595813664
 21
168.845812596
  0
LINE
  5
306
100
AcDbEntity
  8
0
100
AcDbLine
 62
7
  6
CONTINUOUS
 10
65.1445812515
 20
118.9786785655
 11
64.8617397166
 21
118.4887799371
  0
LINE
  5
307
100
AcDbEntity
  8
0
100
AcDbLine
 62
7
  6
CONTINUOUS
 10
86.3791759532
 20
146.629461511
 11
86.7465978849
 21
147.086542121
  0
LINE
  5
308
100
AcDbEntity
  8
0
100
AcDbLine
 62
7
  6
CONTINUOUS
 10
88.0901063626
 20
146.3108846874
 11
87.722684431
 21
145.8538040774
  0
LINE
  5
309
100
AcDbEntity
  8
0
100
AcDbLine
 62
7
  6
CONTINUOUS
 10
79.5761716888
 20
130.1200597344
 11
78.5862263167
 21
129.548517919
  0
LINE
  5
30A
100
AcDbEntity
  8
0
100
AcDbLine
 62
7
  6
CONTINUOUS
 10
104.919258353
 20
144.5963015795
 11
100.9594768646
 21
142.3101343178
  0
LINE
  5
30B
100
AcDbEntity
  8
0
100
AcDbLine
 62
7
  6
CONTINUOUS
 10
80.6033247338
 20
129.7409839581
 11
80.4887839777
 21
129.6748542165
  0
LINE
  5
30C
100
AcDbEntity
  8
0
100
AcDbLine
 62
7
  6
CONTINUOUS
 10
115.101564796
 20
148.9236960693
 11
117.4137943437
 21
150.2586544524
  0
LINE
  5
30D
100
AcDbEntity
  8
0
100
AcDbLine
 62
7
  6
CONTINUOUS
 10
81.190677968
 20
128.8553368561
 11
80.4887839777
 21
128.4501005908
  0
LINE
  5
30E
100
AcDbEntity
  8
0
100
AcDbLine
 62
7
  6
CONTINUOUS
 10
63.4475320422
 20
117.9988925962
 11
64.5788981817
 21
118.6520832424
  0
LINE
  5
30F
100
AcDbEntity
  8
0
100
AcDbLine
 62
7
  6
CONTINUOUS
 10
65.1445812515
 20
118.9786785655
 11
73.4884065306
 21
123.7959595812
  0
LINE
  5
310
100
AcDbEntity
  8
0
100
AcDbLine
 62
7
  6
CONTINUOUS
 10
81.4787293498
 20
128.2051399891
 11
80.4887839777
 21
127.6335981736
  0
LINE
  5
311
100
AcDbEntity
  8
0
100
AcDbLine
 62
7
  6
CONTINUOUS
 10
81.5892000762
 20
128.1056363598
 11
81.3373156479
 21
127.9602116854
  0
LINE
  5
312
100
AcDbEntity
  8
0
100
AcDbLine
 62
7
  6
CONTINUOUS
 10
118.969435739
 20
149.3605247925
 11
120.4048565285
 21
150.1892604249
  0
LINE
  5
313
100
AcDbEntity
  8
0
100
AcDbLine
 62
7
  6
CONTINUOUS
 10
21.912343667
 20
109.6659634433
 11
21.0925657574
 21
109.342595361
  0
LINE
  5
314
100
AcDbEntity
  8
0
100
AcDbLine
 62
7
  6
CONTINUOUS
 10
55.2970945473
 20
90.6683662036
 11
54.9712726584
 21
90.5798136774
  0
LINE
  5
315
100
AcDbEntity
  8
0
100
AcDbLine
 62
7
  6
CONTINUOUS
 10
134.8008619329
 20
67.5020429076
 11
135.0452553013
 21
67.3609455226
  0
LINE
  5
316
100
AcDbEntity
  8
0
100
AcDbLine
 62
7
  6
CONTINUOUS
 10
138.2240716497
 20
66.9880763855
 11
138.8958258886
 21
66.6002476687
  0
LINE
  5
317
100
AcDbEntity
  8
0
100
AcDbLine
 62
7
  6
CONTINUOUS
 10
72.5336482499
 20
161.1708673747
 11
72.5336482499
 21
159.5378625404
  0
LINE
  5
318
100
AcDbEntity
  8
0
100
AcDbLine
 62
7
  6
CONTINUOUS
 10
72.7812968055
 20
135.5944090547
 11
72.7812968055
 21
132.2875742653
  0
LINE
  5
319
100
AcDbEntity
  8
0
100
AcDbLine
 62
7
  6
CONTINUOUS
 10
72.8166522918
 20
137.2478269721
 11
72.8166522918
 21
138.7991815646
  0
LINE
  5
31A
100
AcDbEntity
  8
0
100
AcDbLine
 62
7
  6
CONTINUOUS
 10
73.1700470025
 20
159.1704458614
 11
73.1700470025
 21
160.8034506956
  0
LINE
  5
31B
100
AcDbEntity
  8
0
100
AcDbLine
 62
7
  6
CONTINUOUS
 10
73.2762694915
 20
132.573345173
 11
73.2762694915
 21
132.4100446896
  0
LINE
  5
31C
100
AcDbEntity
  8
0
100
AcDbLine
 62
7
  6
CONTINUOUS
 10
73.4884065306
 20
123.7959595812
 11
73.4884065306
 21
136.8599982553
  0
LINE
  5
31D
100
AcDbEntity
  8
0
100
AcDbLine
 62
7
  6
CONTINUOUS
 10
73.9478559243
 20
159.6195113712
 11
73.9478559243
 21
158.9663489437
  0
LINE
  5
31E
100
AcDbEntity
  8
0
100
AcDbLine
 62
7
  6
CONTINUOUS
 10
74.1601607695
 20
136.4721695385
 11
74.1601607695
 21
138.023524131
  0
LINE
  5
31F
100
AcDbEntity
  8
0
100
AcDbLine
 62
7
  6
CONTINUOUS
 10
74.3014508249
 20
156.4760886532
 11
74.3014402266
 21
157.7008107632
  0
LINE
  5
320
100
AcDbEntity
  8
0
100
AcDbLine
 62
7
  6
CONTINUOUS
 10
74.5135554803
 20
159.292953785
 11
74.5135554803
 21
160.027793262
  0
LINE
  5
321
100
AcDbEntity
  8
0
100
AcDbLine
 62
7
  6
CONTINUOUS
 10
74.796543036
 20
138.3909106029
 11
74.796543036
 21
139.9422651955
  0
LINE
  5
322
100
AcDbEntity
  8
0
100
AcDbLine
 62
7
  6
CONTINUOUS
 10
75.4682678352
 20
142.0855064281
 11
75.4682678352
 21
143.6368610206
  0
LINE
  5
323
100
AcDbEntity
  8
0
100
AcDbLine
 62
7
  6
CONTINUOUS
 10
77.1301169997
 20
88.482303656
 11
77.1301169997
 21
88.2120081517
  0
LINE
  5
324
100
AcDbEntity
  8
0
100
AcDbLine
 62
7
  6
CONTINUOUS
 10
80.2059471532
 20
122.938726104
 11
79.993816002
 21
122.5713021327
  0
LINE
  5
325
100
AcDbEntity
  8
0
100
AcDbLine
 62
7
  6
CONTINUOUS
 10
54.9140258697
 20
90.6128643786
 11
55.9334622528
 21
92.0566873931
  0
LINE
  5
326
100
AcDbEntity
  8
0
100
AcDbLine
 62
7
  6
CONTINUOUS
 10
118.969435739
 20
147.8908204417
 11
120.6292832009
 21
148.8491281003
  0
LINE
  5
327
100
AcDbEntity
  8
0
100
AcDbLine
 62
7
  6
CONTINUOUS
 10
90.8125783105
 20
130.6956121056
 11
94.3480974966
 21
132.7368328749
  0
LINE
  5
328
100
AcDbEntity
  8
0
100
AcDbLine
 62
7
  6
CONTINUOUS
 10
121.7978746396
 20
147.7275617744
 11
123.2332954291
 21
148.5562974068
  0
LINE
  5
329
100
AcDbEntity
  8
0
100
AcDbLine
 62
7
  6
CONTINUOUS
 10
92.1561100049
 20
129.9199412682
 11
94.3480974966
 21
131.1854782824
  0
LINE
  5
32A
100
AcDbEntity
  8
0
100
AcDbLine
 62
7
  6
CONTINUOUS
 10
105.8385533983
 20
137.043823639
 11
106.9699195379
 21
137.6970142852
  0
LINE
  5
32B
100
AcDbEntity
  8
0
100
AcDbLine
 62
7
  6
CONTINUOUS
 10
123.1060276311
 20
146.9723163785
 11
121.3241259613
 21
145.9435411108
  0
LINE
  5
32C
100
AcDbEntity
  8
0
100
AcDbLine
 62
7
  6
CONTINUOUS
 10
110.2933075728
 20
139.3708110833
 11
107.3373414695
 21
137.664193445
  0
LINE
  5
32D
100
AcDbEntity
  8
0
100
AcDbLine
 62
7
  6
CONTINUOUS
 10
105.6264275463
 20
136.1865139753
 11
106.4749521509
 21
136.67640696
  0
LINE
  5
32E
100
AcDbEntity
  8
0
100
AcDbLine
 62
7
  6
CONTINUOUS
 10
119.2735316045
 20
143.8206754199
 11
110.9297063254
 21
139.0033944042
  0
LINE
  5
32F
100
AcDbEntity
  8
0
100
AcDbLine
 62
7
  6
CONTINUOUS
 10
93.6763726974
 20
129.0422370498
 11
91.6964819532
 21
127.8991534189
  0
LINE
  5
330
100
AcDbEntity
  8
0
100
AcDbLine
 62
7
  6
CONTINUOUS
 10
101.5959356742
 20
133.6145715731
 11
105.2590056146
 21
135.7294333653
  0
LINE
  5
331
100
AcDbEntity
  8
0
100
AcDbLine
 62
7
  6
CONTINUOUS
 10
97.1871488427
 20
130.2935086108
 11
102.2676899131
 21
133.2267428563
  0
LINE
  5
332
100
AcDbEntity
  8
0
100
AcDbLine
 62
7
  6
CONTINUOUS
 10
119.9452858434
 20
143.4328467031
 11
126.0263788434
 21
146.9437464264
  0
LINE
  5
333
100
AcDbEntity
  8
0
100
AcDbLine
 62
7
  6
CONTINUOUS
 10
106.9699360241
 20
135.4108565417
 11
107.8184606287
 21
135.9007495264
  0
LINE
  5
334
100
AcDbEntity
  8
0
100
AcDbLine
 62
7
  6
CONTINUOUS
 10
99.7929836906
 20
93.7493431628
 11
24.2736650449
 21
137.3494557456
  0
LINE
  5
335
100
AcDbEntity
  8
0
100
AcDbLine
 62
7
  6
CONTINUOUS
 10
25.6878727194
 20
139.7989488876
 11
101.2071913651
 21
96.1988363048
  0
LINE
  5
336
100
AcDbEntity
  8
0
100
AcDbLine
 62
7
  6
CONTINUOUS
 10
26.8192388589
 20
140.4521395338
 11
102.6213990395
 21
96.6887236457
  0
LINE
  5
337
100
AcDbEntity
  8
0
100
AcDbLine
 62
7
  6
CONTINUOUS
 10
102.9042405744
 20
97.1786222741
 11
27.3849219287
 21
140.7787348569
  0
LINE
  5
338
100
AcDbEntity
  8
0
100
AcDbLine
 62
7
  6
CONTINUOUS
 10
135.0453500204
 20
67.3611094133
 11
134.8302889817
 21
67.5190325207
  0
LINE
  5
339
100
AcDbEntity
  8
0
100
AcDbLine
 62
7
  6
CONTINUOUS
 10
94.4172170983
 20
65.2133409198
 11
94.5746225711
 21
64.8307220659
  0
LINE
  5
33A
100
AcDbEntity
  8
0
100
AcDbLine
 62
7
  6
CONTINUOUS
 10
78.261221715
 20
154.1899655829
 11
78.261221715
 21
159.9869780249
  0
LINE
  5
33B
100
AcDbEntity
  8
0
100
AcDbLine
 62
7
  6
CONTINUOUS
 10
78.3073191813
 20
139.6421821639
 11
78.3073191813
 21
141.1935367565
  0
LINE
  5
33C
100
AcDbEntity
  8
0
100
AcDbLine
 62
7
  6
CONTINUOUS
 10
79.6541350208
 20
169.3888162092
 11
79.6541350208
 21
172.0587107438
  0
LINE
  5
33D
100
AcDbEntity
  8
0
100
AcDbLine
 62
7
  6
CONTINUOUS
 10
79.993816002
 20
123.061203583
 11
79.993816002
 21
122.5713021327
  0
LINE
  5
33E
100
AcDbEntity
  8
0
100
AcDbLine
 62
7
  6
CONTINUOUS
 10
80.4887839777
 20
127.6335981736
 11
80.4887839777
 21
128.4501005908
  0
LINE
  5
33F
100
AcDbEntity
  8
0
100
AcDbLine
 62
7
  6
CONTINUOUS
 10
80.4887839777
 20
129.6748542165
 11
80.4887839777
 21
129.8576120235
  0
LINE
  5
340
100
AcDbEntity
  8
0
100
AcDbLine
 62
7
  6
CONTINUOUS
 10
80.9131540292
 20
86.027920115
 11
80.9131540292
 21
104.6493713085
  0
LINE
  5
341
100
AcDbEntity
  8
0
100
AcDbLine
 62
7
  6
CONTINUOUS
 10
81.2097764161
 20
171.1605810839
 11
81.2097764161
 21
169.690876733
  0
LINE
  5
342
100
AcDbEntity
  8
0
100
AcDbLine
 62
7
  6
CONTINUOUS
 10
81.3373156479
 20
127.9602116854
 11
81.3373156479
 21
127.1437092682
  0
LINE
  5
343
100
AcDbEntity
  8
0
100
AcDbLine
 62
7
  6
CONTINUOUS
 10
81.4787293498
 20
128.2051399891
 11
81.4787293498
 21
128.3134540861
  0
LINE
  5
344
100
AcDbEntity
  8
0
100
AcDbLine
 62
7
  6
CONTINUOUS
 10
81.5138722817
 20
165.6207317113
 11
81.5138722817
 21
164.0694039265
  0
LINE
  5
345
100
AcDbEntity
  8
0
100
AcDbLine
 62
7
  6
CONTINUOUS
 10
82.1856265206
 20
164.4572391021
 11
82.1856265206
 21
165.2329029945
  0
LINE
  5
346
100
AcDbEntity
  8
0
100
AcDbLine
 62
7
  6
CONTINUOUS
 10
82.5038624021
 20
159.9869882229
 11
82.5038624021
 21
153.4550817608
  0
LINE
  5
347
100
AcDbEntity
  8
0
100
AcDbLine
 62
7
  6
CONTINUOUS
 10
85.9820792796
 20
123.0892828652
 11
84.7314470389
 21
122.3672343144
  0
LINE
  5
348
100
AcDbEntity
  8
0
100
AcDbLine
 62
7
  6
CONTINUOUS
 10
120.6170400823
 20
143.0450179863
 11
112.2732148032
 21
138.2277369706
  0
LINE
  5
349
100
AcDbEntity
  8
0
100
AcDbLine
 62
7
  6
CONTINUOUS
 10
102.939444152
 20
132.8389141395
 11
106.6025140924
 21
134.9537759317
  0
LINE
  5
34A
100
AcDbEntity
  8
0
100
AcDbLine
 62
7
  6
CONTINUOUS
 10
91.6964819532
 20
126.3477988264
 11
95.0198811752
 21
128.2665796162
  0
LINE
  5
34B
100
AcDbEntity
  8
0
100
AcDbLine
 62
7
  6
CONTINUOUS
 10
110.9297063254
 20
137.37038957
 11
112.2732148032
 21
138.1460599211
  0
LINE
  5
34C
100
AcDbEntity
  8
0
100
AcDbLine
 62
7
  6
CONTINUOUS
 10
84.7314470389
 20
122.203933831
 11
84.2364743529
 21
121.9181629233
  0
LINE
  5
34D
100
AcDbEntity
  8
0
100
AcDbLine
 62
7
  6
CONTINUOUS
 10
108.4548593814
 20
135.5333328473
 11
109.5862255209
 21
136.1865234935
  0
LINE
  5
34E
100
AcDbEntity
  8
0
100
AcDbLine
 62
7
  6
CONTINUOUS
 10
112.9096135558
 20
137.8603202916
 11
109.9536474526
 21
136.1537026533
  0
LINE
  5
34F
100
AcDbEntity
  8
0
100
AcDbLine
 62
7
  6
CONTINUOUS
 10
92.3682361921
 20
125.9599701096
 11
93.039990431
 21
126.3478052852
  0
LINE
  5
350
100
AcDbEntity
  8
0
100
AcDbLine
 62
7
  6
CONTINUOUS
 10
95.6916586306
 20
127.8787374956
 11
97.1871488427
 21
128.7421540182
  0
LINE
  5
351
100
AcDbEntity
  8
0
100
AcDbLine
 62
7
  6
CONTINUOUS
 10
112.0610995494
 20
135.9007544718
 11
116.0208810378
 21
138.1869217335
  0
LINE
  5
352
100
AcDbEntity
  8
0
100
AcDbLine
 62
7
  6
CONTINUOUS
 10
100.7226974684
 20
128.2523048382
 11
97.883675562
 21
126.6132045604
  0
LINE
  5
353
100
AcDbEntity
  8
0
100
AcDbLine
 62
7
  6
CONTINUOUS
 10
91.6611264669
 20
121.3875461196
 11
92.156099153
 21
121.6733170273
  0
LINE
  5
354
100
AcDbEntity
  8
0
100
AcDbLine
 62
7
  6
CONTINUOUS
 10
92.156099153
 20
121.5100165439
 11
92.3682361921
 21
121.6324931894
  0
LINE
  5
355
100
AcDbEntity
  8
0
100
AcDbLine
 62
7
  6
CONTINUOUS
 10
41.4023884482
 20
98.69029703
 11
41.0765665593
 21
98.6017445037
  0
LINE
  5
356
100
AcDbEntity
  8
0
100
AcDbLine
 62
7
  6
CONTINUOUS
 10
39.7330580815
 20
99.3774019373
 11
40.0588799704
 21
99.4659544636
  0
LINE
  5
357
100
AcDbEntity
  8
0
100
AcDbLine
 62
7
  6
CONTINUOUS
 10
36.4172648859
 20
101.5683943493
 11
36.091442997
 21
101.4798418231
  0
LINE
  5
358
100
AcDbEntity
  8
0
100
AcDbLine
 62
7
  6
CONTINUOUS
 10
84.0382153167
 20
168.057913715
 11
84.0382153167
 21
169.5276180658
  0
LINE
  5
359
100
AcDbEntity
  8
0
100
AcDbLine
 62
7
  6
CONTINUOUS
 10
84.2364743529
 20
125.6740740421
 11
84.2364743529
 21
121.9181629233
  0
LINE
  5
35A
100
AcDbEntity
  8
0
100
AcDbLine
 62
7
  6
CONTINUOUS
 10
84.6961910587
 20
84.1141275827
 11
84.6961910587
 21
83.8438320783
  0
LINE
  5
35B
100
AcDbEntity
  8
0
100
AcDbLine
 62
7
  6
CONTINUOUS
 10
84.7314470389
 20
122.3672343144
 11
84.7314470389
 21
122.203933831
  0
LINE
  5
35C
100
AcDbEntity
  8
0
100
AcDbLine
 62
7
  6
CONTINUOUS
 10
86.0394110278
 20
155.4963297252
 11
86.0394110278
 21
157.9457844503
  0
LINE
  5
35D
100
AcDbEntity
  8
0
100
AcDbLine
 62
7
  6
CONTINUOUS
 10
84.0244109129
 20
108.0786504198
 11
83.7415693781
 21
107.5887517914
  0
LINE
  5
35E
100
AcDbEntity
  8
0
100
AcDbLine
 62
7
  6
CONTINUOUS
 10
64.5601960284
 20
87.0761432945
 11
63.5407645164
 21
85.6323271735
  0
LINE
  5
35F
100
AcDbEntity
  8
0
100
AcDbLine
 62
7
  6
CONTINUOUS
 10
105.2590056146
 20
135.7294333653
 11
105.6264275463
 21
136.1865139753
  0
LINE
  5
360
100
AcDbEntity
  8
0
100
AcDbLine
 62
7
  6
CONTINUOUS
 10
106.9699360241
 20
135.4108565417
 11
106.6025140924
 21
134.9537759317
  0
LINE
  5
361
100
AcDbEntity
  8
0
100
AcDbLine
 62
7
  6
CONTINUOUS
 10
98.4560013503
 20
119.2200315887
 11
97.4660559782
 21
118.6484897733
  0
LINE
  5
362
100
AcDbEntity
  8
0
100
AcDbLine
 62
7
  6
CONTINUOUS
 10
123.7990880144
 20
133.6962734338
 11
119.839306526
 21
131.4101061721
  0
LINE
  5
363
100
AcDbEntity
  8
0
100
AcDbLine
 62
7
  6
CONTINUOUS
 10
99.4831543953
 20
118.8409558124
 11
99.3686136391
 21
118.7748260708
  0
LINE
  5
364
100
AcDbEntity
  8
0
100
AcDbLine
 62
7
  6
CONTINUOUS
 10
133.9813944574
 20
138.0236679236
 11
136.2936240051
 21
139.3586263067
  0
LINE
  5
365
100
AcDbEntity
  8
0
100
AcDbLine
 62
7
  6
CONTINUOUS
 10
100.0705076295
 20
117.9553087104
 11
99.3686136391
 21
117.5500724451
  0
LINE
  5
366
100
AcDbEntity
  8
0
100
AcDbLine
 62
7
  6
CONTINUOUS
 10
115.5260390639
 20
97.5663201136
 11
116.1270823303
 21
97.2193154722
  0
LINE
  5
367
100
AcDbEntity
  8
0
100
AcDbLine
 62
7
  6
CONTINUOUS
 10
111.2480658535
 20
101.9959032898
 11
35.7287472078
 21
145.5960158726
  0
LINE
  5
368
100
AcDbEntity
  8
0
100
AcDbLine
 62
7
  6
CONTINUOUS
 10
144.1991046677
 20
85.5022257151
 11
142.7848969932
 21
86.3187004255
  0
LINE
  5
369
100
AcDbEntity
  8
0
100
AcDbLine
 62
7
  6
CONTINUOUS
 10
42.2341566791
 20
144.3713584241
 11
54.6085768692
 21
137.22714522
  0
LINE
  5
36A
100
AcDbEntity
  8
0
100
AcDbLine
 62
7
  6
CONTINUOUS
 10
61.1139863406
 20
133.4713302784
 11
73.4884065306
 21
126.3271170743
  0
LINE
  5
36B
100
AcDbEntity
  8
0
100
AcDbLine
 62
7
  6
CONTINUOUS
 10
79.993816002
 20
122.5713021327
 11
92.3682361921
 21
115.4270889286
  0
LINE
  5
36C
100
AcDbEntity
  8
0
100
AcDbLine
 62
7
  6
CONTINUOUS
 10
98.8736456634
 20
111.671273987
 11
111.2480658535
 21
104.5270607829
  0
LINE
  5
36D
100
AcDbEntity
  8
0
100
AcDbLine
 62
7
  6
CONTINUOUS
 10
142.7848969932
 20
86.7269934502
 11
142.2192139235
 21
87.0535833343
  0
LINE
  5
36E
100
AcDbEntity
  8
0
100
AcDbLine
 62
7
  6
CONTINUOUS
 10
42.2341566791
 20
144.8612598744
 11
54.6085768692
 21
137.7170466703
  0
LINE
  5
36F
100
AcDbEntity
  8
0
100
AcDbLine
 62
7
  6
CONTINUOUS
 10
61.1139863406
 20
133.9612317287
 11
73.4884065306
 21
126.8170185246
  0
LINE
  5
370
100
AcDbEntity
  8
0
100
AcDbLine
 62
7
  6
CONTINUOUS
 10
79.993816002
 20
123.061203583
 11
92.3682361921
 21
115.9169903789
  0
LINE
  5
371
100
AcDbEntity
  8
0
100
AcDbLine
 62
7
  6
CONTINUOUS
 10
111.4601970047
 20
104.8944847542
 11
98.8736456634
 21
112.1611754373
  0
LINE
  5
372
100
AcDbEntity
  8
0
100
AcDbLine
 62
7
  6
CONTINUOUS
 10
144.4833065209
 20
86.8910623778
 11
142.2192139235
 21
88.1982072768
  0
LINE
  5
373
100
AcDbEntity
  8
0
100
AcDbLine
 62
7
  6
CONTINUOUS
 10
46.47681503
 20
143.7182192147
 11
54.6085768692
 21
139.0234505377
  0
LINE
  5
374
100
AcDbEntity
  8
0
100
AcDbLine
 62
7
  6
CONTINUOUS
 10
65.3566446915
 20
132.818191069
 11
73.4884065306
 21
128.123422392
  0
LINE
  5
375
100
AcDbEntity
  8
0
100
AcDbLine
 62
7
  6
CONTINUOUS
 10
84.2364743529
 20
121.9181629233
 11
92.3682361921
 21
117.2233942463
  0
LINE
  5
376
100
AcDbEntity
  8
0
100
AcDbLine
 62
7
  6
CONTINUOUS
 10
103.1163040143
 20
111.0181347776
 11
111.2480658535
 21
106.3233661006
  0
LINE
  5
377
100
AcDbEntity
  8
0
100
AcDbLine
 62
7
  6
CONTINUOUS
 10
91.4134779113
 20
150.270839229
 11
91.4134779113
 21
148.6378343947
  0
LINE
  5
378
100
AcDbEntity
  8
0
100
AcDbLine
 62
7
  6
CONTINUOUS
 10
91.6611264669
 20
124.694380909
 11
91.6611264669
 21
121.3875461196
  0
LINE
  5
379
100
AcDbEntity
  8
0
100
AcDbLine
 62
7
  6
CONTINUOUS
 10
91.6964819532
 20
126.3477988264
 11
91.6964819532
 21
127.8991534189
  0
LINE
  5
37A
100
AcDbEntity
  8
0
100
AcDbLine
 62
7
  6
CONTINUOUS
 10
92.049876664
 20
148.2704177157
 11
92.049876664
 21
149.9034225499
  0
LINE
  5
37B
100
AcDbEntity
  8
0
100
AcDbLine
 62
7
  6
CONTINUOUS
 10
92.156099153
 20
121.6733170273
 11
92.156099153
 21
121.5100165439
  0
LINE
  5
37C
100
AcDbEntity
  8
0
100
AcDbLine
 62
7
  6
CONTINUOUS
 10
92.3682361921
 20
112.8959314355
 11
92.3682361921
 21
125.9599701096
  0
LINE
  5
37D
100
AcDbEntity
  8
0
100
AcDbLine
 62
7
  6
CONTINUOUS
 10
92.8276855858
 20
148.7194832255
 11
92.8276855858
 21
148.066320798
  0
LINE
  5
37E
100
AcDbEntity
  8
0
100
AcDbLine
 62
7
  6
CONTINUOUS
 10
93.039990431
 20
125.5721413928
 11
93.039990431
 21
127.1234959853
  0
LINE
  5
37F
100
AcDbEntity
  8
0
100
AcDbLine
 62
7
  6
CONTINUOUS
 10
93.1812804863
 20
145.5760605075
 11
93.181269888
 21
146.8007826175
  0
LINE
  5
380
100
AcDbEntity
  8
0
100
AcDbLine
 62
7
  6
CONTINUOUS
 10
93.3933851417
 20
148.3929256393
 11
93.3933851417
 21
149.1277651163
  0
LINE
  5
381
100
AcDbEntity
  8
0
100
AcDbLine
 62
7
  6
CONTINUOUS
 10
93.6763726974
 20
127.4908824572
 11
93.6763726974
 21
129.0422370498
  0
LINE
  5
382
100
AcDbEntity
  8
0
100
AcDbLine
 62
7
  6
CONTINUOUS
 10
94.3480974966
 20
131.1854782824
 11
94.3480974966
 21
132.7368328749
  0
LINE
  5
383
100
AcDbEntity
  8
0
100
AcDbLine
 62
7
  6
CONTINUOUS
 10
82.3273617036
 20
107.0988644505
 11
83.4587278432
 21
107.7520550967
  0
LINE
  5
384
100
AcDbEntity
  8
0
100
AcDbLine
 62
7
  6
CONTINUOUS
 10
84.0244109129
 20
108.0786504198
 11
92.3682361921
 21
112.8959314355
  0
LINE
  5
385
100
AcDbEntity
  8
0
100
AcDbLine
 62
7
  6
CONTINUOUS
 10
100.3585590112
 20
117.3051118434
 11
99.3686136391
 21
116.733570028
  0
LINE
  5
386
100
AcDbEntity
  8
0
100
AcDbLine
 62
7
  6
CONTINUOUS
 10
100.4690297376
 20
117.2056082141
 11
100.2171453093
 21
117.0601835397
  0
LINE
  5
387
100
AcDbEntity
  8
0
100
AcDbLine
 62
7
  6
CONTINUOUS
 10
137.8492654004
 20
138.4604966468
 11
139.28468619
 21
139.2892322792
  0
LINE
  5
388
100
AcDbEntity
  8
0
100
AcDbLine
 62
7
  6
CONTINUOUS
 10
137.8492654004
 20
136.990792296
 11
139.5091128623
 21
137.9490999546
  0
LINE
  5
389
100
AcDbEntity
  8
0
100
AcDbLine
 62
7
  6
CONTINUOUS
 10
109.692407972
 20
119.7955839599
 11
113.227927158
 21
121.8368047292
  0
LINE
  5
38A
100
AcDbEntity
  8
0
100
AcDbLine
 62
7
  6
CONTINUOUS
 10
140.677704301
 20
136.8275336287
 11
142.1131250905
 21
137.6562692611
  0
LINE
  5
38B
100
AcDbEntity
  8
0
100
AcDbLine
 62
7
  6
CONTINUOUS
 10
111.0359396663
 20
119.0199131225
 11
113.227927158
 21
120.2854501367
  0
LINE
  5
38C
100
AcDbEntity
  8
0
100
AcDbLine
 62
7
  6
CONTINUOUS
 10
124.7183830597
 20
126.1437954934
 11
125.8497491993
 21
126.7969861395
  0
LINE
  5
38D
100
AcDbEntity
  8
0
100
AcDbLine
 62
7
  6
CONTINUOUS
 10
141.9858572925
 20
136.0722882329
 11
140.2039556227
 21
135.0435129651
  0
LINE
  5
38E
100
AcDbEntity
  8
0
100
AcDbLine
 62
7
  6
CONTINUOUS
 10
129.1731372342
 20
128.4707829376
 11
126.217171131
 21
126.7641652993
  0
LINE
  5
38F
100
AcDbEntity
  8
0
100
AcDbLine
 62
7
  6
CONTINUOUS
 10
124.5062572077
 20
125.2864858296
 11
125.3547818124
 21
125.7763788143
  0
LINE
  5
390
100
AcDbEntity
  8
0
100
AcDbLine
 62
7
  6
CONTINUOUS
 10
138.1533612659
 20
132.9206472742
 11
129.8095359868
 21
128.1033662585
  0
LINE
  5
391
100
AcDbEntity
  8
0
100
AcDbLine
 62
7
  6
CONTINUOUS
 10
112.5562023588
 20
118.1422089041
 11
110.5763116146
 21
116.9991252732
  0
LINE
  5
392
100
AcDbEntity
  8
0
100
AcDbLine
 62
7
  6
CONTINUOUS
 10
120.4757653356
 20
122.7145434274
 11
124.138835276
 21
124.8294052196
  0
LINE
  5
393
100
AcDbEntity
  8
0
100
AcDbLine
 62
7
  6
CONTINUOUS
 10
22.5225587867
 20
109.5903251757
 11
22.1967368979
 21
109.5017726494
  0
LINE
  5
394
100
AcDbEntity
  8
0
100
AcDbLine
 62
7
  6
CONTINUOUS
 10
145.0476292723
 20
87.2168723254
 11
142.2192139235
 21
88.8498217462
  0
LINE
  5
395
100
AcDbEntity
  8
0
100
AcDbLine
 62
7
  6
CONTINUOUS
 10
145.0476292723
 20
87.2168723254
 11
146.1082850281
 21
86.6044849305
  0
LINE
  5
396
100
AcDbEntity
  8
0
100
AcDbLine
 62
7
  6
CONTINUOUS
 10
46.9717877161
 20
144.0039901224
 11
54.6085768692
 21
139.594987594
  0
LINE
  5
397
100
AcDbEntity
  8
0
100
AcDbLine
 62
7
  6
CONTINUOUS
 10
65.8516173775
 20
133.1039619767
 11
73.4884065306
 21
128.6949594483
  0
LINE
  5
398
100
AcDbEntity
  8
0
100
AcDbLine
 62
7
  6
CONTINUOUS
 10
84.7314470389
 20
122.203933831
 11
92.3682361921
 21
117.7949313026
  0
LINE
  5
399
100
AcDbEntity
  8
0
100
AcDbLine
 62
7
  6
CONTINUOUS
 10
103.6112767004
 20
111.3039056853
 11
111.7430385395
 21
106.6091370083
  0
LINE
  5
39A
100
AcDbEntity
  8
0
100
AcDbLine
 62
7
  6
CONTINUOUS
 10
46.9717877161
 20
144.1672906058
 11
54.6085768692
 21
139.7582880775
  0
LINE
  5
39B
100
AcDbEntity
  8
0
100
AcDbLine
 62
7
  6
CONTINUOUS
 10
65.8516173775
 20
133.2672624601
 11
73.4884065306
 21
128.8582599318
  0
LINE
  5
39C
100
AcDbEntity
  8
0
100
AcDbLine
 62
7
  6
CONTINUOUS
 10
84.7314470389
 20
122.3672343144
 11
92.3682361921
 21
117.9582317861
  0
LINE
  5
39D
100
AcDbEntity
  8
0
100
AcDbLine
 62
7
  6
CONTINUOUS
 10
103.6112767004
 20
111.4672061687
 11
111.7430385395
 21
106.7724374917
  0
LINE
  5
39E
100
AcDbEntity
  8
0
100
AcDbLine
 62
7
  6
CONTINUOUS
 10
47.1374775727
 20
145.5157167635
 11
54.5621296867
 21
141.2291888411
  0
LINE
  5
39F
100
AcDbEntity
  8
0
100
AcDbLine
 62
7
  6
CONTINUOUS
 10
66.0173072341
 20
134.6156886178
 11
73.4419593481
 21
130.3291606954
  0
LINE
  5
3A0
100
AcDbEntity
  8
0
100
AcDbLine
 62
7
  6
CONTINUOUS
 10
84.8971368955
 20
123.7156604721
 11
92.3217890096
 21
119.4291325497
  0
LINE
  5
3A1
100
AcDbEntity
  8
0
100
AcDbLine
 62
7
  6
CONTINUOUS
 10
103.7769665569
 20
112.8156323264
 11
111.201618671
 21
108.529104404
  0
LINE
  5
3A2
100
AcDbEntity
  8
0
100
AcDbLine
 62
7
  6
CONTINUOUS
 10
113.0865358302
 20
107.5481013841
 11
111.3919916437
 21
108.5264247937
  0
LINE
  5
3A3
100
AcDbEntity
  8
0
100
AcDbLine
 62
7
  6
CONTINUOUS
 10
100.2171453093
 20
116.2436811225
 11
99.3686136391
 21
116.733570028
  0
LINE
  5
3A4
100
AcDbEntity
  8
0
100
AcDbLine
 62
7
  6
CONTINUOUS
 10
81.3373156479
 20
127.1437092682
 11
80.4887839777
 21
127.6335981736
  0
LINE
  5
3A5
100
AcDbEntity
  8
0
100
AcDbLine
 62
7
  6
CONTINUOUS
 10
62.4574859864
 20
138.0437374139
 11
61.6089543163
 21
138.5336263193
  0
LINE
  5
3A6
100
AcDbEntity
  8
0
100
AcDbLine
 62
7
  6
CONTINUOUS
 10
43.577656325
 20
148.9437655596
 11
42.7291246548
 21
149.433654465
  0
LINE
  5
3A7
100
AcDbEntity
  8
0
100
AcDbLine
 62
7
  6
CONTINUOUS
 10
46.47681503
 20
147.4741303335
 11
54.6085768692
 21
142.7793302944
  0
LINE
  5
3A8
100
AcDbEntity
  8
0
100
AcDbLine
 62
7
  6
CONTINUOUS
 10
65.3566446915
 20
136.5741021878
 11
73.4884065306
 21
131.8793021487
  0
LINE
  5
3A9
100
AcDbEntity
  8
0
100
AcDbLine
 62
7
  6
CONTINUOUS
 10
84.2364743529
 20
125.6740740421
 11
92.3682361921
 21
120.979274003
  0
LINE
  5
3AA
100
AcDbEntity
  8
0
100
AcDbLine
 62
7
  6
CONTINUOUS
 10
103.1163040143
 20
114.7740458964
 11
111.6016118842
 21
109.875130579
  0
LINE
  5
3AB
100
AcDbEntity
  8
0
100
AcDbLine
 62
7
  6
CONTINUOUS
 10
112.7329689701
 20
109.3852126142
 11
113.7936396675
 21
108.7728479551
  0
LINE
  5
3AC
100
AcDbEntity
  8
0
100
AcDbLine
 62
7
  6
CONTINUOUS
 10
54.2550154412
 20
143.3917223971
 11
54.3964398301
 21
143.3100728353
  0
LINE
  5
3AD
100
AcDbEntity
  8
0
100
AcDbLine
 62
7
  6
CONTINUOUS
 10
73.1348451027
 20
132.4916942514
 11
73.2762694915
 21
132.4100446896
  0
LINE
  5
3AE
100
AcDbEntity
  8
0
100
AcDbLine
 62
7
  6
CONTINUOUS
 10
92.0146747641
 20
121.5916661057
 11
92.156099153
 21
121.5100165439
  0
LINE
  5
3AF
100
AcDbEntity
  8
0
100
AcDbLine
 62
7
  6
CONTINUOUS
 10
110.8945044255
 20
110.69163796
 11
111.0359288144
 21
110.6099883982
  0
LINE
  5
3B0
100
AcDbEntity
  8
0
100
AcDbLine
 62
7
  6
CONTINUOUS
 10
99.3686136391
 20
117.5500724451
 11
97.4660559782
 21
118.6484897733
  0
LINE
  5
3B1
100
AcDbEntity
  8
0
100
AcDbLine
 62
7
  6
CONTINUOUS
 10
80.4887839777
 20
128.4501005908
 11
78.5862263167
 21
129.548517919
  0
LINE
  5
3B2
100
AcDbEntity
  8
0
100
AcDbLine
 62
7
  6
CONTINUOUS
 10
61.6089543163
 20
139.3501287365
 11
59.7063966553
 21
140.4485460647
  0
LINE
  5
3B3
100
AcDbEntity
  8
0
100
AcDbLine
 62
7
  6
CONTINUOUS
 10
42.7291246548
 20
150.2501568822
 11
40.8265669939
 21
151.3485742103
  0
LINE
  5
3B4
100
AcDbEntity
  8
0
100
AcDbLine
 62
7
  6
CONTINUOUS
 10
43.577656325
 20
149.7602679767
 11
43.9073048951
 21
149.5699495916
  0
LINE
  5
3B5
100
AcDbEntity
  8
0
100
AcDbLine
 62
7
  6
CONTINUOUS
 10
62.4574859864
 20
138.860239831
 11
62.7871345565
 21
138.6699214459
  0
LINE
  5
3B6
100
AcDbEntity
  8
0
100
AcDbLine
 62
7
  6
CONTINUOUS
 10
81.3373156479
 20
127.9602116854
 11
81.666964218
 21
127.7698933003
  0
LINE
  5
3B7
100
AcDbEntity
  8
0
100
AcDbLine
 62
7
  6
CONTINUOUS
 10
100.2171453093
 20
117.0601835397
 11
100.5467938794
 21
116.8698651546
  0
LINE
  5
3B8
100
AcDbEntity
  8
0
100
AcDbLine
 62
7
  6
CONTINUOUS
 10
100.441630597
 20
117.257151526
 11
100.3585590112
 21
117.3051118434
  0
LINE
  5
3B9
100
AcDbEntity
  8
0
100
AcDbLine
 62
7
  6
CONTINUOUS
 10
81.5618009356
 20
128.1571796717
 11
81.4787293498
 21
128.2051399891
  0
LINE
  5
3BA
100
AcDbEntity
  8
0
100
AcDbLine
 62
7
  6
CONTINUOUS
 10
62.6819712742
 20
139.0572078173
 11
62.5988996884
 21
139.1051681348
  0
LINE
  5
3BB
100
AcDbEntity
  8
0
100
AcDbLine
 62
7
  6
CONTINUOUS
 10
43.8021416127
 20
149.957235963
 11
43.7190700269
 21
150.0051962805
  0
LINE
  5
3BC
100
AcDbEntity
  8
0
100
AcDbLine
 62
7
  6
CONTINUOUS
 10
111.5308779611
 20
110.8957457156
 11
112.5915572563
 21
110.283371911
  0
LINE
  5
3BD
100
AcDbEntity
  8
0
100
AcDbLine
 62
7
  6
CONTINUOUS
 10
112.0258470257
 20
111.1815145325
 11
113.0865299423
 21
110.5691428187
  0
LINE
  5
3BE
100
AcDbEntity
  8
0
100
AcDbLine
 62
7
  6
CONTINUOUS
 10
99.8154133968
 20
118.4351924331
 11
98.4560013503
 21
119.2200315887
  0
LINE
  5
3BF
100
AcDbEntity
  8
0
100
AcDbLine
 62
7
  6
CONTINUOUS
 10
80.9355837354
 20
129.3352205788
 11
79.5761716888
 21
130.1200597344
  0
LINE
  5
3C0
100
AcDbEntity
  8
0
100
AcDbLine
 62
7
  6
CONTINUOUS
 10
62.055754074
 20
140.2352487245
 11
60.6963420274
 21
141.0200878801
  0
LINE
  5
3C1
100
AcDbEntity
  8
0
100
AcDbLine
 62
7
  6
CONTINUOUS
 10
43.1759244125
 20
151.1352768702
 11
41.816512366
 21
151.9201160258
  0
LINE
  5
3C2
100
AcDbEntity
  8
0
100
AcDbLine
 62
7
  6
CONTINUOUS
 10
99.3686136391
 20
118.7748260708
 11
97.4660559782
 21
119.873243399
  0
LINE
  5
3C3
100
AcDbEntity
  8
0
100
AcDbLine
 62
7
  6
CONTINUOUS
 10
80.4887839777
 20
129.6748542165
 11
78.5862263167
 21
130.7732715447
  0
LINE
  5
3C4
100
AcDbEntity
  8
0
100
AcDbLine
 62
7
  6
CONTINUOUS
 10
61.6089543163
 20
140.5748823622
 11
59.7063966553
 21
141.6732996904
  0
LINE
  5
3C5
100
AcDbEntity
  8
0
100
AcDbLine
 62
7
  6
CONTINUOUS
 10
42.7291246548
 20
151.4749105079
 11
40.8265669939
 21
152.573327836
  0
LINE
  5
3C6
100
AcDbEntity
  8
0
100
AcDbLine
 62
7
  6
CONTINUOUS
 10
113.0865299423
 20
110.9773940273
 11
112.3794170517
 21
111.3856366093
  0
LINE
  5
3C7
100
AcDbEntity
  8
0
100
AcDbLine
 62
7
  6
CONTINUOUS
 10
53.9014671441
 20
146.4944372004
 11
54.6085768692
 21
146.0861964459
  0
LINE
  5
3C8
100
AcDbEntity
  8
0
100
AcDbLine
 62
7
  6
CONTINUOUS
 10
72.7812968055
 20
135.5944090547
 11
73.4884065306
 21
135.1861683002
  0
LINE
  5
3C9
100
AcDbEntity
  8
0
100
AcDbLine
 62
7
  6
CONTINUOUS
 10
91.6611264669
 20
124.694380909
 11
92.3682361921
 21
124.2861401545
  0
LINE
  5
3CA
100
AcDbEntity
  8
0
100
AcDbLine
 62
7
  6
CONTINUOUS
 10
110.5409561283
 20
113.7943527633
 11
111.2480658535
 21
113.3861120088
  0
LINE
  5
3CB
100
AcDbEntity
  8
0
100
AcDbLine
 62
7
  6
CONTINUOUS
 10
82.6451972057
 20
171.9893167162
 11
82.8696238781
 21
170.6491843917
  0
LINE
  5
3CC
100
AcDbEntity
  8
0
100
AcDbLine
 62
7
  6
CONTINUOUS
 10
96.0099466611
 20
77.5822755103
 11
96.0099466611
 21
77.311980006
  0
LINE
  5
3CD
100
AcDbEntity
  8
0
100
AcDbLine
 62
7
  6
CONTINUOUS
 10
97.1410513764
 20
143.2899374372
 11
97.1410513764
 21
149.0869498792
  0
LINE
  5
3CE
100
AcDbEntity
  8
0
100
AcDbLine
 62
7
  6
CONTINUOUS
 10
97.1871488427
 20
128.7421540182
 11
97.1871488427
 21
130.2935086108
  0
LINE
  5
3CF
100
AcDbEntity
  8
0
100
AcDbLine
 62
7
  6
CONTINUOUS
 10
98.5339646822
 20
158.4887880635
 11
98.5339646822
 21
161.1586825981
  0
LINE
  5
3D0
100
AcDbEntity
  8
0
100
AcDbLine
 62
7
  6
CONTINUOUS
 10
98.8736456634
 20
112.1611754373
 11
98.8736456634
 21
111.671273987
  0
LINE
  5
3D1
100
AcDbEntity
  8
0
100
AcDbLine
 62
7
  6
CONTINUOUS
 10
99.3686136391
 20
116.733570028
 11
99.3686136391
 21
117.5500724451
  0
LINE
  5
3D2
100
AcDbEntity
  8
0
100
AcDbLine
 62
7
  6
CONTINUOUS
 10
99.3686136391
 20
118.7748260708
 11
99.3686136391
 21
118.9575838778
  0
LINE
  5
3D3
100
AcDbEntity
  8
0
100
AcDbLine
 62
7
  6
CONTINUOUS
 10
99.7929836906
 20
60.2727440605
 11
99.7929836906
 21
65.0136541629
  0
LINE
  5
3D4
100
AcDbEntity
  8
0
100
AcDbLine
 62
7
  6
CONTINUOUS
 10
99.7929836906
 20
75.1278919693
 11
99.7929836906
 21
93.7493431628
  0
LINE
  5
3D5
100
AcDbEntity
  8
0
100
AcDbLine
 62
7
  6
CONTINUOUS
 10
100.0896060776
 20
160.2605529382
 11
100.0896060776
 21
158.7908485874
  0
LINE
  5
3D6
100
AcDbEntity
  8
0
100
AcDbLine
 62
7
  6
CONTINUOUS
 10
100.2171453093
 20
117.0601835397
 11
100.2171453093
 21
116.2436811225
  0
LINE
  5
3D7
100
AcDbEntity
  8
0
100
AcDbLine
 62
7
  6
CONTINUOUS
 10
100.3585590112
 20
117.3051118434
 11
100.3585590112
 21
117.4134259404
  0
LINE
  5
3D8
100
AcDbEntity
  8
0
100
AcDbLine
 62
7
  6
CONTINUOUS
 10
100.3937019431
 20
154.7207035656
 11
100.3937019431
 21
153.1693757808
  0
LINE
  5
3D9
100
AcDbEntity
  8
0
100
AcDbLine
 62
7
  6
CONTINUOUS
 10
100.6415082953
 20
88.2787685024
 11
100.6415082953
 21
95.0149134438
  0
LINE
  5
3DA
100
AcDbEntity
  8
0
100
AcDbLine
 62
7
  6
CONTINUOUS
 10
101.065456182
 20
153.5572109564
 11
101.065456182
 21
154.3328748488
  0
LINE
  5
3DB
100
AcDbEntity
  8
0
100
AcDbLine
 62
7
  6
CONTINUOUS
 10
101.3836920635
 20
149.0869600772
 11
101.3836920635
 21
142.5550536151
  0
LINE
  5
3DC
100
AcDbEntity
  8
0
100
AcDbLine
 62
7
  6
CONTINUOUS
 10
98.0466560671
 20
65.4736135399
 11
98.0201788461
 21
64.9463019629
  0
LINE
  5
3DD
100
AcDbEntity
  8
0
100
AcDbLine
 62
7
  6
CONTINUOUS
 10
99.0857768146
 20
112.0386979583
 11
98.8736456634
 21
111.671273987
  0
LINE
  5
3DE
100
AcDbEntity
  8
0
100
AcDbLine
 62
7
  6
CONTINUOUS
 10
73.7938555311
 20
79.7128362329
 11
74.8132919142
 21
81.1566592474
  0
LINE
  5
3DF
100
AcDbEntity
  8
0
100
AcDbLine
 62
7
  6
CONTINUOUS
 10
116.7634757838
 20
119.7956009566
 11
121.1475195745
 21
122.3267147106
  0
LINE
  5
3E0
100
AcDbEntity
  8
0
100
AcDbLine
 62
7
  6
CONTINUOUS
 10
138.8251155048
 20
132.5328185574
 11
144.9062085049
 21
136.0437182807
  0
LINE
  5
3E1
100
AcDbEntity
  8
0
100
AcDbLine
 62
7
  6
CONTINUOUS
 10
104.861908941
 20
112.1892547195
 11
103.6112767004
 21
111.4672061687
  0
LINE
  5
3E2
100
AcDbEntity
  8
0
100
AcDbLine
 62
7
  6
CONTINUOUS
 10
110.5763116146
 20
115.4477706807
 11
112.5562023588
 21
116.5908543115
  0
LINE
  5
3E3
100
AcDbEntity
  8
0
100
AcDbLine
 62
7
  6
CONTINUOUS
 10
129.8095359868
 20
126.4703614243
 11
131.2237436612
 21
127.286849732
  0
LINE
  5
3E4
100
AcDbEntity
  8
0
100
AcDbLine
 62
7
  6
CONTINUOUS
 10
103.6112767004
 20
111.3039056853
 11
103.1163040143
 21
111.0181347776
  0
LINE
  5
3E5
100
AcDbEntity
  8
0
100
AcDbLine
 62
7
  6
CONTINUOUS
 10
138.1533612659
 20
130.7569158688
 11
136.1734705217
 21
129.613832238
  0
LINE
  5
3E6
100
AcDbEntity
  8
0
100
AcDbLine
 62
7
  6
CONTINUOUS
 10
111.2480658535
 20
115.0599419639
 11
116.7634757838
 21
118.2442463641
  0
LINE
  5
3E7
100
AcDbEntity
  8
0
100
AcDbLine
 62
7
  6
CONTINUOUS
 10
130.5873449086
 20
126.0212615768
 11
126.7428265701
 21
123.8016411285
  0
LINE
  5
3E8
100
AcDbEntity
  8
0
100
AcDbLine
 62
7
  6
CONTINUOUS
 10
138.8251155048
 20
130.369087152
 11
136.8452247606
 21
129.2260035212
  0
LINE
  5
3E9
100
AcDbEntity
  8
0
100
AcDbLine
 62
7
  6
CONTINUOUS
 10
134.2033898935
 20
127.3741341833
 11
131.2237436612
 21
125.6538448978
  0
LINE
  5
3EA
100
AcDbEntity
  8
0
100
AcDbLine
 62
7
  6
CONTINUOUS
 10
127.1102421526
 20
123.2789278708
 11
121.1475195745
 21
119.8363689345
  0
LINE
  5
3EB
100
AcDbEntity
  8
0
100
AcDbLine
 62
7
  6
CONTINUOUS
 10
111.2480658535
 20
113.3861120088
 11
113.7936396675
 21
114.8557909627
  0
LINE
  5
3EC
100
AcDbEntity
  8
0
100
AcDbLine
 62
7
  6
CONTINUOUS
 10
134.8751441324
 20
126.9863054665
 11
121.1475195745
 21
119.0607050421
  0
LINE
  5
3ED
100
AcDbEntity
  8
0
100
AcDbLine
 62
7
  6
CONTINUOUS
 10
110.5409561283
 20
110.4875179739
 11
111.0359288144
 21
110.7732888816
  0
LINE
  5
3EE
100
AcDbEntity
  8
0
100
AcDbLine
 62
7
  6
CONTINUOUS
 10
111.0359288144
 20
110.6099883982
 11
112.3794261051
 21
111.3856522906
  0
LINE
  5
3EF
100
AcDbEntity
  8
0
100
AcDbLine
 62
7
  6
CONTINUOUS
 10
118.1699903929
 20
131.4101021596
 11
119.839306526
 21
131.4101061721
  0
LINE
  5
3F0
100
AcDbEntity
  8
0
100
AcDbLine
 62
7
  6
CONTINUOUS
 10
117.2937221138
 20
131.6550507784
 11
117.43514347
 21
131.6550511183
  0
LINE
  5
3F1
100
AcDbEntity
  8
0
100
AcDbLine
 62
7
  6
CONTINUOUS
 10
125.8497491993
 20
126.7969861395
 11
126.217171131
 21
126.7641652993
  0
LINE
  5
3F2
100
AcDbEntity
  8
0
100
AcDbLine
 62
7
  6
CONTINUOUS
 10
111.2480658535
 20
115.0599419639
 11
110.5763116146
 21
115.4477706807
  0
LINE
  5
3F3
100
AcDbEntity
  8
0
100
AcDbLine
 62
7
  6
CONTINUOUS
 10
93.039990431
 20
125.5721413928
 11
91.6964819532
 21
126.3477988264
  0
LINE
  5
3F4
100
AcDbEntity
  8
0
100
AcDbLine
 62
7
  6
CONTINUOUS
 10
74.1601607695
 20
136.4721695385
 11
72.8166522918
 21
137.2478269721
  0
LINE
  5
3F5
100
AcDbEntity
  8
0
100
AcDbLine
 62
7
  6
CONTINUOUS
 10
55.2803311081
 20
147.3721976842
 11
53.9368226303
 21
148.1478551178
  0
LINE
  5
3F6
100
AcDbEntity
  8
0
100
AcDbLine
 62
7
  6
CONTINUOUS
 10
36.4005014467
 20
158.2722258299
 11
35.7287472078
 21
158.6600545467
  0
LINE
  5
3F7
100
AcDbEntity
  8
0
100
AcDbLine
 62
7
  6
CONTINUOUS
 10
110.5763116146
 20
116.9991252732
 11
93.039990431
 21
127.1234959853
  0
LINE
  5
3F8
100
AcDbEntity
  8
0
100
AcDbLine
 62
7
  6
CONTINUOUS
 10
91.6964819532
 20
127.8991534189
 11
74.1601607695
 21
138.023524131
  0
LINE
  5
3F9
100
AcDbEntity
  8
0
100
AcDbLine
 62
7
  6
CONTINUOUS
 10
72.8166522918
 20
138.7991815646
 11
55.2803311081
 21
148.9235522767
  0
LINE
  5
3FA
100
AcDbEntity
  8
0
100
AcDbLine
 62
7
  6
CONTINUOUS
 10
53.9368226303
 20
149.6992097103
 11
36.4005014467
 21
159.8235804224
  0
LINE
  5
3FB
100
AcDbEntity
  8
0
100
AcDbLine
 62
7
  6
CONTINUOUS
 10
112.5562023588
 20
118.1422089041
 11
109.692407972
 21
119.7955839599
  0
LINE
  5
3FC
100
AcDbEntity
  8
0
100
AcDbLine
 62
7
  6
CONTINUOUS
 10
97.883675562
 20
126.6132045604
 11
95.0198811752
 21
128.2665796162
  0
LINE
  5
3FD
100
AcDbEntity
  8
0
100
AcDbLine
 62
7
  6
CONTINUOUS
 10
93.6763726974
 20
129.0422370498
 11
90.8125783105
 21
130.6956121056
  0
LINE
  5
3FE
100
AcDbEntity
  8
0
100
AcDbLine
 62
7
  6
CONTINUOUS
 10
79.0038459006
 20
137.5132327061
 11
76.1400515137
 21
139.1666077619
  0
LINE
  5
3FF
100
AcDbEntity
  8
0
100
AcDbLine
 62
7
  6
CONTINUOUS
 10
74.796543036
 20
139.9422651955
 11
71.9327486491
 21
141.5956402513
  0
LINE
  5
400
100
AcDbEntity
  8
0
100
AcDbLine
 62
7
  6
CONTINUOUS
 10
60.1240162392
 20
148.4132608518
 11
57.2602218523
 21
150.0666359076
  0
LINE
  5
401
100
AcDbEntity
  8
0
100
AcDbLine
 62
7
  6
CONTINUOUS
 10
55.9167133745
 20
150.8422933412
 11
53.0529189877
 21
152.495668397
  0
LINE
  5
402
100
AcDbEntity
  8
0
100
AcDbLine
 62
7
  6
CONTINUOUS
 10
41.2441865777
 20
159.3132889974
 11
38.3803921909
 21
160.9666640533
  0
LINE
  5
403
100
AcDbEntity
  8
0
100
AcDbLine
 62
7
  6
CONTINUOUS
 10
68.7152928281
 20
158.4764632514
 11
69.4909479468
 21
157.372957485
  0
LINE
  5
404
100
AcDbEntity
  8
0
100
AcDbLine
 62
7
  6
CONTINUOUS
 10
102.9180449781
 20
157.1578855693
 11
102.9180449781
 21
158.6275899201
  0
LINE
  5
405
100
AcDbEntity
  8
0
100
AcDbLine
 62
7
  6
CONTINUOUS
 10
103.1163040143
 20
114.7740458964
 11
103.1163040143
 21
111.0181347776
  0
LINE
  5
406
100
AcDbEntity
  8
0
100
AcDbLine
 62
7
  6
CONTINUOUS
 10
103.6112767004
 20
111.4672061687
 11
103.6112767004
 21
111.3039056853
  0
LINE
  5
407
100
AcDbEntity
  8
0
100
AcDbLine
 62
7
  6
CONTINUOUS
 10
104.9192406892
 20
144.5963015795
 11
104.9192406892
 21
147.0457563046
  0
LINE
  5
408
100
AcDbEntity
  8
0
100
AcDbLine
 62
7
  6
CONTINUOUS
 10
105.6618901929
 20
60.1908706827
 11
105.6618901929
 21
61.0073730999
  0
LINE
  5
409
100
AcDbEntity
  8
0
100
AcDbLine
 62
7
  6
CONTINUOUS
 10
106.5104218631
 20
60.5174841944
 11
106.5104218631
 21
59.7009817773
  0
LINE
  5
40A
100
AcDbEntity
  8
0
100
AcDbLine
 62
7
  6
CONTINUOUS
 10
106.651835565
 20
60.7624124982
 11
106.651835565
 21
60.8707265952
  0
LINE
  5
40B
100
AcDbEntity
  8
0
100
AcDbLine
 62
7
  6
CONTINUOUS
 10
98.4948972219
 20
64.559601991
 11
98.3650571565
 21
63.5380305409
  0
LINE
  5
40C
100
AcDbEntity
  8
0
100
AcDbLine
 62
7
  6
CONTINUOUS
 10
83.4400256898
 20
76.1761151488
 11
82.4205941778
 21
74.7322990278
  0
LINE
  5
40D
100
AcDbEntity
  8
0
100
AcDbLine
 62
7
  6
CONTINUOUS
 10
112.4501364888
 20
110.3650235637
 11
111.6016118842
 21
109.875130579
  0
LINE
  5
40E
100
AcDbEntity
  8
0
100
AcDbLine
 62
7
  6
CONTINUOUS
 10
113.0865299423
 20
110.5691428187
 11
112.5915572563
 21
110.283371911
  0
LINE
  5
40F
100
AcDbEntity
  8
0
100
AcDbLine
 62
7
  6
CONTINUOUS
 10
112.5915572563
 20
109.3035690105
 11
113.0865299423
 21
109.5893399182
  0
LINE
  5
410
100
AcDbEntity
  8
0
100
AcDbLine
 62
7
  6
CONTINUOUS
 10
111.6016118842
 20
108.5687267116
 11
112.4501364888
 21
109.0586196963
  0
LINE
  5
411
100
AcDbEntity
  8
0
100
AcDbLine
 62
7
  6
CONTINUOUS
 10
113.0865358302
 20
107.5481013841
 11
111.7430385395
 21
106.7724374917
  0
LINE
  5
412
100
AcDbEntity
  8
0
100
AcDbLine
 62
7
  6
CONTINUOUS
 10
111.7430385395
 20
106.6091370083
 11
111.2480658535
 21
106.3233661006
  0
LINE
  5
413
100
AcDbEntity
  8
0
100
AcDbLine
 62
7
  6
CONTINUOUS
 10
142.2192139235
 20
113.3715176033
 11
140.7587074788
 21
112.8256684208
  0
LINE
  5
414
100
AcDbEntity
  8
0
100
AcDbLine
 62
7
  6
CONTINUOUS
 10
141.2292603083
 20
110.6142250533
 11
140.405153448
 21
110.3062236353
  0
LINE
  5
415
100
AcDbEntity
  8
0
100
AcDbLine
 62
7
  6
CONTINUOUS
 10
139.143295451
 20
135.0435104156
 11
140.2039556227
 21
135.0435129651
  0
LINE
  5
416
100
AcDbEntity
  8
0
100
AcDbLine
 62
7
  6
CONTINUOUS
 10
109.9536474526
 20
136.1537026533
 11
109.5862255209
 21
136.1865234935
  0
LINE
  5
417
100
AcDbEntity
  8
0
100
AcDbLine
 62
7
  6
CONTINUOUS
 10
106.9699195379
 20
137.6970142852
 11
107.3373414695
 21
137.664193445
  0
LINE
  5
418
100
AcDbEntity
  8
0
100
AcDbLine
 62
7
  6
CONTINUOUS
 10
40.5476598584
 20
161.4422384553
 11
42.7396767898
 21
160.1767055201
  0
LINE
  5
419
100
AcDbEntity
  8
0
100
AcDbLine
 62
7
  6
CONTINUOUS
 10
59.4274895198
 20
150.5422103096
 11
61.6195064512
 21
149.2766773744
  0
LINE
  5
41A
100
AcDbEntity
  8
0
100
AcDbLine
 62
7
  6
CONTINUOUS
 10
78.3073191813
 20
139.6421821639
 11
80.4993361127
 21
138.3766492287
  0
LINE
  5
41B
100
AcDbEntity
  8
0
100
AcDbLine
 62
7
  6
CONTINUOUS
 10
97.1871488427
 20
128.7421540182
 11
99.3791657741
 21
127.476621083
  0
LINE
  5
41C
100
AcDbEntity
  8
0
100
AcDbLine
 62
7
  6
CONTINUOUS
 10
56.5884381738
 20
152.9855345738
 11
59.4274895198
 21
151.346444596
  0
LINE
  5
41D
100
AcDbEntity
  8
0
100
AcDbLine
 62
7
  6
CONTINUOUS
 10
75.4682678352
 20
142.0855064281
 11
78.3073191813
 21
140.4464164503
  0
LINE
  5
41E
100
AcDbEntity
  8
0
100
AcDbLine
 62
7
  6
CONTINUOUS
 10
94.3480974966
 20
131.1854782824
 11
97.1871488427
 21
129.5463883047
  0
LINE
  5
41F
100
AcDbEntity
  8
0
100
AcDbLine
 62
7
  6
CONTINUOUS
 10
113.227927158
 20
120.2854501367
 11
116.7634757838
 21
118.2442463641
  0
LINE
  5
420
100
AcDbEntity
  8
0
100
AcDbLine
 62
7
  6
CONTINUOUS
 10
100.7226974684
 20
128.2523048382
 11
97.1871488427
 21
130.2935086108
  0
LINE
  5
421
100
AcDbEntity
  8
0
100
AcDbLine
 62
7
  6
CONTINUOUS
 10
81.842867807
 20
139.1523329839
 11
78.3073191813
 21
141.1935367565
  0
LINE
  5
422
100
AcDbEntity
  8
0
100
AcDbLine
 62
7
  6
CONTINUOUS
 10
62.9630381456
 20
150.0523611296
 11
59.4274895198
 21
152.0935649022
  0
LINE
  5
423
100
AcDbEntity
  8
0
100
AcDbLine
 62
7
  6
CONTINUOUS
 10
44.0832084841
 20
160.9523892752
 11
40.5476598584
 21
162.9935930478
  0
LINE
  5
424
100
AcDbEntity
  8
0
100
AcDbLine
 62
7
  6
CONTINUOUS
 10
56.5884381738
 20
154.5368891663
 11
60.1239867995
 21
152.4956853937
  0
LINE
  5
425
100
AcDbEntity
  8
0
100
AcDbLine
 62
7
  6
CONTINUOUS
 10
75.4682678352
 20
143.6368610206
 11
79.0038164609
 21
141.595657248
  0
LINE
  5
426
100
AcDbEntity
  8
0
100
AcDbLine
 62
7
  6
CONTINUOUS
 10
94.3480974966
 20
132.7368328749
 11
97.8836461223
 21
130.6956291023
  0
LINE
  5
427
100
AcDbEntity
  8
0
100
AcDbLine
 62
7
  6
CONTINUOUS
 10
113.227927158
 20
121.8368047292
 11
116.7634757838
 21
119.7956009566
  0
LINE
  5
428
100
AcDbEntity
  8
0
100
AcDbLine
 62
7
  6
CONTINUOUS
 10
87.5951224895
 20
147.5764351057
 11
88.3707776082
 21
146.4729293394
  0
LINE
  5
429
100
AcDbEntity
  8
0
100
AcDbLine
 62
7
  6
CONTINUOUS
 10
110.2933075728
 20
139.3708110833
 11
110.2933075728
 21
137.737806249
  0
LINE
  5
42A
100
AcDbEntity
  8
0
100
AcDbLine
 62
7
  6
CONTINUOUS
 10
110.5409561283
 20
113.7943527633
 11
110.5409561283
 21
110.4875179739
  0
LINE
  5
42B
100
AcDbEntity
  8
0
100
AcDbLine
 62
7
  6
CONTINUOUS
 10
110.5763116146
 20
115.4477706807
 11
110.5763116146
 21
116.9991252732
  0
LINE
  5
42C
100
AcDbEntity
  8
0
100
AcDbLine
 62
7
  6
CONTINUOUS
 10
110.9297063254
 20
137.37038957
 11
110.9297063254
 21
139.0033944042
  0
LINE
  5
42D
100
AcDbEntity
  8
0
100
AcDbLine
 62
7
  6
CONTINUOUS
 10
111.0359288144
 20
110.7732888816
 11
111.0359288144
 21
110.6099883982
  0
LINE
  5
42E
100
AcDbEntity
  8
0
100
AcDbLine
 62
7
  6
CONTINUOUS
 10
111.2480658535
 20
50.6379012524
 11
111.2480658535
 21
65.253294519
  0
LINE
  5
42F
100
AcDbEntity
  8
0
100
AcDbLine
 62
7
  6
CONTINUOUS
 10
111.2480658535
 20
101.9959032898
 11
111.2480658535
 21
104.5270607829
  0
LINE
  5
430
100
AcDbEntity
  8
0
100
AcDbLine
 62
7
  6
CONTINUOUS
 10
111.2480658535
 20
105.0169622332
 11
111.2480658535
 21
106.3233661006
  0
LINE
  5
431
100
AcDbEntity
  8
0
100
AcDbLine
 62
7
  6
CONTINUOUS
 10
111.2480658535
 20
113.3861120088
 11
111.2480658535
 21
115.0599419639
  0
LINE
  5
432
100
AcDbEntity
  8
0
100
AcDbLine
 62
7
  6
CONTINUOUS
 10
111.7075152472
 20
137.8194550798
 11
111.7075152472
 21
137.1662926523
  0
LINE
  5
433
100
AcDbEntity
  8
0
100
AcDbLine
 62
7
  6
CONTINUOUS
 10
111.7430385395
 20
106.7724374917
 11
111.7430385395
 21
106.6091370083
  0
LINE
  5
434
100
AcDbEntity
  8
0
100
AcDbLine
 62
7
  6
CONTINUOUS
 10
112.0611101477
 20
134.6760323619
 11
112.0610995494
 21
135.9007544718
  0
LINE
  5
435
100
AcDbEntity
  8
0
100
AcDbLine
 62
7
  6
CONTINUOUS
 10
112.2732148032
 20
137.4928974936
 11
112.2732148032
 21
138.2277369706
  0
LINE
  5
436
100
AcDbEntity
  8
0
100
AcDbLine
 62
7
  6
CONTINUOUS
 10
112.5562023588
 20
116.5908543115
 11
112.5562023588
 21
118.1422089041
  0
LINE
  5
437
100
AcDbEntity
  8
0
100
AcDbLine
 62
7
  6
CONTINUOUS
 10
113.0865299423
 20
114.4475434095
 11
113.0865299423
 21
110.9773940273
  0
LINE
  5
438
100
AcDbEntity
  8
0
100
AcDbLine
 62
7
  6
CONTINUOUS
 10
113.0865299423
 20
110.5691428187
 11
113.0865299423
 21
109.5893399182
  0
LINE
  5
439
100
AcDbEntity
  8
0
100
AcDbLine
 62
7
  6
CONTINUOUS
 10
113.227927158
 20
120.2854501367
 11
113.227927158
 21
121.8368047292
  0
LINE
  5
43A
100
AcDbEntity
  8
0
100
AcDbLine
 62
7
  6
CONTINUOUS
 10
102.6213990395
 20
96.6887236457
 11
102.9042405744
 21
97.1786222741
  0
LINE
  5
43B
100
AcDbEntity
  8
0
100
AcDbLine
 62
7
  6
CONTINUOUS
 10
112.5915572563
 20
109.3035690105
 11
112.4501364888
 21
109.0586196963
  0
LINE
  5
43C
100
AcDbEntity
  8
0
100
AcDbLine
 62
7
  6
CONTINUOUS
 10
111.2480658535
 20
104.5270607829
 11
111.4601970047
 21
104.8944847542
  0
LINE
  5
43D
100
AcDbEntity
  8
0
100
AcDbLine
 62
7
  6
CONTINUOUS
 10
124.138835276
 20
124.8294052196
 11
124.5062572077
 21
125.2864858296
  0
LINE
  5
43E
100
AcDbEntity
  8
0
100
AcDbLine
 62
7
  6
CONTINUOUS
 10
101.2071913651
 20
96.1988363048
 11
102.3385575046
 21
96.852026951
  0
LINE
  5
43F
100
AcDbEntity
  8
0
100
AcDbLine
 62
7
  6
CONTINUOUS
 10
102.9042405744
 20
97.1786222741
 11
111.2480658535
 21
101.9959032898
  0
LINE
  5
440
100
AcDbEntity
  8
0
100
AcDbLine
 62
7
  6
CONTINUOUS
 10
100.6415082953
 20
95.0149134438
 11
116.1270823303
 21
103.9554604135
  0
LINE
  5
441
100
AcDbEntity
  8
0
100
AcDbLine
 62
7
  6
CONTINUOUS
 10
142.7848969932
 20
116.1210804668
 11
142.2192139235
 21
115.7944851437
  0
LINE
  5
442
100
AcDbEntity
  8
0
100
AcDbLine
 62
7
  6
CONTINUOUS
 10
140.2657164984
 20
109.3125885329
 11
142.2192139235
 21
110.0426879969
  0
LINE
  5
443
100
AcDbEntity
  8
0
100
AcDbLine
 62
7
  6
CONTINUOUS
 10
99.2901607314
 20
142.3101303053
 11
100.9594768646
 21
142.3101343178
  0
LINE
  5
444
100
AcDbEntity
  8
0
100
AcDbLine
 62
7
  6
CONTINUOUS
 10
98.4138924524
 20
142.5550789241
 11
98.5553138086
 21
142.555079264
  0
LINE
  5
445
100
AcDbEntity
  8
0
100
AcDbLine
 62
7
  6
CONTINUOUS
 10
120.2634657895
 20
145.9435385613
 11
121.3241259613
 21
145.9435411108
  0
LINE
  5
446
100
AcDbEntity
  8
0
100
AcDbLine
 62
7
  6
CONTINUOUS
 10
117.43514347
 20
131.6550511183
 11
118.1699903929
 21
131.4101021596
  0
LINE
  5
447
100
AcDbEntity
  8
0
100
AcDbLine
 62
7
  6
CONTINUOUS
 10
141.2292603083
 20
110.6142250533
 11
142.2192139235
 21
110.0426879969
  0
LINE
  5
448
100
AcDbEntity
  8
0
100
AcDbLine
 62
7
  6
CONTINUOUS
 10
46.2999551677
 20
165.5389985766
 11
45.6282009288
 21
165.9268272934
  0
LINE
  5
449
100
AcDbEntity
  8
0
100
AcDbLine
 62
7
  6
CONTINUOUS
 10
63.8362763513
 20
155.4146278645
 11
65.1797848291
 21
154.6389704309
  0
LINE
  5
44A
100
AcDbEntity
  8
0
100
AcDbLine
 62
7
  6
CONTINUOUS
 10
82.7161060127
 20
144.5145997188
 11
84.0596144905
 21
143.7389422852
  0
LINE
  5
44B
100
AcDbEntity
  8
0
100
AcDbLine
 62
7
  6
CONTINUOUS
 10
101.5959356742
 20
133.6145715731
 11
102.939444152
 21
132.8389141395
  0
LINE
  5
44C
100
AcDbEntity
  8
0
100
AcDbLine
 62
7
  6
CONTINUOUS
 10
120.4757653356
 20
122.7145434274
 11
121.1475195745
 21
122.3267147106
  0
LINE
  5
44D
100
AcDbEntity
  8
0
100
AcDbLine
 62
7
  6
CONTINUOUS
 10
124.138835276
 20
124.8294052196
 11
106.6025140924
 21
134.9537759317
  0
LINE
  5
44E
100
AcDbEntity
  8
0
100
AcDbLine
 62
7
  6
CONTINUOUS
 10
105.2590056146
 20
135.7294333653
 11
87.722684431
 21
145.8538040774
  0
LINE
  5
44F
100
AcDbEntity
  8
0
100
AcDbLine
 62
7
  6
CONTINUOUS
 10
86.3791759532
 20
146.629461511
 11
68.8428547695
 21
156.7538322231
  0
LINE
  5
450
100
AcDbEntity
  8
0
100
AcDbLine
 62
7
  6
CONTINUOUS
 10
67.4993462918
 20
157.5294896567
 11
49.9630251081
 21
167.6538603688
  0
LINE
  5
451
100
AcDbEntity
  8
0
100
AcDbLine
 62
7
  6
CONTINUOUS
 10
124.5062572077
 20
125.2864858296
 11
106.9699360241
 21
135.4108565417
  0
LINE
  5
452
100
AcDbEntity
  8
0
100
AcDbLine
 62
7
  6
CONTINUOUS
 10
105.6264275463
 20
136.1865139753
 11
88.0901063626
 21
146.3108846874
  0
LINE
  5
453
100
AcDbEntity
  8
0
100
AcDbLine
 62
7
  6
CONTINUOUS
 10
86.7465978849
 20
147.086542121
 11
69.2102767012
 21
157.2109128331
  0
LINE
  5
454
100
AcDbEntity
  8
0
100
AcDbLine
 62
7
  6
CONTINUOUS
 10
67.8667682234
 20
157.9865702667
 11
50.3304470398
 21
168.1109409788
  0
LINE
  5
455
100
AcDbEntity
  8
0
100
AcDbLine
 62
7
  6
CONTINUOUS
 10
144.0722075297
 20
114.7413988306
 11
142.2264520135
 21
115.8070221671
  0
LINE
  5
456
100
AcDbEntity
  8
0
100
AcDbLine
 62
7
  6
CONTINUOUS
 10
108.4548593814
 20
135.5333328473
 11
107.8184606287
 21
135.9007495264
  0
LINE
  5
457
100
AcDbEntity
  8
0
100
AcDbLine
 62
7
  6
CONTINUOUS
 10
89.5750297199
 20
146.433360993
 11
88.9386309673
 21
146.8007776721
  0
LINE
  5
458
100
AcDbEntity
  8
0
100
AcDbLine
 62
7
  6
CONTINUOUS
 10
70.6952000585
 20
157.3333891387
 11
70.0588013059
 21
157.7008058178
  0
LINE
  5
459
100
AcDbEntity
  8
0
100
AcDbLine
 62
7
  6
CONTINUOUS
 10
51.8153703971
 20
168.2334172844
 11
51.1789716445
 21
168.6008339635
  0
LINE
  5
45A
100
AcDbEntity
  8
0
100
AcDbLine
 62
7
  6
CONTINUOUS
 10
68.0788940755
 20
158.8438799304
 11
68.7152928281
 21
158.4764632514
  0
LINE
  5
45B
100
AcDbEntity
  8
0
100
AcDbLine
 62
7
  6
CONTINUOUS
 10
86.9587237369
 20
147.9438517847
 11
87.5951224895
 21
147.5764351057
  0
LINE
  5
45C
100
AcDbEntity
  8
0
100
AcDbLine
 62
7
  6
CONTINUOUS
 10
105.8385533983
 20
137.043823639
 11
106.4749521509
 21
136.67640696
  0
LINE
  5
45D
100
AcDbEntity
  8
0
100
AcDbLine
 62
7
  6
CONTINUOUS
 10
124.7183830597
 20
126.1437954934
 11
125.3547818124
 21
125.7763788143
  0
LINE
  5
45E
100
AcDbEntity
  8
0
100
AcDbLine
 62
7
  6
CONTINUOUS
 10
101.5250268671
 20
161.0892885705
 11
101.7494535395
 21
159.749156246
  0
LINE
  5
45F
100
AcDbEntity
  8
0
100
AcDbLine
 62
7
  6
CONTINUOUS
 10
113.7936396675
 20
108.7728479551
 11
113.7936396675
 21
114.8557909627
  0
LINE
  5
460
100
AcDbEntity
  8
0
100
AcDbLine
 62
7
  6
CONTINUOUS
 10
115.1371340142
 20
103.3839168984
 11
115.1371340142
 21
97.198904034
  0
LINE
  5
461
100
AcDbEntity
  8
0
100
AcDbLine
 62
7
  6
CONTINUOUS
 10
115.5260390639
 20
103.6084499933
 11
115.5260390639
 21
97.5663201136
  0
LINE
  5
462
100
AcDbEntity
  8
0
100
AcDbLine
 62
7
  6
CONTINUOUS
 10
116.0208810378
 20
132.3899092915
 11
116.0208810378
 21
138.1869217335
  0
LINE
  5
463
100
AcDbEntity
  8
0
100
AcDbLine
 62
7
  6
CONTINUOUS
 10
116.1270823303
 20
103.9554604135
 11
116.1270823303
 21
97.2193154722
  0
LINE
  5
464
100
AcDbEntity
  8
0
100
AcDbLine
 62
7
  6
CONTINUOUS
 10
116.7634757838
 20
118.2442463641
 11
116.7634757838
 21
119.7956009566
  0
LINE
  5
465
100
AcDbEntity
  8
0
100
AcDbLine
 62
7
  6
CONTINUOUS
 10
117.4137943437
 20
147.5887599178
 11
117.4137943437
 21
150.2586544524
  0
LINE
  5
466
100
AcDbEntity
  8
0
100
AcDbLine
 62
7
  6
CONTINUOUS
 10
118.969435739
 20
149.3605247925
 11
118.969435739
 21
147.8908204417
  0
LINE
  5
467
100
AcDbEntity
  8
0
100
AcDbLine
 62
7
  6
CONTINUOUS
 10
119.2735316045
 20
143.8206754199
 11
119.2735316045
 21
142.2693476351
  0
LINE
  5
468
100
AcDbEntity
  8
0
100
AcDbLine
 62
7
  6
CONTINUOUS
 10
92.6736851925
 20
68.8128080872
 11
93.6931215756
 21
70.2566311017
  0
LINE
  5
469
100
AcDbEntity
  8
0
100
AcDbLine
 62
7
  6
CONTINUOUS
 10
144.7741931422
 20
115.1466879937
 11
144.0722075297
 21
114.7413988306
  0
LINE
  5
46A
100
AcDbEntity
  8
0
100
AcDbLine
 62
7
  6
CONTINUOUS
 10
115.5260390639
 20
97.5663201136
 11
115.1371340142
 21
97.3417870187
  0
LINE
  5
46B
100
AcDbEntity
  8
0
100
AcDbLine
 62
7
  6
CONTINUOUS
 10
115.1371340142
 20
97.198904034
 11
100.6415082953
 21
88.8299005793
  0
LINE
  5
46C
100
AcDbEntity
  8
0
100
AcDbLine
 62
7
  6
CONTINUOUS
 10
116.1270823303
 20
97.2193154722
 11
100.6415082953
 21
88.2787685024
  0
LINE
  5
46D
100
AcDbEntity
  8
0
100
AcDbLine
 62
7
  6
CONTINUOUS
 10
91.0738177912
 20
147.053730799
 11
90.7063958595
 21
147.0865516392
  0
LINE
  5
46E
100
AcDbEntity
  8
0
100
AcDbLine
 62
7
  6
CONTINUOUS
 10
88.0900898764
 20
148.5970424309
 11
88.4575118081
 21
148.5642215907
  0
LINE
  5
46F
100
AcDbEntity
  8
0
100
AcDbLine
 62
7
  6
CONTINUOUS
 10
98.5553138086
 20
142.555079264
 11
99.2901607314
 21
142.3101303053
  0
LINE
  5
470
100
AcDbEntity
  8
0
100
AcDbLine
 62
7
  6
CONTINUOUS
 10
79.6754841472
 20
153.4551074097
 11
80.41033107
 21
153.2101584509
  0
LINE
  5
471
100
AcDbEntity
  8
0
100
AcDbLine
 62
7
  6
CONTINUOUS
 10
117.2937221138
 20
131.6550507784
 11
112.0611101477
 21
134.6760323619
  0
LINE
  5
472
100
AcDbEntity
  8
0
100
AcDbLine
 62
7
  6
CONTINUOUS
 10
98.4138924524
 20
142.5550789241
 11
93.1812804863
 21
145.5760605075
  0
LINE
  5
473
100
AcDbEntity
  8
0
100
AcDbLine
 62
7
  6
CONTINUOUS
 10
79.5340627909
 20
153.4551070698
 11
74.3014508249
 21
156.4760886532
  0
LINE
  5
474
100
AcDbEntity
  8
0
100
AcDbLine
 62
7
  6
CONTINUOUS
 10
60.6542331295
 20
164.3551352155
 11
55.4216211634
 21
167.3761167989
  0
LINE
  5
475
100
AcDbEntity
  8
0
100
AcDbLine
 62
7
  6
CONTINUOUS
 10
125.8497491993
 20
126.7969861395
 11
117.43514347
 21
131.6550511183
  0
LINE
  5
476
100
AcDbEntity
  8
0
100
AcDbLine
 62
7
  6
CONTINUOUS
 10
112.0611095589
 20
134.7576808527
 11
109.5862255209
 21
136.1865234935
  0
LINE
  5
477
100
AcDbEntity
  8
0
100
AcDbLine
 62
7
  6
CONTINUOUS
 10
106.9699195379
 20
137.6970142852
 11
98.5553138086
 21
142.555079264
  0
LINE
  5
478
100
AcDbEntity
  8
0
100
AcDbLine
 62
7
  6
CONTINUOUS
 10
93.1812798975
 20
145.6577089984
 11
90.7063958595
 21
147.0865516392
  0
LINE
  5
479
100
AcDbEntity
  8
0
100
AcDbLine
 62
7
  6
CONTINUOUS
 10
88.0900898764
 20
148.5970424309
 11
79.6754841472
 21
153.4551074097
  0
LINE
  5
47A
100
AcDbEntity
  8
0
100
AcDbLine
 62
7
  6
CONTINUOUS
 10
74.3014502361
 20
156.5577371441
 11
71.8265661981
 21
157.9865797849
  0
LINE
  5
47B
100
AcDbEntity
  8
0
100
AcDbLine
 62
7
  6
CONTINUOUS
 10
69.210260215
 20
159.4970705766
 11
60.7956544858
 21
164.3551355554
  0
LINE
  5
47C
100
AcDbEntity
  8
0
100
AcDbLine
 62
7
  6
CONTINUOUS
 10
55.4216205746
 20
167.4577652898
 11
52.9467365366
 21
168.8866079306
  0
LINE
  5
47D
100
AcDbEntity
  8
0
100
AcDbLine
 62
7
  6
CONTINUOUS
 10
126.217171131
 20
126.7641652993
 11
118.1699903929
 21
131.4101021596
  0
LINE
  5
47E
100
AcDbEntity
  8
0
100
AcDbLine
 62
7
  6
CONTINUOUS
 10
112.0611064995
 20
134.936988131
 11
109.9536474526
 21
136.1537026533
  0
LINE
  5
47F
100
AcDbEntity
  8
0
100
AcDbLine
 62
7
  6
CONTINUOUS
 10
107.3373414695
 20
137.664193445
 11
99.2901607314
 21
142.3101303053
  0
LINE
  5
480
100
AcDbEntity
  8
0
100
AcDbLine
 62
7
  6
CONTINUOUS
 10
93.181276838
 20
145.8370162767
 11
91.0738177912
 21
147.053730799
  0
LINE
  5
481
100
AcDbEntity
  8
0
100
AcDbLine
 62
7
  6
CONTINUOUS
 10
88.4575118081
 20
148.5642215907
 11
80.41033107
 21
153.2101584509
  0
LINE
  5
482
100
AcDbEntity
  8
0
100
AcDbLine
 62
7
  6
CONTINUOUS
 10
74.3014471766
 20
156.7370444224
 11
72.1939881297
 21
157.9537589447
  0
LINE
  5
483
100
AcDbEntity
  8
0
100
AcDbLine
 62
7
  6
CONTINUOUS
 10
69.5776821467
 20
159.4642497364
 11
61.5305014086
 21
164.1101865966
  0
LINE
  5
484
100
AcDbEntity
  8
0
100
AcDbLine
 62
7
  6
CONTINUOUS
 10
55.4216175152
 20
167.6370725681
 11
53.3141584683
 21
168.8537870904
  0
LINE
  5
485
100
AcDbEntity
  8
0
100
AcDbLine
 62
7
  6
CONTINUOUS
 10
130.5873449086
 20
126.0212615768
 11
131.2237436612
 21
125.6538448978
  0
LINE
  5
486
100
AcDbEntity
  8
0
100
AcDbLine
 62
7
  6
CONTINUOUS
 10
72.5336482499
 20
159.5378625404
 11
73.1700470025
 21
159.1704458614
  0
LINE
  5
487
100
AcDbEntity
  8
0
100
AcDbLine
 62
7
  6
CONTINUOUS
 10
91.4134779113
 20
148.6378343947
 11
92.049876664
 21
148.2704177157
  0
LINE
  5
488
100
AcDbEntity
  8
0
100
AcDbLine
 62
7
  6
CONTINUOUS
 10
110.2933075728
 20
137.737806249
 11
110.9297063254
 21
137.37038957
  0
LINE
  5
489
100
AcDbEntity
  8
0
100
AcDbLine
 62
7
  6
CONTINUOUS
 10
129.1731372342
 20
126.8377781033
 11
129.8095359868
 21
126.4703614243
  0
LINE
  5
48A
100
AcDbEntity
  8
0
100
AcDbLine
 62
7
  6
CONTINUOUS
 10
112.9096135558
 20
137.8603202916
 11
112.2732148032
 21
138.2277369706
  0
LINE
  5
48B
100
AcDbEntity
  8
0
100
AcDbLine
 62
7
  6
CONTINUOUS
 10
94.0297838944
 20
148.7603484373
 11
93.3933851417
 21
149.1277651163
  0
LINE
  5
48C
100
AcDbEntity
  8
0
100
AcDbLine
 62
7
  6
CONTINUOUS
 10
75.149954233
 20
159.660376583
 11
74.5135554803
 21
160.027793262
  0
LINE
  5
48D
100
AcDbEntity
  8
0
100
AcDbLine
 62
7
  6
CONTINUOUS
 10
56.2701245715
 20
170.5604047287
 11
55.6337258189
 21
170.9278214077
  0
LINE
  5
48E
100
AcDbEntity
  8
0
100
AcDbLine
 62
7
  6
CONTINUOUS
 10
72.5336482499
 20
161.1708673747
 11
73.1700470025
 21
160.8034506956
  0
LINE
  5
48F
100
AcDbEntity
  8
0
100
AcDbLine
 62
7
  6
CONTINUOUS
 10
91.4134779113
 20
150.270839229
 11
92.049876664
 21
149.9034225499
  0
LINE
  5
490
100
AcDbEntity
  8
0
100
AcDbLine
 62
7
  6
CONTINUOUS
 10
110.2933075728
 20
139.3708110833
 11
110.9297063254
 21
139.0033944042
  0
LINE
  5
491
100
AcDbEntity
  8
0
100
AcDbLine
 62
7
  6
CONTINUOUS
 10
129.1731372342
 20
128.4707829376
 11
129.8095359868
 21
128.1033662585
  0
LINE
  5
492
100
AcDbEntity
  8
0
100
AcDbLine
 62
7
  6
CONTINUOUS
 10
134.8751441324
 20
126.9863054665
 11
134.2033898935
 21
127.3741341833
  0
LINE
  5
493
100
AcDbEntity
  8
0
100
AcDbLine
 62
7
  6
CONTINUOUS
 10
106.4749521509
 20
136.67640696
 11
107.2506072697
 21
135.5729011937
  0
LINE
  5
494
100
AcDbEntity
  8
0
100
AcDbLine
 62
7
  6
CONTINUOUS
 10
119.9452858434
 20
142.6571828107
 11
119.9452858434
 21
143.4328467031
  0
LINE
  5
495
100
AcDbEntity
  8
0
100
AcDbLine
 62
7
  6
CONTINUOUS
 10
120.2635217249
 20
138.1869319316
 11
120.2635217249
 21
131.6550254694
  0
LINE
  5
496
100
AcDbEntity
  8
0
100
AcDbLine
 62
7
  6
CONTINUOUS
 10
121.1475195745
 20
59.6193290751
 11
121.1475195745
 21
56.3533194066
  0
LINE
  5
497
100
AcDbEntity
  8
0
100
AcDbLine
 62
7
  6
CONTINUOUS
 10
121.1475195745
 20
119.0607050421
 11
121.1475195745
 21
122.3267147106
  0
LINE
  5
498
100
AcDbEntity
  8
0
100
AcDbLine
 62
7
  6
CONTINUOUS
 10
121.7978746396
 20
146.2578574236
 11
121.7978746396
 21
147.7275617744
  0
LINE
  5
499
100
AcDbEntity
  8
0
100
AcDbLine
 62
7
  6
CONTINUOUS
 10
123.7990703506
 20
133.6962734338
 11
123.7990703506
 21
136.145728159
  0
LINE
  5
49A
100
AcDbEntity
  8
0
100
AcDbLine
 62
7
  6
CONTINUOUS
 10
93.9241355702
 20
64.4675967944
 11
94.4172170983
 21
65.2133409198
  0
LINE
  5
49B
100
AcDbEntity
  8
0
100
AcDbLine
 62
7
  6
CONTINUOUS
 10
96.5883404394
 20
66.4889995122
 11
94.4138440534
 21
63.341446583
  0
LINE
  5
49C
100
AcDbEntity
  8
0
100
AcDbLine
 62
7
  6
CONTINUOUS
 10
94.5746225711
 20
64.8307220659
 11
95.6219307879
 21
66.3140198346
  0
LINE
  5
49D
100
AcDbEntity
  8
0
100
AcDbLine
 62
7
  6
CONTINUOUS
 10
96.368961919
 20
65.9322335044
 11
95.9055357325
 21
65.2758851465
  0
LINE
  5
49E
100
AcDbEntity
  8
0
100
AcDbLine
 62
7
  6
CONTINUOUS
 10
95.3450346507
 20
64.4820500647
 11
94.8816084641
 21
63.8257017067
  0
LINE
  5
49F
100
AcDbEntity
  8
0
100
AcDbLine
 62
7
  6
CONTINUOUS
 10
95.9622340033
 20
62.7321301668
 11
96.4256601898
 21
63.3884785248
  0
LINE
  5
4A0
100
AcDbEntity
  8
0
100
AcDbLine
 62
7
  6
CONTINUOUS
 10
96.9861612716
 20
64.1823136066
 11
97.4495874581
 21
64.8386619645
  0
LINE
  5
4A1
100
AcDbEntity
  8
0
100
AcDbLine
 62
7
  6
CONTINUOUS
 10
98.3650571565
 20
63.5380305409
 11
97.3177489396
 21
62.0547327722
  0
LINE
  5
4A2
100
AcDbEntity
  8
0
100
AcDbLine
 62
7
  6
CONTINUOUS
 10
98.0201788461
 20
64.9463019629
 11
95.8298513238
 21
61.9084754055
  0
LINE
  5
4A3
100
AcDbEntity
  8
0
100
AcDbLine
 62
7
  6
CONTINUOUS
 10
96.1179074036
 20
61.6169683855
 11
98.3482654799
 21
64.7079903957
  0
LINE
  5
4A4
100
AcDbEntity
  8
0
100
AcDbLine
 62
7
  6
CONTINUOUS
 10
80.41033107
 20
153.2101584509
 11
82.0796472032
 21
153.2101624635
  0
LINE
  5
4A5
100
AcDbEntity
  8
0
100
AcDbLine
 62
7
  6
CONTINUOUS
 10
79.5340627909
 20
153.4551070698
 11
79.6754841472
 21
153.4551074097
  0
LINE
  5
4A6
100
AcDbEntity
  8
0
100
AcDbLine
 62
7
  6
CONTINUOUS
 10
101.3836361281
 20
156.843566707
 11
102.4442962999
 21
156.8435692565
  0
LINE
  5
4A7
100
AcDbEntity
  8
0
100
AcDbLine
 62
7
  6
CONTINUOUS
 10
72.1939881297
 20
157.9537589447
 11
71.8265661981
 21
157.9865797849
  0
LINE
  5
4A8
100
AcDbEntity
  8
0
100
AcDbLine
 62
7
  6
CONTINUOUS
 10
69.210260215
 20
159.4970705766
 11
69.5776821467
 21
159.4642497364
  0
LINE
  5
4A9
100
AcDbEntity
  8
0
100
AcDbLine
 62
7
  6
CONTINUOUS
 10
60.7956544858
 20
164.3551355554
 11
61.5305014086
 21
164.1101865966
  0
LINE
  5
4AA
100
AcDbEntity
  8
0
100
AcDbLine
 62
7
  6
CONTINUOUS
 10
63.6240327406
 20
170.8870163686
 11
67.1595813664
 21
168.845812596
  0
LINE
  5
4AB
100
AcDbEntity
  8
0
100
AcDbLine
 62
7
  6
CONTINUOUS
 10
82.5038624021
 20
159.9869882229
 11
86.0394110278
 21
157.9457844503
  0
LINE
  5
4AC
100
AcDbEntity
  8
0
100
AcDbLine
 62
7
  6
CONTINUOUS
 10
101.3836920635
 20
149.0869600772
 11
104.9192406892
 21
147.0457563046
  0
LINE
  5
4AD
100
AcDbEntity
  8
0
100
AcDbLine
 62
7
  6
CONTINUOUS
 10
120.2635217249
 20
138.1869319316
 11
123.7990703506
 21
136.145728159
  0
LINE
  5
4AE
100
AcDbEntity
  8
0
100
AcDbLine
 62
7
  6
CONTINUOUS
 10
136.1734705217
 20
129.613832238
 11
136.8452247606
 21
129.2260035212
  0
LINE
  5
4AF
100
AcDbEntity
  8
0
100
AcDbLine
 62
7
  6
CONTINUOUS
 10
138.1533612659
 20
130.7569158688
 11
138.8251155048
 21
130.369087152
  0
LINE
  5
4B0
100
AcDbEntity
  8
0
100
AcDbLine
 62
7
  6
CONTINUOUS
 10
125.3547818124
 20
125.7763788143
 11
127.1102421526
 21
123.2789278708
  0
LINE
  5
4B1
100
AcDbEntity
  8
0
100
AcDbLine
 62
7
  6
CONTINUOUS
 10
129.1731372342
 20
128.4707829376
 11
129.1731372342
 21
126.8377781033
  0
LINE
  5
4B2
100
AcDbEntity
  8
0
100
AcDbLine
 62
7
  6
CONTINUOUS
 10
129.1731372342
 20
64.1303924678
 11
129.1731372342
 21
62.4973876335
  0
LINE
  5
4B3
100
AcDbEntity
  8
0
100
AcDbLine
 62
7
  6
CONTINUOUS
 10
129.8095359868
 20
63.7629757887
 11
129.8095359868
 21
62.1299709545
  0
LINE
  5
4B4
100
AcDbEntity
  8
0
100
AcDbLine
 62
7
  6
CONTINUOUS
 10
129.8095359868
 20
126.4703614243
 11
129.8095359868
 21
128.1033662585
  0
LINE
  5
4B5
100
AcDbEntity
  8
0
100
AcDbLine
 62
7
  6
CONTINUOUS
 10
130.5873449086
 20
126.9194269341
 11
130.5873449086
 21
126.0212615768
  0
LINE
  5
4B6
100
AcDbEntity
  8
0
100
AcDbLine
 62
7
  6
CONTINUOUS
 10
130.5873449086
 20
65.0693822404
 11
130.5873449086
 21
64.9468807755
  0
LINE
  5
4B7
100
AcDbEntity
  8
0
100
AcDbLine
 62
7
  6
CONTINUOUS
 10
131.2237436612
 20
127.286849732
 11
131.2237436612
 21
125.6538448978
  0
LINE
  5
4B8
100
AcDbEntity
  8
0
100
AcDbLine
 62
7
  6
CONTINUOUS
 10
131.2237436612
 20
65.4368050383
 11
131.2237436612
 21
64.5794640965
  0
LINE
  5
4B9
100
AcDbEntity
  8
0
100
AcDbLine
 62
7
  6
CONTINUOUS
 10
102.6213990395
 20
60.5993168086
 11
102.3385575046
 21
60.1094181802
  0
LINE
  5
4BA
100
AcDbEntity
  8
0
100
AcDbLine
 62
7
  6
CONTINUOUS
 10
97.6590937156
 20
61.9326263001
 11
97.1269762169
 21
61.2263858002
  0
LINE
  5
4BB
100
AcDbEntity
  8
0
100
AcDbLine
 62
7
  6
CONTINUOUS
 10
61.5305014086
 20
164.1101865966
 11
63.1998175418
 21
164.1101906092
  0
LINE
  5
4BC
100
AcDbEntity
  8
0
100
AcDbLine
 62
7
  6
CONTINUOUS
 10
63.977551098
 20
175.7451024234
 11
63.3057968591
 21
176.1329311402
  0
LINE
  5
4BD
100
AcDbEntity
  8
0
100
AcDbLine
 62
7
  6
CONTINUOUS
 10
81.5138722817
 20
165.6207317113
 11
82.8573807594
 21
164.8450742777
  0
LINE
  5
4BE
100
AcDbEntity
  8
0
100
AcDbLine
 62
7
  6
CONTINUOUS
 10
100.3937019431
 20
154.7207035656
 11
101.7372104209
 21
153.945046132
  0
LINE
  5
4BF
100
AcDbEntity
  8
0
100
AcDbLine
 62
7
  6
CONTINUOUS
 10
119.2735316045
 20
143.8206754199
 11
120.6170400823
 21
143.0450179863
  0
LINE
  5
4C0
100
AcDbEntity
  8
0
100
AcDbLine
 62
7
  6
CONTINUOUS
 10
138.1533612659
 20
132.9206472742
 11
138.8251155048
 21
132.5328185574
  0
LINE
  5
4C1
100
AcDbEntity
  8
0
100
AcDbLine
 62
7
  6
CONTINUOUS
 10
77.3419054731
 20
170.7237523607
 11
82.5038064667
 21
167.7435948527
  0
LINE
  5
4C2
100
AcDbEntity
  8
0
100
AcDbLine
 62
7
  6
CONTINUOUS
 10
96.2217351345
 20
159.823724215
 11
101.3836361281
 21
156.843566707
  0
LINE
  5
4C3
100
AcDbEntity
  8
0
100
AcDbLine
 62
7
  6
CONTINUOUS
 10
115.101564796
 20
148.9236960693
 11
120.2634657895
 21
145.9435385613
  0
LINE
  5
4C4
100
AcDbEntity
  8
0
100
AcDbLine
 62
7
  6
CONTINUOUS
 10
133.9813944574
 20
138.0236679236
 11
139.143295451
 21
135.0435104156
  0
LINE
  5
4C5
100
AcDbEntity
  8
0
100
AcDbLine
 62
7
  6
CONTINUOUS
 10
79.6541350208
 20
172.0587107438
 11
81.2097764161
 21
171.1605810839
  0
LINE
  5
4C6
100
AcDbEntity
  8
0
100
AcDbLine
 62
7
  6
CONTINUOUS
 10
84.0382153167
 20
169.5276180658
 11
85.3463683082
 21
168.7723726699
  0
LINE
  5
4C7
100
AcDbEntity
  8
0
100
AcDbLine
 62
7
  6
CONTINUOUS
 10
98.5339646822
 20
161.1586825981
 11
100.0896060776
 21
160.2605529382
  0
LINE
  5
4C8
100
AcDbEntity
  8
0
100
AcDbLine
 62
7
  6
CONTINUOUS
 10
102.9180449781
 20
158.6275899201
 11
104.2261979697
 21
157.8723445242
  0
LINE
  5
4C9
100
AcDbEntity
  8
0
100
AcDbLine
 62
7
  6
CONTINUOUS
 10
117.4137943437
 20
150.2586544524
 11
118.969435739
 21
149.3605247925
  0
LINE
  5
4CA
100
AcDbEntity
  8
0
100
AcDbLine
 62
7
  6
CONTINUOUS
 10
121.7978746396
 20
147.7275617744
 11
123.1060276311
 21
146.9723163785
  0
LINE
  5
4CB
100
AcDbEntity
  8
0
100
AcDbLine
 62
7
  6
CONTINUOUS
 10
136.2936240051
 20
139.3586263067
 11
137.8492654004
 21
138.4604966468
  0
LINE
  5
4CC
100
AcDbEntity
  8
0
100
AcDbLine
 62
7
  6
CONTINUOUS
 10
140.677704301
 20
136.8275336287
 11
141.9858572925
 21
136.0722882329
  0
LINE
  5
4CD
100
AcDbEntity
  8
0
100
AcDbLine
 62
7
  6
CONTINUOUS
 10
144.0722075297
 20
114.7413988306
 11
142.7848969932
 21
116.1210804668
  0
LINE
  5
4CE
100
AcDbEntity
  8
0
100
AcDbLine
 62
7
  6
CONTINUOUS
 10
120.4048565285
 20
150.1892604249
 11
120.6292832009
 21
148.8491281003
  0
LINE
  5
4CF
100
AcDbEntity
  8
0
100
AcDbLine
 62
7
  6
CONTINUOUS
 10
136.2936240051
 20
136.6887317721
 11
136.2936240051
 21
139.3586263067
  0
LINE
  5
4D0
100
AcDbEntity
  8
0
100
AcDbLine
 62
7
  6
CONTINUOUS
 10
142.2192139235
 20
86.4003981271
 11
142.7848969932
 21
86.7269934502
  0
LINE
  5
4D1
100
AcDbEntity
  8
0
100
AcDbLine
 62
7
  6
CONTINUOUS
 10
95.6219307879
 20
66.3140198346
 11
96.4417086975
 21
66.6373879169
  0
LINE
  5
4D2
100
AcDbEntity
  8
0
100
AcDbLine
 62
7
  6
CONTINUOUS
 10
60.6542331295
 20
164.3551352155
 11
60.7956544858
 21
164.3551355554
  0
LINE
  5
4D3
100
AcDbEntity
  8
0
100
AcDbLine
 62
7
  6
CONTINUOUS
 10
82.5038064667
 20
167.7435948527
 11
83.5644666385
 21
167.7435974022
  0
LINE
  5
4D4
100
AcDbEntity
  8
0
100
AcDbLine
 62
7
  6
CONTINUOUS
 10
53.3141584683
 20
168.8537870904
 11
52.9467365366
 21
168.8866079306
  0
LINE
  5
4D5
100
AcDbEntity
  8
0
100
AcDbLine
 62
7
  6
CONTINUOUS
 10
144.9062085049
 20
136.0437182807
 11
142.1131250905
 21
137.6562692611
  0
LINE
  5
4D6
100
AcDbEntity
  8
0
100
AcDbLine
 62
7
  6
CONTINUOUS
 10
139.28468619
 20
139.2892322792
 11
123.2332954291
 21
148.5562974068
  0
LINE
  5
4D7
100
AcDbEntity
  8
0
100
AcDbLine
 62
7
  6
CONTINUOUS
 10
120.4048565285
 20
150.1892604249
 11
104.3534657677
 21
159.4563255525
  0
LINE
  5
4D8
100
AcDbEntity
  8
0
100
AcDbLine
 62
7
  6
CONTINUOUS
 10
101.5250268671
 20
161.0892885705
 11
85.4736361063
 21
170.3563536982
  0
LINE
  5
4D9
100
AcDbEntity
  8
0
100
AcDbLine
 62
7
  6
CONTINUOUS
 10
82.6451972057
 20
171.9893167162
 11
69.3868898592
 21
179.6438308635
  0
LINE
  5
4DA
100
AcDbEntity
  8
0
100
AcDbLine
 62
7
  6
CONTINUOUS
 10
137.8492654004
 20
138.4604966468
 11
137.8492654004
 21
136.990792296
  0
LINE
  5
4DB
100
AcDbEntity
  8
0
100
AcDbLine
 62
7
  6
CONTINUOUS
 10
138.1533612659
 20
132.9206472742
 11
138.1533612659
 21
130.7569158688
  0
LINE
  5
4DC
100
AcDbEntity
  8
0
100
AcDbLine
 62
7
  6
CONTINUOUS
 10
138.2240716497
 20
68.3353187777
 11
138.2240716497
 21
66.9880763855
  0
LINE
  5
4DD
100
AcDbEntity
  8
0
100
AcDbLine
 62
7
  6
CONTINUOUS
 10
138.8251155048
 20
130.369087152
 11
138.8251155048
 21
132.5328185574
  0
LINE
  5
4DE
100
AcDbEntity
  8
0
100
AcDbLine
 62
7
  6
CONTINUOUS
 10
138.8958258886
 20
68.7231539533
 11
138.8958258886
 21
66.6002476687
  0
LINE
  5
4DF
100
AcDbEntity
  8
0
100
AcDbLine
 62
7
  6
CONTINUOUS
 10
140.677704301
 20
135.3578292779
 11
140.677704301
 21
136.8275336287
  0
LINE
  5
4E0
100
AcDbEntity
  8
0
100
AcDbLine
 62
7
  6
CONTINUOUS
 10
141.2292603083
 20
113.0015326754
 11
141.2292603083
 21
110.6142250533
  0
LINE
  5
4E1
100
AcDbEntity
  8
0
100
AcDbLine
 62
7
  6
CONTINUOUS
 10
142.2192139235
 20
115.7944851437
 11
142.2192139235
 21
113.3715176033
  0
LINE
  5
4E2
100
AcDbEntity
  8
0
100
AcDbLine
 62
7
  6
CONTINUOUS
 10
142.2192139235
 20
110.0426879969
 11
142.2192139235
 21
86.4003981271
  0
LINE
  5
4E3
100
AcDbEntity
  8
0
100
AcDbLine
 62
7
  6
CONTINUOUS
 10
142.7848969932
 20
86.7269934502
 11
142.7848969932
 21
84.6857374074
  0
LINE
  5
4E4
100
AcDbEntity
  8
0
100
AcDbLine
 62
7
  6
CONTINUOUS
 10
140.7587074788
 20
112.8256684208
 11
140.2657164984
 21
109.3125885329
  0
LINE
  5
4E5
100
AcDbEntity
  8
0
100
AcDbLine
 62
7
  6
CONTINUOUS
 10
126.7224145933
 20
62.8379770022
 11
125.3547818124
 21
59.3130820599
  0
LINE
  5
4E6
100
AcDbEntity
  8
0
100
AcDbLine
 62
7
  6
CONTINUOUS
 10
144.4833065209
 20
86.8910623778
 11
145.0476292723
 21
87.2168723254
  0
LINE
  5
4E7
100
AcDbEntity
  8
0
100
AcDbLine
 62
7
  6
CONTINUOUS
 10
142.7848969932
 20
84.6857374074
 11
144.1991046677
 21
85.5022257151
  0
LINE
  5
4E8
100
AcDbEntity
  8
0
100
AcDbLine
 62
7
  6
CONTINUOUS
 10
111.2480658535
 20
65.253294519
 11
102.9042405744
 21
60.4360135033
  0
LINE
  5
4E9
100
AcDbEntity
  8
0
100
AcDbLine
 62
7
  6
CONTINUOUS
 10
102.3385575046
 20
60.1094181802
 11
101.2071913651
 21
59.456227534
  0
LINE
  5
4EA
100
AcDbEntity
  8
0
100
AcDbLine
 62
7
  6
CONTINUOUS
 10
106.3637841833
 20
61.4126093652
 11
105.6618901929
 21
61.0073730999
  0
LINE
  5
4EB
100
AcDbEntity
  8
0
100
AcDbLine
 62
7
  6
CONTINUOUS
 10
106.651835565
 20
60.7624124982
 11
105.6618901929
 21
60.1908706827
  0
LINE
  5
4EC
100
AcDbEntity
  8
0
100
AcDbLine
 62
7
  6
CONTINUOUS
 10
106.7623062914
 20
60.6629088689
 11
106.5104218631
 21
60.5174841944
  0
LINE
  5
4ED
100
AcDbEntity
  8
0
100
AcDbLine
 62
7
  6
CONTINUOUS
 10
139.28468619
 20
139.2892322792
 11
139.5091128623
 21
137.9490999546
  0
LINE
  5
4EE
100
AcDbEntity
  8
0
100
AcDbLine
 62
7
  6
CONTINUOUS
 10
146.1082850281
 20
128.8656873086
 11
146.1082850281
 21
124.6534975688
  0
LINE
  5
4EF
100
AcDbEntity
  8
0
100
AcDbLine
 62
7
  6
CONTINUOUS
 10
146.1082850281
 20
86.6044849305
 11
146.1082850281
 21
70.7643380382
  0
LINE
  5
4F0
100
AcDbEntity
  8
0
100
AcDbLine
 62
7
  6
CONTINUOUS
 10
146.1082850281
 20
124.6534975688
 11
144.7741931422
 21
115.1466879937
  0
LINE
  5
4F1
100
AcDbEntity
  8
0
100
AcDbLine
 62
7
  6
CONTINUOUS
 10
144.1991046677
 20
85.5022257151
 11
144.4833065209
 21
86.8910623778
  0
LINE
  5
4F2
100
AcDbEntity
  8
0
100
AcDbLine
 62
7
  6
CONTINUOUS
 10
144.9062085049
 20
136.0437182807
 11
146.1082850281
 21
128.8656873086
  0
LINE
  5
4F3
100
AcDbEntity
  8
0
100
AcDbLine
 62
7
  6
CONTINUOUS
 10
126.217171131
 20
60.7907699953
 11
125.8497491993
 21
60.3336893852
  0
LINE
  5
4F4
100
AcDbEntity
  8
0
100
AcDbLine
 62
7
  6
CONTINUOUS
 10
121.1475195745
 20
59.6193290751
 11
134.8302889817
 21
67.5190325207
  0
LINE
  5
4F5
100
AcDbEntity
  8
0
100
AcDbLine
 62
7
  6
CONTINUOUS
 10
130.5873449086
 20
64.9468807755
 11
129.1731372342
 21
64.1303924678
  0
LINE
  5
4F6
100
AcDbEntity
  8
0
100
AcDbLine
 62
7
  6
CONTINUOUS
 10
131.2237436612
 20
64.5794640965
 11
129.8095359868
 21
63.7629757887
  0
LINE
  5
4F7
100
AcDbEntity
  8
0
100
AcDbLine
 62
7
  6
CONTINUOUS
 10
136.8452247606
 20
67.5392459071
 11
138.8958258886
 21
68.7231539533
  0
LINE
  5
4F8
100
AcDbEntity
  8
0
100
AcDbLine
 62
7
  6
CONTINUOUS
 10
129.1731372342
 20
62.4973876335
 11
126.217171131
 21
60.7907699953
  0
LINE
  5
4F9
100
AcDbEntity
  8
0
100
AcDbLine
 62
7
  6
CONTINUOUS
 10
125.7221973949
 20
60.2600477562
 11
125.8497491993
 21
60.3336893852
  0
LINE
  5
4FA
100
AcDbEntity
  8
0
100
AcDbLine
 62
7
  6
CONTINUOUS
 10
138.2240716497
 20
66.9880763855
 11
129.8095359868
 21
62.1299709545
  0
LINE
  5
4FB
100
AcDbEntity
  8
0
100
AcDbLine
 62
7
  6
CONTINUOUS
 10
124.138835276
 20
58.8560099155
 11
121.1475195745
 21
57.128983299
  0
LINE
  5
4FC
100
AcDbEntity
  8
0
100
AcDbLine
 62
7
  6
CONTINUOUS
 10
125.3547818124
 20
59.3130820599
 11
124.5062572077
 21
58.8231890753
  0
LINE
  5
4FD
100
AcDbEntity
  8
0
100
AcDbLine
 62
7
  6
CONTINUOUS
 10
146.1082850281
 20
70.7643380382
 11
138.8958258886
 21
66.6002476687
  0
LINE
  5
4FE
100
AcDbEntity
  8
0
100
AcDbLine
 62
7
  6
CONTINUOUS
 10
121.1475195745
 20
56.3533194066
 11
111.2480658535
 21
50.6379012524
  0
ARC
  5
4FF
100
AcDbEntity
  8
0
100
AcDbCircle
 62
7
  6
CONTINUOUS
 10
84.7350259698
 20
60.3297120628
 40
13.3539694161
100
AcDbArc
 50
130.8339599338
 51
133.8010511102
  0
ARC
  5
500
100
AcDbEntity
  8
0
100
AcDbCircle
 62
7
  6
CONTINUOUS
 10
52.3584933108
 20
99.5532858251
 40
7.1207638251
100
AcDbArc
 50
173.8839115409
 51
174.735503955
  0
ARC
  5
501
100
AcDbEntity
  8
0
100
AcDbCircle
 62
7
  6
CONTINUOUS
 10
71.2383229719
 20
88.6532576795
 40
7.1207638248
100
AcDbArc
 50
173.8839115409
 51
174.735503955
  0
ARC
  5
502
100
AcDbEntity
  8
0
100
AcDbCircle
 62
7
  6
CONTINUOUS
 10
90.1181526334
 20
77.7532295338
 40
7.1207638248
100
AcDbArc
 50
173.8839115409
 51
174.735503955
  0
ARC
  5
503
100
AcDbEntity
  8
0
100
AcDbCircle
 62
7
  6
CONTINUOUS
 10
33.4786636488
 20
110.4533139709
 40
7.1207638245
100
AcDbArc
 50
173.8839115409
 51
174.735503955
  0
ARC
  5
504
100
AcDbEntity
  8
0
100
AcDbCircle
 62
7
  6
CONTINUOUS
 10
102.6004970915
 20
119.9545296162
 40
4.2090773694
100
AcDbArc
 50
188.8085648504
 51
190.0497564295
  0
ARC
  5
505
100
AcDbEntity
  8
0
100
AcDbCircle
 62
7
  6
CONTINUOUS
 10
64.8408377678
 20
141.7545859074
 40
4.2090773685
100
AcDbArc
 50
188.8085648502
 51
190.0497564296
  0
ARC
  5
506
100
AcDbEntity
  8
0
100
AcDbCircle
 62
7
  6
CONTINUOUS
 10
83.7206674293
 20
130.8545577617
 40
4.2090773686
100
AcDbArc
 50
188.8085648502
 51
190.0497564296
  0
ARC
  5
507
100
AcDbEntity
  8
0
100
AcDbCircle
 62
7
  6
CONTINUOUS
 10
45.9610081061
 20
152.6546140531
 40
4.2090773683
100
AcDbArc
 50
188.8085648502
 51
190.0497564296
  0
ARC
  5
508
100
AcDbEntity
  8
0
100
AcDbCircle
 62
7
  6
CONTINUOUS
 10
46.4930243502
 20
126.1504003173
 40
3.3798354824
100
AcDbArc
 50
149.9420545116
 51
158.7315729341
  0
ARC
  5
509
100
AcDbEntity
  8
0
100
AcDbCircle
 62
7
  6
CONTINUOUS
 10
65.3728540115
 20
115.2503721716
 40
3.3798354823
100
AcDbArc
 50
149.9420545243
 51
158.7315729341
  0
ARC
  5
50A
100
AcDbEntity
  8
0
100
AcDbCircle
 62
7
  6
CONTINUOUS
 10
84.2526836729
 20
104.3503440259
 40
3.3798354823
100
AcDbArc
 50
149.9420545243
 51
158.7315729341
  0
ARC
  5
50B
100
AcDbEntity
  8
0
100
AcDbCircle
 62
7
  6
CONTINUOUS
 10
86.2713599206
 20
77.3299027525
 40
3.2131348023
100
AcDbArc
 50
202.84034443
 51
203.6203307178
  0
ARC
  5
50C
100
AcDbEntity
  8
0
100
AcDbCircle
 62
7
  6
CONTINUOUS
 10
29.631870936
 20
110.0299871894
 40
3.2131348019
100
AcDbArc
 50
202.84034443
 51
203.6203307178
  0
ARC
  5
50D
100
AcDbEntity
  8
0
100
AcDbCircle
 62
7
  6
CONTINUOUS
 10
48.5117005973
 20
99.1299590437
 40
3.2131348018
100
AcDbArc
 50
202.84034443
 51
203.6203307178
  0
ARC
  5
50E
100
AcDbEntity
  8
0
100
AcDbCircle
 62
7
  6
CONTINUOUS
 10
67.3915302589
 20
88.229930898
 40
3.2131348019
100
AcDbArc
 50
202.84034443
 51
203.6203307178
  0
ARC
  5
50F
100
AcDbEntity
  8
0
100
AcDbCircle
 62
7
  6
CONTINUOUS
 10
82.2129843803
 20
168.0577642073
 40
1.8252309425
100
AcDbArc
 50
358.512122002
 51
0.0046931899
  0
ARC
  5
510
100
AcDbEntity
  8
0
100
AcDbCircle
 62
7
  6
CONTINUOUS
 10
101.0928140418
 20
157.1577360617
 40
1.8252309424
100
AcDbArc
 50
358.512122002
 51
0.00469319
  0
ARC
  5
511
100
AcDbEntity
  8
0
100
AcDbCircle
 62
7
  6
CONTINUOUS
 10
119.9726437033
 20
146.257707916
 40
1.8252309424
100
AcDbArc
 50
358.512122002
 51
0.00469319
  0
ARC
  5
512
100
AcDbEntity
  8
0
100
AcDbCircle
 62
7
  6
CONTINUOUS
 10
138.8524733649
 20
135.3576797703
 40
1.8252309423
100
AcDbArc
 50
358.5121220019
 51
0.0046931901
  0
ARC
  5
513
100
AcDbEntity
  8
0
100
AcDbCircle
 62
7
  6
CONTINUOUS
 10
54.6976886061
 20
141.4643290945
 40
0.2713721852
100
AcDbArc
 50
240.0364540558
 51
250.6187637477
  0
ARC
  5
514
100
AcDbEntity
  8
0
100
AcDbCircle
 62
7
  6
CONTINUOUS
 10
73.5775182675
 20
130.5643009488
 40
0.2713721852
100
AcDbArc
 50
240.0364540559
 51
250.6187637477
  0
ARC
  5
515
100
AcDbEntity
  8
0
100
AcDbCircle
 62
7
  6
CONTINUOUS
 10
92.4573479289
 20
119.6642728031
 40
0.2713721852
100
AcDbArc
 50
240.0364540559
 51
250.6187637476
  0
SPLINE
  5
516
100
AcDbEntity
  8
0
100
AcDbSpline
 62
7
  6
CONTINUOUS
 70
0
 71
3
 72
18
 73
14
 74
0
 42
0.0000001
 43
0.0000001
 44
0.0000000001
 40
0.0
 40
0.0
 40
0.0
 40
0.0
 40
0.0992467275
 40
0.153483699
 40
0.2106767349
 40
0.2706369572
 40
0.3330874716
 40
0.3976804713
 40
0.4640120923
 40
0.6000107015
 40
0.73728773
 40
0.8718609412
 40
1.0
 40
1.0
 40
1.0
 40
1.0
 10
43.9242059701
 20
147.56457604
 30
0.0
 10
43.7570296971
 20
147.5952111636
 30
0.0
 10
43.5044296489
 20
147.6783022282
 30
0.0
 10
43.1819934446
 20
147.840565395
 30
0.0
 10
42.9325833156
 20
147.9961519271
 30
0.0
 10
42.6857678544
 20
148.1801777828
 30
0.0
 10
42.4440625186
 20
148.3907003159
 30
0.0
 10
42.2100963585
 20
148.6254311608
 30
0.0
 10
41.9094188425
 20
148.970091232
 30
0.0
 10
41.5696487448
 20
149.4440721103
 30
0.0
 10
41.2326929226
 20
150.0577412461
 30
0.0
 10
40.9772821008
 20
150.6951001367
 30
0.0
 10
40.8648533901
 20
151.1325018561
 30
0.0
 10
40.8265669939
 20
151.3485742103
 30
0.0
  0
SPLINE
  5
517
100
AcDbEntity
  8
0
100
AcDbSpline
 62
7
  6
CONTINUOUS
 70
0
 71
3
 72
9
 73
5
 74
0
 42
0.0000001
 43
0.0000001
 44
0.0000000001
 40
0.0
 40
0.0
 40
0.0
 40
0.0
 40
0.255276007
 40
1.0
 40
1.0
 40
1.0
 40
1.0
 10
40.8265669939
 20
152.573327836
 30
0.0
 10
40.8308749971
 20
152.5926660573
 30
0.0
 10
40.8487729283
 20
152.6681868247
 30
0.0
 10
40.8708337176
 20
152.7427373924
 30
0.0
 10
40.8897881184
 20
152.7973399633
 30
0.0
  0
SPLINE
  5
518
100
AcDbEntity
  8
0
100
AcDbSpline
 62
7
  6
CONTINUOUS
 70
0
 71
3
 72
16
 73
12
 74
0
 42
0.0000001
 43
0.0000001
 44
0.0000000001
 40
0.0
 40
0.0
 40
0.0
 40
0.0
 40
0.0991190877
 40
0.1524069084
 40
0.2081485031
 40
0.3265663464
 40
0.4532301665
 40
0.5862878705
 40
0.7234660514
 40
0.8622414807
 40
1.0
 40
1.0
 40
1.0
 40
1.0
 10
106.8569715082
 20
58.3217922577
 30
0.0
 10
106.7239371356
 20
58.3461708634
 30
0.0
 10
106.5231082822
 20
58.406205349
 30
0.0
 10
106.2632585459
 20
58.5212010235
 30
0.0
 10
105.9899245241
 20
58.6688727495
 30
0.0
 10
105.6512679396
 20
58.9031963094
 30
0.0
 10
105.2653648129
 20
59.2473519942
 30
0.0
 10
104.9023630779
 20
59.6506207663
 30
0.0
 10
104.5723187547
 20
60.1018132552
 30
0.0
 10
104.2843967123
 20
60.5883529972
 30
0.0
 10
104.124220679
 20
60.9308048104
 30
0.0
 10
104.0533087128
 20
61.1048899293
 30
0.0
  0
SPLINE
  5
519
100
AcDbEntity
  8
0
100
AcDbSpline
 62
7
  6
CONTINUOUS
 70
0
 71
3
 72
18
 73
14
 74
0
 42
0.0000001
 43
0.0000001
 44
0.0000000001
 40
0.0
 40
0.0
 40
0.0
 40
0.0
 40
0.0992467275
 40
0.153483699
 40
0.2106767349
 40
0.2706369572
 40
0.3330874716
 40
0.3976804713
 40
0.4640120923
 40
0.6000107015
 40
0.73728773
 40
0.8718609412
 40
1.0
 40
1.0
 40
1.0
 40
1.0
 10
62.8040356316
 20
136.6645478943
 30
0.0
 10
62.6368593585
 20
136.6951830179
 30
0.0
 10
62.3842593103
 20
136.7782740825
 30
0.0
 10
62.061823106
 20
136.9405372494
 30
0.0
 10
61.8124129771
 20
137.0961237814
 30
0.0
 10
61.5655975158
 20
137.2801496371
 30
0.0
 10
61.32389218
 20
137.4906721702
 30
0.0
 10
61.08992602
 20
137.7254030151
 30
0.0
 10
60.7892485039
 20
138.0700630863
 30
0.0
 10
60.4494784062
 20
138.5440439647
 30
0.0
 10
60.112522584
 20
139.1577131004
 30
0.0
 10
59.8571117622
 20
139.795071991
 30
0.0
 10
59.7446830515
 20
140.2324737104
 30
0.0
 10
59.7063966553
 20
140.4485460647
 30
0.0
  0
SPLINE
  5
51A
100
AcDbEntity
  8
0
100
AcDbSpline
 62
7
  6
CONTINUOUS
 70
0
 71
3
 72
9
 73
5
 74
0
 42
0.0000001
 43
0.0000001
 44
0.0000000001
 40
0.0
 40
0.0
 40
0.0
 40
0.0
 40
0.255276007
 40
1.0
 40
1.0
 40
1.0
 40
1.0
 10
59.7063966553
 20
141.6732996904
 30
0.0
 10
59.7107046585
 20
141.6926379116
 30
0.0
 10
59.7286025897
 20
141.768158679
 30
0.0
 10
59.750663379
 20
141.8427092467
 30
0.0
 10
59.7696177798
 20
141.8973118176
 30
0.0
  0
SPLINE
  5
51B
100
AcDbEntity
  8
0
100
AcDbSpline
 62
7
  6
CONTINUOUS
 70
0
 71
3
 72
18
 73
14
 74
0
 42
0.0000001
 43
0.0000001
 44
0.0000000001
 40
0.0
 40
0.0
 40
0.0
 40
0.0
 40
0.0992467275
 40
0.153483699
 40
0.2106767349
 40
0.2706369572
 40
0.3330874716
 40
0.3976804713
 40
0.4640120923
 40
0.6000107015
 40
0.73728773
 40
0.8718609412
 40
1.0
 40
1.0
 40
1.0
 40
1.0
 10
81.683865293
 20
125.7645197486
 30
0.0
 10
81.5166890199
 20
125.7951548722
 30
0.0
 10
81.2640889717
 20
125.8782459368
 30
0.0
 10
80.9416527675
 20
126.0405091037
 30
0.0
 10
80.6922426385
 20
126.1960956357
 30
0.0
 10
80.4454271772
 20
126.3801214914
 30
0.0
 10
80.2037218415
 20
126.5906440245
 30
0.0
 10
79.9697556814
 20
126.8253748695
 30
0.0
 10
79.6690781653
 20
127.1700349406
 30
0.0
 10
79.3293080676
 20
127.644015819
 30
0.0
 10
78.9923522454
 20
128.2576849547
 30
0.0
 10
78.7369414237
 20
128.8950438453
 30
0.0
 10
78.6245127129
 20
129.3324455647
 30
0.0
 10
78.5862263167
 20
129.548517919
 30
0.0
  0
SPLINE
  5
51C
100
AcDbEntity
  8
0
100
AcDbSpline
 62
7
  6
CONTINUOUS
 70
0
 71
3
 72
9
 73
5
 74
0
 42
0.0000001
 43
0.0000001
 44
0.0000000001
 40
0.0
 40
0.0
 40
0.0
 40
0.0
 40
0.255276007
 40
1.0
 40
1.0
 40
1.0
 40
1.0
 10
78.5862263167
 20
130.7732715447
 30
0.0
 10
78.5905343199
 20
130.7926097659
 30
0.0
 10
78.6084322511
 20
130.8681305333
 30
0.0
 10
78.6304930405
 20
130.942681101
 30
0.0
 10
78.6494474413
 20
130.9972836719
 30
0.0
  0
SPLINE
  5
51D
100
AcDbEntity
  8
0
100
AcDbSpline
 62
7
  6
CONTINUOUS
 70
0
 71
3
 72
18
 73
14
 74
0
 42
0.0000001
 43
0.0000001
 44
0.0000000001
 40
0.0
 40
0.0
 40
0.0
 40
0.0
 40
0.0992467275
 40
0.153483699
 40
0.2106767349
 40
0.2706369572
 40
0.3330874716
 40
0.3976804713
 40
0.4640120923
 40
0.6000107015
 40
0.73728773
 40
0.8718609412
 40
1.0
 40
1.0
 40
1.0
 40
1.0
 10
100.5636949544
 20
114.8644916029
 30
0.0
 10
100.3965186814
 20
114.8951267265
 30
0.0
 10
100.1439186332
 20
114.9782177911
 30
0.0
 10
99.8214824289
 20
115.140480958
 30
0.0
 10
99.5720722999
 20
115.29606749
 30
0.0
 10
99.3252568386
 20
115.4800933457
 30
0.0
 10
99.0835515029
 20
115.6906158788
 30
0.0
 10
98.8495853428
 20
115.9253467238
 30
0.0
 10
98.5489078268
 20
116.2700067949
 30
0.0
 10
98.2091377291
 20
116.7439876733
 30
0.0
 10
97.8721819068
 20
117.357656809
 30
0.0
 10
97.6167710851
 20
117.9950156996
 30
0.0
 10
97.5043423743
 20
118.432417419
 30
0.0
 10
97.4660559782
 20
118.6484897733
 30
0.0
  0
SPLINE
  5
51E
100
AcDbEntity
  8
0
100
AcDbSpline
 62
7
  6
CONTINUOUS
 70
0
 71
3
 72
9
 73
5
 74
0
 42
0.0000001
 43
0.0000001
 44
0.0000000001
 40
0.0
 40
0.0
 40
0.0
 40
0.0
 40
0.255276007
 40
1.0
 40
1.0
 40
1.0
 40
1.0
 10
97.4660559782
 20
119.873243399
 30
0.0
 10
97.4703639814
 20
119.8925816202
 30
0.0
 10
97.4882619125
 20
119.9681023876
 30
0.0
 10
97.5103227019
 20
120.0426529553
 30
0.0
 10
97.5292771027
 20
120.0972555262
 30
0.0
  0
SPLINE
  5
51F
100
AcDbEntity
  8
0
100
AcDbSpline
 62
7
  6
CONTINUOUS
 70
0
 71
3
 72
9
 73
5
 74
0
 42
0.0000001
 43
0.0000001
 44
0.0000000001
 40
0.0
 40
0.0
 40
0.0
 40
0.0
 40
0.2551083352
 40
1.0
 40
1.0
 40
1.0
 40
1.0
 10
40.0588799704
 20
99.4659544636
 30
0.0
 10
40.0804363741
 20
99.4251369151
 30
0.0
 10
40.1680816385
 20
99.2668278656
 30
0.0
 10
40.2685744336
 20
99.1155503845
 30
0.0
 10
40.3505503565
 20
99.0085626367
 30
0.0
  0
SPLINE
  5
520
100
AcDbEntity
  8
0
100
AcDbSpline
 62
7
  6
CONTINUOUS
 70
0
 71
3
 72
9
 73
5
 74
0
 42
0.0000001
 43
0.0000001
 44
0.0000000001
 40
0.0
 40
0.0
 40
0.0
 40
0.0
 40
0.2551083352
 40
1.0
 40
1.0
 40
1.0
 40
1.0
 10
58.9387096318
 20
88.5659263179
 30
0.0
 10
58.9602660356
 20
88.5251087695
 30
0.0
 10
59.0479113
 20
88.3667997199
 30
0.0
 10
59.1484040951
 20
88.2155222388
 30
0.0
 10
59.2303800179
 20
88.108534491
 30
0.0
  0
SPLINE
  5
521
100
AcDbEntity
  8
0
100
AcDbSpline
 62
7
  6
CONTINUOUS
 70
0
 71
3
 72
9
 73
5
 74
0
 42
0.0000001
 43
0.0000001
 44
0.0000000001
 40
0.0
 40
0.0
 40
0.0
 40
0.0
 40
0.2551083352
 40
1.0
 40
1.0
 40
1.0
 40
1.0
 10
77.8185392932
 20
77.6658981722
 30
0.0
 10
77.840095697
 20
77.6250806238
 30
0.0
 10
77.9277409614
 20
77.4667715742
 30
0.0
 10
78.0282337565
 20
77.3154940931
 30
0.0
 10
78.1102096794
 20
77.2085063453
 30
0.0
  0
SPLINE
  5
522
100
AcDbEntity
  8
0
100
AcDbSpline
 62
7
  6
CONTINUOUS
 70
0
 71
3
 72
11
 73
7
 74
0
 42
0.0000001
 43
0.0000001
 44
0.0000000001
 40
0.0
 40
0.0
 40
0.0
 40
0.0
 40
0.2130439917
 40
0.4442980368
 40
0.7055294406
 40
1.0
 40
1.0
 40
1.0
 40
1.0
 10
95.5538985751
 20
63.5526758284
 30
0.0
 10
95.5740945362
 20
63.5410194805
 30
0.0
 10
95.6116583034
 20
63.5080747283
 30
0.0
 10
95.6490673266
 20
63.4391276151
 30
0.0
 10
95.6681537125
 20
63.3542911283
 30
0.0
 10
95.668667211
 20
63.2930513041
 30
0.0
 10
95.6663336799
 20
63.2609050852
 30
0.0
  0
SPLINE
  5
523
100
AcDbEntity
  8
0
100
AcDbSpline
 62
7
  6
CONTINUOUS
 70
0
 71
3
 72
11
 73
7
 74
0
 42
0.0000001
 43
0.0000001
 44
0.0000000001
 40
0.0
 40
0.0
 40
0.0
 40
0.0
 40
0.2616655977
 40
0.5136144538
 40
0.758574714
 40
1.0
 40
1.0
 40
1.0
 40
1.0
 10
96.6983689546
 20
66.7658700265
 30
0.0
 10
96.7637788684
 20
66.642014844
 30
0.0
 10
96.9069433062
 20
66.4062802028
 30
0.0
 10
97.1627321578
 20
66.0892925287
 30
0.0
 10
97.453193614
 20
65.819273158
 30
0.0
 10
97.6691385426
 20
65.6717602229
 30
0.0
 10
97.781055375
 20
65.6071420661
 30
0.0
  0
SPLINE
  5
524
100
AcDbEntity
  8
0
100
AcDbSpline
 62
7
  6
CONTINUOUS
 70
0
 71
3
 72
9
 73
5
 74
0
 42
0.0000001
 43
0.0000001
 44
0.0000000001
 40
0.0
 40
0.0
 40
0.0
 40
0.0
 40
0.2376330698
 40
1.0
 40
1.0
 40
1.0
 40
1.0
 10
95.6663336799
 20
63.2609050852
 30
0.0
 10
95.6652283264
 20
63.2456779735
 30
0.0
 10
95.6580767702
 20
63.1817878974
 30
0.0
 10
95.6417664752
 20
63.1190747389
 30
0.0
 10
95.6255351702
 20
63.0728626852
 30
0.0
  0
SPLINE
  5
525
100
AcDbEntity
  8
0
100
AcDbSpline
 62
7
  6
CONTINUOUS
 70
0
 71
3
 72
11
 73
7
 74
0
 42
0.0000001
 43
0.0000001
 44
0.0000000001
 40
0.0
 40
0.0
 40
0.0
 40
0.0
 40
0.2977928379
 40
0.5605488738
 40
0.7905454513
 40
1.0
 40
1.0
 40
1.0
 40
1.0
 10
97.112888625
 20
65.179394483
 30
0.0
 10
97.084350374
 20
65.1577197326
 30
0.0
 10
97.0270678868
 20
65.1211961452
 30
0.0
 10
96.9368559949
 20
65.0881525044
 30
0.0
 10
96.8510726768
 20
65.0824084481
 30
0.0
 10
96.79912778
 20
65.0990881394
 30
0.0
 10
96.7772973472
 20
65.1116878428
 30
0.0
  0
SPLINE
  5
526
100
AcDbEntity
  8
0
100
AcDbSpline
 62
7
  6
CONTINUOUS
 70
0
 71
3
 72
9
 73
5
 74
0
 42
0.0000001
 43
0.0000001
 44
0.0000000001
 40
0.0
 40
0.0
 40
0.0
 40
0.0
 40
0.23832025
 40
1.0
 40
1.0
 40
1.0
 40
1.0
 10
95.9055357325
 20
65.2758851465
 30
0.0
 10
95.9067873881
 20
65.2674455605
 30
0.0
 10
95.9109152104
 20
65.2318680442
 30
0.0
 10
95.910780329
 20
65.195855671
 30
0.0
 10
95.9088060912
 20
65.168658998
 30
0.0
  0
SPLINE
  5
527
100
AcDbEntity
  8
0
100
AcDbSpline
 62
7
  6
CONTINUOUS
 70
0
 71
3
 72
14
 73
10
 74
0
 42
0.0000001
 43
0.0000001
 44
0.0000000001
 40
0.0
 40
0.0
 40
0.0
 40
0.0
 40
0.1261309702
 40
0.2619253113
 40
0.4023829825
 40
0.5420634432
 40
0.6755448499
 40
0.7982146526
 40
1.0
 40
1.0
 40
1.0
 40
1.0
 10
95.9088060912
 20
65.168658998
 30
0.0
 10
95.9059095329
 20
65.1287566378
 30
0.0
 10
95.8915255707
 20
65.0464100601
 30
0.0
 10
95.8498792476
 20
64.9253156339
 30
0.0
 10
95.7894248093
 20
64.8075360401
 30
0.0
 10
95.7137979416
 20
64.6998909839
 30
0.0
 10
95.6268087211
 20
64.6082941904
 30
0.0
 10
95.5113426166
 20
64.520802972
 30
0.0
 10
95.4090354736
 20
64.4814034409
 30
0.0
 10
95.3450346507
 20
64.4820500647
 30
0.0
  0
SPLINE
  5
528
100
AcDbEntity
  8
0
100
AcDbSpline
 62
7
  6
CONTINUOUS
 70
0
 71
3
 72
11
 73
7
 74
0
 42
0.0000001
 43
0.0000001
 44
0.0000000001
 40
0.0
 40
0.0
 40
0.0
 40
0.0
 40
0.2977928379
 40
0.5605488738
 40
0.7905454513
 40
1.0
 40
1.0
 40
1.0
 40
1.0
 10
95.2183072973
 20
63.4849691883
 30
0.0
 10
95.2468455483
 20
63.5066439387
 30
0.0
 10
95.3041280354
 20
63.5431675261
 30
0.0
 10
95.3943399274
 20
63.5762111669
 30
0.0
 10
95.4801232454
 20
63.5819552232
 30
0.0
 10
95.5320681423
 20
63.5652755319
 30
0.0
 10
95.5538985751
 20
63.5526758284
 30
0.0
  0
SPLINE
  5
529
100
AcDbEntity
  8
0
100
AcDbSpline
 62
7
  6
CONTINUOUS
 70
0
 71
3
 72
9
 73
5
 74
0
 42
0.0000001
 43
0.0000001
 44
0.0000000001
 40
0.0
 40
0.0
 40
0.0
 40
0.0
 40
0.23832025
 40
1.0
 40
1.0
 40
1.0
 40
1.0
 10
96.4256601898
 20
63.3884785248
 30
0.0
 10
96.4244085341
 20
63.3969181107
 30
0.0
 10
96.4202807119
 20
63.432495627
 30
0.0
 10
96.4204155932
 20
63.4685080002
 30
0.0
 10
96.422389831
 20
63.4957046732
 30
0.0
  0
SPLINE
  5
52A
100
AcDbEntity
  8
0
100
AcDbSpline
 62
7
  6
CONTINUOUS
 70
0
 71
3
 72
14
 73
10
 74
0
 42
0.0000001
 43
0.0000001
 44
0.0000000001
 40
0.0
 40
0.0
 40
0.0
 40
0.0
 40
0.1261309702
 40
0.2619253113
 40
0.4023829825
 40
0.5420634432
 40
0.6755448499
 40
0.7982146526
 40
1.0
 40
1.0
 40
1.0
 40
1.0
 10
96.422389831
 20
63.4957046732
 30
0.0
 10
96.4252863893
 20
63.5356070334
 30
0.0
 10
96.4396703515
 20
63.6179536111
 30
0.0
 10
96.4813166746
 20
63.7390480374
 30
0.0
 10
96.541771113
 20
63.8568276311
 30
0.0
 10
96.6173979806
 20
63.9644726874
 30
0.0
 10
96.7043872012
 20
64.0560694808
 30
0.0
 10
96.8198533056
 20
64.1435606993
 30
0.0
 10
96.9221604487
 20
64.1829602304
 30
0.0
 10
96.9861612716
 20
64.1823136066
 30
0.0
  0
SPLINE
  5
52B
100
AcDbEntity
  8
0
100
AcDbSpline
 62
7
  6
CONTINUOUS
 70
0
 71
3
 72
9
 73
5
 74
0
 42
0.0000001
 43
0.0000001
 44
0.0000000001
 40
0.0
 40
0.0
 40
0.0
 40
0.0
 40
0.2376330698
 40
1.0
 40
1.0
 40
1.0
 40
1.0
 10
96.6648622423
 20
65.403458586
 30
0.0
 10
96.6659675959
 20
65.4186856978
 30
0.0
 10
96.673119152
 20
65.4825757738
 30
0.0
 10
96.689429447
 20
65.5452889324
 30
0.0
 10
96.7056607521
 20
65.591500986
 30
0.0
  0
SPLINE
  5
52C
100
AcDbEntity
  8
0
100
AcDbSpline
 62
7
  6
CONTINUOUS
 70
0
 71
3
 72
11
 73
7
 74
0
 42
0.0000001
 43
0.0000001
 44
0.0000000001
 40
0.0
 40
0.0
 40
0.0
 40
0.0
 40
0.2130439917
 40
0.4442980368
 40
0.7055294406
 40
1.0
 40
1.0
 40
1.0
 40
1.0
 10
96.7772973472
 20
65.1116878428
 30
0.0
 10
96.757101386
 20
65.1233441908
 30
0.0
 10
96.7195376189
 20
65.1562889429
 30
0.0
 10
96.6821285957
 20
65.2252360562
 30
0.0
 10
96.6630422098
 20
65.310072543
 30
0.0
 10
96.6625287113
 20
65.3713123671
 30
0.0
 10
96.6648622423
 20
65.403458586
 30
0.0
  0
SPLINE
  5
52D
100
AcDbEntity
  8
0
100
AcDbSpline
 62
7
  6
CONTINUOUS
 70
0
 71
3
 72
9
 73
5
 74
0
 42
0.0000001
 43
0.0000001
 44
0.0000000001
 40
0.0
 40
0.0
 40
0.0
 40
0.0
 40
0.5140786034
 40
1.0
 40
1.0
 40
1.0
 40
1.0
 10
19.3947705397
 20
107.4961723208
 30
0.0
 10
19.2458654098
 20
106.9753124799
 30
0.0
 10
19.004371683
 20
105.9475435511
 30
0.0
 10
18.8744595604
 20
104.899088939
 30
0.0
 10
18.8436394035
 20
104.3879622457
 30
0.0
  0
SPLINE
  5
52E
100
AcDbEntity
  8
0
100
AcDbSpline
 62
7
  6
CONTINUOUS
 70
0
 71
3
 72
11
 73
7
 74
0
 42
0.0000001
 43
0.0000001
 44
0.0000000001
 40
0.0
 40
0.0
 40
0.0
 40
0.0
 40
0.2868601778
 40
0.5478462718
 40
0.7838929835
 40
1.0
 40
1.0
 40
1.0
 40
1.0
 10
18.8436394035
 20
104.3879622457
 30
0.0
 10
18.8368200705
 20
104.2748692737
 30
0.0
 10
18.8383196497
 20
104.0575412975
 30
0.0
 10
18.8920092821
 20
103.7508616288
 30
0.0
 10
18.9967553498
 20
103.486978983
 30
0.0
 10
19.1033546502
 20
103.340433003
 30
0.0
 10
19.16334839
 20
103.2797205323
 30
0.0
  0
SPLINE
  5
52F
100
AcDbEntity
  8
0
100
AcDbSpline
 62
7
  6
CONTINUOUS
 70
0
 71
3
 72
9
 73
5
 74
0
 42
0.0000001
 43
0.0000001
 44
0.0000000001
 40
0.0
 40
0.0
 40
0.0
 40
0.0
 40
0.2447671636
 40
1.0
 40
1.0
 40
1.0
 40
1.0
 10
37.8247385958
 20
95.4091893742
 30
0.0
 10
37.7675153436
 20
95.1996399441
 30
0.0
 10
37.5144119391
 20
94.3488711876
 30
0.0
 10
37.1873349232
 20
93.5204699378
 30
0.0
 10
36.9049093812
 20
92.9126372823
 30
0.0
  0
SPLINE
  5
530
100
AcDbEntity
  8
0
100
AcDbSpline
 62
7
  6
CONTINUOUS
 70
0
 71
3
 72
9
 73
5
 74
0
 42
0.0000001
 43
0.0000001
 44
0.0000000001
 40
0.0
 40
0.0
 40
0.0
 40
0.0
 40
0.5204949862
 40
1.0
 40
1.0
 40
1.0
 40
1.0
 10
97.1269762169
 20
61.2263858002
 30
0.0
 10
96.7285958803
 20
60.9676629805
 30
0.0
 10
95.932719849
 20
60.5152911506
 30
0.0
 10
95.0787802606
 20
60.1809766348
 30
0.0
 10
94.6587268273
 20
60.0582612446
 30
0.0
  0
SPLINE
  5
531
100
AcDbEntity
  8
0
100
AcDbSpline
 62
7
  6
CONTINUOUS
 70
0
 71
3
 72
10
 73
6
 74
0
 42
0.0000001
 43
0.0000001
 44
0.0000000001
 40
0.0
 40
0.0
 40
0.0
 40
0.0
 40
0.5279763194
 40
0.7680247214
 40
1.0
 40
1.0
 40
1.0
 40
1.0
 10
94.6587268273
 20
60.0582612446
 30
0.0
 10
94.5211161198
 20
60.0180593315
 30
0.0
 10
94.3086023098
 20
59.9872570749
 30
0.0
 10
94.0393795284
 20
60.0346860023
 30
0.0
 10
93.9202410642
 20
60.08569581
 30
0.0
 10
93.8656982981
 20
60.1172027059
 30
0.0
  0
SPLINE
  5
532
100
AcDbEntity
  8
0
100
AcDbSpline
 62
7
  6
CONTINUOUS
 70
0
 71
3
 72
9
 73
5
 74
0
 42
0.0000001
 43
0.0000001
 44
0.0000000001
 40
0.0
 40
0.0
 40
0.0
 40
0.0
 40
0.2546978188
 40
1.0
 40
1.0
 40
1.0
 40
1.0
 10
73.9574589789
 20
71.5208217454
 30
0.0
 10
74.0527036554
 20
71.7258061256
 30
0.0
 10
74.4104578283
 20
72.5379913821
 30
0.0
 10
74.703049682
 20
73.3793188614
 30
0.0
 10
74.8772881935
 20
74.0173738374
 30
0.0
  0
SPLINE
  5
533
100
AcDbEntity
  8
0
100
AcDbSpline
 62
7
  6
CONTINUOUS
 70
0
 71
3
 72
11
 73
7
 74
0
 42
0.0000001
 43
0.0000001
 44
0.0000000001
 40
0.0
 40
0.0
 40
0.0
 40
0.0
 40
0.2868601778
 40
0.5478462718
 40
0.7838929835
 40
1.0
 40
1.0
 40
1.0
 40
1.0
 10
74.6345967176
 20
72.177766714
 30
0.0
 10
74.6277773846
 20
72.064673742
 30
0.0
 10
74.6292769638
 20
71.8473457658
 30
0.0
 10
74.6829665962
 20
71.5406660971
 30
0.0
 10
74.7877126639
 20
71.2767834513
 30
0.0
 10
74.8943119643
 20
71.1302374714
 30
0.0
 10
74.9543057041
 20
71.0695250007
 30
0.0
  0
SPLINE
  5
534
100
AcDbEntity
  8
0
100
AcDbSpline
 62
7
  6
CONTINUOUS
 70
0
 71
3
 72
9
 73
5
 74
0
 42
0.0000001
 43
0.0000001
 44
0.0000000001
 40
0.0
 40
0.0
 40
0.0
 40
0.0
 40
0.2569400142
 40
1.0
 40
1.0
 40
1.0
 40
1.0
 10
74.8772881935
 20
74.0173738374
 30
0.0
 10
74.8461677536
 20
73.8614597729
 30
0.0
 10
74.7346412213
 20
73.2528057641
 30
0.0
 10
74.6622711615
 20
72.6367243697
 30
0.0
 10
74.6345967176
 20
72.177766714
 30
0.0
  0
SPLINE
  5
535
100
AcDbEntity
  8
0
100
AcDbSpline
 62
7
  6
CONTINUOUS
 70
0
 71
3
 72
11
 73
7
 74
0
 42
0.0000001
 43
0.0000001
 44
0.0000000001
 40
0.0
 40
0.0
 40
0.0
 40
0.0
 40
0.2161070165
 40
0.4521537282
 40
0.7131398222
 40
1.0
 40
1.0
 40
1.0
 40
1.0
 10
93.6927134205
 20
60.2511450059
 30
0.0
 10
93.6327196807
 20
60.3118574766
 30
0.0
 10
93.5261203803
 20
60.4584034565
 30
0.0
 10
93.4213743126
 20
60.7222861023
 30
0.0
 10
93.3676846802
 20
61.0289657711
 30
0.0
 10
93.366185101
 20
61.2462937472
 30
0.0
 10
93.373004434
 20
61.3593867192
 30
0.0
  0
SPLINE
  5
536
100
AcDbEntity
  8
0
100
AcDbSpline
 62
7
  6
CONTINUOUS
 70
0
 71
3
 72
9
 73
5
 74
0
 42
0.0000001
 43
0.0000001
 44
0.0000000001
 40
0.0
 40
0.0
 40
0.0
 40
0.0
 40
0.4859213966
 40
1.0
 40
1.0
 40
1.0
 40
1.0
 10
93.373004434
 20
61.3593867192
 30
0.0
 10
93.4038245909
 20
61.8705134126
 30
0.0
 10
93.5337367135
 20
62.9189680247
 30
0.0
 10
93.7752304402
 20
63.9467369534
 30
0.0
 10
93.9241355702
 20
64.4675967944
 30
0.0
  0
SPLINE
  5
537
100
AcDbEntity
  8
0
100
AcDbSpline
 62
7
  6
CONTINUOUS
 70
0
 71
3
 72
11
 73
7
 74
0
 42
0.0000001
 43
0.0000001
 44
0.0000000001
 40
0.0
 40
0.0
 40
0.0
 40
0.0
 40
0.2372392641
 40
0.4999983132
 40
0.7627582764
 40
1.0
 40
1.0
 40
1.0
 40
1.0
 10
25.6878727194
 20
139.7989488876
 30
0.0
 10
25.4870947756
 20
139.6830303797
 30
0.0
 10
25.1071502033
 20
139.3632542737
 30
0.0
 10
24.6637037572
 20
138.7572639045
 30
0.0
 10
24.3606264713
 20
138.070229071
 30
0.0
 10
24.2736650449
 20
137.5812962029
 30
0.0
 10
24.2736650449
 20
137.3494557456
 30
0.0
  0
SPLINE
  5
538
100
AcDbEntity
  8
0
100
AcDbSpline
 62
7
  6
CONTINUOUS
 70
0
 71
3
 72
11
 73
7
 74
0
 42
0.0000001
 43
0.0000001
 44
0.0000000001
 40
0.0
 40
0.0
 40
0.0
 40
0.0
 40
0.2625477462
 40
0.5234418031
 40
0.7722107283
 40
1.0
 40
1.0
 40
1.0
 40
1.0
 10
24.2736650449
 20
118.7280045521
 30
0.0
 10
23.9060464264
 20
118.2416124803
 30
0.0
 10
23.2442332886
 20
117.2161479189
 30
0.0
 10
22.4920491916
 20
115.5815989732
 30
0.0
 10
22.013018695
 20
113.9307392624
 30
0.0
 10
21.888603802
 20
112.8228509196
 30
0.0
 10
21.888603802
 20
112.2938781178
 30
0.0
  0
SPLINE
  5
539
100
AcDbEntity
  8
0
100
AcDbSpline
 62
7
  6
CONTINUOUS
 70
0
 71
3
 72
11
 73
7
 74
0
 42
0.0000001
 43
0.0000001
 44
0.0000000001
 40
0.0
 40
0.0
 40
0.0
 40
0.0
 40
0.2786495629
 40
0.5375345855
 40
0.7770980435
 40
1.0
 40
1.0
 40
1.0
 40
1.0
 10
21.888603802
 20
112.2938781178
 30
0.0
 10
21.888603802
 20
112.0343881706
 30
0.0
 10
21.9165766239
 20
111.533127971
 30
0.0
 10
22.0525363651
 20
110.8198571066
 30
0.0
 10
22.2796860767
 20
110.1845450292
 30
0.0
 10
22.4972384943
 20
109.8091035511
 30
0.0
 10
22.6197975085
 20
109.641571858
 30
0.0
  0
SPLINE
  5
53A
100
AcDbEntity
  8
0
100
AcDbSpline
 62
7
  6
CONTINUOUS
 70
0
 71
3
 72
11
 73
7
 74
0
 42
0.0000001
 43
0.0000001
 44
0.0000000001
 40
0.0
 40
0.0
 40
0.0
 40
0.0
 40
0.2177805602
 40
0.4509248779
 40
0.7102605592
 40
1.0
 40
1.0
 40
1.0
 40
1.0
 10
43.4266652581
 20
146.8782781476
 30
0.0
 10
43.5380052288
 20
146.9425338776
 30
0.0
 10
43.746290247
 20
147.1176800985
 30
0.0
 10
43.9680380549
 20
147.4802253134
 30
0.0
 10
44.099789148
 20
147.9270489915
 30
0.0
 10
44.1256781379
 20
148.2522615218
 30
0.0
 10
44.1256781379
 20
148.423288388
 30
0.0
  0
SPLINE
  5
53B
100
AcDbEntity
  8
0
100
AcDbSpline
 62
7
  6
CONTINUOUS
 70
0
 71
3
 72
11
 73
7
 74
0
 42
0.0000001
 43
0.0000001
 44
0.0000000001
 40
0.0
 40
0.0
 40
0.0
 40
0.0
 40
0.2625477462
 40
0.5234418031
 40
0.7722107283
 40
1.0
 40
1.0
 40
1.0
 40
1.0
 10
39.3704576768
 20
110.0120644431
 30
0.0
 10
39.0028390583
 20
109.5256723712
 30
0.0
 10
38.3410259205
 20
108.5002078099
 30
0.0
 10
37.5888418235
 20
106.8656588642
 30
0.0
 10
37.1098113269
 20
105.2147991534
 30
0.0
 10
36.9853964339
 20
104.1069108106
 30
0.0
 10
36.9853964339
 20
103.5779380088
 30
0.0
  0
SPLINE
  5
53C
100
AcDbEntity
  8
0
100
AcDbSpline
 62
7
  6
CONTINUOUS
 70
0
 71
3
 72
11
 73
7
 74
0
 42
0.0000001
 43
0.0000001
 44
0.0000000001
 40
0.0
 40
0.0
 40
0.0
 40
0.0
 40
0.2817165139
 40
0.5411039141
 40
0.7792223256
 40
1.0
 40
1.0
 40
1.0
 40
1.0
 10
36.9853964339
 20
103.5779380088
 30
0.0
 10
36.9853964339
 20
103.2909241951
 30
0.0
 10
37.0193956544
 20
102.7386784973
 30
0.0
 10
37.1864753378
 20
101.9590206018
 30
0.0
 10
37.4657723931
 20
101.2779707173
 30
0.0
 10
37.7328699071
 20
100.8884119496
 30
0.0
 10
37.8820750599
 20
100.7200940271
 30
0.0
  0
SPLINE
  5
53D
100
AcDbEntity
  8
0
100
AcDbSpline
 62
7
  6
CONTINUOUS
 70
0
 71
3
 72
17
 73
13
 74
0
 42
0.0000001
 43
0.0000001
 44
0.0000000001
 40
0.0
 40
0.0
 40
0.0
 40
0.0
 40
0.128693823
 40
0.2702783937
 40
0.4174341197
 40
0.5617778654
 40
0.6954482313
 40
0.8127107819
 40
0.8646769687
 40
0.9125095959
 40
0.9571396392
 40
1.0
 40
1.0
 40
1.0
 40
1.0
 10
44.1256781379
 20
148.423288388
 30
0.0
 10
44.1256781379
 20
148.7117785652
 30
0.0
 10
44.0449795255
 20
149.3183496143
 30
0.0
 10
43.7437283684
 20
150.208955174
 30
0.0
 10
43.2795854217
 20
151.0669013409
 30
0.0
 10
42.6898022377
 20
151.8218289439
 30
0.0
 10
42.0225815564
 20
152.4127691748
 30
0.0
 10
41.4186407226
 20
152.7429255657
 30
0.0
 10
40.9462370795
 20
152.8686804235
 30
0.0
 10
40.6210918918
 20
152.8925202047
 30
0.0
 10
40.318319084
 20
152.8482189977
 30
0.0
 10
40.1349159102
 20
152.771948479
 30
0.0
 10
40.0517003729
 20
152.7239237215
 30
0.0
  0
SPLINE
  5
53E
100
AcDbEntity
  8
0
100
AcDbSpline
 62
7
  6
CONTINUOUS
 70
0
 71
3
 72
11
 73
7
 74
0
 42
0.0000001
 43
0.0000001
 44
0.0000000001
 40
0.0
 40
0.0
 40
0.0
 40
0.0
 40
0.2897776971
 40
0.5490719787
 40
0.7822272299
 40
1.0
 40
1.0
 40
1.0
 40
1.0
 10
67.1595990302
 20
166.3963578709
 30
0.0
 10
67.2912689288
 20
166.4723770685
 30
0.0
 10
67.5301199126
 20
166.6368215406
 30
0.0
 10
67.8154854749
 20
166.9368508954
 30
0.0
 10
67.9960510826
 20
167.2686388758
 30
0.0
 10
68.0382478038
 20
167.5068202343
 30
0.0
 10
68.0382478024
 20
167.6210801344
 30
0.0
  0
SPLINE
  5
53F
100
AcDbEntity
  8
0
100
AcDbSpline
 62
7
  6
CONTINUOUS
 70
0
 71
3
 72
9
 73
5
 74
0
 42
0.0000001
 43
0.0000001
 44
0.0000000001
 40
0.0
 40
0.0
 40
0.0
 40
0.0
 40
0.2642865852
 40
1.0
 40
1.0
 40
1.0
 40
1.0
 10
26.3879370186
 20
109.9400134301
 30
0.0
 10
26.3987179321
 20
109.8354143172
 30
0.0
 10
26.4518540745
 20
109.4411992839
 30
0.0
 10
26.5570481737
 20
109.0525299903
 30
0.0
 10
26.6706778519
 20
108.7827619595
 30
0.0
  0
SPLINE
  5
540
100
AcDbEntity
  8
0
100
AcDbSpline
 62
7
  6
CONTINUOUS
 70
0
 71
3
 72
11
 73
7
 74
0
 42
0.0000001
 43
0.0000001
 44
0.0000000001
 40
0.0
 40
0.0
 40
0.0
 40
0.0
 40
0.2896784336
 40
0.5491208899
 40
0.7822333041
 40
1.0
 40
1.0
 40
1.0
 40
1.0
 10
26.0768113303
 20
110.3437139813
 30
0.0
 10
26.0768113303
 20
110.3031828669
 30
0.0
 10
26.0829624697
 20
110.2260901602
 30
0.0
 10
26.1141844425
 20
110.1201753281
 30
0.0
 10
26.1667374832
 20
110.0342180978
 30
0.0
 10
26.216115715
 20
109.9927228765
 30
0.0
 10
26.2425016677
 20
109.9774858958
 30
0.0
  0
SPLINE
  5
541
100
AcDbEntity
  8
0
100
AcDbSpline
 62
7
  6
CONTINUOUS
 70
0
 71
3
 72
10
 73
6
 74
0
 42
0.0000001
 43
0.0000001
 44
0.0000000001
 40
0.0
 40
0.0
 40
0.0
 40
0.0
 40
0.5202790309
 40
0.771268491
 40
1.0
 40
1.0
 40
1.0
 40
1.0
 10
26.3879370186
 20
111.106669388
 30
0.0
 10
26.2930580091
 20
110.9966846183
 30
0.0
 10
26.1785470818
 20
110.8084382492
 30
0.0
 10
26.0935286397
 20
110.5417222916
 30
0.0
 10
26.0768113303
 20
110.4075722698
 30
0.0
 10
26.0768113303
 20
110.3437139813
 30
0.0
  0
SPLINE
  5
542
100
AcDbEntity
  8
0
100
AcDbSpline
 62
7
  6
CONTINUOUS
 70
0
 71
3
 72
11
 73
7
 74
0
 42
0.0000001
 43
0.0000001
 44
0.0000000001
 40
0.0
 40
0.0
 40
0.0
 40
0.0
 40
0.2561996309
 40
0.5143204117
 40
0.7650712106
 40
1.0
 40
1.0
 40
1.0
 40
1.0
 10
28.7078834184
 20
116.4438487413
 30
0.0
 10
28.3930277179
 20
116.0625084175
 30
0.0
 10
27.8152777798
 20
115.2506496962
 30
0.0
 10
27.1251283558
 20
113.9402403647
 30
0.0
 10
26.6330592756
 20
112.5867631961
 30
0.0
 10
26.4467289094
 20
111.6628709654
 30
0.0
 10
26.3984307395
 20
111.211983461
 30
0.0
  0
SPLINE
  5
543
100
AcDbEntity
  8
0
100
AcDbSpline
 62
7
  6
CONTINUOUS
 70
0
 71
3
 72
15
 73
11
 74
0
 42
0.0000001
 43
0.0000001
 44
0.0000000001
 40
0.0
 40
0.0
 40
0.0
 40
0.0
 40
0.1141474765
 40
0.2373368178
 40
0.3669776594
 40
0.5000010819
 40
0.633024354
 40
0.7626647561
 40
0.8858534048
 40
1.0
 40
1.0
 40
1.0
 40
1.0
 10
38.380472769
 20
152.1484499701
 30
0.0
 10
38.3804727688
 20
151.8550219452
 30
0.0
 10
38.4342569978
 20
151.2443578673
 30
0.0
 10
38.6484737286
 20
150.3231182275
 30
0.0
 10
38.9917990005
 20
149.3899968939
 30
0.0
 10
39.4511443176
 20
148.4800571387
 30
0.0
 10
40.0095060318
 20
147.6272861352
 30
0.0
 10
40.6459520937
 20
146.863402918
 30
0.0
 10
41.3366610081
 20
146.2172738623
 30
0.0
 10
41.8386191351
 20
145.8653697192
 30
0.0
 10
42.0927347341
 20
145.7186593287
 30
0.0
  0
SPLINE
  5
544
100
AcDbEntity
  8
0
100
AcDbSpline
 62
7
  6
CONTINUOUS
 70
0
 71
3
 72
15
 73
11
 74
0
 42
0.0000001
 43
0.0000001
 44
0.0000000001
 40
0.0
 40
0.0
 40
0.0
 40
0.0
 40
0.1448871795
 40
0.2745334152
 40
0.3911109733
 40
0.499998016
 40
0.608885419
 40
0.7254639347
 40
0.8551114599
 40
1.0
 40
1.0
 40
1.0
 40
1.0
 10
42.0927347341
 20
145.7186593287
 30
0.0
 10
42.3231565844
 20
145.585628221
 30
0.0
 10
42.7814105215
 20
145.3675554865
 30
0.0
 10
43.4856762233
 20
145.1975294489
 30
0.0
 10
44.1469527905
 20
145.2144555628
 30
0.0
 10
44.7355131628
 20
145.4278240261
 30
0.0
 10
45.2145669046
 20
145.8308611768
 30
0.0
 10
45.5598543175
 20
146.3950914054
 30
0.0
 10
45.7647314924
 20
147.0900257007
 30
0.0
 10
45.804996699
 20
147.5959268247
 30
0.0
 10
45.8049966992
 20
147.8619960529
 30
0.0
  0
SPLINE
  5
545
100
AcDbEntity
  8
0
100
AcDbSpline
 62
7
  6
CONTINUOUS
 70
0
 71
3
 72
15
 73
11
 74
0
 42
0.0000001
 43
0.0000001
 44
0.0000000001
 40
0.0
 40
0.0
 40
0.0
 40
0.0
 40
0.1141474765
 40
0.2373368178
 40
0.3669776594
 40
0.5000010819
 40
0.633024354
 40
0.7626647561
 40
0.8858534048
 40
1.0
 40
1.0
 40
1.0
 40
1.0
 10
45.8049966992
 20
147.8619960529
 30
0.0
 10
45.8049966994
 20
148.1554240778
 30
0.0
 10
45.7512124704
 20
148.7660881557
 30
0.0
 10
45.5369957397
 20
149.6873277954
 30
0.0
 10
45.1936704678
 20
150.620449129
 30
0.0
 10
44.7343251506
 20
151.5303888843
 30
0.0
 10
44.1759634364
 20
152.3831598877
 30
0.0
 10
43.5395173745
 20
153.1470431049
 30
0.0
 10
42.8488084601
 20
153.7931721606
 30
0.0
 10
42.3468503331
 20
154.1450763038
 30
0.0
 10
42.0927347341
 20
154.2917866942
 30
0.0
  0
SPLINE
  5
546
100
AcDbEntity
  8
0
100
AcDbSpline
 62
7
  6
CONTINUOUS
 70
0
 71
3
 72
15
 73
11
 74
0
 42
0.0000001
 43
0.0000001
 44
0.0000000001
 40
0.0
 40
0.0
 40
0.0
 40
0.0
 40
0.1448871795
 40
0.2745334152
 40
0.3911109733
 40
0.499998016
 40
0.608885419
 40
0.7254639347
 40
0.8551114599
 40
1.0
 40
1.0
 40
1.0
 40
1.0
 10
42.0927347341
 20
154.2917866942
 30
0.0
 10
41.8623128838
 20
154.424817802
 30
0.0
 10
41.4040589467
 20
154.6428905365
 30
0.0
 10
40.6997932449
 20
154.8129165741
 30
0.0
 10
40.0385166778
 20
154.7959904602
 30
0.0
 10
39.4499563055
 20
154.5826219969
 30
0.0
 10
38.9709025636
 20
154.1795848462
 30
0.0
 10
38.6256151507
 20
153.6153546175
 30
0.0
 10
38.4207379758
 20
152.9204203223
 30
0.0
 10
38.3804727692
 20
152.4145191983
 30
0.0
 10
38.380472769
 20
152.1484499701
 30
0.0
  0
SPLINE
  5
547
100
AcDbEntity
  8
0
100
AcDbSpline
 62
7
  6
CONTINUOUS
 70
0
 71
3
 72
17
 73
13
 74
0
 42
0.0000001
 43
0.0000001
 44
0.0000000001
 40
0.0
 40
0.0
 40
0.0
 40
0.0
 40
0.128693823
 40
0.2702783937
 40
0.4174341197
 40
0.5617778654
 40
0.6954482313
 40
0.8127107819
 40
0.8646769687
 40
0.9125095959
 40
0.9571396392
 40
1.0
 40
1.0
 40
1.0
 40
1.0
 10
39.3526874931
 20
151.1789134811
 30
0.0
 10
39.3526874931
 20
150.8904233039
 30
0.0
 10
39.4333861055
 20
150.2838522548
 30
0.0
 10
39.7346372626
 20
149.3932466951
 30
0.0
 10
40.1987802093
 20
148.5353005282
 30
0.0
 10
40.7885633933
 20
147.7803729252
 30
0.0
 10
41.4557840746
 20
147.1894326943
 30
0.0
 10
42.0597249084
 20
146.8592763034
 30
0.0
 10
42.5321285516
 20
146.7335214456
 30
0.0
 10
42.8572737392
 20
146.7096816644
 30
0.0
 10
43.160046547
 20
146.7539828714
 30
0.0
 10
43.3434497209
 20
146.8302533901
 30
0.0
 10
43.4266652581
 20
146.8782781476
 30
0.0
  0
SPLINE
  5
548
100
AcDbEntity
  8
0
100
AcDbSpline
 62
7
  6
CONTINUOUS
 70
0
 71
3
 72
11
 73
7
 74
0
 42
0.0000001
 43
0.0000001
 44
0.0000000001
 40
0.0
 40
0.0
 40
0.0
 40
0.0
 40
0.2177805602
 40
0.4509248779
 40
0.7102605592
 40
1.0
 40
1.0
 40
1.0
 40
1.0
 10
40.0517003729
 20
152.7239237215
 30
0.0
 10
39.9403604022
 20
152.6596679915
 30
0.0
 10
39.732075384
 20
152.4845217706
 30
0.0
 10
39.5103275761
 20
152.1219765557
 30
0.0
 10
39.378576483
 20
151.6751528776
 30
0.0
 10
39.3526874931
 20
151.3499403473
 30
0.0
 10
39.3526874931
 20
151.1789134811
 30
0.0
  0
SPLINE
  5
549
100
AcDbEntity
  8
0
100
AcDbSpline
 62
7
  6
CONTINUOUS
 70
0
 71
3
 72
15
 73
11
 74
0
 42
0.0000001
 43
0.0000001
 44
0.0000000001
 40
0.0
 40
0.0
 40
0.0
 40
0.0
 40
0.1141465952
 40
0.2373352439
 40
0.366975646
 40
0.4999989181
 40
0.6330223406
 40
0.7626631822
 40
0.8858525235
 40
1.0
 40
1.0
 40
1.0
 40
1.0
 10
41.7391828155
 20
153.271217203
 30
0.0
 10
41.9448978683
 20
153.1524502488
 30
0.0
 10
42.3512497136
 20
152.867572108
 30
0.0
 10
42.9104016166
 20
152.3445090875
 30
0.0
 10
43.4256259307
 20
151.7261201458
 30
0.0
 10
43.8776383611
 20
151.0357735766
 30
0.0
 10
44.2494937156
 20
150.299146996
 30
0.0
 10
44.5274269739
 20
149.5437541546
 30
0.0
 10
44.7008425621
 20
148.7979799406
 30
0.0
 10
44.7443826893
 20
148.3036270025
 30
0.0
 10
44.7443826892
 20
148.0660872298
 30
0.0
  0
SPLINE
  5
54A
100
AcDbEntity
  8
0
100
AcDbSpline
 62
7
  6
CONTINUOUS
 70
0
 71
3
 72
15
 73
11
 74
0
 42
0.0000001
 43
0.0000001
 44
0.0000000001
 40
0.0
 40
0.0
 40
0.0
 40
0.0
 40
0.1474561271
 40
0.2805074424
 40
0.4007281392
 40
0.5123987031
 40
0.6219064243
 40
0.736309081
 40
0.8612387697
 40
1.0
 40
1.0
 40
1.0
 40
1.0
 10
38.7339829419
 20
151.5361146393
 30
0.0
 10
38.733982942
 20
151.7371804957
 30
0.0
 10
38.7625650539
 20
152.1207816115
 30
0.0
 10
38.906341916
 20
152.6520318344
 30
0.0
 10
39.148007424
 20
153.0935624281
 30
0.0
 10
39.4836006473
 20
153.4268358458
 30
0.0
 10
39.901063542
 20
153.6330041618
 30
0.0
 10
40.3785032604
 20
153.7027536349
 30
0.0
 10
40.8950030089
 20
153.6390884424
 30
0.0
 10
41.2364772532
 20
153.5183576311
 30
0.0
 10
41.4090438795
 20
153.4407618116
 30
0.0
  0
SPLINE
  5
54B
100
AcDbEntity
  8
0
100
AcDbSpline
 62
7
  6
CONTINUOUS
 70
0
 71
3
 72
9
 73
5
 74
0
 42
0.0000001
 43
0.0000001
 44
0.0000000001
 40
0.0
 40
0.0
 40
0.0
 40
0.0
 40
0.244818263
 40
1.0
 40
1.0
 40
1.0
 40
1.0
 10
41.4090438795
 20
153.4407618116
 30
0.0
 10
41.4366729449
 20
153.4283382045
 30
0.0
 10
41.5488435467
 20
153.3760770956
 30
0.0
 10
41.6582557511
 20
153.3179394084
 30
0.0
 10
41.7391828155
 20
153.271217203
 30
0.0
  0
SPLINE
  5
54C
100
AcDbEntity
  8
0
100
AcDbSpline
 62
7
  6
CONTINUOUS
 70
0
 71
3
 72
15
 73
11
 74
0
 42
0.0000001
 43
0.0000001
 44
0.0000000001
 40
0.0
 40
0.0
 40
0.0
 40
0.0
 40
0.1141465952
 40
0.2373352439
 40
0.366975646
 40
0.4999989181
 40
0.6330223406
 40
0.7626631822
 40
0.8858525235
 40
1.0
 40
1.0
 40
1.0
 40
1.0
 10
41.7391828155
 20
146.3309846661
 30
0.0
 10
41.5334677628
 20
146.4497516203
 30
0.0
 10
41.1271159174
 20
146.7346297611
 30
0.0
 10
40.5679640144
 20
147.2576927816
 30
0.0
 10
40.0527397003
 20
147.8760817233
 30
0.0
 10
39.6007272699
 20
148.5664282926
 30
0.0
 10
39.2288719154
 20
149.3030548731
 30
0.0
 10
38.9509386571
 20
150.0584477145
 30
0.0
 10
38.7775230689
 20
150.8042219285
 30
0.0
 10
38.7339829417
 20
151.2985748666
 30
0.0
 10
38.7339829419
 20
151.5361146393
 30
0.0
  0
SPLINE
  5
54D
100
AcDbEntity
  8
0
100
AcDbSpline
 62
7
  6
CONTINUOUS
 70
0
 71
3
 72
9
 73
5
 74
0
 42
0.0000001
 43
0.0000001
 44
0.0000000001
 40
0.0
 40
0.0
 40
0.0
 40
0.0
 40
0.2552016628
 40
1.0
 40
1.0
 40
1.0
 40
1.0
 10
44.7443826892
 20
148.0660872298
 30
0.0
 10
44.7443826891
 20
148.0345035386
 30
0.0
 10
44.7429065929
 20
147.9107506622
 30
0.0
 10
44.7354382456
 20
147.787049986
 30
0.0
 10
44.7261410033
 20
147.6953440152
 30
0.0
  0
SPLINE
  5
54E
100
AcDbEntity
  8
0
100
AcDbSpline
 62
7
  6
CONTINUOUS
 70
0
 71
3
 72
15
 73
11
 74
0
 42
0.0000001
 43
0.0000001
 44
0.0000000001
 40
0.0
 40
0.0
 40
0.0
 40
0.0
 40
0.1387616578
 40
0.2636918858
 40
0.37809509
 40
0.487603182
 40
0.5992737759
 40
0.7194941081
 40
0.8525447398
 40
1.0
 40
1.0
 40
1.0
 40
1.0
 10
44.7261410033
 20
147.6953440152
 30
0.0
 10
44.707056781
 20
147.5071014062
 30
0.0
 10
44.6408745875
 20
147.1510151148
 30
0.0
 10
44.4377617614
 20
146.6718865012
 30
0.0
 10
44.1386414622
 20
146.2932899011
 30
0.0
 10
43.751369931
 20
146.0348409666
 30
0.0
 10
43.2949584167
 20
145.9108422499
 30
0.0
 10
42.7917578349
 20
145.9223128714
 30
0.0
 10
42.2598022017
 20
146.0634148088
 30
0.0
 10
41.9133082775
 20
146.230455558
 30
0.0
 10
41.7391828155
 20
146.3309846661
 30
0.0
  0
SPLINE
  5
54F
100
AcDbEntity
  8
0
100
AcDbSpline
 62
7
  6
CONTINUOUS
 70
0
 71
3
 72
11
 73
7
 74
0
 42
0.0000001
 43
0.0000001
 44
0.0000000001
 40
0.0
 40
0.0
 40
0.0
 40
0.0
 40
0.2177442246
 40
0.4508817658
 40
0.7104588047
 40
1.0
 40
1.0
 40
1.0
 40
1.0
 10
54.5621520678
 20
141.2292276064
 30
0.0
 10
54.5357679142
 20
141.2444601742
 30
0.0
 10
54.4863531588
 20
141.2859073759
 30
0.0
 10
54.4337879509
 20
141.3718923099
 30
0.0
 10
54.402625415
 20
141.4778212038
 30
0.0
 10
54.3964398301
 20
141.5549066721
 30
0.0
 10
54.3964398301
 20
141.5954177593
 30
0.0
  0
SPLINE
  5
550
100
AcDbEntity
  8
0
100
AcDbSpline
 62
7
  6
CONTINUOUS
 70
0
 71
3
 72
11
 73
7
 74
0
 42
0.0000001
 43
0.0000001
 44
0.0000000001
 40
0.0
 40
0.0
 40
0.0
 40
0.0
 40
0.2895411595
 40
0.5491183966
 40
0.7822559144
 40
1.0
 40
1.0
 40
1.0
 40
1.0
 10
46.9717877161
 20
145.8819456818
 30
0.0
 10
46.9717877161
 20
145.8414346002
 30
0.0
 10
46.9779733492
 20
145.7643491184
 30
0.0
 10
47.0091358358
 20
145.6584201878
 30
0.0
 10
47.0617010874
 20
145.5724352783
 30
0.0
 10
47.1111158087
 20
145.5309880729
 30
0.0
 10
47.1374999532
 20
145.5157555292
 30
0.0
  0
SPLINE
  5
551
100
AcDbEntity
  8
0
100
AcDbSpline
 62
7
  6
CONTINUOUS
 70
0
 71
3
 72
11
 73
7
 74
0
 42
0.0000001
 43
0.0000001
 44
0.0000000001
 40
0.0
 40
0.0
 40
0.0
 40
0.0
 40
0.2372518718
 40
0.4999985497
 40
0.7627460178
 40
1.0
 40
1.0
 40
1.0
 40
1.0
 10
47.5374707858
 20
146.8617429386
 30
0.0
 10
47.4571556126
 20
146.8153732285
 30
0.0
 10
47.3051663857
 20
146.6874717007
 30
0.0
 10
47.12784219
 20
146.4450461663
 30
0.0
 10
47.0065587855
 20
146.1702647184
 30
0.0
 10
46.9717877161
 20
145.9746863421
 30
0.0
 10
46.9717877161
 20
145.8819456818
 30
0.0
  0
SPLINE
  5
552
100
AcDbEntity
  8
0
100
AcDbSpline
 62
7
  6
CONTINUOUS
 70
0
 71
3
 72
9
 73
5
 74
0
 42
0.0000001
 43
0.0000001
 44
0.0000000001
 40
0.0
 40
0.0
 40
0.0
 40
0.0
 40
0.4749297831
 40
1.0
 40
1.0
 40
1.0
 40
1.0
 10
54.3964398301
 20
141.5954177593
 30
0.0
 10
54.3964398301
 20
141.701386296
 30
0.0
 10
54.4413384528
 20
141.9244536468
 30
0.0
 10
54.5415705332
 20
142.1264089634
 30
0.0
 10
54.6061658547
 20
142.2241483971
 30
0.0
  0
SPLINE
  5
553
100
AcDbEntity
  8
0
100
AcDbSpline
 62
7
  6
CONTINUOUS
 70
0
 71
3
 72
9
 73
5
 74
0
 42
0.0000001
 43
0.0000001
 44
0.0000000001
 40
0.0
 40
0.0
 40
0.0
 40
0.0
 40
0.2424016808
 40
1.0
 40
1.0
 40
1.0
 40
1.0
 10
26.1232301428
 20
107.9197474802
 30
0.0
 10
26.0967489111
 20
107.9730453807
 30
0.0
 10
25.9931925186
 20
108.1957290956
 30
0.0
 10
25.9120859366
 20
108.4286188228
 30
0.0
 10
25.8620098149
 20
108.6077555362
 30
0.0
  0
SPLINE
  5
554
100
AcDbEntity
  8
0
100
AcDbSpline
 62
7
  6
CONTINUOUS
 70
0
 71
3
 72
9
 73
5
 74
0
 42
0.0000001
 43
0.0000001
 44
0.0000000001
 40
0.0
 40
0.0
 40
0.0
 40
0.0
 40
0.2362530433
 40
1.0
 40
1.0
 40
1.0
 40
1.0
 10
25.8620098149
 20
108.6077555362
 30
0.0
 10
25.8298522761
 20
108.7227923168
 30
0.0
 10
25.7134180333
 20
109.215190806
 30
0.0
 10
25.6716408315
 20
109.7236480651
 30
0.0
 10
25.6716408315
 20
110.1097900812
 30
0.0
  0
SPLINE
  5
555
100
AcDbEntity
  8
0
100
AcDbSpline
 62
7
  6
CONTINUOUS
 70
0
 71
3
 72
11
 73
7
 74
0
 42
0.0000001
 43
0.0000001
 44
0.0000000001
 40
0.0
 40
0.0
 40
0.0
 40
0.0
 40
0.2277892717
 40
0.4765581969
 40
0.7374522538
 40
1.0
 40
1.0
 40
1.0
 40
1.0
 10
25.6716408315
 20
110.1097900812
 30
0.0
 10
25.6716408315
 20
110.6387628829
 30
0.0
 10
25.7960557245
 20
111.7466512257
 30
0.0
 10
26.2750862211
 20
113.3975109365
 30
0.0
 10
27.0272703182
 20
115.0320598822
 30
0.0
 10
27.689083456
 20
116.0575244436
 30
0.0
 10
28.0567020745
 20
116.5439165154
 30
0.0
  0
SPLINE
  5
556
100
AcDbEntity
  8
0
100
AcDbSpline
 62
7
  6
CONTINUOUS
 70
0
 71
3
 72
10
 73
6
 74
0
 42
0.0000001
 43
0.0000001
 44
0.0000000001
 40
0.0
 40
0.0
 40
0.0
 40
0.0
 40
0.2281450702
 40
0.4752816799
 40
1.0
 40
1.0
 40
1.0
 40
1.0
 10
81.2097764161
 20
169.690876733
 30
0.0
 10
81.2097764161
 20
169.5721229511
 30
0.0
 10
81.2329792662
 20
169.324435587
 30
0.0
 10
81.3572961331
 20
168.81785568
 30
0.0
 10
81.5293412422
 20
168.4487196972
 30
0.0
 10
81.6722768559
 20
168.2159815065
 30
0.0
  0
SPLINE
  5
557
100
AcDbEntity
  8
0
100
AcDbSpline
 62
7
  6
CONTINUOUS
 70
0
 71
3
 72
13
 73
9
 74
0
 42
0.0000001
 43
0.0000001
 44
0.0000000001
 40
0.0
 40
0.0
 40
0.0
 40
0.0
 40
0.1142487484
 40
0.2375477548
 40
0.5000005226
 40
0.7624530043
 40
0.8857516767
 40
1.0
 40
1.0
 40
1.0
 40
1.0
 10
63.6240327406
 20
170.8870163686
 30
0.0
 10
63.4788211709
 20
170.9708524109
 30
0.0
 10
63.1612347947
 20
171.1187455229
 30
0.0
 10
62.4574033738
 20
171.3325041632
 30
0.0
 10
61.5027090739
 20
171.4363406904
 30
0.0
 10
60.548015692
 20
171.3324997491
 30
0.0
 10
59.8441869087
 20
171.1187376465
 30
0.0
 10
59.5266024785
 20
170.9708429481
 30
0.0
 10
59.3813920536
 20
170.8870061706
 30
0.0
  0
SPLINE
  5
558
100
AcDbEntity
  8
0
100
AcDbSpline
 62
7
  6
CONTINUOUS
 70
0
 71
3
 72
9
 73
5
 74
0
 42
0.0000001
 43
0.0000001
 44
0.0000000001
 40
0.0
 40
0.0
 40
0.0
 40
0.0
 40
0.4807985494
 40
1.0
 40
1.0
 40
1.0
 40
1.0
 10
40.7684334634
 20
101.3938499722
 30
0.0
 10
40.7684334634
 20
101.8127883332
 30
0.0
 10
40.8464096311
 20
102.684831682
 30
0.0
 10
41.0472197933
 20
103.5355208921
 30
0.0
 10
41.1778356385
 20
103.9686554282
 30
0.0
  0
SPLINE
  5
559
100
AcDbEntity
  8
0
100
AcDbSpline
 62
7
  6
CONTINUOUS
 70
0
 71
3
 72
9
 73
5
 74
0
 42
0.0000001
 43
0.0000001
 44
0.0000000001
 40
0.0
 40
0.0
 40
0.0
 40
0.0
 40
0.2462888798
 40
1.0
 40
1.0
 40
1.0
 40
1.0
 10
41.1778356385
 20
103.9686554282
 30
0.0
 10
41.2117109704
 20
104.0809892429
 30
0.0
 10
41.3565701411
 20
104.5348656755
 30
0.0
 10
41.5297198421
 20
104.9796407753
 30
0.0
 10
41.6744124388
 20
105.3082595691
 30
0.0
  0
SPLINE
  5
55A
100
AcDbEntity
  8
0
100
AcDbSpline
 62
7
  6
CONTINUOUS
 70
0
 71
3
 72
9
 73
5
 74
0
 42
0.0000001
 43
0.0000001
 44
0.0000000001
 40
0.0
 40
0.0
 40
0.0
 40
0.0
 40
0.2496591059
 40
1.0
 40
1.0
 40
1.0
 40
1.0
 10
41.6744124388
 20
105.3082595691
 30
0.0
 10
41.7725168931
 20
105.5310696379
 30
0.0
 10
42.1918569638
 20
106.4116520592
 30
0.0
 10
42.7123171207
 20
107.2442592901
 30
0.0
 10
43.1534947064
 20
107.8279764064
 30
0.0
  0
SPLINE
  5
55B
100
AcDbEntity
  8
0
100
AcDbSpline
 62
7
  6
CONTINUOUS
 70
0
 71
3
 72
9
 73
5
 74
0
 42
0.0000001
 43
0.0000001
 44
0.0000000001
 40
0.0
 40
0.0
 40
0.0
 40
0.0
 40
0.4773773815
 40
1.0
 40
1.0
 40
1.0
 40
1.0
 10
43.1534947064
 20
126.4494275999
 30
0.0
 10
43.1534947064
 20
126.6006225357
 30
0.0
 10
43.1909399198
 20
126.9176364986
 30
0.0
 10
43.2834474162
 20
127.2221023976
 30
0.0
 10
43.3433852164
 20
127.3763942874
 30
0.0
  0
SPLINE
  5
55C
100
AcDbEntity
  8
0
100
AcDbSpline
 62
7
  6
CONTINUOUS
 70
0
 71
3
 72
9
 73
5
 74
0
 42
0.0000001
 43
0.0000001
 44
0.0000000001
 40
0.0
 40
0.0
 40
0.0
 40
0.0
 40
0.2518834874
 40
1.0
 40
1.0
 40
1.0
 40
1.0
 10
43.5677115391
 20
127.8432774083
 30
0.0
 10
43.5894682526
 20
127.8809613436
 30
0.0
 10
43.6786749614
 20
128.0289131989
 30
0.0
 10
43.7789491064
 20
128.1702283172
 30
0.0
 10
43.8598783756
 20
128.2709916471
 30
0.0
  0
SPLINE
  5
55D
100
AcDbEntity
  8
0
100
AcDbSpline
 62
7
  6
CONTINUOUS
 70
0
 71
3
 72
9
 73
5
 74
0
 42
0.0000001
 43
0.0000001
 44
0.0000000001
 40
0.0
 40
0.0
 40
0.0
 40
0.0
 40
0.5226236696
 40
1.0
 40
1.0
 40
1.0
 40
1.0
 10
43.8598783756
 20
128.2709916471
 30
0.0
 10
43.9635289552
 20
128.4000448024
 30
0.0
 10
44.1809476772
 20
128.6323903895
 30
0.0
 10
44.4367649601
 20
128.8233244381
 30
0.0
 10
44.5677023808
 20
128.8989207419
 30
0.0
  0
SPLINE
  5
55E
100
AcDbEntity
  8
0
100
AcDbSpline
 62
7
  6
CONTINUOUS
 70
0
 71
3
 72
11
 73
7
 74
0
 42
0.0000001
 43
0.0000001
 44
0.0000000001
 40
0.0
 40
0.0
 40
0.0
 40
0.0
 40
0.2177723091
 40
0.4509273687
 40
0.7102218233
 40
1.0
 40
1.0
 40
1.0
 40
1.0
 10
68.0382478024
 20
167.6210801344
 30
0.0
 10
68.0382478009
 20
167.7353412646
 30
0.0
 10
67.9960501161
 20
167.9735253712
 30
0.0
 10
67.8154806022
 20
168.3053165641
 30
0.0
 10
67.5301092441
 20
168.6053481429
 30
0.0
 10
67.2912537273
 20
168.7697932428
 30
0.0
 10
67.1595813664
 20
168.845812596
 30
0.0
  0
SPLINE
  5
55F
100
AcDbEntity
  8
0
100
AcDbSpline
 62
7
  6
CONTINUOUS
 70
0
 71
3
 72
9
 73
5
 74
0
 42
0.0000001
 43
0.0000001
 44
0.0000000001
 40
0.0
 40
0.0
 40
0.0
 40
0.0
 40
0.2439673731
 40
1.0
 40
1.0
 40
1.0
 40
1.0
 10
41.4996271699
 20
98.7415437123
 30
0.0
 10
41.4689924235
 20
98.7834197911
 30
0.0
 10
41.3479944513
 20
98.9583878967
 30
0.0
 10
41.245350434
 20
99.1458520437
 30
0.0
 10
41.1778356385
 20
99.2917786063
 30
0.0
  0
SPLINE
  5
560
100
AcDbEntity
  8
0
100
AcDbSpline
 62
7
  6
CONTINUOUS
 70
0
 71
3
 72
11
 73
7
 74
0
 42
0.0000001
 43
0.0000001
 44
0.0000000001
 40
0.0
 40
0.0
 40
0.0
 40
0.0
 40
0.2372392641
 40
0.4999983132
 40
0.7627582764
 40
1.0
 40
1.0
 40
1.0
 40
1.0
 10
44.5677023808
 20
128.8989207419
 30
0.0
 10
44.366924437
 20
128.783002234
 30
0.0
 10
43.9869798647
 20
128.463226128
 30
0.0
 10
43.5435334187
 20
127.8572357588
 30
0.0
 10
43.2404561327
 20
127.1702009253
 30
0.0
 10
43.1534947064
 20
126.6812680572
 30
0.0
 10
43.1534947064
 20
126.4494275999
 30
0.0
  0
SPLINE
  5
561
100
AcDbEntity
  8
0
100
AcDbSpline
 62
7
  6
CONTINUOUS
 70
0
 71
3
 72
11
 73
7
 74
0
 42
0.0000001
 43
0.0000001
 44
0.0000000001
 40
0.0
 40
0.0
 40
0.0
 40
0.0
 40
0.2625477462
 40
0.5234418031
 40
0.7722107283
 40
1.0
 40
1.0
 40
1.0
 40
1.0
 10
43.1534947064
 20
107.8279764064
 30
0.0
 10
42.7858760879
 20
107.3415843346
 30
0.0
 10
42.12406295
 20
106.3161197732
 30
0.0
 10
41.371878853
 20
104.6815708275
 30
0.0
 10
40.8928483564
 20
103.0307111167
 30
0.0
 10
40.7684334634
 20
101.9228227739
 30
0.0
 10
40.7684334634
 20
101.3938499722
 30
0.0
  0
SPLINE
  5
562
100
AcDbEntity
  8
0
100
AcDbSpline
 62
7
  6
CONTINUOUS
 70
0
 71
3
 72
11
 73
7
 74
0
 42
0.0000001
 43
0.0000001
 44
0.0000000001
 40
0.0
 40
0.0
 40
0.0
 40
0.0
 40
0.2786495629
 40
0.5375345855
 40
0.7770980435
 40
1.0
 40
1.0
 40
1.0
 40
1.0
 10
40.7684334634
 20
101.3938499722
 30
0.0
 10
40.7684334634
 20
101.1343600249
 30
0.0
 10
40.7964062853
 20
100.6330998254
 30
0.0
 10
40.9323660265
 20
99.9198289609
 30
0.0
 10
41.1595157381
 20
99.2845168835
 30
0.0
 10
41.3770681557
 20
98.9090754054
 30
0.0
 10
41.4996271699
 20
98.7415437123
 30
0.0
  0
SPLINE
  5
563
100
AcDbEntity
  8
0
100
AcDbSpline
 62
7
  6
CONTINUOUS
 70
0
 71
3
 72
11
 73
7
 74
0
 42
0.0000001
 43
0.0000001
 44
0.0000000001
 40
0.0
 40
0.0
 40
0.0
 40
0.0
 40
0.2177805602
 40
0.4509248779
 40
0.7102605592
 40
1.0
 40
1.0
 40
1.0
 40
1.0
 10
62.3064949196
 20
135.978250002
 30
0.0
 10
62.4178348902
 20
136.0425057319
 30
0.0
 10
62.6261199085
 20
136.2176519528
 30
0.0
 10
62.8478677163
 20
136.5801971677
 30
0.0
 10
62.9796188094
 20
137.0270208459
 30
0.0
 10
63.0055077993
 20
137.3522333761
 30
0.0
 10
63.0055077993
 20
137.5232602424
 30
0.0
  0
SPLINE
  5
564
100
AcDbEntity
  8
0
100
AcDbSpline
 62
7
  6
CONTINUOUS
 70
0
 71
3
 72
11
 73
7
 74
0
 42
0.0000001
 43
0.0000001
 44
0.0000000001
 40
0.0
 40
0.0
 40
0.0
 40
0.0
 40
0.2625477462
 40
0.5234418031
 40
0.7722107283
 40
1.0
 40
1.0
 40
1.0
 40
1.0
 10
58.2502873382
 20
99.1120362974
 30
0.0
 10
57.8826687197
 20
98.6256442256
 30
0.0
 10
57.2208555819
 20
97.6001796642
 30
0.0
 10
56.4686714849
 20
95.9656307185
 30
0.0
 10
55.9896409883
 20
94.3147710077
 30
0.0
 10
55.8652260953
 20
93.2068826649
 30
0.0
 10
55.8652260953
 20
92.6779098631
 30
0.0
  0
SPLINE
  5
565
100
AcDbEntity
  8
0
100
AcDbSpline
 62
7
  6
CONTINUOUS
 70
0
 71
3
 72
11
 73
7
 74
0
 42
0.0000001
 43
0.0000001
 44
0.0000000001
 40
0.0
 40
0.0
 40
0.0
 40
0.0
 40
0.2817165139
 40
0.5411039141
 40
0.7792223256
 40
1.0
 40
1.0
 40
1.0
 40
1.0
 10
55.8652260953
 20
92.6779098631
 30
0.0
 10
55.8652260953
 20
92.3908960494
 30
0.0
 10
55.8992253158
 20
91.8386503516
 30
0.0
 10
56.0663049993
 20
91.0589924561
 30
0.0
 10
56.3456020545
 20
90.3779425716
 30
0.0
 10
56.6126995685
 20
89.9883838039
 30
0.0
 10
56.7619047214
 20
89.8200658814
 30
0.0
  0
SPLINE
  5
566
100
AcDbEntity
  8
0
100
AcDbSpline
 62
7
  6
CONTINUOUS
 70
0
 71
3
 72
17
 73
13
 74
0
 42
0.0000001
 43
0.0000001
 44
0.0000000001
 40
0.0
 40
0.0
 40
0.0
 40
0.0
 40
0.128693823
 40
0.2702783937
 40
0.4174341197
 40
0.5617778654
 40
0.6954482313
 40
0.8127107819
 40
0.8646769687
 40
0.9125095959
 40
0.9571396392
 40
1.0
 40
1.0
 40
1.0
 40
1.0
 10
63.0055077993
 20
137.5232602424
 30
0.0
 10
63.0055077993
 20
137.8117504195
 30
0.0
 10
62.9248091869
 20
138.4183214686
 30
0.0
 10
62.6235580298
 20
139.3089270283
 30
0.0
 10
62.1594150832
 20
140.1668731952
 30
0.0
 10
61.5696318992
 20
140.9218007982
 30
0.0
 10
60.9024112178
 20
141.5127410291
 30
0.0
 10
60.298470384
 20
141.84289742
 30
0.0
 10
59.8260667409
 20
141.9686522778
 30
0.0
 10
59.5009215532
 20
141.992492059
 30
0.0
 10
59.1981487454
 20
141.948190852
 30
0.0
 10
59.0147455716
 20
141.8719203333
 30
0.0
 10
58.9315300343
 20
141.8238955758
 30
0.0
  0
SPLINE
  5
567
100
AcDbEntity
  8
0
100
AcDbSpline
 62
7
  6
CONTINUOUS
 70
0
 71
3
 72
11
 73
7
 74
0
 42
0.0000001
 43
0.0000001
 44
0.0000000001
 40
0.0
 40
0.0
 40
0.0
 40
0.0
 40
0.2897776971
 40
0.5490719787
 40
0.7822272299
 40
1.0
 40
1.0
 40
1.0
 40
1.0
 10
86.0394286916
 20
155.4963297252
 30
0.0
 10
86.1710985902
 20
155.5723489228
 30
0.0
 10
86.409949574
 20
155.7367933949
 30
0.0
 10
86.6953151364
 20
156.0368227497
 30
0.0
 10
86.875880744
 20
156.3686107301
 30
0.0
 10
86.9180774653
 20
156.6067920886
 30
0.0
 10
86.9180774638
 20
156.7210519887
 30
0.0
  0
SPLINE
  5
568
100
AcDbEntity
  8
0
100
AcDbSpline
 62
7
  6
CONTINUOUS
 70
0
 71
3
 72
9
 73
5
 74
0
 42
0.0000001
 43
0.0000001
 44
0.0000000001
 40
0.0
 40
0.0
 40
0.0
 40
0.0
 40
0.2642865852
 40
1.0
 40
1.0
 40
1.0
 40
1.0
 10
45.2677666801
 20
99.0399852844
 30
0.0
 10
45.2785475935
 20
98.9353861715
 30
0.0
 10
45.3316837359
 20
98.5411711382
 30
0.0
 10
45.4368778352
 20
98.1525018446
 30
0.0
 10
45.5505075134
 20
97.8827338138
 30
0.0
  0
SPLINE
  5
569
100
AcDbEntity
  8
0
100
AcDbSpline
 62
7
  6
CONTINUOUS
 70
0
 71
3
 72
11
 73
7
 74
0
 42
0.0000001
 43
0.0000001
 44
0.0000000001
 40
0.0
 40
0.0
 40
0.0
 40
0.0
 40
0.2896784336
 40
0.5491208899
 40
0.7822333041
 40
1.0
 40
1.0
 40
1.0
 40
1.0
 10
44.9566409917
 20
99.4436858356
 30
0.0
 10
44.9566409917
 20
99.4031547212
 30
0.0
 10
44.9627921312
 20
99.3260620145
 30
0.0
 10
44.9940141039
 20
99.2201471824
 30
0.0
 10
45.0465671446
 20
99.1341899521
 30
0.0
 10
45.0959453764
 20
99.0926947308
 30
0.0
 10
45.1223313292
 20
99.0774577501
 30
0.0
  0
SPLINE
  5
56A
100
AcDbEntity
  8
0
100
AcDbSpline
 62
7
  6
CONTINUOUS
 70
0
 71
3
 72
10
 73
6
 74
0
 42
0.0000001
 43
0.0000001
 44
0.0000000001
 40
0.0
 40
0.0
 40
0.0
 40
0.0
 40
0.5202790309
 40
0.771268491
 40
1.0
 40
1.0
 40
1.0
 40
1.0
 10
45.2677666801
 20
100.2066412423
 30
0.0
 10
45.1728876705
 20
100.0966564726
 30
0.0
 10
45.0583767432
 20
99.9084101035
 30
0.0
 10
44.9733583011
 20
99.6416941459
 30
0.0
 10
44.9566409917
 20
99.5075441241
 30
0.0
 10
44.9566409917
 20
99.4436858356
 30
0.0
  0
SPLINE
  5
56B
100
AcDbEntity
  8
0
100
AcDbSpline
 62
7
  6
CONTINUOUS
 70
0
 71
3
 72
11
 73
7
 74
0
 42
0.0000001
 43
0.0000001
 44
0.0000000001
 40
0.0
 40
0.0
 40
0.0
 40
0.0
 40
0.2561996309
 40
0.5143204117
 40
0.7650712106
 40
1.0
 40
1.0
 40
1.0
 40
1.0
 10
47.5877130799
 20
105.5438205956
 30
0.0
 10
47.2728573793
 20
105.1624802718
 30
0.0
 10
46.6951074412
 20
104.3506215506
 30
0.0
 10
46.0049580172
 20
103.040212219
 30
0.0
 10
45.512888937
 20
101.6867350504
 30
0.0
 10
45.3265585709
 20
100.7628428197
 30
0.0
 10
45.278260401
 20
100.3119553153
 30
0.0
  0
SPLINE
  5
56C
100
AcDbEntity
  8
0
100
AcDbSpline
 62
7
  6
CONTINUOUS
 70
0
 71
3
 72
11
 73
7
 74
0
 42
0.0000001
 43
0.0000001
 44
0.0000000001
 40
0.0
 40
0.0
 40
0.0
 40
0.0
 40
0.2281287802
 40
0.4780938035
 40
0.7394666838
 40
1.0
 40
1.0
 40
1.0
 40
1.0
 10
57.2603024304
 20
141.2484218244
 30
0.0
 10
57.2603024301
 20
140.8424202086
 30
0.0
 10
57.3631825179
 20
139.9905928445
 30
0.0
 10
57.7543921206
 20
138.728299555
 30
0.0
 10
58.3640122617
 20
137.4914185311
 30
0.0
 10
58.898523071
 20
136.7263475072
 30
0.0
 10
59.1942380726
 20
136.3692138612
 30
0.0
  0
SPLINE
  5
56D
100
AcDbEntity
  8
0
100
AcDbSpline
 62
7
  6
CONTINUOUS
 70
0
 71
3
 72
9
 73
5
 74
0
 42
0.0000001
 43
0.0000001
 44
0.0000000001
 40
0.0
 40
0.0
 40
0.0
 40
0.0
 40
0.5220273383
 40
1.0
 40
1.0
 40
1.0
 40
1.0
 10
59.1942380726
 20
136.3692138612
 30
0.0
 10
59.4570853109
 20
136.0517744617
 30
0.0
 10
60.0058389911
 20
135.4793724746
 30
0.0
 10
60.645762994
 20
135.0073057918
 30
0.0
 10
60.9725643955
 20
134.818631183
 30
0.0
  0
SPLINE
  5
56E
100
AcDbEntity
  8
0
100
AcDbSpline
 62
7
  6
CONTINUOUS
 70
0
 71
3
 72
15
 73
11
 74
0
 42
0.0000001
 43
0.0000001
 44
0.0000000001
 40
0.0
 40
0.0
 40
0.0
 40
0.0
 40
0.1448871795
 40
0.2745334152
 40
0.3911109733
 40
0.499998016
 40
0.608885419
 40
0.7254639347
 40
0.8551114599
 40
1.0
 40
1.0
 40
1.0
 40
1.0
 10
60.9725643955
 20
134.818631183
 30
0.0
 10
61.2029862458
 20
134.6856000753
 30
0.0
 10
61.661240183
 20
134.4675273408
 30
0.0
 10
62.3655058847
 20
134.2975013032
 30
0.0
 10
63.0267824519
 20
134.3144274171
 30
0.0
 10
63.6153428242
 20
134.5277958804
 30
0.0
 10
64.0943965661
 20
134.9308330311
 30
0.0
 10
64.4396839789
 20
135.4950632597
 30
0.0
 10
64.6445611538
 20
136.189997555
 30
0.0
 10
64.6848263605
 20
136.695898679
 30
0.0
 10
64.6848263607
 20
136.9619679072
 30
0.0
  0
SPLINE
  5
56F
100
AcDbEntity
  8
0
100
AcDbSpline
 62
7
  6
CONTINUOUS
 70
0
 71
3
 72
15
 73
11
 74
0
 42
0.0000001
 43
0.0000001
 44
0.0000000001
 40
0.0
 40
0.0
 40
0.0
 40
0.0
 40
0.1141474765
 40
0.2373368178
 40
0.3669776594
 40
0.5000010819
 40
0.633024354
 40
0.7626647561
 40
0.8858534048
 40
1.0
 40
1.0
 40
1.0
 40
1.0
 10
64.6848263607
 20
136.9619679072
 30
0.0
 10
64.6848263609
 20
137.2553959321
 30
0.0
 10
64.6310421319
 20
137.86606001
 30
0.0
 10
64.4168254011
 20
138.7872996497
 30
0.0
 10
64.0735001292
 20
139.7204209834
 30
0.0
 10
63.614154812
 20
140.6303607386
 30
0.0
 10
63.0557930979
 20
141.483131742
 30
0.0
 10
62.4193470359
 20
142.2470149592
 30
0.0
 10
61.7286381216
 20
142.893144015
 30
0.0
 10
61.2266799945
 20
143.2450481581
 30
0.0
 10
60.9725643955
 20
143.3917585486
 30
0.0
  0
SPLINE
  5
570
100
AcDbEntity
  8
0
100
AcDbSpline
 62
7
  6
CONTINUOUS
 70
0
 71
3
 72
15
 73
11
 74
0
 42
0.0000001
 43
0.0000001
 44
0.0000000001
 40
0.0
 40
0.0
 40
0.0
 40
0.0
 40
0.1448871795
 40
0.2745334152
 40
0.3911109733
 40
0.499998016
 40
0.608885419
 40
0.7254639347
 40
0.8551114599
 40
1.0
 40
1.0
 40
1.0
 40
1.0
 10
60.9725643955
 20
143.3917585486
 30
0.0
 10
60.7421425452
 20
143.5247896563
 30
0.0
 10
60.2838886081
 20
143.7428623908
 30
0.0
 10
59.5796229063
 20
143.9128884284
 30
0.0
 10
58.9183463392
 20
143.8959623145
 30
0.0
 10
58.3297859669
 20
143.6825938512
 30
0.0
 10
57.850732225
 20
143.2795567005
 30
0.0
 10
57.5054448122
 20
142.7153264718
 30
0.0
 10
57.3005676372
 20
142.0203921766
 30
0.0
 10
57.2603024306
 20
141.5144910526
 30
0.0
 10
57.2603024304
 20
141.2484218244
 30
0.0
  0
SPLINE
  5
571
100
AcDbEntity
  8
0
100
AcDbSpline
 62
7
  6
CONTINUOUS
 70
0
 71
3
 72
17
 73
13
 74
0
 42
0.0000001
 43
0.0000001
 44
0.0000000001
 40
0.0
 40
0.0
 40
0.0
 40
0.0
 40
0.128693823
 40
0.2702783937
 40
0.4174341197
 40
0.5617778654
 40
0.6954482313
 40
0.8127107819
 40
0.8646769687
 40
0.9125095959
 40
0.9571396392
 40
1.0
 40
1.0
 40
1.0
 40
1.0
 10
58.2325171546
 20
140.2788853354
 30
0.0
 10
58.2325171546
 20
139.9903951583
 30
0.0
 10
58.3132157669
 20
139.3838241092
 30
0.0
 10
58.614466924
 20
138.4932185494
 30
0.0
 10
59.0786098707
 20
137.6352723826
 30
0.0
 10
59.6683930547
 20
136.8803447795
 30
0.0
 10
60.3356137361
 20
136.2894045487
 30
0.0
 10
60.9395545698
 20
135.9592481578
 30
0.0
 10
61.411958213
 20
135.8334932999
 30
0.0
 10
61.7371034007
 20
135.8096535187
 30
0.0
 10
62.0398762085
 20
135.8539547257
 30
0.0
 10
62.2232793823
 20
135.9302252444
 30
0.0
 10
62.3064949196
 20
135.978250002
 30
0.0
  0
SPLINE
  5
572
100
AcDbEntity
  8
0
100
AcDbSpline
 62
7
  6
CONTINUOUS
 70
0
 71
3
 72
11
 73
7
 74
0
 42
0.0000001
 43
0.0000001
 44
0.0000000001
 40
0.0
 40
0.0
 40
0.0
 40
0.0
 40
0.2177805602
 40
0.4509248779
 40
0.7102605592
 40
1.0
 40
1.0
 40
1.0
 40
1.0
 10
58.9315300343
 20
141.8238955758
 30
0.0
 10
58.8201900636
 20
141.7596398458
 30
0.0
 10
58.6119050454
 20
141.5844936249
 30
0.0
 10
58.3901572375
 20
141.2219484101
 30
0.0
 10
58.2584061445
 20
140.7751247319
 30
0.0
 10
58.2325171546
 20
140.4499122016
 30
0.0
 10
58.2325171546
 20
140.2788853354
 30
0.0
  0
SPLINE
  5
573
100
AcDbEntity
  8
0
100
AcDbSpline
 62
7
  6
CONTINUOUS
 70
0
 71
3
 72
15
 73
11
 74
0
 42
0.0000001
 43
0.0000001
 44
0.0000000001
 40
0.0
 40
0.0
 40
0.0
 40
0.0
 40
0.1141465952
 40
0.2373352439
 40
0.366975646
 40
0.4999989181
 40
0.6330223406
 40
0.7626631822
 40
0.8858525235
 40
1.0
 40
1.0
 40
1.0
 40
1.0
 10
60.6190124769
 20
142.3711890573
 30
0.0
 10
60.8247275297
 20
142.2524221031
 30
0.0
 10
61.231079375
 20
141.9675439624
 30
0.0
 10
61.790231278
 20
141.4444809418
 30
0.0
 10
62.3054555922
 20
140.8260920001
 30
0.0
 10
62.7574680225
 20
140.1357454309
 30
0.0
 10
63.129323377
 20
139.3991188503
 30
0.0
 10
63.4072566354
 20
138.6437260089
 30
0.0
 10
63.5806722236
 20
137.897951795
 30
0.0
 10
63.6242123508
 20
137.4035988568
 30
0.0
 10
63.6242123506
 20
137.1660590841
 30
0.0
  0
SPLINE
  5
574
100
AcDbEntity
  8
0
100
AcDbSpline
 62
7
  6
CONTINUOUS
 70
0
 71
3
 72
15
 73
11
 74
0
 42
0.0000001
 43
0.0000001
 44
0.0000000001
 40
0.0
 40
0.0
 40
0.0
 40
0.0
 40
0.1474561271
 40
0.2805074424
 40
0.4007281392
 40
0.5123987031
 40
0.6219064243
 40
0.736309081
 40
0.8612387697
 40
1.0
 40
1.0
 40
1.0
 40
1.0
 10
57.6138126033
 20
140.6360864936
 30
0.0
 10
57.6138126034
 20
140.83715235
 30
0.0
 10
57.6423947154
 20
141.2207534658
 30
0.0
 10
57.7861715774
 20
141.7520036887
 30
0.0
 10
58.0278370854
 20
142.1935342824
 30
0.0
 10
58.3634303087
 20
142.5268077001
 30
0.0
 10
58.7808932034
 20
142.7329760161
 30
0.0
 10
59.2583329218
 20
142.8027254892
 30
0.0
 10
59.7748326703
 20
142.7390602967
 30
0.0
 10
60.1163069146
 20
142.6183294854
 30
0.0
 10
60.2888735409
 20
142.5407336659
 30
0.0
  0
SPLINE
  5
575
100
AcDbEntity
  8
0
100
AcDbSpline
 62
7
  6
CONTINUOUS
 70
0
 71
3
 72
9
 73
5
 74
0
 42
0.0000001
 43
0.0000001
 44
0.0000000001
 40
0.0
 40
0.0
 40
0.0
 40
0.0
 40
0.244818263
 40
1.0
 40
1.0
 40
1.0
 40
1.0
 10
60.2888735409
 20
142.5407336659
 30
0.0
 10
60.3165026063
 20
142.5283100588
 30
0.0
 10
60.4286732081
 20
142.4760489499
 30
0.0
 10
60.5380854126
 20
142.4179112627
 30
0.0
 10
60.6190124769
 20
142.3711890573
 30
0.0
  0
SPLINE
  5
576
100
AcDbEntity
  8
0
100
AcDbSpline
 62
7
  6
CONTINUOUS
 70
0
 71
3
 72
9
 73
5
 74
0
 42
0.0000001
 43
0.0000001
 44
0.0000000001
 40
0.0
 40
0.0
 40
0.0
 40
0.0
 40
0.4795701682
 40
1.0
 40
1.0
 40
1.0
 40
1.0
 10
60.6190124769
 20
135.4309565204
 30
0.0
 10
60.3881827002
 20
135.5642231392
 30
0.0
 10
59.9338314398
 20
135.8898007346
 30
0.0
 10
59.5356512635
 20
136.2804219105
 30
0.0
 10
59.342909384
 20
136.4960937856
 30
0.0
  0
SPLINE
  5
577
100
AcDbEntity
  8
0
100
AcDbSpline
 62
7
  6
CONTINUOUS
 70
0
 71
3
 72
11
 73
7
 74
0
 42
0.0000001
 43
0.0000001
 44
0.0000000001
 40
0.0
 40
0.0
 40
0.0
 40
0.0
 40
0.2585816729
 40
0.5202972419
 40
0.7713938219
 40
1.0
 40
1.0
 40
1.0
 40
1.0
 10
59.342909384
 20
136.4960937856
 30
0.0
 10
59.0803110751
 20
136.7899327261
 30
0.0
 10
58.6040586129
 20
137.4293735548
 30
0.0
 10
58.059260788
 20
138.4766869923
 30
0.0
 10
57.7073350862
 20
139.5557906643
 30
0.0
 10
57.613812603
 20
140.2876891588
 30
0.0
 10
57.6138126033
 20
140.6360864936
 30
0.0
  0
SPLINE
  5
578
100
AcDbEntity
  8
0
100
AcDbSpline
 62
7
  6
CONTINUOUS
 70
0
 71
3
 72
9
 73
5
 74
0
 42
0.0000001
 43
0.0000001
 44
0.0000000001
 40
0.0
 40
0.0
 40
0.0
 40
0.0
 40
0.2552016628
 40
1.0
 40
1.0
 40
1.0
 40
1.0
 10
63.6242123506
 20
137.1660590841
 30
0.0
 10
63.6242123506
 20
137.1344753929
 30
0.0
 10
63.6227362543
 20
137.0107225165
 30
0.0
 10
63.615267907
 20
136.8870218403
 30
0.0
 10
63.6059706647
 20
136.7953158695
 30
0.0
  0
SPLINE
  5
579
100
AcDbEntity
  8
0
100
AcDbSpline
 62
7
  6
CONTINUOUS
 70
0
 71
3
 72
15
 73
11
 74
0
 42
0.0000001
 43
0.0000001
 44
0.0000000001
 40
0.0
 40
0.0
 40
0.0
 40
0.0
 40
0.1387616578
 40
0.2636918858
 40
0.37809509
 40
0.487603182
 40
0.5992737759
 40
0.7194941081
 40
0.8525447398
 40
1.0
 40
1.0
 40
1.0
 40
1.0
 10
63.6059706647
 20
136.7953158695
 30
0.0
 10
63.5868864424
 20
136.6070732605
 30
0.0
 10
63.5207042489
 20
136.2509869691
 30
0.0
 10
63.3175914228
 20
135.7718583555
 30
0.0
 10
63.0184711236
 20
135.3932617554
 30
0.0
 10
62.6311995924
 20
135.1348128209
 30
0.0
 10
62.1747880782
 20
135.0108141042
 30
0.0
 10
61.6715874963
 20
135.0222847257
 30
0.0
 10
61.1396318631
 20
135.1633866631
 30
0.0
 10
60.793137939
 20
135.3304274123
 30
0.0
 10
60.6190124769
 20
135.4309565204
 30
0.0
  0
SPLINE
  5
57A
100
AcDbEntity
  8
0
100
AcDbSpline
 62
7
  6
CONTINUOUS
 70
0
 71
3
 72
11
 73
7
 74
0
 42
0.0000001
 43
0.0000001
 44
0.0000000001
 40
0.0
 40
0.0
 40
0.0
 40
0.0
 40
0.2177442246
 40
0.4508817658
 40
0.7104588047
 40
1.0
 40
1.0
 40
1.0
 40
1.0
 10
73.4419817292
 20
130.3291994608
 30
0.0
 10
73.4155975756
 20
130.3444320285
 30
0.0
 10
73.3661828202
 20
130.3858792302
 30
0.0
 10
73.3136176123
 20
130.4718641642
 30
0.0
 10
73.2824550764
 20
130.5777930581
 30
0.0
 10
73.2762694915
 20
130.6548785264
 30
0.0
 10
73.2762694915
 20
130.6953896136
 30
0.0
  0
SPLINE
  5
57B
100
AcDbEntity
  8
0
100
AcDbSpline
 62
7
  6
CONTINUOUS
 70
0
 71
3
 72
11
 73
7
 74
0
 42
0.0000001
 43
0.0000001
 44
0.0000000001
 40
0.0
 40
0.0
 40
0.0
 40
0.0
 40
0.2895411595
 40
0.5491183966
 40
0.7822559144
 40
1.0
 40
1.0
 40
1.0
 40
1.0
 10
65.8516173775
 20
134.9819175361
 30
0.0
 10
65.8516173775
 20
134.9414064546
 30
0.0
 10
65.8578030107
 20
134.8643209727
 30
0.0
 10
65.8889654972
 20
134.7583920421
 30
0.0
 10
65.9415307488
 20
134.6724071326
 30
0.0
 10
65.9909454701
 20
134.6309599272
 30
0.0
 10
66.0173296146
 20
134.6157273835
 30
0.0
  0
SPLINE
  5
57C
100
AcDbEntity
  8
0
100
AcDbSpline
 62
7
  6
CONTINUOUS
 70
0
 71
3
 72
11
 73
7
 74
0
 42
0.0000001
 43
0.0000001
 44
0.0000000001
 40
0.0
 40
0.0
 40
0.0
 40
0.0
 40
0.2372518718
 40
0.4999985497
 40
0.7627460178
 40
1.0
 40
1.0
 40
1.0
 40
1.0
 10
66.4173004473
 20
135.9617147929
 30
0.0
 10
66.336985274
 20
135.9153450828
 30
0.0
 10
66.1849960472
 20
135.787443555
 30
0.0
 10
66.0076718515
 20
135.5450180206
 30
0.0
 10
65.8863884469
 20
135.2702365727
 30
0.0
 10
65.8516173775
 20
135.0746581964
 30
0.0
 10
65.8516173775
 20
134.9819175361
 30
0.0
  0
SPLINE
  5
57D
100
AcDbEntity
  8
0
100
AcDbSpline
 62
7
  6
CONTINUOUS
 70
0
 71
3
 72
9
 73
5
 74
0
 42
0.0000001
 43
0.0000001
 44
0.0000000001
 40
0.0
 40
0.0
 40
0.0
 40
0.0
 40
0.4749297831
 40
1.0
 40
1.0
 40
1.0
 40
1.0
 10
73.2762694915
 20
130.6953896136
 30
0.0
 10
73.2762694915
 20
130.8013581503
 30
0.0
 10
73.3211681142
 20
131.0244255011
 30
0.0
 10
73.4214001946
 20
131.2263808177
 30
0.0
 10
73.4859955161
 20
131.3241202514
 30
0.0
  0
SPLINE
  5
57E
100
AcDbEntity
  8
0
100
AcDbSpline
 62
7
  6
CONTINUOUS
 70
0
 71
3
 72
9
 73
5
 74
0
 42
0.0000001
 43
0.0000001
 44
0.0000000001
 40
0.0
 40
0.0
 40
0.0
 40
0.0
 40
0.2424016808
 40
1.0
 40
1.0
 40
1.0
 40
1.0
 10
45.0030598042
 20
97.0197193345
 30
0.0
 10
44.9765785726
 20
97.073017235
 30
0.0
 10
44.87302218
 20
97.2957009499
 30
0.0
 10
44.791915598
 20
97.5285906771
 30
0.0
 10
44.7418394764
 20
97.7077273905
 30
0.0
  0
SPLINE
  5
57F
100
AcDbEntity
  8
0
100
AcDbSpline
 62
7
  6
CONTINUOUS
 70
0
 71
3
 72
9
 73
5
 74
0
 42
0.0000001
 43
0.0000001
 44
0.0000000001
 40
0.0
 40
0.0
 40
0.0
 40
0.0
 40
0.2362530433
 40
1.0
 40
1.0
 40
1.0
 40
1.0
 10
44.7418394764
 20
97.7077273905
 30
0.0
 10
44.7096819375
 20
97.8227641712
 30
0.0
 10
44.5932476948
 20
98.3151626603
 30
0.0
 10
44.551470493
 20
98.8236199194
 30
0.0
 10
44.551470493
 20
99.2097619355
 30
0.0
  0
SPLINE
  5
580
100
AcDbEntity
  8
0
100
AcDbSpline
 62
7
  6
CONTINUOUS
 70
0
 71
3
 72
11
 73
7
 74
0
 42
0.0000001
 43
0.0000001
 44
0.0000000001
 40
0.0
 40
0.0
 40
0.0
 40
0.0
 40
0.2277892717
 40
0.4765581969
 40
0.7374522538
 40
1.0
 40
1.0
 40
1.0
 40
1.0
 10
44.551470493
 20
99.2097619355
 30
0.0
 10
44.551470493
 20
99.7387347373
 30
0.0
 10
44.6758853859
 20
100.84662308
 30
0.0
 10
45.1549158826
 20
102.4974827908
 30
0.0
 10
45.9070999796
 20
104.1320317365
 30
0.0
 10
46.5689131174
 20
105.1574962979
 30
0.0
 10
46.9365317359
 20
105.6438883697
 30
0.0
  0
SPLINE
  5
581
100
AcDbEntity
  8
0
100
AcDbSpline
 62
7
  6
CONTINUOUS
 70
0
 71
3
 72
10
 73
6
 74
0
 42
0.0000001
 43
0.0000001
 44
0.0000000001
 40
0.0
 40
0.0
 40
0.0
 40
0.0
 40
0.2281450702
 40
0.4752816799
 40
1.0
 40
1.0
 40
1.0
 40
1.0
 10
100.0896060776
 20
158.7908485874
 30
0.0
 10
100.0896060776
 20
158.6720948055
 30
0.0
 10
100.1128089276
 20
158.4244074413
 30
0.0
 10
100.2371257945
 20
157.9178275343
 30
0.0
 10
100.4091709036
 20
157.5486915515
 30
0.0
 10
100.5521065173
 20
157.3159533608
 30
0.0
  0
SPLINE
  5
582
100
AcDbEntity
  8
0
100
AcDbSpline
 62
7
  6
CONTINUOUS
 70
0
 71
3
 72
13
 73
9
 74
0
 42
0.0000001
 43
0.0000001
 44
0.0000000001
 40
0.0
 40
0.0
 40
0.0
 40
0.0
 40
0.1142487484
 40
0.2375477548
 40
0.5000005226
 40
0.7624530043
 40
0.8857516767
 40
1.0
 40
1.0
 40
1.0
 40
1.0
 10
82.5038624021
 20
159.9869882229
 30
0.0
 10
82.3586508323
 20
160.0708242652
 30
0.0
 10
82.0410644561
 20
160.2187173772
 30
0.0
 10
81.3372330352
 20
160.4324760175
 30
0.0
 10
80.3825387353
 20
160.5363125447
 30
0.0
 10
79.4278453534
 20
160.4324716034
 30
0.0
 10
78.7240165701
 20
160.2187095008
 30
0.0
 10
78.4064321399
 20
160.0708148024
 30
0.0
 10
78.261221715
 20
159.9869780249
 30
0.0
  0
SPLINE
  5
583
100
AcDbEntity
  8
0
100
AcDbSpline
 62
7
  6
CONTINUOUS
 70
0
 71
3
 72
9
 73
5
 74
0
 42
0.0000001
 43
0.0000001
 44
0.0000000001
 40
0.0
 40
0.0
 40
0.0
 40
0.0
 40
0.4807985494
 40
1.0
 40
1.0
 40
1.0
 40
1.0
 10
59.6482631249
 20
90.4938218265
 30
0.0
 10
59.6482631249
 20
90.9127601875
 30
0.0
 10
59.7262392925
 20
91.7848035363
 30
0.0
 10
59.9270494547
 20
92.6354927464
 30
0.0
 10
60.0576652999
 20
93.0686272825
 30
0.0
  0
SPLINE
  5
584
100
AcDbEntity
  8
0
100
AcDbSpline
 62
7
  6
CONTINUOUS
 70
0
 71
3
 72
9
 73
5
 74
0
 42
0.0000001
 43
0.0000001
 44
0.0000000001
 40
0.0
 40
0.0
 40
0.0
 40
0.0
 40
0.2462888798
 40
1.0
 40
1.0
 40
1.0
 40
1.0
 10
60.0576652999
 20
93.0686272825
 30
0.0
 10
60.0915406318
 20
93.1809610972
 30
0.0
 10
60.2363998025
 20
93.6348375298
 30
0.0
 10
60.4095495036
 20
94.0796126296
 30
0.0
 10
60.5542421002
 20
94.4082314234
 30
0.0
  0
SPLINE
  5
585
100
AcDbEntity
  8
0
100
AcDbSpline
 62
7
  6
CONTINUOUS
 70
0
 71
3
 72
9
 73
5
 74
0
 42
0.0000001
 43
0.0000001
 44
0.0000000001
 40
0.0
 40
0.0
 40
0.0
 40
0.0
 40
0.2496591059
 40
1.0
 40
1.0
 40
1.0
 40
1.0
 10
60.5542421002
 20
94.4082314234
 30
0.0
 10
60.6523465545
 20
94.6310414922
 30
0.0
 10
61.0716866252
 20
95.5116239135
 30
0.0
 10
61.5921467822
 20
96.3442311444
 30
0.0
 10
62.0333243678
 20
96.9279482607
 30
0.0
  0
SPLINE
  5
586
100
AcDbEntity
  8
0
100
AcDbSpline
 62
7
  6
CONTINUOUS
 70
0
 71
3
 72
9
 73
5
 74
0
 42
0.0000001
 43
0.0000001
 44
0.0000000001
 40
0.0
 40
0.0
 40
0.0
 40
0.0
 40
0.4773773815
 40
1.0
 40
1.0
 40
1.0
 40
1.0
 10
62.0333243678
 20
115.5493994542
 30
0.0
 10
62.0333243678
 20
115.70059439
 30
0.0
 10
62.0707695812
 20
116.017608353
 30
0.0
 10
62.1632770777
 20
116.3220742519
 30
0.0
 10
62.2232148778
 20
116.4763661417
 30
0.0
  0
SPLINE
  5
587
100
AcDbEntity
  8
0
100
AcDbSpline
 62
7
  6
CONTINUOUS
 70
0
 71
3
 72
9
 73
5
 74
0
 42
0.0000001
 43
0.0000001
 44
0.0000000001
 40
0.0
 40
0.0
 40
0.0
 40
0.0
 40
0.2518834874
 40
1.0
 40
1.0
 40
1.0
 40
1.0
 10
62.4475412001
 20
116.9432492619
 30
0.0
 10
62.4692979136
 20
116.9809331973
 30
0.0
 10
62.5585046226
 20
117.1288850529
 30
0.0
 10
62.6587787677
 20
117.2702001713
 30
0.0
 10
62.739708037
 20
117.3709635014
 30
0.0
  0
SPLINE
  5
588
100
AcDbEntity
  8
0
100
AcDbSpline
 62
7
  6
CONTINUOUS
 70
0
 71
3
 72
9
 73
5
 74
0
 42
0.0000001
 43
0.0000001
 44
0.0000000001
 40
0.0
 40
0.0
 40
0.0
 40
0.0
 40
0.5226236696
 40
1.0
 40
1.0
 40
1.0
 40
1.0
 10
62.739708037
 20
117.3709635014
 30
0.0
 10
62.8433586166
 20
117.5000166567
 30
0.0
 10
63.0607773386
 20
117.7323622438
 30
0.0
 10
63.3165946215
 20
117.9232962924
 30
0.0
 10
63.4475320422
 20
117.9988925962
 30
0.0
  0
SPLINE
  5
589
100
AcDbEntity
  8
0
100
AcDbSpline
 62
7
  6
CONTINUOUS
 70
0
 71
3
 72
11
 73
7
 74
0
 42
0.0000001
 43
0.0000001
 44
0.0000000001
 40
0.0
 40
0.0
 40
0.0
 40
0.0
 40
0.2177723091
 40
0.4509273687
 40
0.7102218233
 40
1.0
 40
1.0
 40
1.0
 40
1.0
 10
86.9180774638
 20
156.7210519887
 30
0.0
 10
86.9180774623
 20
156.8353131189
 30
0.0
 10
86.8758797775
 20
157.0734972256
 30
0.0
 10
86.6953102636
 20
157.4052884184
 30
0.0
 10
86.4099389055
 20
157.7053199972
 30
0.0
 10
86.1710833887
 20
157.8697650971
 30
0.0
 10
86.0394110278
 20
157.9457844503
 30
0.0
  0
SPLINE
  5
58A
100
AcDbEntity
  8
0
100
AcDbSpline
 62
7
  6
CONTINUOUS
 70
0
 71
3
 72
9
 73
5
 74
0
 42
0.0000001
 43
0.0000001
 44
0.0000000001
 40
0.0
 40
0.0
 40
0.0
 40
0.0
 40
0.2439673731
 40
1.0
 40
1.0
 40
1.0
 40
1.0
 10
60.3794568313
 20
87.8415155666
 30
0.0
 10
60.3488220849
 20
87.8833916454
 30
0.0
 10
60.2278241128
 20
88.058359751
 30
0.0
 10
60.1251800955
 20
88.245823898
 30
0.0
 10
60.0576652999
 20
88.3917504606
 30
0.0
  0
SPLINE
  5
58B
100
AcDbEntity
  8
0
100
AcDbSpline
 62
7
  6
CONTINUOUS
 70
0
 71
3
 72
11
 73
7
 74
0
 42
0.0000001
 43
0.0000001
 44
0.0000000001
 40
0.0
 40
0.0
 40
0.0
 40
0.0
 40
0.2372392641
 40
0.4999983132
 40
0.7627582764
 40
1.0
 40
1.0
 40
1.0
 40
1.0
 10
63.4475320422
 20
117.9988925962
 30
0.0
 10
63.2467540984
 20
117.8829740883
 30
0.0
 10
62.8668095261
 20
117.5631979823
 30
0.0
 10
62.4233630801
 20
116.9572076131
 30
0.0
 10
62.1202857941
 20
116.2701727796
 30
0.0
 10
62.0333243678
 20
115.7812399115
 30
0.0
 10
62.0333243678
 20
115.5493994542
 30
0.0
  0
SPLINE
  5
58C
100
AcDbEntity
  8
0
100
AcDbSpline
 62
7
  6
CONTINUOUS
 70
0
 71
3
 72
11
 73
7
 74
0
 42
0.0000001
 43
0.0000001
 44
0.0000000001
 40
0.0
 40
0.0
 40
0.0
 40
0.0
 40
0.2625477462
 40
0.5234418031
 40
0.7722107283
 40
1.0
 40
1.0
 40
1.0
 40
1.0
 10
62.0333243678
 20
96.9279482607
 30
0.0
 10
61.6657057493
 20
96.4415561889
 30
0.0
 10
61.0038926115
 20
95.4160916275
 30
0.0
 10
60.2517085145
 20
93.7815426818
 30
0.0
 10
59.7726780178
 20
92.130682971
 30
0.0
 10
59.6482631249
 20
91.0227946282
 30
0.0
 10
59.6482631249
 20
90.4938218265
 30
0.0
  0
SPLINE
  5
58D
100
AcDbEntity
  8
0
100
AcDbSpline
 62
7
  6
CONTINUOUS
 70
0
 71
3
 72
11
 73
7
 74
0
 42
0.0000001
 43
0.0000001
 44
0.0000000001
 40
0.0
 40
0.0
 40
0.0
 40
0.0
 40
0.2786495629
 40
0.5375345855
 40
0.7770980435
 40
1.0
 40
1.0
 40
1.0
 40
1.0
 10
59.6482631249
 20
90.4938218265
 30
0.0
 10
59.6482631249
 20
90.2343318792
 30
0.0
 10
59.6762359467
 20
89.7330716797
 30
0.0
 10
59.8121956879
 20
89.0198008152
 30
0.0
 10
60.0393453996
 20
88.3844887378
 30
0.0
 10
60.2568978172
 20
88.0090472597
 30
0.0
 10
60.3794568313
 20
87.8415155666
 30
0.0
  0
SPLINE
  5
58E
100
AcDbEntity
  8
0
100
AcDbSpline
 62
7
  6
CONTINUOUS
 70
0
 71
3
 72
11
 73
7
 74
0
 42
0.0000001
 43
0.0000001
 44
0.0000000001
 40
0.0
 40
0.0
 40
0.0
 40
0.0
 40
0.2177805602
 40
0.4509248779
 40
0.7102605592
 40
1.0
 40
1.0
 40
1.0
 40
1.0
 10
81.186324581
 20
125.0782218563
 30
0.0
 10
81.2976645517
 20
125.1424775862
 30
0.0
 10
81.5059495699
 20
125.3176238071
 30
0.0
 10
81.7276973778
 20
125.680169022
 30
0.0
 10
81.8594484708
 20
126.1269927002
 30
0.0
 10
81.8853374607
 20
126.4522052304
 30
0.0
 10
81.8853374607
 20
126.6232320967
 30
0.0
  0
SPLINE
  5
58F
100
AcDbEntity
  8
0
100
AcDbSpline
 62
7
  6
CONTINUOUS
 70
0
 71
3
 72
11
 73
7
 74
0
 42
0.0000001
 43
0.0000001
 44
0.0000000001
 40
0.0
 40
0.0
 40
0.0
 40
0.0
 40
0.2625477462
 40
0.5234418031
 40
0.7722107283
 40
1.0
 40
1.0
 40
1.0
 40
1.0
 10
77.1301169997
 20
88.2120081517
 30
0.0
 10
76.7624983812
 20
87.7256160799
 30
0.0
 10
76.1006852434
 20
86.7001515185
 30
0.0
 10
75.3485011463
 20
85.0656025728
 30
0.0
 10
74.8694706497
 20
83.414742862
 30
0.0
 10
74.7450557567
 20
82.3068545192
 30
0.0
 10
74.7450557567
 20
81.7778817175
 30
0.0
  0
SPLINE
  5
590
100
AcDbEntity
  8
0
100
AcDbSpline
 62
7
  6
CONTINUOUS
 70
0
 71
3
 72
11
 73
7
 74
0
 42
0.0000001
 43
0.0000001
 44
0.0000000001
 40
0.0
 40
0.0
 40
0.0
 40
0.0
 40
0.2817165139
 40
0.5411039141
 40
0.7792223256
 40
1.0
 40
1.0
 40
1.0
 40
1.0
 10
74.7450557567
 20
81.7778817175
 30
0.0
 10
74.7450557567
 20
81.4908679037
 30
0.0
 10
74.7790549772
 20
80.9386222059
 30
0.0
 10
74.9461346607
 20
80.1589643104
 30
0.0
 10
75.225431716
 20
79.4779144259
 30
0.0
 10
75.4925292299
 20
79.0883556582
 30
0.0
 10
75.6417343828
 20
78.9200377357
 30
0.0
  0
SPLINE
  5
591
100
AcDbEntity
  8
0
100
AcDbSpline
 62
7
  6
CONTINUOUS
 70
0
 71
3
 72
17
 73
13
 74
0
 42
0.0000001
 43
0.0000001
 44
0.0000000001
 40
0.0
 40
0.0
 40
0.0
 40
0.0
 40
0.128693823
 40
0.2702783937
 40
0.4174341197
 40
0.5617778654
 40
0.6954482313
 40
0.8127107819
 40
0.8646769687
 40
0.9125095959
 40
0.9571396392
 40
1.0
 40
1.0
 40
1.0
 40
1.0
 10
81.8853374607
 20
126.6232320967
 30
0.0
 10
81.8853374607
 20
126.9117222738
 30
0.0
 10
81.8046388484
 20
127.5182933229
 30
0.0
 10
81.5033876912
 20
128.4088988826
 30
0.0
 10
81.0392447446
 20
129.2668450495
 30
0.0
 10
80.4494615606
 20
130.0217726525
 30
0.0
 10
79.7822408792
 20
130.6127128834
 30
0.0
 10
79.1783000455
 20
130.9428692743
 30
0.0
 10
78.7058964023
 20
131.0686241321
 30
0.0
 10
78.3807512146
 20
131.0924639133
 30
0.0
 10
78.0779784068
 20
131.0481627063
 30
0.0
 10
77.894575233
 20
130.9718921876
 30
0.0
 10
77.8113596957
 20
130.9238674301
 30
0.0
  0
SPLINE
  5
592
100
AcDbEntity
  8
0
100
AcDbSpline
 62
7
  6
CONTINUOUS
 70
0
 71
3
 72
11
 73
7
 74
0
 42
0.0000001
 43
0.0000001
 44
0.0000000001
 40
0.0
 40
0.0
 40
0.0
 40
0.0
 40
0.2897776971
 40
0.5490719787
 40
0.7822272299
 40
1.0
 40
1.0
 40
1.0
 40
1.0
 10
104.919258353
 20
144.5963015795
 30
0.0
 10
105.0509282517
 20
144.6723207771
 30
0.0
 10
105.2897792354
 20
144.8367652492
 30
0.0
 10
105.5751447978
 20
145.136794604
 30
0.0
 10
105.7557104055
 20
145.4685825844
 30
0.0
 10
105.7979071267
 20
145.7067639429
 30
0.0
 10
105.7979071252
 20
145.821023843
 30
0.0
  0
SPLINE
  5
593
100
AcDbEntity
  8
0
100
AcDbSpline
 62
7
  6
CONTINUOUS
 70
0
 71
3
 72
9
 73
5
 74
0
 42
0.0000001
 43
0.0000001
 44
0.0000000001
 40
0.0
 40
0.0
 40
0.0
 40
0.0
 40
0.2642865852
 40
1.0
 40
1.0
 40
1.0
 40
1.0
 10
64.1475963415
 20
88.1399571387
 30
0.0
 10
64.1583772549
 20
88.0353580258
 30
0.0
 10
64.2115133973
 20
87.6411429925
 30
0.0
 10
64.3167074966
 20
87.252473699
 30
0.0
 10
64.4303371748
 20
86.9827056681
 30
0.0
  0
SPLINE
  5
594
100
AcDbEntity
  8
0
100
AcDbSpline
 62
7
  6
CONTINUOUS
 70
0
 71
3
 72
11
 73
7
 74
0
 42
0.0000001
 43
0.0000001
 44
0.0000000001
 40
0.0
 40
0.0
 40
0.0
 40
0.0
 40
0.2896784336
 40
0.5491208899
 40
0.7822333041
 40
1.0
 40
1.0
 40
1.0
 40
1.0
 10
63.8364706531
 20
88.5436576899
 30
0.0
 10
63.8364706531
 20
88.5031265755
 30
0.0
 10
63.8426217926
 20
88.4260338688
 30
0.0
 10
63.8738437653
 20
88.3201190367
 30
0.0
 10
63.926396806
 20
88.2341618064
 30
0.0
 10
63.9757750378
 20
88.1926665851
 30
0.0
 10
64.0021609906
 20
88.1774296044
 30
0.0
  0
SPLINE
  5
595
100
AcDbEntity
  8
0
100
AcDbSpline
 62
7
  6
CONTINUOUS
 70
0
 71
3
 72
10
 73
6
 74
0
 42
0.0000001
 43
0.0000001
 44
0.0000000001
 40
0.0
 40
0.0
 40
0.0
 40
0.0
 40
0.5202790309
 40
0.771268491
 40
1.0
 40
1.0
 40
1.0
 40
1.0
 10
64.1475963415
 20
89.3066130966
 30
0.0
 10
64.0527173319
 20
89.1966283269
 30
0.0
 10
63.9382064047
 20
89.0083819578
 30
0.0
 10
63.8531879626
 20
88.7416660003
 30
0.0
 10
63.8364706531
 20
88.6075159784
 30
0.0
 10
63.8364706531
 20
88.5436576899
 30
0.0
  0
SPLINE
  5
596
100
AcDbEntity
  8
0
100
AcDbSpline
 62
7
  6
CONTINUOUS
 70
0
 71
3
 72
11
 73
7
 74
0
 42
0.0000001
 43
0.0000001
 44
0.0000000001
 40
0.0
 40
0.0
 40
0.0
 40
0.0
 40
0.2561996309
 40
0.5143204117
 40
0.7650712106
 40
1.0
 40
1.0
 40
1.0
 40
1.0
 10
66.4675427413
 20
94.64379245
 30
0.0
 10
66.1526870408
 20
94.2624521261
 30
0.0
 10
65.5749371027
 20
93.4505934049
 30
0.0
 10
64.8847876787
 20
92.1401840733
 30
0.0
 10
64.3927185985
 20
90.7867069048
 30
0.0
 10
64.2063882323
 20
89.862814674
 30
0.0
 10
64.1580900624
 20
89.4119271696
 30
0.0
  0
SPLINE
  5
597
100
AcDbEntity
  8
0
100
AcDbSpline
 62
7
  6
CONTINUOUS
 70
0
 71
3
 72
11
 73
7
 74
0
 42
0.0000001
 43
0.0000001
 44
0.0000000001
 40
0.0
 40
0.0
 40
0.0
 40
0.0
 40
0.2281287802
 40
0.4780938035
 40
0.7394666838
 40
1.0
 40
1.0
 40
1.0
 40
1.0
 10
76.1401320918
 20
130.3483936787
 30
0.0
 10
76.1401320916
 20
129.9423920629
 30
0.0
 10
76.2430121794
 20
129.0905646988
 30
0.0
 10
76.634221782
 20
127.8282714093
 30
0.0
 10
77.2438419231
 20
126.5913903854
 30
0.0
 10
77.7783527324
 20
125.8263193615
 30
0.0
 10
78.074067734
 20
125.4691857155
 30
0.0
  0
SPLINE
  5
598
100
AcDbEntity
  8
0
100
AcDbSpline
 62
7
  6
CONTINUOUS
 70
0
 71
3
 72
9
 73
5
 74
0
 42
0.0000001
 43
0.0000001
 44
0.0000000001
 40
0.0
 40
0.0
 40
0.0
 40
0.0
 40
0.5220273383
 40
1.0
 40
1.0
 40
1.0
 40
1.0
 10
78.074067734
 20
125.4691857155
 30
0.0
 10
78.3369149723
 20
125.151746316
 30
0.0
 10
78.8856686526
 20
124.5793443289
 30
0.0
 10
79.5255926555
 20
124.1072776461
 30
0.0
 10
79.852394057
 20
123.9186030374
 30
0.0
  0
SPLINE
  5
599
100
AcDbEntity
  8
0
100
AcDbSpline
 62
7
  6
CONTINUOUS
 70
0
 71
3
 72
15
 73
11
 74
0
 42
0.0000001
 43
0.0000001
 44
0.0000000001
 40
0.0
 40
0.0
 40
0.0
 40
0.0
 40
0.1448871795
 40
0.2745334152
 40
0.3911109733
 40
0.499998016
 40
0.608885419
 40
0.7254639347
 40
0.8551114599
 40
1.0
 40
1.0
 40
1.0
 40
1.0
 10
79.852394057
 20
123.9186030374
 30
0.0
 10
80.0828159073
 20
123.7855719296
 30
0.0
 10
80.5410698444
 20
123.5674991951
 30
0.0
 10
81.2453355462
 20
123.3974731575
 30
0.0
 10
81.9066121133
 20
123.4143992714
 30
0.0
 10
82.4951724856
 20
123.6277677347
 30
0.0
 10
82.9742262275
 20
124.0308048854
 30
0.0
 10
83.3195136403
 20
124.5950351141
 30
0.0
 10
83.5243908153
 20
125.2899694093
 30
0.0
 10
83.5646560219
 20
125.7958705333
 30
0.0
 10
83.5646560221
 20
126.0619397615
 30
0.0
  0
SPLINE
  5
59A
100
AcDbEntity
  8
0
100
AcDbSpline
 62
7
  6
CONTINUOUS
 70
0
 71
3
 72
15
 73
11
 74
0
 42
0.0000001
 43
0.0000001
 44
0.0000000001
 40
0.0
 40
0.0
 40
0.0
 40
0.0
 40
0.1141474765
 40
0.2373368178
 40
0.3669776594
 40
0.5000010819
 40
0.633024354
 40
0.7626647561
 40
0.8858534048
 40
1.0
 40
1.0
 40
1.0
 40
1.0
 10
83.5646560221
 20
126.0619397615
 30
0.0
 10
83.5646560223
 20
126.3553677864
 30
0.0
 10
83.5108717933
 20
126.9660318643
 30
0.0
 10
83.2966550625
 20
127.8872715041
 30
0.0
 10
82.9533297906
 20
128.8203928377
 30
0.0
 10
82.4939844735
 20
129.7303325929
 30
0.0
 10
81.9356227593
 20
130.5831035964
 30
0.0
 10
81.2991766973
 20
131.3469868136
 30
0.0
 10
80.608467783
 20
131.9931158693
 30
0.0
 10
80.106509656
 20
132.3450200124
 30
0.0
 10
79.852394057
 20
132.4917304029
 30
0.0
  0
SPLINE
  5
59B
100
AcDbEntity
  8
0
100
AcDbSpline
 62
7
  6
CONTINUOUS
 70
0
 71
3
 72
15
 73
11
 74
0
 42
0.0000001
 43
0.0000001
 44
0.0000000001
 40
0.0
 40
0.0
 40
0.0
 40
0.0
 40
0.1448871795
 40
0.2745334152
 40
0.3911109733
 40
0.499998016
 40
0.608885419
 40
0.7254639347
 40
0.8551114599
 40
1.0
 40
1.0
 40
1.0
 40
1.0
 10
79.852394057
 20
132.4917304029
 30
0.0
 10
79.6219722067
 20
132.6247615106
 30
0.0
 10
79.1637182695
 20
132.8428342451
 30
0.0
 10
78.4594525678
 20
133.0128602827
 30
0.0
 10
77.7981760006
 20
132.9959341688
 30
0.0
 10
77.2096156283
 20
132.7825657055
 30
0.0
 10
76.7305618864
 20
132.3795285548
 30
0.0
 10
76.3852744736
 20
131.8152983262
 30
0.0
 10
76.1803972987
 20
131.1203640309
 30
0.0
 10
76.140132092
 20
130.6144629069
 30
0.0
 10
76.1401320918
 20
130.3483936787
 30
0.0
  0
SPLINE
  5
59C
100
AcDbEntity
  8
0
100
AcDbSpline
 62
7
  6
CONTINUOUS
 70
0
 71
3
 72
17
 73
13
 74
0
 42
0.0000001
 43
0.0000001
 44
0.0000000001
 40
0.0
 40
0.0
 40
0.0
 40
0.0
 40
0.128693823
 40
0.2702783937
 40
0.4174341197
 40
0.5617778654
 40
0.6954482313
 40
0.8127107819
 40
0.8646769687
 40
0.9125095959
 40
0.9571396392
 40
1.0
 40
1.0
 40
1.0
 40
1.0
 10
77.112346816
 20
129.3788571897
 30
0.0
 10
77.112346816
 20
129.0903670126
 30
0.0
 10
77.1930454283
 20
128.4837959635
 30
0.0
 10
77.4942965855
 20
127.5931904037
 30
0.0
 10
77.9584395321
 20
126.7352442369
 30
0.0
 10
78.5482227161
 20
125.9803166338
 30
0.0
 10
79.2154433975
 20
125.389376403
 30
0.0
 10
79.8193842313
 20
125.0592200121
 30
0.0
 10
80.2917878744
 20
124.9334651542
 30
0.0
 10
80.6169330621
 20
124.909625373
 30
0.0
 10
80.9197058699
 20
124.95392658
 30
0.0
 10
81.1031090437
 20
125.0301970988
 30
0.0
 10
81.186324581
 20
125.0782218563
 30
0.0
  0
SPLINE
  5
59D
100
AcDbEntity
  8
0
100
AcDbSpline
 62
7
  6
CONTINUOUS
 70
0
 71
3
 72
11
 73
7
 74
0
 42
0.0000001
 43
0.0000001
 44
0.0000000001
 40
0.0
 40
0.0
 40
0.0
 40
0.0
 40
0.2177805602
 40
0.4509248779
 40
0.7102605592
 40
1.0
 40
1.0
 40
1.0
 40
1.0
 10
77.8113596957
 20
130.9238674301
 30
0.0
 10
77.7000197251
 20
130.8596117001
 30
0.0
 10
77.4917347068
 20
130.6844654792
 30
0.0
 10
77.269986899
 20
130.3219202644
 30
0.0
 10
77.1382358059
 20
129.8750965862
 30
0.0
 10
77.112346816
 20
129.5498840559
 30
0.0
 10
77.112346816
 20
129.3788571897
 30
0.0
  0
SPLINE
  5
59E
100
AcDbEntity
  8
0
100
AcDbSpline
 62
7
  6
CONTINUOUS
 70
0
 71
3
 72
15
 73
11
 74
0
 42
0.0000001
 43
0.0000001
 44
0.0000000001
 40
0.0
 40
0.0
 40
0.0
 40
0.0
 40
0.1141465952
 40
0.2373352439
 40
0.366975646
 40
0.4999989181
 40
0.6330223406
 40
0.7626631822
 40
0.8858525235
 40
1.0
 40
1.0
 40
1.0
 40
1.0
 10
79.4988421384
 20
131.4711609116
 30
0.0
 10
79.7045571911
 20
131.3523939574
 30
0.0
 10
80.1109090365
 20
131.0675158167
 30
0.0
 10
80.6700609394
 20
130.5444527961
 30
0.0
 10
81.1852852536
 20
129.9260638544
 30
0.0
 10
81.6372976839
 20
129.2357172852
 30
0.0
 10
82.0091530384
 20
128.4990907046
 30
0.0
 10
82.2870862968
 20
127.7436978632
 30
0.0
 10
82.460501885
 20
126.9979236493
 30
0.0
 10
82.5040420122
 20
126.5035707111
 30
0.0
 10
82.504042012
 20
126.2660309384
 30
0.0
  0
SPLINE
  5
59F
100
AcDbEntity
  8
0
100
AcDbSpline
 62
7
  6
CONTINUOUS
 70
0
 71
3
 72
15
 73
11
 74
0
 42
0.0000001
 43
0.0000001
 44
0.0000000001
 40
0.0
 40
0.0
 40
0.0
 40
0.0
 40
0.1474561271
 40
0.2805074424
 40
0.4007281392
 40
0.5123987031
 40
0.6219064243
 40
0.736309081
 40
0.8612387697
 40
1.0
 40
1.0
 40
1.0
 40
1.0
 10
76.4936422647
 20
129.7360583479
 30
0.0
 10
76.4936422648
 20
129.9371242043
 30
0.0
 10
76.5222243768
 20
130.3207253201
 30
0.0
 10
76.6660012388
 20
130.851975543
 30
0.0
 10
76.9076667468
 20
131.2935061367
 30
0.0
 10
77.2432599702
 20
131.6267795544
 30
0.0
 10
77.6607228649
 20
131.8329478705
 30
0.0
 10
78.1381625833
 20
131.9026973435
 30
0.0
 10
78.6546623317
 20
131.839032151
 30
0.0
 10
78.996136576
 20
131.7183013397
 30
0.0
 10
79.1687032024
 20
131.6407055202
 30
0.0
  0
SPLINE
  5
5A0
100
AcDbEntity
  8
0
100
AcDbSpline
 62
7
  6
CONTINUOUS
 70
0
 71
3
 72
9
 73
5
 74
0
 42
0.0000001
 43
0.0000001
 44
0.0000000001
 40
0.0
 40
0.0
 40
0.0
 40
0.0
 40
0.244818263
 40
1.0
 40
1.0
 40
1.0
 40
1.0
 10
79.1687032024
 20
131.6407055202
 30
0.0
 10
79.1963322678
 20
131.6282819131
 30
0.0
 10
79.3085028695
 20
131.5760208042
 30
0.0
 10
79.417915074
 20
131.517883117
 30
0.0
 10
79.4988421384
 20
131.4711609116
 30
0.0
  0
SPLINE
  5
5A1
100
AcDbEntity
  8
0
100
AcDbSpline
 62
7
  6
CONTINUOUS
 70
0
 71
3
 72
9
 73
5
 74
0
 42
0.0000001
 43
0.0000001
 44
0.0000000001
 40
0.0
 40
0.0
 40
0.0
 40
0.0
 40
0.4795701682
 40
1.0
 40
1.0
 40
1.0
 40
1.0
 10
79.4988421384
 20
124.5309283747
 30
0.0
 10
79.2680123617
 20
124.6641949936
 30
0.0
 10
78.8136611012
 20
124.9897725889
 30
0.0
 10
78.4154809249
 20
125.3803937648
 30
0.0
 10
78.2227390454
 20
125.5960656399
 30
0.0
  0
SPLINE
  5
5A2
100
AcDbEntity
  8
0
100
AcDbSpline
 62
7
  6
CONTINUOUS
 70
0
 71
3
 72
11
 73
7
 74
0
 42
0.0000001
 43
0.0000001
 44
0.0000000001
 40
0.0
 40
0.0
 40
0.0
 40
0.0
 40
0.2585816729
 40
0.5202972419
 40
0.7713938219
 40
1.0
 40
1.0
 40
1.0
 40
1.0
 10
78.2227390454
 20
125.5960656399
 30
0.0
 10
77.9601407365
 20
125.8899045804
 30
0.0
 10
77.4838882743
 20
126.5293454091
 30
0.0
 10
76.9390904495
 20
127.5766588466
 30
0.0
 10
76.5871647476
 20
128.6557625186
 30
0.0
 10
76.4936422645
 20
129.3876610131
 30
0.0
 10
76.4936422647
 20
129.7360583479
 30
0.0
  0
SPLINE
  5
5A3
100
AcDbEntity
  8
0
100
AcDbSpline
 62
7
  6
CONTINUOUS
 70
0
 71
3
 72
9
 73
5
 74
0
 42
0.0000001
 43
0.0000001
 44
0.0000000001
 40
0.0
 40
0.0
 40
0.0
 40
0.0
 40
0.2552016628
 40
1.0
 40
1.0
 40
1.0
 40
1.0
 10
82.504042012
 20
126.2660309384
 30
0.0
 10
82.504042012
 20
126.2344472472
 30
0.0
 10
82.5025659157
 20
126.1106943708
 30
0.0
 10
82.4950975684
 20
125.9869936946
 30
0.0
 10
82.4858003262
 20
125.8952877238
 30
0.0
  0
SPLINE
  5
5A4
100
AcDbEntity
  8
0
100
AcDbSpline
 62
7
  6
CONTINUOUS
 70
0
 71
3
 72
15
 73
11
 74
0
 42
0.0000001
 43
0.0000001
 44
0.0000000001
 40
0.0
 40
0.0
 40
0.0
 40
0.0
 40
0.1387616578
 40
0.2636918858
 40
0.37809509
 40
0.487603182
 40
0.5992737759
 40
0.7194941081
 40
0.8525447398
 40
1.0
 40
1.0
 40
1.0
 40
1.0
 10
82.4858003262
 20
125.8952877238
 30
0.0
 10
82.4667161038
 20
125.7070451148
 30
0.0
 10
82.4005339103
 20
125.3509588234
 30
0.0
 10
82.1974210842
 20
124.8718302098
 30
0.0
 10
81.898300785
 20
124.4932336097
 30
0.0
 10
81.5110292538
 20
124.2347846752
 30
0.0
 10
81.0546177396
 20
124.1107859585
 30
0.0
 10
80.5514171578
 20
124.12225658
 30
0.0
 10
80.0194615245
 20
124.2633585174
 30
0.0
 10
79.6729676004
 20
124.4303992666
 30
0.0
 10
79.4988421384
 20
124.5309283747
 30
0.0
  0
SPLINE
  5
5A5
100
AcDbEntity
  8
0
100
AcDbSpline
 62
7
  6
CONTINUOUS
 70
0
 71
3
 72
11
 73
7
 74
0
 42
0.0000001
 43
0.0000001
 44
0.0000000001
 40
0.0
 40
0.0
 40
0.0
 40
0.0
 40
0.2177442246
 40
0.4508817658
 40
0.7104588047
 40
1.0
 40
1.0
 40
1.0
 40
1.0
 10
92.3218113907
 20
119.4291713151
 30
0.0
 10
92.295427237
 20
119.4444038828
 30
0.0
 10
92.2460124817
 20
119.4858510845
 30
0.0
 10
92.1934472738
 20
119.5718360185
 30
0.0
 10
92.1622847378
 20
119.6777649124
 30
0.0
 10
92.156099153
 20
119.7548503807
 30
0.0
 10
92.156099153
 20
119.7953614679
 30
0.0
  0
SPLINE
  5
5A6
100
AcDbEntity
  8
0
100
AcDbSpline
 62
7
  6
CONTINUOUS
 70
0
 71
3
 72
11
 73
7
 74
0
 42
0.0000001
 43
0.0000001
 44
0.0000000001
 40
0.0
 40
0.0
 40
0.0
 40
0.0
 40
0.2895411595
 40
0.5491183966
 40
0.7822559144
 40
1.0
 40
1.0
 40
1.0
 40
1.0
 10
84.7314470389
 20
124.0818893904
 30
0.0
 10
84.7314470389
 20
124.0413783089
 30
0.0
 10
84.7376326721
 20
123.964292827
 30
0.0
 10
84.7687951586
 20
123.8583638964
 30
0.0
 10
84.8213604103
 20
123.7723789869
 30
0.0
 10
84.8707751316
 20
123.7309317815
 30
0.0
 10
84.8971592761
 20
123.7156992378
 30
0.0
  0
SPLINE
  5
5A7
100
AcDbEntity
  8
0
100
AcDbSpline
 62
7
  6
CONTINUOUS
 70
0
 71
3
 72
11
 73
7
 74
0
 42
0.0000001
 43
0.0000001
 44
0.0000000001
 40
0.0
 40
0.0
 40
0.0
 40
0.0
 40
0.2372518718
 40
0.4999985497
 40
0.7627460178
 40
1.0
 40
1.0
 40
1.0
 40
1.0
 10
85.2971301087
 20
125.0616866472
 30
0.0
 10
85.2168149355
 20
125.0153169371
 30
0.0
 10
85.0648257086
 20
124.8874154093
 30
0.0
 10
84.8875015129
 20
124.6449898749
 30
0.0
 10
84.7662181083
 20
124.370208427
 30
0.0
 10
84.7314470389
 20
124.1746300507
 30
0.0
 10
84.7314470389
 20
124.0818893904
 30
0.0
  0
SPLINE
  5
5A8
100
AcDbEntity
  8
0
100
AcDbSpline
 62
7
  6
CONTINUOUS
 70
0
 71
3
 72
9
 73
5
 74
0
 42
0.0000001
 43
0.0000001
 44
0.0000000001
 40
0.0
 40
0.0
 40
0.0
 40
0.0
 40
0.4749297831
 40
1.0
 40
1.0
 40
1.0
 40
1.0
 10
92.156099153
 20
119.7953614679
 30
0.0
 10
92.156099153
 20
119.9013300046
 30
0.0
 10
92.2009977757
 20
120.1243973554
 30
0.0
 10
92.3012298561
 20
120.326352672
 30
0.0
 10
92.3658251775
 20
120.4240921057
 30
0.0
  0
SPLINE
  5
5A9
100
AcDbEntity
  8
0
100
AcDbSpline
 62
7
  6
CONTINUOUS
 70
0
 71
3
 72
9
 73
5
 74
0
 42
0.0000001
 43
0.0000001
 44
0.0000000001
 40
0.0
 40
0.0
 40
0.0
 40
0.0
 40
0.2424016808
 40
1.0
 40
1.0
 40
1.0
 40
1.0
 10
63.8828894657
 20
86.1196911888
 30
0.0
 10
63.856408234
 20
86.1729890893
 30
0.0
 10
63.7528518414
 20
86.3956728042
 30
0.0
 10
63.6717452595
 20
86.6285625314
 30
0.0
 10
63.6216691378
 20
86.8076992449
 30
0.0
  0
SPLINE
  5
5AA
100
AcDbEntity
  8
0
100
AcDbSpline
 62
7
  6
CONTINUOUS
 70
0
 71
3
 72
9
 73
5
 74
0
 42
0.0000001
 43
0.0000001
 44
0.0000000001
 40
0.0
 40
0.0
 40
0.0
 40
0.0
 40
0.2362530433
 40
1.0
 40
1.0
 40
1.0
 40
1.0
 10
63.6216691378
 20
86.8076992449
 30
0.0
 10
63.5895115989
 20
86.9227360255
 30
0.0
 10
63.4730773562
 20
87.4151345146
 30
0.0
 10
63.4313001544
 20
87.9235917737
 30
0.0
 10
63.4313001544
 20
88.3097337898
 30
0.0
  0
SPLINE
  5
5AB
100
AcDbEntity
  8
0
100
AcDbSpline
 62
7
  6
CONTINUOUS
 70
0
 71
3
 72
11
 73
7
 74
0
 42
0.0000001
 43
0.0000001
 44
0.0000000001
 40
0.0
 40
0.0
 40
0.0
 40
0.0
 40
0.2277892717
 40
0.4765581969
 40
0.7374522538
 40
1.0
 40
1.0
 40
1.0
 40
1.0
 10
63.4313001544
 20
88.3097337898
 30
0.0
 10
63.4313001544
 20
88.8387065916
 30
0.0
 10
63.5557150474
 20
89.9465949343
 30
0.0
 10
64.034745544
 20
91.5974546451
 30
0.0
 10
64.786929641
 20
93.2320035909
 30
0.0
 10
65.4487427788
 20
94.2574681522
 30
0.0
 10
65.8163613973
 20
94.743860224
 30
0.0
  0
SPLINE
  5
5AC
100
AcDbEntity
  8
0
100
AcDbSpline
 62
7
  6
CONTINUOUS
 70
0
 71
3
 72
10
 73
6
 74
0
 42
0.0000001
 43
0.0000001
 44
0.0000000001
 40
0.0
 40
0.0
 40
0.0
 40
0.0
 40
0.2281450702
 40
0.4752816799
 40
1.0
 40
1.0
 40
1.0
 40
1.0
 10
118.969435739
 20
147.8908204417
 30
0.0
 10
118.969435739
 20
147.7720666598
 30
0.0
 10
118.992638589
 20
147.5243792956
 30
0.0
 10
119.116955456
 20
147.0177993886
 30
0.0
 10
119.2890005651
 20
146.6486634058
 30
0.0
 10
119.4319361787
 20
146.4159252151
 30
0.0
  0
SPLINE
  5
5AD
100
AcDbEntity
  8
0
100
AcDbSpline
 62
7
  6
CONTINUOUS
 70
0
 71
3
 72
13
 73
9
 74
0
 42
0.0000001
 43
0.0000001
 44
0.0000000001
 40
0.0
 40
0.0
 40
0.0
 40
0.0
 40
0.1142487484
 40
0.2375477548
 40
0.5000005226
 40
0.7624530043
 40
0.8857516767
 40
1.0
 40
1.0
 40
1.0
 40
1.0
 10
101.3836920635
 20
149.0869600772
 30
0.0
 10
101.2384804938
 20
149.1707961195
 30
0.0
 10
100.9208941175
 20
149.3186892315
 30
0.0
 10
100.2170626966
 20
149.5324478718
 30
0.0
 10
99.2623683967
 20
149.636284399
 30
0.0
 10
98.3076750149
 20
149.5324434577
 30
0.0
 10
97.6038462315
 20
149.3186813551
 30
0.0
 10
97.2862618013
 20
149.1707866567
 30
0.0
 10
97.1410513764
 20
149.0869498792
 30
0.0
  0
SPLINE
  5
5AE
100
AcDbEntity
  8
0
100
AcDbSpline
 62
7
  6
CONTINUOUS
 70
0
 71
3
 72
9
 73
5
 74
0
 42
0.0000001
 43
0.0000001
 44
0.0000000001
 40
0.0
 40
0.0
 40
0.0
 40
0.0
 40
0.4807985494
 40
1.0
 40
1.0
 40
1.0
 40
1.0
 10
78.5280927863
 20
79.5937936808
 30
0.0
 10
78.5280927863
 20
80.0127320418
 30
0.0
 10
78.606068954
 20
80.8847753906
 30
0.0
 10
78.8068791161
 20
81.7354646007
 30
0.0
 10
78.9374949614
 20
82.1685991368
 30
0.0
  0
SPLINE
  5
5AF
100
AcDbEntity
  8
0
100
AcDbSpline
 62
7
  6
CONTINUOUS
 70
0
 71
3
 72
9
 73
5
 74
0
 42
0.0000001
 43
0.0000001
 44
0.0000000001
 40
0.0
 40
0.0
 40
0.0
 40
0.0
 40
0.2462888798
 40
1.0
 40
1.0
 40
1.0
 40
1.0
 10
78.9374949614
 20
82.1685991368
 30
0.0
 10
78.9713702933
 20
82.2809329515
 30
0.0
 10
79.1162294639
 20
82.7348093841
 30
0.0
 10
79.289379165
 20
83.1795844839
 30
0.0
 10
79.4340717616
 20
83.5082032777
 30
0.0
  0
SPLINE
  5
5B0
100
AcDbEntity
  8
0
100
AcDbSpline
 62
7
  6
CONTINUOUS
 70
0
 71
3
 72
9
 73
5
 74
0
 42
0.0000001
 43
0.0000001
 44
0.0000000001
 40
0.0
 40
0.0
 40
0.0
 40
0.0
 40
0.2496591059
 40
1.0
 40
1.0
 40
1.0
 40
1.0
 10
79.4340717616
 20
83.5082032777
 30
0.0
 10
79.5321762159
 20
83.7310133465
 30
0.0
 10
79.9515162866
 20
84.6115957678
 30
0.0
 10
80.4719764436
 20
85.4442029987
 30
0.0
 10
80.9131540292
 20
86.027920115
 30
0.0
  0
SPLINE
  5
5B1
100
AcDbEntity
  8
0
100
AcDbSpline
 62
7
  6
CONTINUOUS
 70
0
 71
3
 72
9
 73
5
 74
0
 42
0.0000001
 43
0.0000001
 44
0.0000000001
 40
0.0
 40
0.0
 40
0.0
 40
0.0
 40
0.4773773815
 40
1.0
 40
1.0
 40
1.0
 40
1.0
 10
80.9131540292
 20
104.6493713085
 30
0.0
 10
80.9131540292
 20
104.8005662443
 30
0.0
 10
80.9505992426
 20
105.1175802073
 30
0.0
 10
81.0431067391
 20
105.4220461062
 30
0.0
 10
81.1030445392
 20
105.576337996
 30
0.0
  0
SPLINE
  5
5B2
100
AcDbEntity
  8
0
100
AcDbSpline
 62
7
  6
CONTINUOUS
 70
0
 71
3
 72
9
 73
5
 74
0
 42
0.0000001
 43
0.0000001
 44
0.0000000001
 40
0.0
 40
0.0
 40
0.0
 40
0.0
 40
0.2518834874
 40
1.0
 40
1.0
 40
1.0
 40
1.0
 10
81.3273708615
 20
106.0432211162
 30
0.0
 10
81.349127575
 20
106.0809050516
 30
0.0
 10
81.438334284
 20
106.2288569072
 30
0.0
 10
81.5386084292
 20
106.3701720257
 30
0.0
 10
81.6195376985
 20
106.4709353557
 30
0.0
  0
SPLINE
  5
5B3
100
AcDbEntity
  8
0
100
AcDbSpline
 62
7
  6
CONTINUOUS
 70
0
 71
3
 72
9
 73
5
 74
0
 42
0.0000001
 43
0.0000001
 44
0.0000000001
 40
0.0
 40
0.0
 40
0.0
 40
0.0
 40
0.5226236696
 40
1.0
 40
1.0
 40
1.0
 40
1.0
 10
81.6195376985
 20
106.4709353557
 30
0.0
 10
81.7231882781
 20
106.599988511
 30
0.0
 10
81.940607
 20
106.8323340981
 30
0.0
 10
82.1964242829
 20
107.0232681467
 30
0.0
 10
82.3273617036
 20
107.0988644505
 30
0.0
  0
SPLINE
  5
5B4
100
AcDbEntity
  8
0
100
AcDbSpline
 62
7
  6
CONTINUOUS
 70
0
 71
3
 72
11
 73
7
 74
0
 42
0.0000001
 43
0.0000001
 44
0.0000000001
 40
0.0
 40
0.0
 40
0.0
 40
0.0
 40
0.2177723091
 40
0.4509273687
 40
0.7102218233
 40
1.0
 40
1.0
 40
1.0
 40
1.0
 10
105.7979071252
 20
145.821023843
 30
0.0
 10
105.7979071238
 20
145.9352849732
 30
0.0
 10
105.7557094389
 20
146.1734690799
 30
0.0
 10
105.575139925
 20
146.5052602728
 30
0.0
 10
105.2897685669
 20
146.8052918515
 30
0.0
 10
105.0509130502
 20
146.9697369514
 30
0.0
 10
104.9192406892
 20
147.0457563046
 30
0.0
  0
SPLINE
  5
5B5
100
AcDbEntity
  8
0
100
AcDbSpline
 62
7
  6
CONTINUOUS
 70
0
 71
3
 72
9
 73
5
 74
0
 42
0.0000001
 43
0.0000001
 44
0.0000000001
 40
0.0
 40
0.0
 40
0.0
 40
0.0
 40
0.2439673731
 40
1.0
 40
1.0
 40
1.0
 40
1.0
 10
79.2592864927
 20
76.9414874209
 30
0.0
 10
79.2286517463
 20
76.9833634997
 30
0.0
 10
79.1076537742
 20
77.1583316053
 30
0.0
 10
79.0050097569
 20
77.3457957523
 30
0.0
 10
78.9374949614
 20
77.4917223149
 30
0.0
  0
SPLINE
  5
5B6
100
AcDbEntity
  8
0
100
AcDbSpline
 62
7
  6
CONTINUOUS
 70
0
 71
3
 72
11
 73
7
 74
0
 42
0.0000001
 43
0.0000001
 44
0.0000000001
 40
0.0
 40
0.0
 40
0.0
 40
0.0
 40
0.2372392641
 40
0.4999983132
 40
0.7627582764
 40
1.0
 40
1.0
 40
1.0
 40
1.0
 10
82.3273617036
 20
107.0988644505
 30
0.0
 10
82.1265837598
 20
106.9829459426
 30
0.0
 10
81.7466391875
 20
106.6631698366
 30
0.0
 10
81.3031927415
 20
106.0571794674
 30
0.0
 10
81.0001154556
 20
105.3701446339
 30
0.0
 10
80.9131540292
 20
104.8812117658
 30
0.0
 10
80.9131540292
 20
104.6493713085
 30
0.0
  0
SPLINE
  5
5B7
100
AcDbEntity
  8
0
100
AcDbSpline
 62
7
  6
CONTINUOUS
 70
0
 71
3
 72
11
 73
7
 74
0
 42
0.0000001
 43
0.0000001
 44
0.0000000001
 40
0.0
 40
0.0
 40
0.0
 40
0.0
 40
0.2625477462
 40
0.5234418031
 40
0.7722107283
 40
1.0
 40
1.0
 40
1.0
 40
1.0
 10
80.9131540292
 20
86.027920115
 30
0.0
 10
80.5455354107
 20
85.5415280432
 30
0.0
 10
79.8837222729
 20
84.5160634818
 30
0.0
 10
79.1315381759
 20
82.8815145361
 30
0.0
 10
78.6525076792
 20
81.2306548253
 30
0.0
 10
78.5280927863
 20
80.1227664826
 30
0.0
 10
78.5280927863
 20
79.5937936808
 30
0.0
  0
SPLINE
  5
5B8
100
AcDbEntity
  8
0
100
AcDbSpline
 62
7
  6
CONTINUOUS
 70
0
 71
3
 72
11
 73
7
 74
0
 42
0.0000001
 43
0.0000001
 44
0.0000000001
 40
0.0
 40
0.0
 40
0.0
 40
0.0
 40
0.2786495629
 40
0.5375345855
 40
0.7770980435
 40
1.0
 40
1.0
 40
1.0
 40
1.0
 10
78.5280927863
 20
79.5937936808
 30
0.0
 10
78.5280927863
 20
79.3343037335
 30
0.0
 10
78.5560656082
 20
78.833043534
 30
0.0
 10
78.6920253494
 20
78.1197726695
 30
0.0
 10
78.919175061
 20
77.4844605921
 30
0.0
 10
79.1367274786
 20
77.109019114
 30
0.0
 10
79.2592864927
 20
76.9414874209
 30
0.0
  0
SPLINE
  5
5B9
100
AcDbEntity
  8
0
100
AcDbSpline
 62
7
  6
CONTINUOUS
 70
0
 71
3
 72
17
 73
13
 74
0
 42
0.0000001
 43
0.0000001
 44
0.0000000001
 40
0.0
 40
0.0
 40
0.0
 40
0.0
 40
0.0428590154
 40
0.087484945
 40
0.1353191404
 40
0.1872810096
 40
0.3045411455
 40
0.4382064078
 40
0.5825480614
 40
0.7297123844
 40
0.8713056989
 40
1.0
 40
1.0
 40
1.0
 40
1.0
 10
140.6407731014
 20
127.4325407986
 30
0.0
 10
140.5791429714
 20
127.4681283717
 30
0.0
 10
140.4432683601
 20
127.5245470255
 30
0.0
 10
140.2190197008
 20
127.5574601721
 30
0.0
 10
139.9781838198
 20
127.5397134722
 30
0.0
 10
139.6282550036
 20
127.4466400184
 30
0.0
 10
139.1809258858
 20
127.2020319441
 30
0.0
 10
138.6866988122
 20
126.7643351492
 30
0.0
 10
138.2498036559
 20
126.2051424392
 30
0.0
 10
137.9059726593
 20
125.5696147788
 30
0.0
 10
137.6828160299
 20
124.9098820231
 30
0.0
 10
137.6230389816
 20
124.4605578722
 30
0.0
 10
137.6230389816
 20
124.2468620366
 30
0.0
  0
SPLINE
  5
5BA
100
AcDbEntity
  8
0
100
AcDbSpline
 62
7
  6
CONTINUOUS
 70
0
 71
3
 72
17
 73
13
 74
0
 42
0.0000001
 43
0.0000001
 44
0.0000000001
 40
0.0
 40
0.0
 40
0.0
 40
0.0
 40
0.0428590154
 40
0.087484945
 40
0.1353191404
 40
0.1872810096
 40
0.3045411455
 40
0.4382064078
 40
0.5825480614
 40
0.7297123844
 40
0.8713056989
 40
1.0
 40
1.0
 40
1.0
 40
1.0
 10
140.99432502
 20
77.8284844106
 30
0.0
 10
140.93269489
 20
77.8640719837
 30
0.0
 10
140.7968202787
 20
77.9204906375
 30
0.0
 10
140.5725716194
 20
77.9534037841
 30
0.0
 10
140.3317357384
 20
77.9356570842
 30
0.0
 10
139.9818069222
 20
77.8425836304
 30
0.0
 10
139.5344778044
 20
77.5979755561
 30
0.0
 10
139.0402507308
 20
77.1602787612
 30
0.0
 10
138.6033555745
 20
76.6010860512
 30
0.0
 10
138.2595245779
 20
75.9655583908
 30
0.0
 10
138.0363679485
 20
75.305825635
 30
0.0
 10
137.9765909002
 20
74.8565014842
 30
0.0
 10
137.9765909002
 20
74.6428056486
 30
0.0
  0
SPLINE
  5
5BB
100
AcDbEntity
  8
0
100
AcDbSpline
 62
7
  6
CONTINUOUS
 70
0
 71
3
 72
17
 73
13
 74
0
 42
0.0000001
 43
0.0000001
 44
0.0000000001
 40
0.0
 40
0.0
 40
0.0
 40
0.0
 40
0.0428590154
 40
0.087484945
 40
0.1353191404
 40
0.1872810096
 40
0.3045411455
 40
0.4382064078
 40
0.5825480614
 40
0.7297123844
 40
0.8713056989
 40
1.0
 40
1.0
 40
1.0
 40
1.0
 10
105.6409405575
 20
65.9919756105
 30
0.0
 10
105.5793104276
 20
66.0275631836
 30
0.0
 10
105.4434358162
 20
66.0839818374
 30
0.0
 10
105.2191871569
 20
66.116894984
 30
0.0
 10
104.9783512759
 20
66.0991482841
 30
0.0
 10
104.6284224597
 20
66.0060748303
 30
0.0
 10
104.1810933419
 20
65.761466756
 30
0.0
 10
103.6868662684
 20
65.3237699611
 30
0.0
 10
103.2499711121
 20
64.7645772511
 30
0.0
 10
102.9061401155
 20
64.1290495907
 30
0.0
 10
102.6829834861
 20
63.4693168349
 30
0.0
 10
102.6232064377
 20
63.0199926841
 30
0.0
 10
102.6232064377
 20
62.8062968485
 30
0.0
  0
SPLINE
  5
5BC
100
AcDbEntity
  8
0
100
AcDbSpline
 62
7
  6
CONTINUOUS
 70
0
 71
3
 72
11
 73
7
 74
0
 42
0.0000001
 43
0.0000001
 44
0.0000000001
 40
0.0
 40
0.0
 40
0.0
 40
0.0
 40
0.2897400625
 40
0.5490239094
 40
0.7821404002
 40
1.0
 40
1.0
 40
1.0
 40
1.0
 10
136.8452247606
 20
67.5392459071
 30
0.0
 10
136.6872419679
 20
67.4480350436
 30
0.0
 10
136.3730645606
 20
67.2984839805
 30
0.0
 10
135.8901047808
 20
67.1819860084
 30
0.0
 10
135.4369311346
 20
67.1932810368
 30
0.0
 10
135.164070802
 20
67.2924077234
 30
0.0
 10
135.0452837931
 20
67.3609947055
 30
0.0
  0
SPLINE
  5
5BD
100
AcDbEntity
  8
0
100
AcDbSpline
 62
7
  6
CONTINUOUS
 70
0
 71
3
 72
11
 73
7
 74
0
 42
0.0000001
 43
0.0000001
 44
0.0000000001
 40
0.0
 40
0.0
 40
0.0
 40
0.0
 40
0.289702809
 40
0.549088757
 40
0.7822160314
 40
1.0
 40
1.0
 40
1.0
 40
1.0
 10
101.2071913651
 20
59.456227534
 30
0.0
 10
101.1194349624
 20
59.4055616537
 30
0.0
 10
100.9448592036
 20
59.3225108955
 30
0.0
 10
100.676532499
 20
59.2577124256
 30
0.0
 10
100.4247632664
 20
59.264085025
 30
0.0
 10
100.2731844332
 20
59.3190928228
 30
0.0
 10
100.2072133219
 20
59.3571804076
 30
0.0
  0
SPLINE
  5
5BE
100
AcDbEntity
  8
0
100
AcDbSpline
 62
7
  6
CONTINUOUS
 70
0
 71
3
 72
11
 73
7
 74
0
 42
0.0000001
 43
0.0000001
 44
0.0000000001
 40
0.0
 40
0.0
 40
0.0
 40
0.0
 40
0.2897026209
 40
0.5490908265
 40
0.782219764
 40
1.0
 40
1.0
 40
1.0
 40
1.0
 10
102.6232064377
 20
62.8062968485
 30
0.0
 10
102.6232064377
 20
62.6796263617
 30
0.0
 10
102.6424113052
 20
62.4387249598
 30
0.0
 10
102.7399681361
 20
62.1077369572
 30
0.0
 10
102.9042335013
 20
61.8391599305
 30
0.0
 10
103.0585291687
 20
61.709455734
 30
0.0
 10
103.140991504
 20
61.6618388558
 30
0.0
  0
SPLINE
  5
5BF
100
AcDbEntity
  8
0
100
AcDbSpline
 62
7
  6
CONTINUOUS
 70
0
 71
3
 72
11
 73
7
 74
0
 42
0.0000001
 43
0.0000001
 44
0.0000000001
 40
0.0
 40
0.0
 40
0.0
 40
0.0
 40
0.2897026209
 40
0.5490908265
 40
0.782219764
 40
1.0
 40
1.0
 40
1.0
 40
1.0
 10
137.9765909002
 20
74.6428056486
 30
0.0
 10
137.9765909002
 20
74.5161351619
 30
0.0
 10
137.9957957676
 20
74.2752337599
 30
0.0
 10
138.0933525985
 20
73.9442457573
 30
0.0
 10
138.2576179638
 20
73.6756687306
 30
0.0
 10
138.4119136311
 20
73.5459645341
 30
0.0
 10
138.4943759665
 20
73.4983476559
 30
0.0
  0
SPLINE
  5
5C0
100
AcDbEntity
  8
0
100
AcDbSpline
 62
7
  6
CONTINUOUS
 70
0
 71
3
 72
11
 73
7
 74
0
 42
0.0000001
 43
0.0000001
 44
0.0000000001
 40
0.0
 40
0.0
 40
0.0
 40
0.0
 40
0.2897026209
 40
0.5490908265
 40
0.782219764
 40
1.0
 40
1.0
 40
1.0
 40
1.0
 10
137.6230389816
 20
124.2468620366
 30
0.0
 10
137.6230389816
 20
124.1201915499
 30
0.0
 10
137.642243849
 20
123.8792901479
 30
0.0
 10
137.7398006799
 20
123.5483021453
 30
0.0
 10
137.9040660452
 20
123.2797251186
 30
0.0
 10
138.0583617125
 20
123.1500209221
 30
0.0
 10
138.1408240479
 20
123.1024040439
 30
0.0
  0
SPLINE
  5
5C1
100
AcDbEntity
  8
0
100
AcDbSpline
 62
7
  6
CONTINUOUS
 70
0
 71
3
 72
11
 73
7
 74
0
 42
0.0000001
 43
0.0000001
 44
0.0000000001
 40
0.0
 40
0.0
 40
0.0
 40
0.0
 40
0.2893975675
 40
0.5491290883
 40
0.7823145228
 40
1.0
 40
1.0
 40
1.0
 40
1.0
 10
97.8130929464
 20
68.9276894352
 30
0.0
 10
97.8130929464
 20
68.8871987538
 30
0.0
 10
97.8193158348
 20
68.8101207255
 30
0.0
 10
97.8504165866
 20
68.7041599035
 30
0.0
 10
97.9030326266
 20
68.6181898903
 30
0.0
 10
97.9524122351
 20
68.5766997418
 30
0.0
 10
97.9787998299
 20
68.5614900557
 30
0.0
  0
SPLINE
  5
5C2
100
AcDbEntity
  8
0
100
AcDbSpline
 62
7
  6
CONTINUOUS
 70
0
 71
3
 72
11
 73
7
 74
0
 42
0.0000001
 43
0.0000001
 44
0.0000000001
 40
0.0
 40
0.0
 40
0.0
 40
0.0
 40
0.2177805602
 40
0.4509248779
 40
0.7102605592
 40
1.0
 40
1.0
 40
1.0
 40
1.0
 10
100.0661542424
 20
114.1781937106
 30
0.0
 10
100.1774942131
 20
114.2424494405
 30
0.0
 10
100.3857792313
 20
114.4175956614
 30
0.0
 10
100.6075270392
 20
114.7801408763
 30
0.0
 10
100.7392781323
 20
115.2269645545
 30
0.0
 10
100.7651671222
 20
115.5521770847
 30
0.0
 10
100.7651671222
 20
115.723203951
 30
0.0
  0
SPLINE
  5
5C3
100
AcDbEntity
  8
0
100
AcDbSpline
 62
7
  6
CONTINUOUS
 70
0
 71
3
 72
11
 73
7
 74
0
 42
0.0000001
 43
0.0000001
 44
0.0000000001
 40
0.0
 40
0.0
 40
0.0
 40
0.0
 40
0.2625477462
 40
0.5234418031
 40
0.7722107283
 40
1.0
 40
1.0
 40
1.0
 40
1.0
 10
96.0099466611
 20
77.311980006
 30
0.0
 10
95.6423280426
 20
76.8255879342
 30
0.0
 10
94.9805149048
 20
75.8001233728
 30
0.0
 10
94.2283308078
 20
74.1655744271
 30
0.0
 10
93.7493003111
 20
72.5147147163
 30
0.0
 10
93.6248854182
 20
71.4068263735
 30
0.0
 10
93.6248854182
 20
70.8778535718
 30
0.0
  0
SPLINE
  5
5C4
100
AcDbEntity
  8
0
100
AcDbSpline
 62
7
  6
CONTINUOUS
 70
0
 71
3
 72
11
 73
7
 74
0
 42
0.0000001
 43
0.0000001
 44
0.0000000001
 40
0.0
 40
0.0
 40
0.0
 40
0.0
 40
0.2817165139
 40
0.5411039141
 40
0.7792223256
 40
1.0
 40
1.0
 40
1.0
 40
1.0
 10
93.6248854182
 20
70.8778535718
 30
0.0
 10
93.6248854182
 20
70.590839758
 30
0.0
 10
93.6588846386
 20
70.0385940602
 30
0.0
 10
93.8259643221
 20
69.2589361647
 30
0.0
 10
94.1052613774
 20
68.5778862802
 30
0.0
 10
94.3723588913
 20
68.1883275125
 30
0.0
 10
94.5215640442
 20
68.02000959
 30
0.0
  0
SPLINE
  5
5C5
100
AcDbEntity
  8
0
100
AcDbSpline
 62
7
  6
CONTINUOUS
 70
0
 71
3
 72
11
 73
7
 74
0
 42
0.0000001
 43
0.0000001
 44
0.0000000001
 40
0.0
 40
0.0
 40
0.0
 40
0.0
 40
0.2177456295
 40
0.4508837762
 40
0.7104602913
 40
1.0
 40
1.0
 40
1.0
 40
1.0
 10
112.8793896459
 20
111.435131718
 30
0.0
 10
112.8464105374
 20
111.4541717787
 30
0.0
 10
112.7706607918
 20
111.4817582765
 30
0.0
 10
112.6447309085
 20
111.4849205567
 30
0.0
 10
112.5105885092
 20
111.4524508052
 30
0.0
 10
112.4232787464
 20
111.4109704737
 30
0.0
 10
112.3794261051
 20
111.3856522906
 30
0.0
  0
SPLINE
  5
5C6
100
AcDbEntity
  8
0
100
AcDbSpline
 62
7
  6
CONTINUOUS
 70
0
 71
3
 72
15
 73
11
 74
0
 42
0.0000001
 43
0.0000001
 44
0.0000000001
 40
0.0
 40
0.0
 40
0.0
 40
0.0
 40
0.0869252176
 40
0.1863952294
 40
0.3037887542
 40
0.4375985707
 40
0.5820955914
 40
0.7293795809
 40
0.8712014596
 40
1.0
 40
1.0
 40
1.0
 40
1.0
 10
98.7787522025
 20
69.947079461
 30
0.0
 10
98.7387793281
 20
69.9701196385
 30
0.0
 10
98.63842357
 20
69.9959907835
 30
0.0
 10
98.4768125659
 20
69.9635987023
 30
0.0
 10
98.3117367704
 20
69.8734187254
 30
0.0
 10
98.1534291828
 20
69.7332439299
 30
0.0
 10
98.0137127615
 20
69.5543386177
 30
0.0
 10
97.903607561
 20
69.3509777186
 30
0.0
 10
97.8322628345
 20
69.1398475467
 30
0.0
 10
97.8130929464
 20
68.996052322
 30
0.0
 10
97.8130929464
 20
68.9276894352
 30
0.0
  0
SPLINE
  5
5C7
100
AcDbEntity
  8
0
100
AcDbSpline
 62
7
  6
CONTINUOUS
 70
0
 71
3
 72
11
 73
7
 74
0
 42
0.0000001
 43
0.0000001
 44
0.0000000001
 40
0.0
 40
0.0
 40
0.0
 40
0.0
 40
0.2177805602
 40
0.4509248779
 40
0.7102605592
 40
1.0
 40
1.0
 40
1.0
 40
1.0
 10
106.3594307962
 20
57.6354943654
 30
0.0
 10
106.4707707669
 20
57.6997500953
 30
0.0
 10
106.6790557851
 20
57.8748963162
 30
0.0
 10
106.900803593
 20
58.2374415311
 30
0.0
 10
107.0325546861
 20
58.6842652092
 30
0.0
 10
107.058443676
 20
59.0094777395
 30
0.0
 10
107.058443676
 20
59.1805046058
 30
0.0
  0
SPLINE
  5
5C8
100
AcDbEntity
  8
0
100
AcDbSpline
 62
7
  6
CONTINUOUS
 70
0
 71
3
 72
17
 73
13
 74
0
 42
0.0000001
 43
0.0000001
 44
0.0000000001
 40
0.0
 40
0.0
 40
0.0
 40
0.0
 40
0.128693823
 40
0.2702783937
 40
0.4174341197
 40
0.5617778654
 40
0.6954482313
 40
0.8127107819
 40
0.8646769687
 40
0.9125095959
 40
0.9571396392
 40
1.0
 40
1.0
 40
1.0
 40
1.0
 10
100.7651671222
 20
115.723203951
 30
0.0
 10
100.7651671222
 20
116.0116941281
 30
0.0
 10
100.6844685098
 20
116.6182651772
 30
0.0
 10
100.3832173527
 20
117.5088707369
 30
0.0
 10
99.919074406
 20
118.3668169038
 30
0.0
 10
99.329291222
 20
119.1217445068
 30
0.0
 10
98.6620705407
 20
119.7126847377
 30
0.0
 10
98.0581297069
 20
120.0428411286
 30
0.0
 10
97.5857260637
 20
120.1685959864
 30
0.0
 10
97.260580876
 20
120.1924357676
 30
0.0
 10
96.9578080683
 20
120.1481345606
 30
0.0
 10
96.7744048944
 20
120.0718640419
 30
0.0
 10
96.6911893571
 20
120.0238392844
 30
0.0
  0
SPLINE
  5
5C9
100
AcDbEntity
  8
0
100
AcDbSpline
 62
7
  6
CONTINUOUS
 70
0
 71
3
 72
11
 73
7
 74
0
 42
0.0000001
 43
0.0000001
 44
0.0000000001
 40
0.0
 40
0.0
 40
0.0
 40
0.0
 40
0.2895396729
 40
0.5491163863
 40
0.7822545095
 40
1.0
 40
1.0
 40
1.0
 40
1.0
 10
111.6016118842
 20
108.5687267116
 30
0.0
 10
111.566529776
 20
108.5484721679
 30
0.0
 10
111.4966819299
 20
108.5152879378
 30
0.0
 10
111.3893680035
 20
108.4893120755
 30
0.0
 10
111.2886240961
 20
108.4918419498
 30
0.0
 10
111.2280243135
 20
108.5139111167
 30
0.0
 10
111.2016410521
 20
108.5291431694
 30
0.0
  0
SPLINE
  5
5CA
100
AcDbEntity
  8
0
100
AcDbSpline
 62
7
  6
CONTINUOUS
 70
0
 71
3
 72
11
 73
7
 74
0
 42
0.0000001
 43
0.0000001
 44
0.0000000001
 40
0.0
 40
0.0
 40
0.0
 40
0.0
 40
0.2897776971
 40
0.5490719787
 40
0.7822272299
 40
1.0
 40
1.0
 40
1.0
 40
1.0
 10
123.7990880144
 20
133.6962734338
 30
0.0
 10
123.9307579131
 20
133.7722926314
 30
0.0
 10
124.1696088969
 20
133.9367371035
 30
0.0
 10
124.4549744592
 20
134.2367664583
 30
0.0
 10
124.6355400669
 20
134.5685544387
 30
0.0
 10
124.6777367881
 20
134.8067357972
 30
0.0
 10
124.6777367866
 20
134.9209956973
 30
0.0
  0
SPLINE
  5
5CB
100
AcDbEntity
  8
0
100
AcDbSpline
 62
7
  6
CONTINUOUS
 70
0
 71
3
 72
9
 73
5
 74
0
 42
0.0000001
 43
0.0000001
 44
0.0000000001
 40
0.0
 40
0.0
 40
0.0
 40
0.0
 40
0.2642865852
 40
1.0
 40
1.0
 40
1.0
 40
1.0
 10
83.0274260029
 20
77.239928993
 30
0.0
 10
83.0382069164
 20
77.1353298801
 30
0.0
 10
83.0913430587
 20
76.7411148468
 30
0.0
 10
83.196537158
 20
76.3524455533
 30
0.0
 10
83.3101668362
 20
76.0826775224
 30
0.0
  0
SPLINE
  5
5CC
100
AcDbEntity
  8
0
100
AcDbSpline
 62
7
  6
CONTINUOUS
 70
0
 71
3
 72
11
 73
7
 74
0
 42
0.0000001
 43
0.0000001
 44
0.0000000001
 40
0.0
 40
0.0
 40
0.0
 40
0.0
 40
0.2896784336
 40
0.5491208899
 40
0.7822333041
 40
1.0
 40
1.0
 40
1.0
 40
1.0
 10
82.7163003145
 20
77.6436295443
 30
0.0
 10
82.7163003145
 20
77.6030984299
 30
0.0
 10
82.722451454
 20
77.5260057231
 30
0.0
 10
82.7536734268
 20
77.420090891
 30
0.0
 10
82.8062264674
 20
77.3341336607
 30
0.0
 10
82.8556046992
 20
77.2926384394
 30
0.0
 10
82.881990652
 20
77.2774014587
 30
0.0
  0
SPLINE
  5
5CD
100
AcDbEntity
  8
0
100
AcDbSpline
 62
7
  6
CONTINUOUS
 70
0
 71
3
 72
10
 73
6
 74
0
 42
0.0000001
 43
0.0000001
 44
0.0000000001
 40
0.0
 40
0.0
 40
0.0
 40
0.0
 40
0.5202790309
 40
0.771268491
 40
1.0
 40
1.0
 40
1.0
 40
1.0
 10
83.0274260029
 20
78.4065849509
 30
0.0
 10
82.9325469934
 20
78.2966001812
 30
0.0
 10
82.8180360661
 20
78.1083538121
 30
0.0
 10
82.733017624
 20
77.8416378546
 30
0.0
 10
82.7163003145
 20
77.7074878327
 30
0.0
 10
82.7163003145
 20
77.6436295443
 30
0.0
  0
SPLINE
  5
5CE
100
AcDbEntity
  8
0
100
AcDbSpline
 62
7
  6
CONTINUOUS
 70
0
 71
3
 72
11
 73
7
 74
0
 42
0.0000001
 43
0.0000001
 44
0.0000000001
 40
0.0
 40
0.0
 40
0.0
 40
0.0
 40
0.2561996309
 40
0.5143204117
 40
0.7650712106
 40
1.0
 40
1.0
 40
1.0
 40
1.0
 10
85.3473724027
 20
83.7437643043
 30
0.0
 10
85.0325167022
 20
83.3624239804
 30
0.0
 10
84.4547667641
 20
82.5505652592
 30
0.0
 10
83.7646173401
 20
81.2401559276
 30
0.0
 10
83.2725482599
 20
79.8866787591
 30
0.0
 10
83.0862178937
 20
78.9627865283
 30
0.0
 10
83.0379197238
 20
78.5118990239
 30
0.0
  0
SPLINE
  5
5CF
100
AcDbEntity
  8
0
100
AcDbSpline
 62
7
  6
CONTINUOUS
 70
0
 71
3
 72
11
 73
7
 74
0
 42
0.0000001
 43
0.0000001
 44
0.0000000001
 40
0.0
 40
0.0
 40
0.0
 40
0.0
 40
0.2278672079
 40
0.4770044088
 40
0.7380705498
 40
1.0
 40
1.0
 40
1.0
 40
1.0
 10
107.058443676
 20
59.1805046058
 30
0.0
 10
107.058443676
 20
59.428629243
 30
0.0
 10
106.9986441399
 20
59.9486173341
 30
0.0
 10
106.7693384561
 20
60.7221611115
 30
0.0
 10
106.410064632
 20
61.4855859497
 30
0.0
 10
106.0943761416
 20
61.9624996881
 30
0.0
 10
105.919211048
 20
62.1875881073
 30
0.0
  0
SPLINE
  5
5D0
100
AcDbEntity
  8
0
100
AcDbSpline
 62
7
  6
CONTINUOUS
 70
0
 71
3
 72
11
 73
7
 74
0
 42
0.0000001
 43
0.0000001
 44
0.0000000001
 40
0.0
 40
0.0
 40
0.0
 40
0.0
 40
0.2281287802
 40
0.4780938035
 40
0.7394666838
 40
1.0
 40
1.0
 40
1.0
 40
1.0
 10
95.0199617533
 20
119.448365533
 30
0.0
 10
95.019961753
 20
119.0423639172
 30
0.0
 10
95.1228418408
 20
118.1905365531
 30
0.0
 10
95.5140514435
 20
116.9282432636
 30
0.0
 10
96.1236715845
 20
115.6913622397
 30
0.0
 10
96.6581823939
 20
114.9262912158
 30
0.0
 10
96.9538973955
 20
114.5691575698
 30
0.0
  0
SPLINE
  5
5D1
100
AcDbEntity
  8
0
100
AcDbSpline
 62
7
  6
CONTINUOUS
 70
0
 71
3
 72
9
 73
5
 74
0
 42
0.0000001
 43
0.0000001
 44
0.0000000001
 40
0.0
 40
0.0
 40
0.0
 40
0.0
 40
0.5220273383
 40
1.0
 40
1.0
 40
1.0
 40
1.0
 10
96.9538973955
 20
114.5691575698
 30
0.0
 10
97.2167446337
 20
114.2517181703
 30
0.0
 10
97.765498314
 20
113.6793161832
 30
0.0
 10
98.4054223169
 20
113.2072495004
 30
0.0
 10
98.7322237184
 20
113.0185748917
 30
0.0
  0
SPLINE
  5
5D2
100
AcDbEntity
  8
0
100
AcDbSpline
 62
7
  6
CONTINUOUS
 70
0
 71
3
 72
15
 73
11
 74
0
 42
0.0000001
 43
0.0000001
 44
0.0000000001
 40
0.0
 40
0.0
 40
0.0
 40
0.0
 40
0.1448871795
 40
0.2745334152
 40
0.3911109733
 40
0.499998016
 40
0.608885419
 40
0.7254639347
 40
0.8551114599
 40
1.0
 40
1.0
 40
1.0
 40
1.0
 10
98.7322237184
 20
113.0185748917
 30
0.0
 10
98.9626455687
 20
112.8855437839
 30
0.0
 10
99.4208995058
 20
112.6674710494
 30
0.0
 10
100.1251652076
 20
112.4974450118
 30
0.0
 10
100.7864417747
 20
112.5143711257
 30
0.0
 10
101.375002147
 20
112.727739589
 30
0.0
 10
101.8540558889
 20
113.1307767397
 30
0.0
 10
102.1993433018
 20
113.6950069684
 30
0.0
 10
102.4042204767
 20
114.3899412636
 30
0.0
 10
102.4444856833
 20
114.8958423876
 30
0.0
 10
102.4444856835
 20
115.1619116158
 30
0.0
  0
SPLINE
  5
5D3
100
AcDbEntity
  8
0
100
AcDbSpline
 62
7
  6
CONTINUOUS
 70
0
 71
3
 72
15
 73
11
 74
0
 42
0.0000001
 43
0.0000001
 44
0.0000000001
 40
0.0
 40
0.0
 40
0.0
 40
0.0
 40
0.1141474765
 40
0.2373368178
 40
0.3669776594
 40
0.5000010819
 40
0.633024354
 40
0.7626647561
 40
0.8858534048
 40
1.0
 40
1.0
 40
1.0
 40
1.0
 10
102.4444856835
 20
115.1619116158
 30
0.0
 10
102.4444856837
 20
115.4553396407
 30
0.0
 10
102.3907014547
 20
116.0660037186
 30
0.0
 10
102.176484724
 20
116.9872433584
 30
0.0
 10
101.833159452
 20
117.920364692
 30
0.0
 10
101.3738141349
 20
118.8303044472
 30
0.0
 10
100.8154524207
 20
119.6830754507
 30
0.0
 10
100.1790063588
 20
120.4469586679
 30
0.0
 10
99.4882974444
 20
121.0930877236
 30
0.0
 10
98.9863393174
 20
121.4449918667
 30
0.0
 10
98.7322237184
 20
121.5917022572
 30
0.0
  0
SPLINE
  5
5D4
100
AcDbEntity
  8
0
100
AcDbSpline
 62
7
  6
CONTINUOUS
 70
0
 71
3
 72
15
 73
11
 74
0
 42
0.0000001
 43
0.0000001
 44
0.0000000001
 40
0.0
 40
0.0
 40
0.0
 40
0.0
 40
0.1448871795
 40
0.2745334152
 40
0.3911109733
 40
0.499998016
 40
0.608885419
 40
0.7254639347
 40
0.8551114599
 40
1.0
 40
1.0
 40
1.0
 40
1.0
 10
98.7322237184
 20
121.5917022572
 30
0.0
 10
98.5018018681
 20
121.7247333649
 30
0.0
 10
98.043547931
 20
121.9428060994
 30
0.0
 10
97.3392822292
 20
122.112832137
 30
0.0
 10
96.678005662
 20
122.0959060231
 30
0.0
 10
96.0894452897
 20
121.8825375598
 30
0.0
 10
95.6103915479
 20
121.4795004091
 30
0.0
 10
95.265104135
 20
120.9152701805
 30
0.0
 10
95.0602269601
 20
120.2203358852
 30
0.0
 10
95.0199617535
 20
119.7144347612
 30
0.0
 10
95.0199617533
 20
119.448365533
 30
0.0
  0
SPLINE
  5
5D5
100
AcDbEntity
  8
0
100
AcDbSpline
 62
7
  6
CONTINUOUS
 70
0
 71
3
 72
17
 73
13
 74
0
 42
0.0000001
 43
0.0000001
 44
0.0000000001
 40
0.0
 40
0.0
 40
0.0
 40
0.0
 40
0.128693823
 40
0.2702783937
 40
0.4174341197
 40
0.5617778654
 40
0.6954482313
 40
0.8127107819
 40
0.8646769687
 40
0.9125095959
 40
0.9571396392
 40
1.0
 40
1.0
 40
1.0
 40
1.0
 10
95.9921764774
 20
118.478829044
 30
0.0
 10
95.9921764774
 20
118.1903388669
 30
0.0
 10
96.0728750898
 20
117.5837678178
 30
0.0
 10
96.3741262469
 20
116.693162258
 30
0.0
 10
96.8382691936
 20
115.8352160912
 30
0.0
 10
97.4280523776
 20
115.0802884881
 30
0.0
 10
98.0952730589
 20
114.4893482573
 30
0.0
 10
98.6992138927
 20
114.1591918664
 30
0.0
 10
99.1716175358
 20
114.0334370085
 30
0.0
 10
99.4967627235
 20
114.0095972273
 30
0.0
 10
99.7995355313
 20
114.0538984343
 30
0.0
 10
99.9829387051
 20
114.1301689531
 30
0.0
 10
100.0661542424
 20
114.1781937106
 30
0.0
  0
SPLINE
  5
5D6
100
AcDbEntity
  8
0
100
AcDbSpline
 62
7
  6
CONTINUOUS
 70
0
 71
3
 72
11
 73
7
 74
0
 42
0.0000001
 43
0.0000001
 44
0.0000000001
 40
0.0
 40
0.0
 40
0.0
 40
0.0
 40
0.2177805602
 40
0.4509248779
 40
0.7102605592
 40
1.0
 40
1.0
 40
1.0
 40
1.0
 10
96.6911893571
 20
120.0238392844
 30
0.0
 10
96.5798493865
 20
119.9595835544
 30
0.0
 10
96.3715643682
 20
119.7844373335
 30
0.0
 10
96.1498165604
 20
119.4218921187
 30
0.0
 10
96.0180654673
 20
118.9750684405
 30
0.0
 10
95.9921764774
 20
118.6498559103
 30
0.0
 10
95.9921764774
 20
118.478829044
 30
0.0
  0
SPLINE
  5
5D7
100
AcDbEntity
  8
0
100
AcDbSpline
 62
7
  6
CONTINUOUS
 70
0
 71
3
 72
15
 73
11
 74
0
 42
0.0000001
 43
0.0000001
 44
0.0000000001
 40
0.0
 40
0.0
 40
0.0
 40
0.0
 40
0.1141465952
 40
0.2373352439
 40
0.366975646
 40
0.4999989181
 40
0.6330223406
 40
0.7626631822
 40
0.8858525235
 40
1.0
 40
1.0
 40
1.0
 40
1.0
 10
98.3786717998
 20
120.5711327659
 30
0.0
 10
98.5843868525
 20
120.4523658117
 30
0.0
 10
98.9907386979
 20
120.167487671
 30
0.0
 10
99.5498906009
 20
119.6444246504
 30
0.0
 10
100.065114915
 20
119.0260357087
 30
0.0
 10
100.5171273454
 20
118.3356891395
 30
0.0
 10
100.8889826999
 20
117.5990625589
 30
0.0
 10
101.1669159582
 20
116.8436697175
 30
0.0
 10
101.3403315464
 20
116.0978955036
 30
0.0
 10
101.3838716736
 20
115.6035425654
 30
0.0
 10
101.3838716734
 20
115.3660027927
 30
0.0
  0
SPLINE
  5
5D8
100
AcDbEntity
  8
0
100
AcDbSpline
 62
7
  6
CONTINUOUS
 70
0
 71
3
 72
15
 73
11
 74
0
 42
0.0000001
 43
0.0000001
 44
0.0000000001
 40
0.0
 40
0.0
 40
0.0
 40
0.0
 40
0.1474561271
 40
0.2805074424
 40
0.4007281392
 40
0.5123987031
 40
0.6219064243
 40
0.736309081
 40
0.8612387697
 40
1.0
 40
1.0
 40
1.0
 40
1.0
 10
95.3734719261
 20
118.8360302022
 30
0.0
 10
95.3734719263
 20
119.0370960587
 30
0.0
 10
95.4020540382
 20
119.4206971744
 30
0.0
 10
95.5458309002
 20
119.9519473973
 30
0.0
 10
95.7874964083
 20
120.393477991
 30
0.0
 10
96.1230896316
 20
120.7267514087
 30
0.0
 10
96.5405525263
 20
120.9329197248
 30
0.0
 10
97.0179922447
 20
121.0026691978
 30
0.0
 10
97.5344919932
 20
120.9390040053
 30
0.0
 10
97.8759662374
 20
120.818273194
 30
0.0
 10
98.0485328638
 20
120.7406773745
 30
0.0
  0
SPLINE
  5
5D9
100
AcDbEntity
  8
0
100
AcDbSpline
 62
7
  6
CONTINUOUS
 70
0
 71
3
 72
9
 73
5
 74
0
 42
0.0000001
 43
0.0000001
 44
0.0000000001
 40
0.0
 40
0.0
 40
0.0
 40
0.0
 40
0.244818263
 40
1.0
 40
1.0
 40
1.0
 40
1.0
 10
98.0485328638
 20
120.7406773745
 30
0.0
 10
98.0761619292
 20
120.7282537674
 30
0.0
 10
98.1883325309
 20
120.6759926585
 30
0.0
 10
98.2977447354
 20
120.6178549713
 30
0.0
 10
98.3786717998
 20
120.5711327659
 30
0.0
  0
SPLINE
  5
5DA
100
AcDbEntity
  8
0
100
AcDbSpline
 62
7
  6
CONTINUOUS
 70
0
 71
3
 72
9
 73
5
 74
0
 42
0.0000001
 43
0.0000001
 44
0.0000000001
 40
0.0
 40
0.0
 40
0.0
 40
0.0
 40
0.4795701682
 40
1.0
 40
1.0
 40
1.0
 40
1.0
 10
98.3786717998
 20
113.630900229
 30
0.0
 10
98.1478420231
 20
113.7641668479
 30
0.0
 10
97.6934907626
 20
114.0897444432
 30
0.0
 10
97.2953105863
 20
114.4803656191
 30
0.0
 10
97.1025687068
 20
114.6960374942
 30
0.0
  0
SPLINE
  5
5DB
100
AcDbEntity
  8
0
100
AcDbSpline
 62
7
  6
CONTINUOUS
 70
0
 71
3
 72
11
 73
7
 74
0
 42
0.0000001
 43
0.0000001
 44
0.0000000001
 40
0.0
 40
0.0
 40
0.0
 40
0.0
 40
0.2585816729
 40
0.5202972419
 40
0.7713938219
 40
1.0
 40
1.0
 40
1.0
 40
1.0
 10
97.1025687068
 20
114.6960374942
 30
0.0
 10
96.8399703979
 20
114.9898764347
 30
0.0
 10
96.3637179358
 20
115.6293172634
 30
0.0
 10
95.8189201109
 20
116.6766307009
 30
0.0
 10
95.4669944091
 20
117.7557343729
 30
0.0
 10
95.3734719259
 20
118.4876328674
 30
0.0
 10
95.3734719261
 20
118.8360302022
 30
0.0
  0
SPLINE
  5
5DC
100
AcDbEntity
  8
0
100
AcDbSpline
 62
7
  6
CONTINUOUS
 70
0
 71
3
 72
9
 73
5
 74
0
 42
0.0000001
 43
0.0000001
 44
0.0000000001
 40
0.0
 40
0.0
 40
0.0
 40
0.0
 40
0.2552016628
 40
1.0
 40
1.0
 40
1.0
 40
1.0
 10
101.3838716734
 20
115.3660027927
 30
0.0
 10
101.3838716734
 20
115.3344191015
 30
0.0
 10
101.3823955772
 20
115.2106662251
 30
0.0
 10
101.3749272298
 20
115.086965549
 30
0.0
 10
101.3656299876
 20
114.9952595781
 30
0.0
  0
SPLINE
  5
5DD
100
AcDbEntity
  8
0
100
AcDbSpline
 62
7
  6
CONTINUOUS
 70
0
 71
3
 72
15
 73
11
 74
0
 42
0.0000001
 43
0.0000001
 44
0.0000000001
 40
0.0
 40
0.0
 40
0.0
 40
0.0
 40
0.1387616578
 40
0.2636918858
 40
0.37809509
 40
0.487603182
 40
0.5992737759
 40
0.7194941081
 40
0.8525447398
 40
1.0
 40
1.0
 40
1.0
 40
1.0
 10
101.3656299876
 20
114.9952595781
 30
0.0
 10
101.3465457652
 20
114.8070169691
 30
0.0
 10
101.2803635718
 20
114.4509306777
 30
0.0
 10
101.0772507456
 20
113.9718020641
 30
0.0
 10
100.7781304465
 20
113.593205464
 30
0.0
 10
100.3908589152
 20
113.3347565295
 30
0.0
 10
99.934447401
 20
113.2107578128
 30
0.0
 10
99.4312468192
 20
113.2222284343
 30
0.0
 10
98.8992911859
 20
113.3633303717
 30
0.0
 10
98.5527972618
 20
113.5303711209
 30
0.0
 10
98.3786717998
 20
113.630900229
 30
0.0
  0
SPLINE
  5
5DE
100
AcDbEntity
  8
0
100
AcDbSpline
 62
7
  6
CONTINUOUS
 70
0
 71
3
 72
11
 73
7
 74
0
 42
0.0000001
 43
0.0000001
 44
0.0000000001
 40
0.0
 40
0.0
 40
0.0
 40
0.0
 40
0.2177442246
 40
0.4508817658
 40
0.7104588047
 40
1.0
 40
1.0
 40
1.0
 40
1.0
 10
111.2016410521
 20
108.5291431694
 30
0.0
 10
111.1752568984
 20
108.5443757371
 30
0.0
 10
111.1258421431
 20
108.5858229388
 30
0.0
 10
111.0732769352
 20
108.6718078728
 30
0.0
 10
111.0421143993
 20
108.7777367667
 30
0.0
 10
111.0359288144
 20
108.8548222351
 30
0.0
 10
111.0359288144
 20
108.8953333222
 30
0.0
  0
SPLINE
  5
5DF
100
AcDbEntity
  8
0
100
AcDbSpline
 62
7
  6
CONTINUOUS
 70
0
 71
3
 72
11
 73
7
 74
0
 42
0.0000001
 43
0.0000001
 44
0.0000000001
 40
0.0
 40
0.0
 40
0.0
 40
0.0
 40
0.2895411595
 40
0.5491183966
 40
0.7822559144
 40
1.0
 40
1.0
 40
1.0
 40
1.0
 10
113.0865299423
 20
110.9773940273
 30
0.0
 10
113.0865299423
 20
111.0280328792
 30
0.0
 10
113.0787979009
 20
111.1243897315
 30
0.0
 10
113.0398447927
 20
111.2568008948
 30
0.0
 10
112.9741382281
 20
111.3642820317
 30
0.0
 10
112.9123698265
 20
111.4160910384
 30
0.0
 10
112.8793896459
 20
111.435131718
 30
0.0
  0
SPLINE
  5
5E0
100
AcDbEntity
  8
0
100
AcDbSpline
 62
7
  6
CONTINUOUS
 70
0
 71
3
 72
11
 73
7
 74
0
 42
0.0000001
 43
0.0000001
 44
0.0000000001
 40
0.0
 40
0.0
 40
0.0
 40
0.0
 40
0.2895411595
 40
0.5491183966
 40
0.7822559144
 40
1.0
 40
1.0
 40
1.0
 40
1.0
 10
103.6112767004
 20
113.1818612447
 30
0.0
 10
103.6112767004
 20
113.1413501632
 30
0.0
 10
103.6174623335
 20
113.0642646813
 30
0.0
 10
103.64862482
 20
112.9583357507
 30
0.0
 10
103.7011900717
 20
112.8723508412
 30
0.0
 10
103.750604793
 20
112.8309036359
 30
0.0
 10
103.7769889375
 20
112.8156710921
 30
0.0
  0
SPLINE
  5
5E1
100
AcDbEntity
  8
0
100
AcDbSpline
 62
7
  6
CONTINUOUS
 70
0
 71
3
 72
11
 73
7
 74
0
 42
0.0000001
 43
0.0000001
 44
0.0000000001
 40
0.0
 40
0.0
 40
0.0
 40
0.0
 40
0.2372518718
 40
0.4999985497
 40
0.7627460178
 40
1.0
 40
1.0
 40
1.0
 40
1.0
 10
104.1769597701
 20
114.1616585015
 30
0.0
 10
104.0966445969
 20
114.1152887914
 30
0.0
 10
103.94465537
 20
113.9873872636
 30
0.0
 10
103.7673311743
 20
113.7449617292
 30
0.0
 10
103.6460477698
 20
113.4701802813
 30
0.0
 10
103.6112767004
 20
113.274601905
 30
0.0
 10
103.6112767004
 20
113.1818612447
 30
0.0
  0
SPLINE
  5
5E2
100
AcDbEntity
  8
0
100
AcDbSpline
 62
7
  6
CONTINUOUS
 70
0
 71
3
 72
15
 73
11
 74
0
 42
0.0000001
 43
0.0000001
 44
0.0000000001
 40
0.0
 40
0.0
 40
0.0
 40
0.0
 40
0.0869252176
 40
0.1863952294
 40
0.3037887542
 40
0.4375985707
 40
0.5820955914
 40
0.7293795809
 40
0.8712014596
 40
1.0
 40
1.0
 40
1.0
 40
1.0
 10
97.9787998299
 20
68.5614900557
 30
0.0
 10
98.0187727043
 20
68.5384498782
 30
0.0
 10
98.1191284624
 20
68.5125787332
 30
0.0
 10
98.2807394665
 20
68.5449708144
 30
0.0
 10
98.445815262
 20
68.6351507913
 30
0.0
 10
98.6041228496
 20
68.7753255868
 30
0.0
 10
98.7438392709
 20
68.954230899
 30
0.0
 10
98.8539444714
 20
69.1575917981
 30
0.0
 10
98.9252891979
 20
69.36872197
 30
0.0
 10
98.944459086
 20
69.5125171947
 30
0.0
 10
98.944459086
 20
69.5808800814
 30
0.0
  0
SPLINE
  5
5E3
100
AcDbEntity
  8
0
100
AcDbSpline
 62
7
  6
CONTINUOUS
 70
0
 71
3
 72
11
 73
7
 74
0
 42
0.0000001
 43
0.0000001
 44
0.0000000001
 40
0.0
 40
0.0
 40
0.0
 40
0.0
 40
0.2372542275
 40
0.5000017852
 40
0.7627483734
 40
1.0
 40
1.0
 40
1.0
 40
1.0
 10
111.0359288144
 20
108.8953333222
 30
0.0
 10
111.0359288144
 20
108.9880740784
 30
0.0
 10
111.0706999407
 20
109.1836525855
 30
0.0
 10
111.1919834524
 20
109.4584340909
 30
0.0
 10
111.3693076519
 20
109.7008595037
 30
0.0
 10
111.521296794
 20
109.8287609169
 30
0.0
 10
111.6016118842
 20
109.875130579
 30
0.0
  0
SPLINE
  5
5E4
100
AcDbEntity
  8
0
100
AcDbSpline
 62
7
  6
CONTINUOUS
 70
0
 71
3
 72
17
 73
13
 74
0
 42
0.0000001
 43
0.0000001
 44
0.0000000001
 40
0.0
 40
0.0
 40
0.0
 40
0.0
 40
0.0428590154
 40
0.087484945
 40
0.1353191404
 40
0.1872810096
 40
0.3045411455
 40
0.4382064078
 40
0.5825480614
 40
0.7297123844
 40
0.8713056989
 40
1.0
 40
1.0
 40
1.0
 40
1.0
 10
138.1408240479
 20
123.1024040439
 30
0.0
 10
138.2024541778
 20
123.0668164708
 30
0.0
 10
138.3383287891
 20
123.010397817
 30
0.0
 10
138.5625774484
 20
122.9774846704
 30
0.0
 10
138.8034133294
 20
122.9952313703
 30
0.0
 10
139.1533421456
 20
123.0883048241
 30
0.0
 10
139.6006712634
 20
123.3329128984
 30
0.0
 10
140.094898337
 20
123.7706096933
 30
0.0
 10
140.5317934933
 20
124.3298024033
 30
0.0
 10
140.8756244899
 20
124.9653300637
 30
0.0
 10
141.0987811193
 20
125.6250628195
 30
0.0
 10
141.1585581676
 20
126.0743869703
 30
0.0
 10
141.1585581676
 20
126.2880828059
 30
0.0
  0
SPLINE
  5
5E5
100
AcDbEntity
  8
0
100
AcDbSpline
 62
7
  6
CONTINUOUS
 70
0
 71
3
 72
9
 73
5
 74
0
 42
0.0000001
 43
0.0000001
 44
0.0000000001
 40
0.0
 40
0.0
 40
0.0
 40
0.0
 40
0.2424016808
 40
1.0
 40
1.0
 40
1.0
 40
1.0
 10
82.7627191271
 20
75.2196630431
 30
0.0
 10
82.7362378954
 20
75.2729609436
 30
0.0
 10
82.6326815029
 20
75.4956446585
 30
0.0
 10
82.5515749209
 20
75.7285343857
 30
0.0
 10
82.5014987992
 20
75.9076710992
 30
0.0
  0
SPLINE
  5
5E6
100
AcDbEntity
  8
0
100
AcDbSpline
 62
7
  6
CONTINUOUS
 70
0
 71
3
 72
9
 73
5
 74
0
 42
0.0000001
 43
0.0000001
 44
0.0000000001
 40
0.0
 40
0.0
 40
0.0
 40
0.0
 40
0.2362530433
 40
1.0
 40
1.0
 40
1.0
 40
1.0
 10
82.5014987992
 20
75.9076710992
 30
0.0
 10
82.4693412604
 20
76.0227078798
 30
0.0
 10
82.3529070176
 20
76.5151063689
 30
0.0
 10
82.3111298158
 20
77.023563628
 30
0.0
 10
82.3111298158
 20
77.4097056441
 30
0.0
  0
SPLINE
  5
5E7
100
AcDbEntity
  8
0
100
AcDbSpline
 62
7
  6
CONTINUOUS
 70
0
 71
3
 72
11
 73
7
 74
0
 42
0.0000001
 43
0.0000001
 44
0.0000000001
 40
0.0
 40
0.0
 40
0.0
 40
0.0
 40
0.2372518718
 40
0.4999985497
 40
0.7627460178
 40
1.0
 40
1.0
 40
1.0
 40
1.0
 10
113.0865358302
 20
107.5481013841
 30
0.0
 10
113.1869297968
 20
107.6060635217
 30
0.0
 10
113.3769163304
 20
107.7659404315
 30
0.0
 10
113.598571575
 20
108.0689723494
 30
0.0
 10
113.7501758307
 20
108.4124491594
 30
0.0
 10
113.7936396675
 20
108.6569221297
 30
0.0
 10
113.7936396675
 20
108.7728479551
 30
0.0
  0
SPLINE
  5
5E8
100
AcDbEntity
  8
0
100
AcDbSpline
 62
7
  6
CONTINUOUS
 70
0
 71
3
 72
11
 73
7
 74
0
 42
0.0000001
 43
0.0000001
 44
0.0000000001
 40
0.0
 40
0.0
 40
0.0
 40
0.0
 40
0.2277892717
 40
0.4765581969
 40
0.7374522538
 40
1.0
 40
1.0
 40
1.0
 40
1.0
 10
82.3111298158
 20
77.4097056441
 30
0.0
 10
82.3111298158
 20
77.9386784459
 30
0.0
 10
82.4355447088
 20
79.0465667886
 30
0.0
 10
82.9145752054
 20
80.6974264994
 30
0.0
 10
83.6667593024
 20
82.3319754452
 30
0.0
 10
84.3285724402
 20
83.3574400065
 30
0.0
 10
84.6961910587
 20
83.8438320783
 30
0.0
  0
SPLINE
  5
5E9
100
AcDbEntity
  8
0
100
AcDbSpline
 62
7
  6
CONTINUOUS
 70
0
 71
3
 72
10
 73
6
 74
0
 42
0.0000001
 43
0.0000001
 44
0.0000000001
 40
0.0
 40
0.0
 40
0.0
 40
0.0
 40
0.2281450702
 40
0.4752816799
 40
1.0
 40
1.0
 40
1.0
 40
1.0
 10
137.8492654004
 20
136.990792296
 30
0.0
 10
137.8492654004
 20
136.8720385141
 30
0.0
 10
137.8724682505
 20
136.6243511499
 30
0.0
 10
137.9967851174
 20
136.1177712429
 30
0.0
 10
138.1688302265
 20
135.7486352601
 30
0.0
 10
138.3117658401
 20
135.5158970694
 30
0.0
  0
SPLINE
  5
5EA
100
AcDbEntity
  8
0
100
AcDbSpline
 62
7
  6
CONTINUOUS
 70
0
 71
3
 72
13
 73
9
 74
0
 42
0.0000001
 43
0.0000001
 44
0.0000000001
 40
0.0
 40
0.0
 40
0.0
 40
0.0
 40
0.1142487484
 40
0.2375477548
 40
0.5000005226
 40
0.7624530043
 40
0.8857516767
 40
1.0
 40
1.0
 40
1.0
 40
1.0
 10
120.2635217249
 20
138.1869319316
 30
0.0
 10
120.1183101552
 20
138.2707679738
 30
0.0
 10
119.8007237789
 20
138.4186610858
 30
0.0
 10
119.096892358
 20
138.6324197261
 30
0.0
 10
118.1421980581
 20
138.7362562533
 30
0.0
 10
117.1875046763
 20
138.632415312
 30
0.0
 10
116.483675893
 20
138.4186532094
 30
0.0
 10
116.1660914627
 20
138.270758511
 30
0.0
 10
116.0208810378
 20
138.1869217335
 30
0.0
  0
SPLINE
  5
5EB
100
AcDbEntity
  8
0
100
AcDbSpline
 62
7
  6
CONTINUOUS
 70
0
 71
3
 72
11
 73
7
 74
0
 42
0.0000001
 43
0.0000001
 44
0.0000000001
 40
0.0
 40
0.0
 40
0.0
 40
0.0
 40
0.2639050385
 40
0.5243837017
 40
0.7722876283
 40
1.0
 40
1.0
 40
1.0
 40
1.0
 10
102.037908689
 20
59.9430003325
 30
0.0
 10
102.2104587987
 20
59.5731581251
 30
0.0
 10
102.6040825453
 20
58.8608874736
 30
0.0
 10
103.3180703336
 20
57.8989629507
 30
0.0
 10
104.1216051497
 20
57.0871659902
 30
0.0
 10
104.720533014
 20
56.6519444918
 30
0.0
 10
105.0255002722
 20
56.4758755464
 30
0.0
  0
SPLINE
  5
5EC
100
AcDbEntity
  8
0
100
AcDbSpline
 62
7
  6
CONTINUOUS
 70
0
 71
3
 72
15
 73
11
 74
0
 42
0.0000001
 43
0.0000001
 44
0.0000000001
 40
0.0
 40
0.0
 40
0.0
 40
0.0
 40
0.1448871795
 40
0.2745334152
 40
0.3911109733
 40
0.499998016
 40
0.608885419
 40
0.7254639347
 40
0.8551114599
 40
1.0
 40
1.0
 40
1.0
 40
1.0
 10
105.0255002722
 20
56.4758755464
 30
0.0
 10
105.2559221225
 20
56.3428444387
 30
0.0
 10
105.7141760596
 20
56.1247717042
 30
0.0
 10
106.4184417614
 20
55.9547456666
 30
0.0
 10
107.0797183285
 20
55.9716717805
 30
0.0
 10
107.6682787008
 20
56.1850402438
 30
0.0
 10
108.1473324427
 20
56.5880773945
 30
0.0
 10
108.4926198556
 20
57.1523076231
 30
0.0
 10
108.6974970305
 20
57.8472419184
 30
0.0
 10
108.7377622371
 20
58.3531430424
 30
0.0
 10
108.7377622373
 20
58.6192122706
 30
0.0
  0
SPLINE
  5
5ED
100
AcDbEntity
  8
0
100
AcDbSpline
 62
7
  6
CONTINUOUS
 70
0
 71
3
 72
11
 73
7
 74
0
 42
0.0000001
 43
0.0000001
 44
0.0000000001
 40
0.0
 40
0.0
 40
0.0
 40
0.0
 40
0.2277133044
 40
0.4756173838
 40
0.7360956208
 40
1.0
 40
1.0
 40
1.0
 40
1.0
 10
108.7377622373
 20
58.6192122706
 30
0.0
 10
108.7377622376
 20
58.9713517788
 30
0.0
 10
108.6603100955
 20
59.7076380582
 30
0.0
 10
108.3590438928
 20
60.8094003476
 30
0.0
 10
107.882997004
 20
61.9086753867
 30
0.0
 10
107.462975162
 20
62.6056876224
 30
0.0
 10
107.228963738
 20
62.9400364429
 30
0.0
  0
SPLINE
  5
5EE
100
AcDbEntity
  8
0
100
AcDbSpline
 62
7
  6
CONTINUOUS
 70
0
 71
3
 72
11
 73
7
 74
0
 42
0.0000001
 43
0.0000001
 44
0.0000000001
 40
0.0
 40
0.0
 40
0.0
 40
0.0
 40
0.2277892717
 40
0.4765581969
 40
0.7374522538
 40
1.0
 40
1.0
 40
1.0
 40
1.0
 10
97.4079224477
 20
68.6937655351
 30
0.0
 10
97.4079224477
 20
69.2227383369
 30
0.0
 10
97.5323373407
 20
70.3306266796
 30
0.0
 10
98.0113678373
 20
71.9814863904
 30
0.0
 10
98.7635519343
 20
73.6160353362
 30
0.0
 10
99.4253650721
 20
74.6414998975
 30
0.0
 10
99.7929836906
 20
75.1278919693
 30
0.0
  0
SPLINE
  5
5EF
100
AcDbEntity
  8
0
100
AcDbSpline
 62
7
  6
CONTINUOUS
 70
0
 71
3
 72
11
 73
7
 74
0
 42
0.0000001
 43
0.0000001
 44
0.0000000001
 40
0.0
 40
0.0
 40
0.0
 40
0.0
 40
0.2372416196
 40
0.5000015492
 40
0.7627606319
 40
1.0
 40
1.0
 40
1.0
 40
1.0
 10
99.7929836906
 20
93.7493431628
 30
0.0
 10
99.7929836906
 20
93.9811835185
 30
0.0
 10
99.8799450548
 20
94.4701162527
 30
0.0
 10
100.1830222313
 20
95.1571510243
 30
0.0
 10
100.6264686761
 20
95.7631415193
 30
0.0
 10
101.0064133332
 20
96.0829177461
 30
0.0
 10
101.2071913651
 20
96.1988363048
 30
0.0
  0
SPLINE
  5
5F0
100
AcDbEntity
  8
0
100
AcDbSpline
 62
7
  6
CONTINUOUS
 70
0
 71
3
 72
11
 73
7
 74
0
 42
0.0000001
 43
0.0000001
 44
0.0000000001
 40
0.0
 40
0.0
 40
0.0
 40
0.0
 40
0.2277405459
 40
0.475241044
 40
0.7354778696
 40
1.0
 40
1.0
 40
1.0
 40
1.0
 10
136.1734705217
 20
129.613832238
 30
0.0
 10
135.9748439809
 20
129.4991558357
 30
0.0
 10
135.5842239997
 20
129.2175187351
 30
0.0
 10
135.0571015519
 20
128.6937540215
 30
0.0
 10
134.5846477403
 20
128.0731503218
 30
0.0
 10
134.3206598866
 20
127.6133298409
 30
0.0
 10
134.2033898935
 20
127.3741341833
 30
0.0
  0
SPLINE
  5
5F1
100
AcDbEntity
  8
0
100
AcDbSpline
 62
7
  6
CONTINUOUS
 70
0
 71
3
 72
11
 73
7
 74
0
 42
0.0000001
 43
0.0000001
 44
0.0000000001
 40
0.0
 40
0.0
 40
0.0
 40
0.0
 40
0.2177723091
 40
0.4509273687
 40
0.7102218233
 40
1.0
 40
1.0
 40
1.0
 40
1.0
 10
124.6777367866
 20
134.9209956973
 30
0.0
 10
124.6777367852
 20
135.0352568275
 30
0.0
 10
124.6355391003
 20
135.2734409342
 30
0.0
 10
124.4549695864
 20
135.6052321271
 30
0.0
 10
124.1695982283
 20
135.9052637058
 30
0.0
 10
123.9307427116
 20
136.0697088057
 30
0.0
 10
123.7990703506
 20
136.145728159
 30
0.0
  0
SPLINE
  5
5F2
100
AcDbEntity
  8
0
100
AcDbSpline
 62
7
  6
CONTINUOUS
 70
0
 71
3
 72
11
 73
7
 74
0
 42
0.0000001
 43
0.0000001
 44
0.0000000001
 40
0.0
 40
0.0
 40
0.0
 40
0.0
 40
0.2177825102
 40
0.4509091639
 40
0.7102957096
 40
1.0
 40
1.0
 40
1.0
 40
1.0
 10
100.2072133219
 20
59.3571804076
 30
0.0
 10
100.1412400392
 20
59.3952692461
 30
0.0
 10
100.0178065683
 20
59.4990385527
 30
0.0
 10
99.8863971836
 20
59.7138984431
 30
0.0
 10
99.8083477816
 20
59.9786864818
 30
0.0
 10
99.7929836906
 20
60.1714073143
 30
0.0
 10
99.7929836906
 20
60.2727440605
 30
0.0
  0
SPLINE
  5
5F3
100
AcDbEntity
  8
0
100
AcDbSpline
 62
7
  6
CONTINUOUS
 70
0
 71
3
 72
12
 73
8
 74
0
 42
0.0000001
 43
0.0000001
 44
0.0000000001
 40
0.0
 40
0.0
 40
0.0
 40
0.0
 40
0.1081709576
 40
0.2183599935
 40
0.4513630804
 40
0.7104204736
 40
1.0
 40
1.0
 40
1.0
 40
1.0
 10
98.9349609394
 20
65.3185071341
 30
0.0
 10
98.814061012
 20
65.3882943259
 30
0.0
 10
98.581660477
 20
65.550526433
 30
0.0
 10
98.1647311442
 20
65.9606146865
 30
0.0
 10
97.7518495503
 20
66.6337933345
 30
0.0
 10
97.4645526607
 20
67.6095021767
 30
0.0
 10
97.4079224477
 20
68.3200594513
 30
0.0
 10
97.4079224477
 20
68.6937655351
 30
0.0
  0
SPLINE
  5
5F4
100
AcDbEntity
  8
0
100
AcDbSpline
 62
7
  6
CONTINUOUS
 70
0
 71
3
 72
16
 73
12
 74
0
 42
0.0000001
 43
0.0000001
 44
0.0000000001
 40
0.0
 40
0.0
 40
0.0
 40
0.0
 40
0.1500712728
 40
0.3004171445
 40
0.4460042749
 40
0.5822903038
 40
0.7058515479
 40
0.8151319443
 40
0.9113967577
 40
0.9562409972
 40
1.0
 40
1.0
 40
1.0
 40
1.0
 10
102.6332663147
 20
60.302831579
 30
0.0
 10
102.7279166653
 20
60.0686396749
 30
0.0
 10
102.9494852506
 20
59.612193201
 30
0.0
 10
103.3625199591
 20
58.9829441613
 30
0.0
 10
103.8401406739
 20
58.4310876549
 30
0.0
 10
104.3591021981
 20
57.9836877174
 30
0.0
 10
104.895370143
 20
57.662499402
 30
0.0
 10
105.4250021122
 20
57.4834149924
 30
0.0
 10
105.8542816858
 20
57.4648373928
 30
0.0
 10
106.1587156914
 20
57.5367744807
 30
0.0
 10
106.2956381082
 20
57.5986787841
 30
0.0
 10
106.3594307962
 20
57.6354943654
 30
0.0
  0
SPLINE
  5
5F5
100
AcDbEntity
  8
0
100
AcDbSpline
 62
7
  6
CONTINUOUS
 70
0
 71
3
 72
11
 73
7
 74
0
 42
0.0000001
 43
0.0000001
 44
0.0000000001
 40
0.0
 40
0.0
 40
0.0
 40
0.0
 40
0.2631245503
 40
0.5238630415
 40
0.7722623789
 40
1.0
 40
1.0
 40
1.0
 40
1.0
 10
106.3654880629
 20
62.4471628823
 30
0.0
 10
106.5681776049
 20
62.1705120414
 30
0.0
 10
106.9326159088
 20
61.5900003745
 30
0.0
 10
107.3463717857
 20
60.6688148745
 30
0.0
 10
107.6091748023
 20
59.7414086325
 30
0.0
 10
107.6771482275
 20
59.1201360959
 30
0.0
 10
107.6771482272
 20
58.8233034475
 30
0.0
  0
SPLINE
  5
5F6
100
AcDbEntity
  8
0
100
AcDbSpline
 62
7
  6
CONTINUOUS
 70
0
 71
3
 72
11
 73
7
 74
0
 42
0.0000001
 43
0.0000001
 44
0.0000000001
 40
0.0
 40
0.0
 40
0.0
 40
0.0
 40
0.2897026209
 40
0.5490908265
 40
0.782219764
 40
1.0
 40
1.0
 40
1.0
 40
1.0
 10
106.1587256238
 20
64.8475176178
 30
0.0
 10
106.1587256238
 20
64.9741881045
 30
0.0
 10
106.1395207563
 20
65.2150895065
 30
0.0
 10
106.0419639254
 20
65.5460775091
 30
0.0
 10
105.8776985602
 20
65.8146545358
 30
0.0
 10
105.7234028928
 20
65.9443587323
 30
0.0
 10
105.6409405575
 20
65.9919756105
 30
0.0
  0
SPLINE
  5
5F7
100
AcDbEntity
  8
0
100
AcDbSpline
 62
7
  6
CONTINUOUS
 70
0
 71
3
 72
11
 73
7
 74
0
 42
0.0000001
 43
0.0000001
 44
0.0000000001
 40
0.0
 40
0.0
 40
0.0
 40
0.0
 40
0.2277366822
 40
0.4761358749
 40
0.7368747997
 40
1.0
 40
1.0
 40
1.0
 40
1.0
 10
104.6719483536
 20
57.0882008838
 30
0.0
 10
104.414879281
 20
57.2366164245
 30
0.0
 10
103.9108190023
 20
57.6061216448
 30
0.0
 10
103.239052079
 20
58.2974283732
 30
0.0
 10
102.6481512002
 20
59.1163592569
 30
0.0
 10
102.3276292653
 20
59.7222401767
 30
0.0
 10
102.189386563
 20
60.0361063806
 30
0.0
  0
SPLINE
  5
5F8
100
AcDbEntity
  8
0
100
AcDbSpline
 62
7
  6
CONTINUOUS
 70
0
 71
3
 72
9
 73
5
 74
0
 42
0.0000001
 43
0.0000001
 44
0.0000000001
 40
0.0
 40
0.0
 40
0.0
 40
0.0
 40
0.2552016628
 40
1.0
 40
1.0
 40
1.0
 40
1.0
 10
107.6771482272
 20
58.8233034475
 30
0.0
 10
107.6771482272
 20
58.7917197563
 30
0.0
 10
107.675672131
 20
58.6679668799
 30
0.0
 10
107.6682037837
 20
58.5442662037
 30
0.0
 10
107.6589065414
 20
58.4525602329
 30
0.0
  0
SPLINE
  5
5F9
100
AcDbEntity
  8
0
100
AcDbSpline
 62
7
  6
CONTINUOUS
 70
0
 71
3
 72
15
 73
11
 74
0
 42
0.0000001
 43
0.0000001
 44
0.0000000001
 40
0.0
 40
0.0
 40
0.0
 40
0.0
 40
0.1387616578
 40
0.2636918858
 40
0.37809509
 40
0.487603182
 40
0.5992737759
 40
0.7194941081
 40
0.8525447398
 40
1.0
 40
1.0
 40
1.0
 40
1.0
 10
107.6589065414
 20
58.4525602329
 30
0.0
 10
107.639822319
 20
58.2643176239
 30
0.0
 10
107.5736401256
 20
57.9082313325
 30
0.0
 10
107.3705272995
 20
57.4291027189
 30
0.0
 10
107.0714070003
 20
57.0505061188
 30
0.0
 10
106.684135469
 20
56.7920571843
 30
0.0
 10
106.2277239548
 20
56.6680584676
 30
0.0
 10
105.724523373
 20
56.6795290891
 30
0.0
 10
105.1925677397
 20
56.8206310265
 30
0.0
 10
104.8460738156
 20
56.9876717757
 30
0.0
 10
104.6719483536
 20
57.0882008838
 30
0.0
  0
SPLINE
  5
5FA
100
AcDbEntity
  8
0
100
AcDbSpline
 62
7
  6
CONTINUOUS
 70
0
 71
3
 72
11
 73
7
 74
0
 42
0.0000001
 43
0.0000001
 44
0.0000000001
 40
0.0
 40
0.0
 40
0.0
 40
0.0
 40
0.2897026209
 40
0.5490908265
 40
0.782219764
 40
1.0
 40
1.0
 40
1.0
 40
1.0
 10
141.5121100862
 20
76.6840264179
 30
0.0
 10
141.5121100862
 20
76.8106969046
 30
0.0
 10
141.4929052188
 20
77.0515983066
 30
0.0
 10
141.3953483879
 20
77.3825863092
 30
0.0
 10
141.2310830226
 20
77.6511633359
 30
0.0
 10
141.0767873553
 20
77.7808675324
 30
0.0
 10
140.99432502
 20
77.8284844106
 30
0.0
  0
SPLINE
  5
5FB
100
AcDbEntity
  8
0
100
AcDbSpline
 62
7
  6
CONTINUOUS
 70
0
 71
3
 72
11
 73
7
 74
0
 42
0.0000001
 43
0.0000001
 44
0.0000000001
 40
0.0
 40
0.0
 40
0.0
 40
0.0
 40
0.2645221304
 40
0.524758956
 40
0.7722594541
 40
1.0
 40
1.0
 40
1.0
 40
1.0
 10
134.8751441324
 20
126.9863054665
 30
0.0
 10
134.9924141255
 20
127.2255011241
 30
0.0
 10
135.2564019792
 20
127.685321605
 30
0.0
 10
135.7288557908
 20
128.3059253047
 30
0.0
 10
136.2559782386
 20
128.8296900183
 30
0.0
 10
136.6465982198
 20
129.1113271189
 30
0.0
 10
136.8452247606
 20
129.2260035212
 30
0.0
  0
SPLINE
  5
5FC
100
AcDbEntity
  8
0
100
AcDbSpline
 62
7
  6
CONTINUOUS
 70
0
 71
3
 72
11
 73
7
 74
0
 42
0.0000001
 43
0.0000001
 44
0.0000000001
 40
0.0
 40
0.0
 40
0.0
 40
0.0
 40
0.2897026209
 40
0.5490908265
 40
0.782219764
 40
1.0
 40
1.0
 40
1.0
 40
1.0
 10
141.1585581676
 20
126.2880828059
 30
0.0
 10
141.1585581676
 20
126.4147532926
 30
0.0
 10
141.1393533002
 20
126.6556546946
 30
0.0
 10
141.0417964693
 20
126.9866426972
 30
0.0
 10
140.877531104
 20
127.2552197239
 30
0.0
 10
140.7232354367
 20
127.3849239204
 30
0.0
 10
140.6407731014
 20
127.4325407986
 30
0.0
  0
SPLINE
  5
5FD
100
AcDbEntity
  8
0
100
AcDbSpline
 62
7
  6
CONTINUOUS
 70
0
 71
3
 72
11
 73
7
 74
0
 42
0.0000001
 43
0.0000001
 44
0.0000000001
 40
0.0
 40
0.0
 40
0.0
 40
0.0
 40
0.2893975675
 40
0.5491290883
 40
0.7823145228
 40
1.0
 40
1.0
 40
1.0
 40
1.0
 10
98.944459086
 20
69.5808800814
 30
0.0
 10
98.944459086
 20
69.6213707629
 30
0.0
 10
98.9382361976
 20
69.6984487912
 30
0.0
 10
98.9071354458
 20
69.8044096132
 30
0.0
 10
98.8545194058
 20
69.8903796263
 30
0.0
 10
98.8051397973
 20
69.9318697749
 30
0.0
 10
98.7787522025
 20
69.947079461
 30
0.0
  0
SPLINE
  5
5FE
100
AcDbEntity
  8
0
100
AcDbSpline
 62
7
  6
CONTINUOUS
 70
0
 71
3
 72
17
 73
13
 74
0
 42
0.0000001
 43
0.0000001
 44
0.0000000001
 40
0.0
 40
0.0
 40
0.0
 40
0.0
 40
0.0428590154
 40
0.087484945
 40
0.1353191404
 40
0.1872810096
 40
0.3045411455
 40
0.4382064078
 40
0.5825480614
 40
0.7297123844
 40
0.8713056989
 40
1.0
 40
1.0
 40
1.0
 40
1.0
 10
138.4943759665
 20
73.4983476559
 30
0.0
 10
138.5560060964
 20
73.4627600828
 30
0.0
 10
138.6918807077
 20
73.406341429
 30
0.0
 10
138.916129367
 20
73.3734282824
 30
0.0
 10
139.156965248
 20
73.3911749823
 30
0.0
 10
139.5068940642
 20
73.4842484361
 30
0.0
 10
139.954223182
 20
73.7288565104
 30
0.0
 10
140.4484502556
 20
74.1665533053
 30
0.0
 10
140.8853454119
 20
74.7257460153
 30
0.0
 10
141.2291764085
 20
75.3612736757
 30
0.0
 10
141.4523330379
 20
76.0210064315
 30
0.0
 10
141.5121100862
 20
76.4703305823
 30
0.0
 10
141.5121100862
 20
76.6840264179
 30
0.0
  0
SPLINE
  5
5FF
100
AcDbEntity
  8
0
100
AcDbSpline
 62
7
  6
CONTINUOUS
 70
0
 71
3
 72
17
 73
13
 74
0
 42
0.0000001
 43
0.0000001
 44
0.0000000001
 40
0.0
 40
0.0
 40
0.0
 40
0.0
 40
0.0428590154
 40
0.087484945
 40
0.1353191404
 40
0.1872810096
 40
0.3045411455
 40
0.4382064078
 40
0.5825480614
 40
0.7297123844
 40
0.8713056989
 40
1.0
 40
1.0
 40
1.0
 40
1.0
 10
103.140991504
 20
61.6618388558
 30
0.0
 10
103.2026216339
 20
61.6262512827
 30
0.0
 10
103.3384962453
 20
61.5698326289
 30
0.0
 10
103.5627449045
 20
61.5369194823
 30
0.0
 10
103.8035807856
 20
61.5546661821
 30
0.0
 10
104.1535096017
 20
61.647739636
 30
0.0
 10
104.6008387196
 20
61.8923477103
 30
0.0
 10
105.0950657931
 20
62.3300445052
 30
0.0
 10
105.5319609494
 20
62.8892372152
 30
0.0
 10
105.875791946
 20
63.5247648756
 30
0.0
 10
106.0989485754
 20
64.1844976313
 30
0.0
 10
106.1587256238
 20
64.6338217822
 30
0.0
 10
106.1587256238
 20
64.8475176178
 30
0.0
  0
ELLIPSE
  5
600
100
AcDbEntity
  8
0
100
AcDbEllipse
 62
7
  6
CONTINUOUS
 10
84.2838433284
 20
169.8327028826
 30
0.0
 11
-1.2246670841
 21
1.5979848223
 31
0.0
 40
0.4692948502
 41
0.7239831172
 42
1.9430984412
  0
ELLIPSE
  5
601
100
AcDbEntity
  8
0
100
AcDbEllipse
 62
7
  6
CONTINUOUS
 10
103.1636729898
 20
158.9326747369
 30
0.0
 11
-1.2246670841
 21
1.5979848223
 31
0.0
 40
0.4692948502
 41
0.7239831172
 42
1.9430984412
  0
ELLIPSE
  5
602
100
AcDbEntity
  8
0
100
AcDbEllipse
 62
7
  6
CONTINUOUS
 10
122.0435026512
 20
148.0326465913
 30
0.0
 11
-1.2246670841
 21
1.5979848223
 31
0.0
 40
0.4692948502
 41
0.7239831172
 42
1.9430984412
  0
ELLIPSE
  5
603
100
AcDbEntity
  8
0
100
AcDbEllipse
 62
7
  6
CONTINUOUS
 10
140.9233323126
 20
137.1326184456
 30
0.0
 11
-1.2246670841
 21
1.5979848223
 31
0.0
 40
0.4692948502
 41
0.7239831172
 42
1.9430984412
  0
ENDSEC
  0
SECTION
  2
OBJECTS
  0
DICTIONARY
  5
C
100
AcDbDictionary
280
0
281
1
  3
ACAD_GROUP
350
D
  3
ACAD_MLINESTYLE
350
17
  3
ACAD_LAYOUT
350
1A
  3
ACAD_PLOTSETTINGS
350
19
  3
ACAD_PLOTSTYLENAME
350
E
  0
DICTIONARY
  5
D
102
{ACAD_REACTORS
330
C
102
}
100
AcDbDictionary
280
0
281
1
  0
ACDBDICTIONARYWDFLT
  5
E
102
{ACAD_REACTORS
330
C
102
}
100
AcDbDictionary
281
1
  3
Normal
350
F
100
AcDbDictionaryWithDefault
340
F
  0
DICTIONARY
  5
17
102
{ACAD_REACTORS
330
C
102
}
100
AcDbDictionary
280
0
281
1
  3
Standard
350
18
  0
DICTIONARY
  5
19
102
{ACAD_REACTORS
330
C
102
}
100
AcDbDictionary
281
1
  0
DICTIONARY
  5
1A
102
{ACAD_REACTORS
330
C
102
}
100
AcDbDictionary
281
1
  3
Model
350
604
  3
Layout1
350
605
  0
ACDBPLACEHOLDER
  5
F
102
{ACAD_REACTORS
330
E
102
}
  0
MLINESTYLE
  5
18
102
{ACAD_REACTORS
330
17
102
}
100
AcDbMlineStyle
  2
STANDARD
 70
0
  3

 62
256
 51
90.0
 52
90.0
 71
2
 49
0.5
 62
256
  6
BYLAYER
 49
-0.5
 62
256
  6
BYLAYER
  0
LAYOUT
  5
604
102
{ACAD_REACTORS
330
1A
102
}
100
AcDbPlotSettings
  1

  2
none_device
  4

  6

 40
0.0
 41
0.0
 42
0.0
 43
0.0
 44
210.0
 45
297.0
 46
0.0
 47
0.0
 48
0.0
 49
0.0
140
0.0
141
0.0
142
1.0
143
1.0
 70
1024
 72
1
 73
0
 74
0
  7

 75
0
147
1.0
148
0.0
149
0.0
100
AcDbLayout
  1
Model
 70
0
 71
0
 10
0.0
 20
0.0
 11
210.0
 21
297.0
 12
0.0
 22
0.0
 32
0.0
 14
0.0
 24
0.0
 34
0.0
 15
0.0
 25
0.0
 35
0.0
146
0.0
 13
0.0
 23
0.0
 33
0.0
 16
1.0
 26
0.0
 36
0.0
 17
0.0
 27
1.0
 37
0.0
 76
0
330
210
345
0
346
0
  0
LAYOUT
  5
605
102
{ACAD_REACTORS
330
1A
102
}
100
AcDbPlotSettings
  1

  2
none_device
  4

  6

 40
0.0
 41
0.0
 42
0.0
 43
0.0
 44
210.0
 45
297.0
 46
0.0
 47
0.0
 48
0.0
 49
0.0
140
0.0
141
0.0
142
1.0
143
1.0
 70
0
 72
1
 73
0
 74
0
  7

 75
0
147
1.0
148
0.0
149
0.0
100
AcDbLayout
  1
Layout1
 70
0
 71
1
 10
0.0
 20
0.0
 11
210.0
 21
297.0
 12
0.0
 22
0.0
 32
0.0
 14
0.0
 24
0.0
 34
0.0
 15
0.0
 25
0.0
 35
0.0
146
0.0
 13
0.0
 23
0.0
 33
0.0
 16
1.0
 26
0.0
 36
0.0
 17
0.0
 27
1.0
 37
0.0
 76
0
330
211
345
0
346
0
  0
ENDSEC
  0
EOF
