999
DXF file: C:\Users\sesa63760\Documents\7-Dev\_Creo\CAD\MCADFD0001467_3D-CAD\drw0001_1.dxf
999
Pro/ENGINEER 2019471 by Parametric Technology Corporation
  0
SECTION
  2
HEADER
  9
$ACADVER
  1
AC1024
  9
$DWGCODEPAGE
  3
ANSI_1252
  9
$EXTMAX
 10
98.7159927089
 20
139.6126182597
 30
0.0
  9
$EXTMIN
 10
0.0
 20
0.0
 30
0.0
  9
$LIMMIN
 10
0.0
 20
0.0
  9
$LIMMAX
 10
98.7159927089
 20
139.6126182597
  9
$VIEWCTR
 10
49.3579963545
 20
69.8063091299
  9
$VIEWSIZE
 40
139.6126182597
  9
$CLAYER
  8
0
  9
$LTSCALE
 40
9.1006743755
  9
$CELTYPE
  6
BYLAYER
  9
$DIMSCALE
 40
1.0
  9
$DIMASZ
 40
1.1751903894
  9
$DIMEXO
 40
1.0
  9
$DIMDLI
 40
6.2877386594
  9
$DIMEXE
 40
1.0
  9
$DIMCEN
 40
1.4892012614
  9
$DIMLFAC
 40
1.0
  9
$DIMBLK
  1
_FILLED
  9
$DIMALT
 70
0
  9
$DIMALTF
 40
0.0393700787
  9
$DIMTXT
 40
1.6452665451
  9
$DIMTOL
 70
1
  9
$DIMLIM
 70
0
  9
$DIMTFAC
 40
1.0
  9
$DIMTP
 40
0.01
  9
$DIMTM
 40
0.01
  9
$DIMGAP
 40
0.625
  9
$DIMDSEP
 70
46
  9
$AUNITS
 70
0
  9
$PDMODE
 70
3
  9
$PDSIZE
 40
0.3125
  9
$HANDSEED
  5
320
  9
$TILEMODE
 70
1
  9
$MEASUREMENT
 70
1
  9
$INSUNITS
 70
4
  0
ENDSEC
  0
SECTION
  2
CLASSES
  0
CLASS
  1
ACDBDICTIONARYWDFLT
  2
AcDbDictionaryWithDefault
  3
AutoCAD 2000
 90
0
 91
1
280
0
281
0
  0
CLASS
  1
ACDBPLACEHOLDER
  2
AcDbPlaceHolder
  3
AutoCAD 2000
 90
0
 91
1
280
0
281
0
  0
CLASS
  1
LAYOUT
  2
AcDbLayout
  3
AutoCAD 2000
 90
0
 91
0
280
0
281
0
  0
ENDSEC
  0
SECTION
  2
TABLES
  0
TABLE
  2
VPORT
  5
8
100
AcDbSymbolTable
 70
2
  0
VPORT
  5
1F4
100
AcDbSymbolTableRecord
100
AcDbViewportTableRecord
  2
*ACTIVE
 70
0
 10
0.0
 20
0.0
 11
1.0
 21
1.0
 12
49.3579963545
 22
69.8063091299
 13
0.0
 23
0.0
 14
1.0
 24
1.0
 15
0.0
 25
0.0
 16
0.0
 26
0.0
 36
1.0
 17
0.0
 27
0.0
 37
0.0
 40
139.6126182597
 41
0.7070707071
 42
50.0
 43
0.0
 44
0.0
 50
0.0
 51
0.0
 71
0
 72
100
 73
1
 74
1
 75
0
 76
0
 77
0
 78
0
  0
ENDTAB
  0
TABLE
  2
LTYPE
  5
5
100
AcDbSymbolTable
 70
6
  0
LTYPE
  5
14
100
AcDbSymbolTableRecord
100
AcDbLinetypeTableRecord
  2
BYBLOCK
 70
0
  3

 72
65
 73
0
 40
0.0
  0
LTYPE
  5
15
100
AcDbSymbolTableRecord
100
AcDbLinetypeTableRecord
  2
BYLAYER
 70
0
  3

 72
65
 73
0
 40
0.0
  0
LTYPE
  5
16
100
AcDbSymbolTableRecord
100
AcDbLinetypeTableRecord
  2
CONTINUOUS
 70
64
  3
Solid line
 72
65
 73
0
 40
0.0
  0
LTYPE
  5
1F5
100
AcDbSymbolTableRecord
100
AcDbLinetypeTableRecord
  2
CENTER
 70
64
  3
____ _ ____ _ ____ _ ____ _ ____ _ ____ _ ____
 72
65
 73
4
 40
0.6
 49
0.375
 74
0
 49
-0.075
 74
0
 49
0.075
 74
0
 49
-0.075
 74
0
  0
LTYPE
  5
1F6
100
AcDbSymbolTableRecord
100
AcDbLinetypeTableRecord
  2
HIDDEN
 70
64
  3
- - - - - - - - - - - - - - - - - - - -
 72
65
 73
2
 40
0.2
 49
0.1
 74
0
 49
-0.1
 74
0
  0
LTYPE
  5
1F7
100
AcDbSymbolTableRecord
100
AcDbLinetypeTableRecord
  2
PHANTOM
 70
64
  3
_____ _ _ _____ _ _ _____ _ _ _____
 72
65
 73
6
 40
0.8
 49
0.45
 74
0
 49
-0.05
 74
0
 49
0.1
 74
0
 49
-0.05
 74
0
 49
0.1
 74
0
 49
-0.05
 74
0
  0
LTYPE
  5
1F8
100
AcDbSymbolTableRecord
100
AcDbLinetypeTableRecord
  2
DOT
 70
64
  3
. . . . . . . . . . . . . . . . . . . .
 72
65
 73
2
 40
0.2
 49
0.1
 74
0
 49
-0.1
 74
0
  0
LTYPE
  5
1F9
100
AcDbSymbolTableRecord
100
AcDbLinetypeTableRecord
  2
DASHED
 70
64
  3
- - - - - - - - - - - - - - - - - - - -
 72
65
 73
2
 40
0.2
 49
0.1
 74
0
 49
-0.1
 74
0
  0
ENDTAB
  0
TABLE
  2
LAYER
  5
2
100
AcDbSymbolTable
 70
36
  0
LAYER
  5
10
100
AcDbSymbolTableRecord
100
AcDbLayerTableRecord
  2
0
 70
0
 62
7
  6
CONTINUOUS
370
-3
390
F
  0
LAYER
  5
1FA
100
AcDbSymbolTableRecord
100
AcDbLayerTableRecord
  2
DEFAULT_1
 70
0
 62
7
  6
CENTER
370
-3
390
F
  0
LAYER
  5
1FB
100
AcDbSymbolTableRecord
100
AcDbLayerTableRecord
  2
DEFAULT_2
 70
0
 62
8
  6
HIDDEN
370
-3
390
F
  0
LAYER
  5
1FC
100
AcDbSymbolTableRecord
100
AcDbLayerTableRecord
  2
DEFAULT_3
 70
0
 62
7
  6
PHANTOM
370
-3
390
F
  0
LAYER
  5
1FD
100
AcDbSymbolTableRecord
100
AcDbLayerTableRecord
  2
00_COMPONENTS
 70
0
 62
7
  6
CONTINUOUS
370
-3
390
F
  0
LAYER
  5
1FE
100
AcDbSymbolTableRecord
100
AcDbLayerTableRecord
  2
01_1_DEFAULT_DATUMS
 70
0
 62
7
  6
CONTINUOUS
370
-3
390
F
  0
LAYER
  5
1FF
100
AcDbSymbolTableRecord
100
AcDbLayerTableRecord
  2
01_PLANES
 70
0
 62
7
  6
CONTINUOUS
370
-3
390
F
  0
LAYER
  5
200
100
AcDbSymbolTableRecord
100
AcDbLayerTableRecord
  2
02_COORD_SYS
 70
0
 62
7
  6
CONTINUOUS
370
-3
390
F
  0
LAYER
  5
201
100
AcDbSymbolTableRecord
100
AcDbLayerTableRecord
  2
03_AXES
 70
0
 62
7
  6
CONTINUOUS
370
-3
390
F
  0
LAYER
  5
202
100
AcDbSymbolTableRecord
100
AcDbLayerTableRecord
  2
04_POINTS
 70
0
 62
7
  6
CONTINUOUS
370
-3
390
F
  0
LAYER
  5
203
100
AcDbSymbolTableRecord
100
AcDbLayerTableRecord
  2
05_CURVES
 70
0
 62
7
  6
CONTINUOUS
370
-3
390
F
  0
LAYER
  5
204
100
AcDbSymbolTableRecord
100
AcDbLayerTableRecord
  2
06_SURFS
 70
0
 62
7
  6
CONTINUOUS
370
-3
390
F
  0
LAYER
  5
205
100
AcDbSymbolTableRecord
100
AcDbLayerTableRecord
  2
07_COSMETICS
 70
0
 62
7
  6
CONTINUOUS
370
-3
390
F
  0
LAYER
  5
206
100
AcDbSymbolTableRecord
100
AcDbLayerTableRecord
  2
10_NOTES
 70
0
 62
7
  6
CONTINUOUS
370
-3
390
F
  0
LAYER
  5
207
100
AcDbSymbolTableRecord
100
AcDbLayerTableRecord
  2
11_NOTES_PUB
 70
0
 62
7
  6
CONTINUOUS
370
-3
390
F
  0
LAYER
  5
208
100
AcDbSymbolTableRecord
100
AcDbLayerTableRecord
  2
13_REF_GTOL
 70
0
 62
7
  6
CONTINUOUS
370
-3
390
F
  0
LAYER
  5
209
100
AcDbSymbolTableRecord
100
AcDbLayerTableRecord
  2
16_MISC
 70
0
 62
7
  6
CONTINUOUS
370
-3
390
F
  0
LAYER
  5
20A
100
AcDbSymbolTableRecord
100
AcDbLayerTableRecord
  2
17_NO_PRINT
 70
0
 62
7
  6
CONTINUOUS
370
-3
390
F
  0
LAYER
  5
20B
100
AcDbSymbolTableRecord
100
AcDbLayerTableRecord
  2
18_DATUM_CAMS_JOINTS
 70
0
 62
7
  6
CONTINUOUS
370
-3
390
F
  0
LAYER
  5
20C
100
AcDbSymbolTableRecord
100
AcDbLayerTableRecord
  2
19_DATUM_FUNCTIONAL
 70
0
 62
7
  6
CONTINUOUS
370
-3
390
F
  0
LAYER
  5
20D
100
AcDbSymbolTableRecord
100
AcDbLayerTableRecord
  2
20_DATUM_KINEMATIC_SCHEME
 70
0
 62
7
  6
CONTINUOUS
370
-3
390
F
  0
ENDTAB
  0
TABLE
  2
STYLE
  5
3
100
AcDbSymbolTable
 70
1
  0
STYLE
  5
11
100
AcDbSymbolTableRecord
100
AcDbTextStyleTableRecord
  2
STANDARD
 70
0
 40
0.0
 41
0.8
 50
0.0
 71
0
 42
0.2
  3
txt
  4

  0
STYLE
  5
20E
100
AcDbSymbolTableRecord
100
AcDbTextStyleTableRecord
  2
TEXTSTYLE_1
 70
0
 40
0.0
 41
0.8
 50
0.0
 71
0
 42
0.2
  3
gdt
  4

  0
ENDTAB
  0
TABLE
  2
VIEW
  5
6
100
AcDbSymbolTable
 70
0
  0
ENDTAB
  0
TABLE
  2
UCS
  5
7
100
AcDbSymbolTable
 70
0
  0
ENDTAB
  0
TABLE
  2
APPID
  5
9
100
AcDbSymbolTable
 70
1
  0
APPID
  5
20F
100
AcDbSymbolTableRecord
100
AcDbRegAppTableRecord
  2
ACAD
 70
0
  0
ENDTAB
  0
TABLE
  2
BLOCK_RECORD
  5
1
100
AcDbSymbolTable
 70
0
  0
BLOCK_RECORD
  5
210
100
AcDbSymbolTableRecord
100
AcDbBlockTableRecord
  2
*Model_Space
  0
BLOCK_RECORD
  5
211
100
AcDbSymbolTableRecord
100
AcDbBlockTableRecord
  2
*Paper_Space
  0
BLOCK_RECORD
  5
212
100
AcDbSymbolTableRecord
100
AcDbBlockTableRecord
  2
_FILLED
  0
ENDTAB
  0
TABLE
  2
DIMSTYLE
  5
A
100
AcDbSymbolTable
 70
1
100
AcDbDimStyleTable
 71
0
  0
DIMSTYLE
105
213
100
AcDbSymbolTableRecord
100
AcDbDimStyleTableRecord
  2
STANDARD
 70
0
  3

  4

 40
1.0
 41
1.1751903894
 42
1.0
 43
0.38
 44
1.0
 45
0.0
 46
0.0
 47
0.01
 48
0.01
140
1.6452665451
141
0.09
142
0.0
143
25.4
144
1.0
145
0.0
146
1.0
147
0.625
 71
1
 72
0
 73
0
 74
0
 75
0
 76
0
 77
1
 78
8
 79
2
170
0
171
1
172
0
173
0
174
0
175
0
176
0
177
0
178
0
270
2
179
2
271
2
272
2
273
2
274
2
275
0
280
0
281
0
282
0
283
1
284
8
285
0
286
0
287
3
288
0
340
11
278
46
341
212
342
212
343
212
344
212
  0
ENDTAB
  0
ENDSEC
  0
SECTION
  2
BLOCKS
  0
BLOCK
  5
20
100
AcDbEntity
  8
0
100
AcDbBlockBegin
  2
*Model_Space
 70
0
 10
0.0
 20
0.0
 30
0.0
  3
*Model_Space
  1

  0
ENDBLK
  5
21
100
AcDbEntity
  8
0
100
AcDbBlockEnd
  0
BLOCK
  5
1C
100
AcDbEntity
  8
0
100
AcDbBlockBegin
  2
*Paper_Space
 70
0
 10
0.0
 20
0.0
 30
0.0
  3
*Paper_Space
  1

  0
ENDBLK
  5
1D
100
AcDbEntity
  8
0
100
AcDbBlockEnd
  0
BLOCK
  5
214
100
AcDbEntity
  8
0
100
AcDbBlockBegin
  2
_FILLED
 70
64
 10
0.0
 20
0.0
  3
_FILLED
  1

  0
SOLID
  5
215
100
AcDbEntity
  8
0
  6
BYBLOCK
 62
0
100
AcDbTrace
 10
0.0
 20
0.0
 11
-1.0
 21
0.25
 12
-1.0
 22
-0.25
 13
-1.0
 23
-0.25
  0
ENDBLK
  5
216
100
AcDbEntity
  8
0
  6
BYBLOCK
 62
0
100
AcDbBlockEnd
  0
ENDSEC
  0
SECTION
  2
ENTITIES
  0
LINE
  5
217
100
AcDbEntity
  8
0
100
AcDbLine
 62
7
  6
CONTINUOUS
 10
23.4022500318
 20
34.7879113722
 11
11.6642285944
 21
41.5647078973
  0
LINE
  5
218
100
AcDbEntity
  8
0
100
AcDbLine
 62
7
  6
CONTINUOUS
 10
11.5077905153
 20
41.8186246429
 11
23.2458119527
 21
35.0418281178
  0
LINE
  5
219
100
AcDbEntity
  8
0
100
AcDbLine
 62
7
  6
CONTINUOUS
 10
29.5617480103
 20
102.4609775485
 11
38.6631974886
 21
107.7156704886
  0
LINE
  5
21A
100
AcDbEntity
  8
0
100
AcDbLine
 62
7
  6
CONTINUOUS
 10
56.0579518841
 20
117.7584766738
 11
62.2731317736
 21
121.3467910367
  0
LINE
  5
21B
100
AcDbEntity
  8
0
100
AcDbLine
 62
7
  6
CONTINUOUS
 10
54.8762761705
 20
18.6065535641
 11
29.5617480103
 21
33.2215725759
  0
LINE
  5
21C
100
AcDbEntity
  8
0
100
AcDbLine
 62
7
  6
CONTINUOUS
 10
42.5181209035
 20
28.5365124018
 11
26.9669411309
 21
37.514787114
  0
LINE
  5
21D
100
AcDbEntity
  8
0
100
AcDbLine
 62
7
  6
CONTINUOUS
 10
12.6213770995
 20
46.2324616076
 11
24.3593985369
 21
39.4556650825
  0
LINE
  5
21E
100
AcDbEntity
  8
0
100
AcDbLine
 62
7
  6
CONTINUOUS
 10
24.8075087461
 20
40.1797087396
 11
13.0694873086
 21
46.9565052646
  0
LINE
  5
21F
100
AcDbEntity
  8
0
100
AcDbLine
 62
7
  6
CONTINUOUS
 10
24.8075087461
 20
40.1797087396
 11
24.8547909259
 21
40.1462954373
  0
LINE
  5
220
100
AcDbEntity
  8
0
100
AcDbLine
 62
7
  6
CONTINUOUS
 10
27.4080286379
 20
38.3419771118
 11
27.4553108178
 21
38.3085638095
  0
LINE
  5
221
100
AcDbEntity
  8
0
100
AcDbLine
 62
7
  6
CONTINUOUS
 10
25.4854557844
 20
40.3966322029
 11
27.3767429785
 21
39.0601001099
  0
LINE
  5
222
100
AcDbEntity
  8
0
100
AcDbLine
 62
7
  6
CONTINUOUS
 10
15.809843756
 20
68.8917413838
 11
15.809843756
 21
71.3989819528
  0
LINE
  5
223
100
AcDbEntity
  8
0
100
AcDbLine
 62
7
  6
CONTINUOUS
 10
56.729706123
 20
117.370647957
 11
52.4870830997
 21
114.9211830338
  0
LINE
  5
224
100
AcDbEntity
  8
0
100
AcDbLine
 62
7
  6
CONTINUOUS
 10
39.3349517275
 20
107.3278417718
 11
43.5775747508
 21
109.777306695
  0
LINE
  5
225
100
AcDbEntity
  8
0
100
AcDbLine
 62
7
  6
CONTINUOUS
 10
53.1234818523
 20
114.5537663547
 11
44.2139735034
 21
109.4098900159
  0
LINE
  5
226
100
AcDbEntity
  8
0
100
AcDbLine
 62
7
  6
CONTINUOUS
 10
27.7079788517
 20
39.5953015583
 11
25.7051506129
 21
40.751608822
  0
LINE
  5
227
100
AcDbEntity
  8
0
100
AcDbLine
 62
7
  6
CONTINUOUS
 10
14.0786702202
 20
47.7086301763
 11
25.8166916576
 21
40.9318336513
  0
LINE
  5
228
100
AcDbEntity
  8
0
100
AcDbLine
 62
7
  6
CONTINUOUS
 10
14.3046537215
 20
63.7683541673
 11
14.3460783549
 21
63.6768006951
  0
LINE
  5
229
100
AcDbEntity
  8
0
100
AcDbLine
 62
7
  6
CONTINUOUS
 10
16.5632157988
 20
47.9276244665
 11
16.5668163955
 21
47.8975389397
  0
LINE
  5
22A
100
AcDbEntity
  8
0
100
AcDbLine
 62
7
  6
CONTINUOUS
 10
16.5562787101
 20
47.9226178922
 11
16.5597666635
 21
47.8924490168
  0
LINE
  5
22B
100
AcDbEntity
  8
0
100
AcDbLine
 62
7
  6
CONTINUOUS
 10
17.4675829389
 20
69.6030546742
 11
17.4675829389
 21
69.1131532239
  0
LINE
  5
22C
100
AcDbEntity
  8
0
100
AcDbLine
 62
7
  6
CONTINUOUS
 10
17.8036778615
 20
69.3071965597
 11
17.8036778615
 21
69.38139909
  0
LINE
  5
22D
100
AcDbEntity
  8
0
100
AcDbLine
 62
7
  6
CONTINUOUS
 10
18.2654098923
 20
68.5939901113
 11
18.2654098923
 21
67.2875862439
  0
LINE
  5
22E
100
AcDbEntity
  8
0
100
AcDbLine
 62
7
  6
CONTINUOUS
 10
18.6522095317
 20
67.5109037868
 11
18.6522095317
 21
68.8173076542
  0
LINE
  5
22F
100
AcDbEntity
  8
0
100
AcDbLine
 62
7
  6
CONTINUOUS
 10
18.6896757274
 20
67.0426417912
 11
18.6896757274
 21
68.3490456586
  0
LINE
  5
230
100
AcDbEntity
  8
0
100
AcDbLine
 62
7
  6
CONTINUOUS
 10
19.5889121143
 20
67.8884309603
 11
19.5889121143
 21
68.3783324106
  0
LINE
  5
231
100
AcDbEntity
  8
0
100
AcDbLine
 62
7
  6
CONTINUOUS
 10
17.7442441759
 20
72.763597039
 11
17.7560661795
 21
72.9956162304
  0
LINE
  5
232
100
AcDbEntity
  8
0
100
AcDbLine
 62
7
  6
CONTINUOUS
 10
17.7438261093
 20
72.763385662
 11
17.7560661795
 21
72.9956162304
  0
LINE
  5
233
100
AcDbEntity
  8
0
100
AcDbLine
 62
7
  6
CONTINUOUS
 10
66.2365878909
 20
116.5724559715
 11
64.5282223352
 21
115.5861365456
  0
LINE
  5
234
100
AcDbEntity
  8
0
100
AcDbLine
 62
7
  6
CONTINUOUS
 10
69.2901704169
 20
119.2216889748
 11
66.237378288
 21
117.4627845972
  0
LINE
  5
235
100
AcDbEntity
  8
0
100
AcDbLine
 62
7
  6
CONTINUOUS
 10
70.3038481773
 20
116.8483427556
 11
69.3846136724
 21
116.3187142953
  0
LINE
  5
236
100
AcDbEntity
  8
0
100
AcDbLine
 62
7
  6
CONTINUOUS
 10
23.1954263261
 20
46.721535813
 11
18.734700077
 21
49.2968790516
  0
LINE
  5
237
100
AcDbEntity
  8
0
100
AcDbLine
 62
7
  6
CONTINUOUS
 10
22.0832953268
 20
67.7770849379
 11
22.0832953268
 21
65.2698443689
  0
LINE
  5
238
100
AcDbEntity
  8
0
100
AcDbLine
 62
7
  6
CONTINUOUS
 10
24.342202962
 20
66.3142109488
 11
24.3335192785
 21
66.0970402544
  0
LINE
  5
239
100
AcDbEntity
  8
0
100
AcDbLine
 62
7
  6
CONTINUOUS
 10
24.342603739
 20
66.3144201842
 11
24.3335192785
 21
66.0970402544
  0
LINE
  5
23A
100
AcDbEntity
  8
0
100
AcDbLine
 62
7
  6
CONTINUOUS
 10
66.9544558607
 20
115.7125528198
 11
66.0447150911
 21
115.1138594574
  0
LINE
  5
23B
100
AcDbEntity
  8
0
100
AcDbLine
 62
7
  6
CONTINUOUS
 10
66.4465487222
 20
115.0754086443
 11
67.1544405741
 21
115.5412667955
  0
LINE
  5
23C
100
AcDbEntity
  8
0
100
AcDbLine
 62
7
  6
CONTINUOUS
 10
71.0913749691
 20
114.6153687769
 11
70.0890385995
 21
113.9557389666
  0
LINE
  5
23D
100
AcDbEntity
  8
0
100
AcDbLine
 62
7
  6
CONTINUOUS
 10
71.1512942641
 20
114.0661097688
 11
69.2865831395
 21
112.8389578038
  0
LINE
  5
23E
100
AcDbEntity
  8
0
100
AcDbLine
 62
7
  6
CONTINUOUS
 10
69.3828309172
 20
114.3105615446
 11
70.3020654221
 21
114.8401900048
  0
LINE
  5
23F
100
AcDbEntity
  8
0
100
AcDbLine
 62
7
  6
CONTINUOUS
 10
71.1523899773
 20
115.3003562541
 11
72.0716244822
 21
115.8299847144
  0
LINE
  5
240
100
AcDbEntity
  8
0
100
AcDbLine
 62
7
  6
CONTINUOUS
 10
39.8405991793
 20
46.686185508
 11
14.526071019
 21
61.3012045198
  0
LINE
  5
241
100
AcDbEntity
  8
0
100
AcDbLine
 62
7
  6
CONTINUOUS
 10
15.809843756
 20
71.3989819528
 11
17.9304365643
 21
72.8949457193
  0
LINE
  5
242
100
AcDbEntity
  8
0
100
AcDbLine
 62
7
  6
CONTINUOUS
 10
73.1756866278
 20
110.5936336539
 11
73.8311952434
 21
111.0250188026
  0
LINE
  5
243
100
AcDbEntity
  8
0
100
AcDbLine
 62
7
  6
CONTINUOUS
 10
15.0681368345
 20
78.6612415002
 11
28.6223230002
 21
86.4867078199
  0
LINE
  5
244
100
AcDbEntity
  8
0
100
AcDbLine
 62
7
  6
CONTINUOUS
 10
74.2984386401
 20
112.8195246533
 11
77.3505745297
 21
114.5780509305
  0
LINE
  5
245
100
AcDbEntity
  8
0
100
AcDbLine
 62
7
  6
CONTINUOUS
 10
75.2164780118
 20
112.0029167609
 11
74.2972435069
 21
111.4732883006
  0
LINE
  5
246
100
AcDbEntity
  8
0
100
AcDbLine
 62
7
  6
CONTINUOUS
 10
41.0147772555
 20
46.6945847047
 11
39.8405991793
 21
46.686185508
  0
LINE
  5
247
100
AcDbEntity
  8
0
100
AcDbLine
 62
7
  6
CONTINUOUS
 10
39.6606043459
 20
49.0617779259
 11
14.3460761856
 21
63.6767969378
  0
LINE
  5
248
100
AcDbEntity
  8
0
100
AcDbLine
 62
7
  6
CONTINUOUS
 10
14.4460744889
 20
64.0133034815
 11
39.7606026492
 21
49.3982844697
  0
LINE
  5
249
100
AcDbEntity
  8
0
100
AcDbLine
 62
7
  6
CONTINUOUS
 10
39.8313130329
 20
49.4391088851
 11
14.5167848726
 21
64.0541278969
  0
LINE
  5
24A
100
AcDbEntity
  8
0
100
AcDbLine
 62
7
  6
CONTINUOUS
 10
13.0694873086
 20
46.9565052646
 11
12.6213770995
 21
46.2324616076
  0
LINE
  5
24B
100
AcDbEntity
  8
0
100
AcDbLine
 62
7
  6
CONTINUOUS
 10
77.49163044
 20
112.3302083483
 11
75.2154388302
 21
110.8323298745
  0
LINE
  5
24C
100
AcDbEntity
  8
0
100
AcDbLine
 62
7
  6
CONTINUOUS
 10
75.9218168067
 20
109.6049840182
 11
78.2480660171
 21
111.1358706268
  0
LINE
  5
24D
100
AcDbEntity
  8
0
100
AcDbLine
 62
7
  6
CONTINUOUS
 10
78.8532170259
 20
110.1804475631
 11
76.5344578223
 21
108.65449007
  0
LINE
  5
24E
100
AcDbEntity
  8
0
100
AcDbLine
 62
7
  6
CONTINUOUS
 10
80.0906590449
 20
109.4660262427
 11
77.6097522504
 21
108.033682587
  0
LINE
  5
24F
100
AcDbEntity
  8
0
100
AcDbLine
 62
7
  6
CONTINUOUS
 10
39.7606026492
 20
49.0716835028
 11
39.6606065151
 21
49.0617816833
  0
LINE
  5
250
100
AcDbEntity
  8
0
100
AcDbLine
 62
7
  6
CONTINUOUS
 10
75.8217040295
 20
32.209833162
 11
76.4581027822
 21
31.842416483
  0
LINE
  5
251
100
AcDbEntity
  8
0
100
AcDbLine
 62
7
  6
CONTINUOUS
 10
18.6896757274
 20
67.489273158
 11
18.6522095317
 21
67.5109037868
  0
LINE
  5
252
100
AcDbEntity
  8
0
100
AcDbLine
 62
7
  6
CONTINUOUS
 10
19.5889121143
 20
68.2765144004
 11
19.0764753668
 21
68.5723632015
  0
LINE
  5
253
100
AcDbEntity
  8
0
100
AcDbLine
 62
7
  6
CONTINUOUS
 10
18.6522095317
 20
68.8173076542
 11
17.8036778615
 21
69.3071965597
  0
LINE
  5
254
100
AcDbEntity
  8
0
100
AcDbLine
 62
7
  6
CONTINUOUS
 10
39.6606065151
 20
49.0617816833
 11
39.6191818817
 21
49.1533351555
  0
LINE
  5
255
100
AcDbEntity
  8
0
100
AcDbLine
 62
7
  6
CONTINUOUS
 10
18.734700077
 20
49.2968790516
 11
16.7847974819
 21
46.1462822183
  0
LINE
  5
256
100
AcDbEntity
  8
0
100
AcDbLine
 62
7
  6
CONTINUOUS
 10
17.4675829389
 20
69.1131532239
 11
17.8036778615
 21
69.3071965597
  0
LINE
  5
257
100
AcDbEntity
  8
0
100
AcDbLine
 62
7
  6
CONTINUOUS
 10
18.2654098923
 20
68.5939901113
 11
18.6522095317
 21
68.8173076542
  0
LINE
  5
258
100
AcDbEntity
  8
0
100
AcDbLine
 62
7
  6
CONTINUOUS
 10
75.8217040295
 20
101.4492381346
 11
66.9121956806
 21
96.3053617958
  0
LINE
  5
259
100
AcDbEntity
  8
0
100
AcDbLine
 62
7
  6
CONTINUOUS
 10
18.6896757274
 20
68.3490456586
 11
19.0764753668
 21
68.5723632015
  0
LINE
  5
25A
100
AcDbEntity
  8
0
100
AcDbLine
 62
7
  6
CONTINUOUS
 10
80.7007258055
 20
103.5312863788
 11
76.4581027822
 21
101.0818214555
  0
LINE
  5
25B
100
AcDbEntity
  8
0
100
AcDbLine
 62
7
  6
CONTINUOUS
 10
63.30597141
 20
93.4884801935
 11
67.5485944333
 21
95.9379451168
  0
LINE
  5
25C
100
AcDbEntity
  8
0
100
AcDbLine
 62
7
  6
CONTINUOUS
 10
18.2654098923
 20
67.2875862439
 11
18.6522095317
 21
67.5109037868
  0
LINE
  5
25D
100
AcDbEntity
  8
0
100
AcDbLine
 62
7
  6
CONTINUOUS
 10
54.8762761705
 20
87.8459585367
 11
63.9777256489
 21
93.1006514767
  0
LINE
  5
25E
100
AcDbEntity
  8
0
100
AcDbLine
 62
7
  6
CONTINUOUS
 10
81.3724800443
 20
103.143457662
 11
87.5876599339
 21
106.7317720249
  0
LINE
  5
25F
100
AcDbEntity
  8
0
100
AcDbLine
 62
7
  6
CONTINUOUS
 10
14.5167848726
 20
64.0541278969
 11
14.4460744889
 21
64.0133034815
  0
LINE
  5
260
100
AcDbEntity
  8
0
100
AcDbLine
 62
7
  6
CONTINUOUS
 10
24.1284756941
 20
66.2154195449
 11
24.3335192785
 21
66.0970402544
  0
LINE
  5
261
100
AcDbEntity
  8
0
100
AcDbLine
 62
7
  6
CONTINUOUS
 10
80.7007258055
 20
34.2918814062
 11
81.3724800443
 21
33.9040526894
  0
LINE
  5
262
100
AcDbEntity
  8
0
100
AcDbLine
 62
7
  6
CONTINUOUS
 10
24.4736085684
 20
69.1173290625
 11
17.7560661795
 21
72.9956162304
  0
LINE
  5
263
100
AcDbEntity
  8
0
100
AcDbLine
 62
7
  6
CONTINUOUS
 10
23.3609179258
 20
42.3496432013
 11
23.9906598707
 21
43.3671622212
  0
LINE
  5
264
100
AcDbEntity
  8
0
100
AcDbLine
 62
7
  6
CONTINUOUS
 10
24.4384541756
 20
69.1376250015
 11
22.0832953268
 21
67.7770849379
  0
LINE
  5
265
100
AcDbEntity
  8
0
100
AcDbLine
 62
7
  6
CONTINUOUS
 10
15.0681368345
 20
78.6612415002
 11
40.3826649948
 21
64.0462224884
  0
LINE
  5
266
100
AcDbEntity
  8
0
100
AcDbLine
 62
7
  6
CONTINUOUS
 10
25.4123866023
 20
42.0406012371
 11
25.0132512228
 21
41.3956897088
  0
LINE
  5
267
100
AcDbEntity
  8
0
100
AcDbLine
 62
7
  6
CONTINUOUS
 10
24.3593985369
 20
39.4556650825
 11
24.8075087461
 21
40.1797087396
  0
LINE
  5
268
100
AcDbEntity
  8
0
100
AcDbLine
 62
7
  6
CONTINUOUS
 10
25.8166916576
 20
40.9318336513
 11
25.4854557844
 21
40.3966322029
  0
LINE
  5
269
100
AcDbEntity
  8
0
100
AcDbLine
 62
7
  6
CONTINUOUS
 10
24.342603739
 20
66.3144201842
 11
22.0832953268
 21
65.2698443689
  0
LINE
  5
26A
100
AcDbEntity
  8
0
100
AcDbLine
 62
7
  6
CONTINUOUS
 10
27.3767429785
 20
39.0601001099
 11
27.7079788517
 21
39.5953015583
  0
LINE
  5
26B
100
AcDbEntity
  8
0
100
AcDbLine
 62
7
  6
CONTINUOUS
 10
27.4553108178
 20
38.3085638095
 11
27.0072006086
 21
37.5845201524
  0
LINE
  5
26C
100
AcDbEntity
  8
0
100
AcDbLine
 62
7
  6
CONTINUOUS
 10
72.8511478754
 20
82.7917979237
 11
66.5940098466
 21
79.1792591623
  0
LINE
  5
26D
100
AcDbEntity
  8
0
100
AcDbLine
 62
7
  6
CONTINUOUS
 10
40.3826649948
 20
64.0462224884
 11
53.9368511605
 21
71.871688808
  0
LINE
  5
26E
100
AcDbEntity
  8
0
100
AcDbLine
 62
7
  6
CONTINUOUS
 10
48.0783626592
 20
109.267028955
 11
48.1174817177
 21
108.8708606508
  0
LINE
  5
26F
100
AcDbEntity
  8
0
100
AcDbLine
 62
7
  6
CONTINUOUS
 10
52.4870830997
 20
114.1863435568
 11
52.4870830997
 21
114.9211830338
  0
LINE
  5
270
100
AcDbEntity
  8
0
100
AcDbLine
 62
7
  6
CONTINUOUS
 10
88.7970703351
 20
87.9156135082
 11
84.9079992304
 21
85.6702706619
  0
LINE
  5
271
100
AcDbEntity
  8
0
100
AcDbLine
 62
7
  6
CONTINUOUS
 10
53.9368511605
 20
71.871688808
 11
28.6223230002
 21
86.4867078199
  0
LINE
  5
272
100
AcDbEntity
  8
0
100
AcDbLine
 62
7
  6
CONTINUOUS
 10
56.0579518841
 20
116.9828127814
 11
56.0579518841
 21
117.7584766738
  0
LINE
  5
273
100
AcDbEntity
  8
0
100
AcDbLine
 62
7
  6
CONTINUOUS
 10
84.9079992304
 20
59.7870604067
 11
88.7970703351
 21
57.541723591
  0
LINE
  5
274
100
AcDbEntity
  8
0
100
AcDbLine
 62
7
  6
CONTINUOUS
 10
39.8313130329
 20
49.4391088851
 11
39.7606026492
 21
49.3982844697
  0
LINE
  5
275
100
AcDbEntity
  8
0
100
AcDbLine
 62
7
  6
CONTINUOUS
 10
39.7606026492
 20
49.0716835028
 11
39.8303595064
 21
49.1119574027
  0
LINE
  5
276
100
AcDbEntity
  8
0
100
AcDbLine
 62
7
  6
CONTINUOUS
 10
60.6649157669
 20
102.0003435245
 11
60.7040348253
 21
101.6041752204
  0
LINE
  5
277
100
AcDbEntity
  8
0
100
AcDbLine
 62
7
  6
CONTINUOUS
 10
63.9777256489
 20
25.3730772853
 11
63.9777256489
 21
23.8612465042
  0
LINE
  5
278
100
AcDbEntity
  8
0
100
AcDbLine
 62
7
  6
CONTINUOUS
 10
63.9777256489
 20
91.5888206956
 11
63.9777256489
 21
93.1006514767
  0
LINE
  5
279
100
AcDbEntity
  8
0
100
AcDbLine
 62
7
  6
CONTINUOUS
 10
65.9222556077
 20
94.9989835629
 11
65.9222556077
 21
92.386175828
  0
LINE
  5
27A
100
AcDbEntity
  8
0
100
AcDbLine
 62
7
  6
CONTINUOUS
 10
65.9222556077
 20
27.3519325743
 11
65.9222556077
 21
25.7595785903
  0
LINE
  5
27B
100
AcDbEntity
  8
0
100
AcDbLine
 62
7
  6
CONTINUOUS
 10
66.5940098466
 20
91.9983471113
 11
66.5940098466
 21
79.1792591623
  0
LINE
  5
27C
100
AcDbEntity
  8
0
100
AcDbLine
 62
7
  6
CONTINUOUS
 10
66.5940098466
 20
42.4366503915
 11
66.5940098466
 21
27.9845576083
  0
LINE
  5
27D
100
AcDbEntity
  8
0
100
AcDbLine
 62
7
  6
CONTINUOUS
 10
67.5485944333
 20
28.6922324564
 11
67.5485944333
 21
26.6985401442
  0
LINE
  5
27E
100
AcDbEntity
  8
0
100
AcDbLine
 62
7
  6
CONTINUOUS
 10
66.237378288
 20
117.4627845972
 11
66.2361926403
 21
116.1272329022
  0
LINE
  5
27F
100
AcDbEntity
  8
0
100
AcDbLine
 62
7
  6
CONTINUOUS
 10
67.1544899196
 20
115.5970657147
 11
67.1543919442
 21
115.4862771145
  0
LINE
  5
280
100
AcDbEntity
  8
0
100
AcDbLine
 62
7
  6
CONTINUOUS
 10
67.5485944333
 20
95.9379451168
 11
67.7378521569
 21
92.9219667767
  0
LINE
  5
281
100
AcDbEntity
  8
0
100
AcDbLine
 62
7
  6
CONTINUOUS
 10
69.3846136724
 20
116.3187142953
 11
69.3828309172
 21
114.3105615446
  0
LINE
  5
282
100
AcDbEntity
  8
0
100
AcDbLine
 62
7
  6
CONTINUOUS
 10
70.3020654221
 20
114.8401900048
 11
70.3038481773
 21
116.8483427556
  0
LINE
  5
283
100
AcDbEntity
  8
0
100
AcDbLine
 62
7
  6
CONTINUOUS
 10
71.15060523
 20
113.2899596583
 11
71.1523899773
 21
115.3003562541
  0
LINE
  5
284
100
AcDbEntity
  8
0
100
AcDbLine
 62
7
  6
CONTINUOUS
 10
29.5617480103
 20
102.4609775485
 11
54.8762761705
 21
87.8459585367
  0
LINE
  5
285
100
AcDbEntity
  8
0
100
AcDbLine
 62
7
  6
CONTINUOUS
 10
75.8217040295
 20
101.4492381346
 11
75.8217040295
 21
98.4384921955
  0
LINE
  5
286
100
AcDbEntity
  8
0
100
AcDbLine
 62
7
  6
CONTINUOUS
 10
75.8217040295
 20
33.9565407868
 11
75.8217040295
 21
32.209833162
  0
LINE
  5
287
100
AcDbEntity
  8
0
100
AcDbLine
 62
7
  6
CONTINUOUS
 10
74.2972435069
 20
111.4732883006
 11
74.2984386401
 21
112.8195246533
  0
LINE
  5
288
100
AcDbEntity
  8
0
100
AcDbLine
 62
7
  6
CONTINUOUS
 10
75.2154388302
 20
110.8323298745
 11
75.2164780118
 21
112.0029167609
  0
LINE
  5
289
100
AcDbEntity
  8
0
100
AcDbLine
 62
7
  6
CONTINUOUS
 10
77.491634397
 20
112.3301453177
 11
77.3505745297
 21
114.5780509305
  0
LINE
  5
28A
100
AcDbEntity
  8
0
100
AcDbLine
 62
7
  6
CONTINUOUS
 10
76.4581027822
 20
34.1070222659
 11
76.4581027822
 21
31.842416483
  0
LINE
  5
28B
100
AcDbEntity
  8
0
100
AcDbLine
 62
7
  6
CONTINUOUS
 10
76.4581027822
 20
98.0710755164
 11
76.4581027822
 21
101.0818214555
  0
LINE
  5
28C
100
AcDbEntity
  8
0
100
AcDbLine
 62
7
  6
CONTINUOUS
 10
80.7007258055
 20
103.5312863788
 11
80.7007258055
 21
102.1662737339
  0
LINE
  5
28D
100
AcDbEntity
  8
0
100
AcDbLine
 62
7
  6
CONTINUOUS
 10
80.7007258055
 20
35.110223773
 11
80.7007258055
 21
34.2918814062
  0
LINE
  5
28E
100
AcDbEntity
  8
0
100
AcDbLine
 62
7
  6
CONTINUOUS
 10
84.9079992304
 20
56.5211343704
 11
87.7364145793
 21
58.1541109859
  0
LINE
  5
28F
100
AcDbEntity
  8
0
100
AcDbLine
 62
7
  6
CONTINUOUS
 10
39.3349517275
 20
107.3278417718
 11
38.6631974886
 21
107.7156704886
  0
LINE
  5
290
100
AcDbEntity
  8
0
100
AcDbLine
 62
7
  6
CONTINUOUS
 10
63.30597141
 20
93.4884801935
 11
63.9777256489
 21
93.1006514767
  0
LINE
  5
291
100
AcDbEntity
  8
0
100
AcDbLine
 62
7
  6
CONTINUOUS
 10
66.5940098466
 20
91.9983471113
 11
65.9222556077
 21
92.386175828
  0
LINE
  5
292
100
AcDbEntity
  8
0
100
AcDbLine
 62
7
  6
CONTINUOUS
 10
65.9222556077
 20
94.9989835629
 11
41.9512359252
 21
108.8383451411
  0
LINE
  5
293
100
AcDbEntity
  8
0
100
AcDbLine
 62
7
  6
CONTINUOUS
 10
78.8532170259
 20
110.1804475631
 11
78.9397451855
 21
108.8015497825
  0
LINE
  5
294
100
AcDbEntity
  8
0
100
AcDbLine
 62
7
  6
CONTINUOUS
 10
81.3724800443
 20
35.2690653343
 11
81.3724800443
 21
33.9040526894
  0
LINE
  5
295
100
AcDbEntity
  8
0
100
AcDbLine
 62
7
  6
CONTINUOUS
 10
81.3724800443
 20
101.7784450171
 11
81.3724800443
 21
103.143457662
  0
LINE
  5
296
100
AcDbEntity
  8
0
100
AcDbLine
 62
7
  6
CONTINUOUS
 10
84.9079992304
 20
85.6702706619
 11
84.9079992304
 21
56.5211343704
  0
LINE
  5
297
100
AcDbEntity
  8
0
100
AcDbLine
 62
7
  6
CONTINUOUS
 10
72.8511478754
 20
46.0491891529
 11
66.5940098466
 21
42.4366503915
  0
LINE
  5
298
100
AcDbEntity
  8
0
100
AcDbLine
 62
7
  6
CONTINUOUS
 10
53.9473195925
 20
35.1351239532
 11
42.5181209035
 21
28.5365124018
  0
LINE
  5
299
100
AcDbEntity
  8
0
100
AcDbLine
 62
7
  6
CONTINUOUS
 10
44.2139735034
 20
109.4098900159
 11
43.5775747508
 21
109.777306695
  0
LINE
  5
29A
100
AcDbEntity
  8
0
100
AcDbLine
 62
7
  6
CONTINUOUS
 10
66.9121956806
 20
96.3053617958
 11
67.5485944333
 21
95.9379451168
  0
LINE
  5
29B
100
AcDbEntity
  8
0
100
AcDbLine
 62
7
  6
CONTINUOUS
 10
65.9785235827
 20
98.5590166072
 11
60.7040348253
 21
101.6041752204
  0
LINE
  5
29C
100
AcDbEntity
  8
0
100
AcDbLine
 62
7
  6
CONTINUOUS
 10
53.3919704751
 20
105.8257020376
 11
48.1174817177
 21
108.8708606508
  0
LINE
  5
29D
100
AcDbEntity
  8
0
100
AcDbLine
 62
7
  6
CONTINUOUS
 10
88.7970703351
 20
99.5099478315
 11
88.7970703351
 21
87.9156135082
  0
LINE
  5
29E
100
AcDbEntity
  8
0
100
AcDbLine
 62
7
  6
CONTINUOUS
 10
88.7970703351
 20
57.541723591
 11
88.7970703351
 21
38.190616305
  0
LINE
  5
29F
100
AcDbEntity
  8
0
100
AcDbLine
 62
7
  6
CONTINUOUS
 10
75.8217040295
 20
98.4384921955
 11
76.4581027822
 21
98.0710755164
  0
LINE
  5
2A0
100
AcDbEntity
  8
0
100
AcDbLine
 62
7
  6
CONTINUOUS
 10
53.1234818523
 20
114.5537663547
 11
52.4870830997
 21
114.9211830338
  0
LINE
  5
2A1
100
AcDbEntity
  8
0
100
AcDbLine
 62
7
  6
CONTINUOUS
 10
75.8217040295
 20
101.4492381346
 11
76.4581027822
 21
101.0818214555
  0
LINE
  5
2A2
100
AcDbEntity
  8
0
100
AcDbLine
 62
7
  6
CONTINUOUS
 10
80.7007258055
 20
102.1662737339
 11
81.3724800443
 21
101.7784450171
  0
LINE
  5
2A3
100
AcDbEntity
  8
0
100
AcDbLine
 62
7
  6
CONTINUOUS
 10
87.5876599339
 20
106.7317720249
 11
88.7970703351
 21
99.5099478315
  0
LINE
  5
2A4
100
AcDbEntity
  8
0
100
AcDbLine
 62
7
  6
CONTINUOUS
 10
75.8217040295
 20
32.209833162
 11
67.5485944333
 21
27.4333796212
  0
LINE
  5
2A5
100
AcDbEntity
  8
0
100
AcDbLine
 62
7
  6
CONTINUOUS
 10
80.7007258055
 20
34.2918814062
 11
76.4581027822
 21
31.842416483
  0
LINE
  5
2A6
100
AcDbEntity
  8
0
100
AcDbLine
 62
7
  6
CONTINUOUS
 10
63.9777256489
 20
24.6369103965
 11
67.5485944333
 21
26.6985401442
  0
LINE
  5
2A7
100
AcDbEntity
  8
0
100
AcDbLine
 62
7
  6
CONTINUOUS
 10
88.7970703351
 20
38.190616305
 11
81.3724800443
 21
33.9040526894
  0
LINE
  5
2A8
100
AcDbEntity
  8
0
100
AcDbLine
 62
7
  6
CONTINUOUS
 10
63.9777256489
 20
23.8612465042
 11
54.8762761705
 21
18.6065535641
  0
LINE
  5
2A9
100
AcDbEntity
  8
0
100
AcDbLine
 62
7
  6
CONTINUOUS
 10
56.729706123
 20
117.370647957
 11
56.0579518841
 21
117.7584766738
  0
LINE
  5
2AA
100
AcDbEntity
  8
0
100
AcDbLine
 62
7
  6
CONTINUOUS
 10
80.7007258055
 20
103.5312863788
 11
81.3724800443
 21
103.143457662
  0
LINE
  5
2AB
100
AcDbEntity
  8
0
100
AcDbLine
 62
7
  6
CONTINUOUS
 10
77.6097522504
 20
108.033682587
 11
64.5282223352
 21
115.5861365456
  0
LINE
  5
2AC
100
AcDbEntity
  8
0
100
AcDbLine
 62
7
  6
CONTINUOUS
 10
76.0757132751
 20
109.4914049932
 11
73.8168341155
 21
110.7955390972
  0
LINE
  5
2AD
100
AcDbEntity
  8
0
100
AcDbLine
 62
7
  6
CONTINUOUS
 10
68.5514871356
 20
113.8354206099
 11
66.2926145673
 21
115.1395517424
  0
LINE
  5
2AE
100
AcDbEntity
  8
0
100
AcDbLine
 62
7
  6
CONTINUOUS
 10
74.2972435069
 20
111.4732883006
 11
71.15060523
 21
113.2899596583
  0
LINE
  5
2AF
100
AcDbEntity
  8
0
100
AcDbLine
 62
7
  6
CONTINUOUS
 10
69.3828309172
 20
114.3105615446
 11
66.2361926403
 21
116.1272329022
  0
LINE
  5
2B0
100
AcDbEntity
  8
0
100
AcDbLine
 62
7
  6
CONTINUOUS
 10
70.0890385995
 20
113.9557389666
 11
69.4286890936
 21
114.3369833066
  0
LINE
  5
2B1
100
AcDbEntity
  8
0
100
AcDbLine
 62
7
  6
CONTINUOUS
 10
80.0906590449
 20
109.4660262427
 11
78.8532170259
 21
110.1804475631
  0
LINE
  5
2B2
100
AcDbEntity
  8
0
100
AcDbLine
 62
7
  6
CONTINUOUS
 10
87.5876599339
 20
106.7317720249
 11
77.4766304539
 21
112.5692455556
  0
LINE
  5
2B3
100
AcDbEntity
  8
0
100
AcDbLine
 62
7
  6
CONTINUOUS
 10
67.6203863623
 20
118.2596220016
 11
62.2731317736
 21
121.3467910367
  0
ARC
  5
2B4
100
AcDbEntity
  8
0
100
AcDbCircle
 62
7
  6
CONTINUOUS
 10
245.2345507655
 20
57.3637769699
 40
221.0736067163
100
AcDbArc
 50
176.9523879586
 51
177.6796764653
  0
ARC
  5
2B5
100
AcDbEntity
  8
0
100
AcDbCircle
 62
7
  6
CONTINUOUS
 10
216.5358472432
 20
63.357906585
 40
202.020245801
100
AcDbArc
 50
179.9995714561
 51
180.5833196732
  0
ARC
  5
2B6
100
AcDbEntity
  8
0
100
AcDbCircle
 62
7
  6
CONTINUOUS
 10
241.2562620063
 20
48.7398654796
 40
201.4261324492
100
AcDbArc
 50
179.9987105559
 51
180.5841805735
  0
ARC
  5
2B7
100
AcDbEntity
  8
0
100
AcDbCircle
 62
7
  6
CONTINUOUS
 10
182.4921007335
 20
33.4945641475
 40
128.5552495819
100
AcDbArc
 50
179.268799176
 51
179.9993265378
  0
ARC
  5
2B8
100
AcDbEntity
  8
0
100
AcDbCircle
 62
7
  6
CONTINUOUS
 10
138.3397607427
 20
61.9853278188
 40
122.5927248692
100
AcDbArc
 50
186.6011387321
 51
187.4215505778
  0
ARC
  5
2B9
100
AcDbEntity
  8
0
100
AcDbCircle
 62
7
  6
CONTINUOUS
 10
133.425769683
 20
46.8774557882
 40
104.7579025388
100
AcDbArc
 50
185.8580335126
 51
187.4901989115
  0
ARC
  5
2BA
100
AcDbEntity
  8
0
100
AcDbCircle
 62
7
  6
CONTINUOUS
 10
61.7248944857
 20
99.9549640913
 40
18.9491715229
100
AcDbArc
 50
56.9052324962
 51
59.9885238441
  0
ARC
  5
2BB
100
AcDbEntity
  8
0
100
AcDbCircle
 62
7
  6
CONTINUOUS
 10
62.5988795616
 20
101.4863500523
 40
17.1859640749
100
AcDbArc
 50
59.9580093671
 51
63.363465803
  0
ARC
  5
2BC
100
AcDbEntity
  8
0
100
AcDbCircle
 62
7
  6
CONTINUOUS
 10
25.6296607121
 20
79.5532258562
 40
14.3065755943
100
AcDbArc
 50
239.0195293479
 51
240.9815931784
  0
ARC
  5
2BD
100
AcDbEntity
  8
0
100
AcDbCircle
 62
7
  6
CONTINUOUS
 10
26.3242882262
 20
52.5407994586
 40
10.8
100
AcDbArc
 50
262.9092076491
 51
267.6315267058
  0
ARC
  5
2BE
100
AcDbEntity
  8
0
100
AcDbCircle
 62
7
  6
CONTINUOUS
 10
26.3242882262
 20
52.5407994586
 40
10.8
100
AcDbArc
 50
161.3663532959
 51
205.4600097672
  0
ARC
  5
2BF
100
AcDbEntity
  8
0
100
AcDbCircle
 62
7
  6
CONTINUOUS
 10
25.5802518598
 20
49.7720012184
 40
7.9406442186
100
AcDbArc
 50
267.8818742334
 51
273.2318875847
  0
ARC
  5
2C0
100
AcDbEntity
  8
0
100
AcDbCircle
 62
7
  6
CONTINUOUS
 10
37.5071541745
 20
35.8732728903
 40
3.8601157912
100
AcDbArc
 50
239.0747912713
 51
239.9975525474
  0
ARC
  5
2C1
100
AcDbEntity
  8
0
100
AcDbCircle
 62
7
  6
CONTINUOUS
 10
37.4396748875
 20
35.7564680739
 40
3.7252202081
100
AcDbArc
 50
239.9980232892
 51
240.9534283571
  0
ARC
  5
2C2
100
AcDbEntity
  8
0
100
AcDbCircle
 62
7
  6
CONTINUOUS
 10
26.0287364977
 20
45.3623454156
 40
3.6154283521
100
AcDbArc
 50
267.6096868801
 51
270.4205134083
  0
ARC
  5
2C3
100
AcDbEntity
  8
0
100
AcDbCircle
 62
7
  6
CONTINUOUS
 10
20.8485879179
 20
50.9332506583
 40
2.7940297442
100
AcDbArc
 50
212.3119123305
 51
218.1084421362
  0
ARC
  5
2C4
100
AcDbEntity
  8
0
100
AcDbCircle
 62
7
  6
CONTINUOUS
 10
20.7363032225
 20
50.8487748887
 40
2.653546326
100
AcDbArc
 50
218.1694927342
 51
218.663755605
  0
SPLINE
  5
2C5
100
AcDbEntity
  8
0
100
AcDbSpline
 62
7
  6
CONTINUOUS
 70
0
 71
3
 72
9
 73
5
 74
0
 42
0.0000001
 43
0.0000001
 44
0.0000000001
 40
0.0
 40
0.0
 40
0.0
 40
0.0
 40
0.4875748108
 40
1.0
 40
1.0
 40
1.0
 40
1.0
 10
17.4675829389
 20
69.6030546742
 30
0.0
 10
17.793197246
 20
69.3733682483
 30
0.0
 10
18.4843385269
 20
68.9347962233
 30
0.0
 10
19.2102738526
 20
68.5572494062
 30
0.0
 10
19.5889121143
 20
68.3783324106
 30
0.0
  0
SPLINE
  5
2C6
100
AcDbEntity
  8
0
100
AcDbSpline
 62
7
  6
CONTINUOUS
 70
0
 71
3
 72
9
 73
5
 74
0
 42
0.0000001
 43
0.0000001
 44
0.0000000001
 40
0.0
 40
0.0
 40
0.0
 40
0.0
 40
0.2539524394
 40
1.0
 40
1.0
 40
1.0
 40
1.0
 10
18.2654098923
 20
68.5939901113
 30
0.0
 10
18.196330161
 20
68.6354895859
 30
0.0
 10
17.9257491451
 20
68.8012797652
 30
0.0
 10
17.6610389964
 20
68.9766904536
 30
0.0
 10
17.4675829389
 20
69.1131532239
 30
0.0
  0
SPLINE
  5
2C7
100
AcDbEntity
  8
0
100
AcDbSpline
 62
7
  6
CONTINUOUS
 70
0
 71
3
 72
9
 73
5
 74
0
 42
0.0000001
 43
0.0000001
 44
0.0000000001
 40
0.0
 40
0.0
 40
0.0
 40
0.0
 40
0.2534965605
 40
1.0
 40
1.0
 40
1.0
 40
1.0
 10
19.5889121143
 20
67.8884309603
 30
0.0
 10
19.5117153964
 20
67.9249085333
 30
0.0
 10
19.2083180028
 20
68.071181715
 30
0.0
 10
18.9095343603
 20
68.2270594722
 30
0.0
 10
18.6896757274
 20
68.3490456586
 30
0.0
  0
SPLINE
  5
2C8
100
AcDbEntity
  8
0
100
AcDbSpline
 62
7
  6
CONTINUOUS
 70
0
 71
3
 72
10
 73
6
 74
0
 42
0.0000001
 43
0.0000001
 44
0.0000000001
 40
0.0
 40
0.0
 40
0.0
 40
0.0
 40
0.2363523362
 40
0.478040779
 40
1.0
 40
1.0
 40
1.0
 40
1.0
 10
68.7242722133
 20
114.4845119596
 30
0.0
 10
68.7445577114
 20
114.497858992
 30
0.0
 10
68.7887126692
 20
114.5204322435
 30
0.0
 10
68.8887198887
 20
114.5465659938
 30
0.0
 10
68.969335814
 20
114.5422659459
 30
0.0
 10
69.0219117812
 20
114.5317080659
 30
0.0
  0
SPLINE
  5
2C9
100
AcDbEntity
  8
0
100
AcDbSpline
 62
7
  6
CONTINUOUS
 70
0
 71
3
 72
11
 73
7
 74
0
 42
0.0000001
 43
0.0000001
 44
0.0000000001
 40
0.0
 40
0.0
 40
0.0
 40
0.0
 40
0.2290777674
 40
0.4674013463
 40
0.7227921742
 40
1.0
 40
1.0
 40
1.0
 40
1.0
 10
73.6670886764
 20
110.538413714
 30
0.0
 10
73.6865881994
 20
110.5512422823
 30
0.0
 10
73.723265888
 20
110.5824761018
 30
0.0
 10
73.7669189167
 20
110.642523272
 30
0.0
 10
73.7990485578
 20
110.7147316169
 30
0.0
 10
73.8120759845
 20
110.7676961166
 30
0.0
 10
73.8168380305
 20
110.7955368488
 30
0.0
  0
SPLINE
  5
2CA
100
AcDbEntity
  8
0
100
AcDbSpline
 62
7
  6
CONTINUOUS
 70
0
 71
3
 72
15
 73
11
 74
0
 42
0.0000001
 43
0.0000001
 44
0.0000000001
 40
0.0
 40
0.0
 40
0.0
 40
0.0
 40
0.1114312588
 40
0.2331149423
 40
0.3622285914
 40
0.4955856599
 40
0.6295523994
 40
0.7604488859
 40
0.8849553985
 40
1.0
 40
1.0
 40
1.0
 40
1.0
 10
78.8532170259
 20
110.1804475631
 30
0.0
 10
78.8504979332
 20
110.223778554
 30
0.0
 10
78.8367973067
 20
110.3139935845
 30
0.0
 10
78.7967856685
 20
110.4496848135
 30
0.0
 10
78.7376901324
 20
110.5875532235
 30
0.0
 10
78.6617948103
 20
110.7224080355
 30
0.0
 10
78.5718809981
 20
110.8491989018
 30
0.0
 10
78.4713454298
 20
110.9632260311
 30
0.0
 10
78.3639555524
 20
111.060134257
 30
0.0
 10
78.2868882915
 20
111.1134573161
 30
0.0
 10
78.2480691932
 20
111.1358687927
 30
0.0
  0
SPLINE
  5
2CB
100
AcDbEntity
  8
0
100
AcDbSpline
 62
7
  6
CONTINUOUS
 70
0
 71
3
 72
15
 73
11
 74
0
 42
0.0000001
 43
0.0000001
 44
0.0000000001
 40
0.0
 40
0.0
 40
0.0
 40
0.0
 40
0.1150680189
 40
0.239539196
 40
0.3704514869
 40
0.504414117
 40
0.6377675374
 40
0.7668962785
 40
0.8885467142
 40
1.0
 40
1.0
 40
1.0
 40
1.0
 10
78.2480691932
 20
111.1358687927
 30
0.0
 10
78.1995355685
 20
111.1638892933
 30
0.0
 10
78.1031973979
 20
111.2305281684
 30
0.0
 10
77.9689715572
 20
111.351680123
 30
0.0
 10
77.8433029961
 20
111.4941994492
 30
0.0
 10
77.7309161564
 20
111.6526972608
 30
0.0
 10
77.6360362434
 20
111.8212643401
 30
0.0
 10
77.5621797724
 20
111.9935940455
 30
0.0
 10
77.5121461188
 20
112.1632043843
 30
0.0
 10
77.4950283156
 20
112.2759704057
 30
0.0
 10
77.491634397
 20
112.3301453177
 30
0.0
  0
SPLINE
  5
2CC
100
AcDbEntity
  8
0
100
AcDbSpline
 62
7
  6
CONTINUOUS
 70
0
 71
3
 72
11
 73
7
 74
0
 42
0.0000001
 43
0.0000001
 44
0.0000000001
 40
0.0
 40
0.0
 40
0.0
 40
0.0
 40
0.2930440309
 40
0.5530171486
 40
0.7847456105
 40
1.0
 40
1.0
 40
1.0
 40
1.0
 10
65.9181823614
 20
114.7837138286
 30
0.0
 10
65.9165104275
 20
114.8196994567
 30
0.0
 10
65.9184671802
 20
114.8880653747
 30
0.0
 10
65.9405769117
 20
114.9828079977
 30
0.0
 10
65.9818541203
 20
115.0606247511
 30
0.0
 10
66.0226204988
 20
115.0992976431
 30
0.0
 10
66.0447189129
 20
115.1138536569
 30
0.0
  0
SPLINE
  5
2CD
100
AcDbEntity
  8
0
100
AcDbSpline
 62
7
  6
CONTINUOUS
 70
0
 71
3
 72
9
 73
5
 74
0
 42
0.0000001
 43
0.0000001
 44
0.0000000001
 40
0.0
 40
0.0
 40
0.0
 40
0.0
 40
0.2620227153
 40
1.0
 40
1.0
 40
1.0
 40
1.0
 10
73.836017269
 20
110.9731083579
 30
0.0
 10
73.8360036345
 20
110.9574909253
 30
0.0
 10
73.8344400035
 20
110.8979133231
 30
0.0
 10
73.8267964546
 20
110.8383820024
 30
0.0
 10
73.8168341155
 20
110.7955390972
 30
0.0
  0
SPLINE
  5
2CE
100
AcDbEntity
  8
0
100
AcDbSpline
 62
7
  6
CONTINUOUS
 70
0
 71
3
 72
11
 73
7
 74
0
 42
0.0000001
 43
0.0000001
 44
0.0000000001
 40
0.0
 40
0.0
 40
0.0
 40
0.0
 40
0.288501932
 40
0.5480576509
 40
0.7821665805
 40
1.0
 40
1.0
 40
1.0
 40
1.0
 10
67.1543879449
 20
115.4862748123
 30
0.0
 10
67.1543496569
 20
115.4374301376
 30
0.0
 10
67.147176943
 20
115.344362546
 30
0.0
 10
67.1111405741
 20
115.215847315
 30
0.0
 10
67.0506932311
 20
115.1100027132
 30
0.0
 10
66.9935954485
 20
115.0567961042
 30
0.0
 10
66.962785928
 20
115.0365248984
 30
0.0
  0
SPLINE
  5
2CF
100
AcDbEntity
  8
0
100
AcDbSpline
 62
7
  6
CONTINUOUS
 70
0
 71
3
 72
12
 73
8
 74
0
 42
0.0000001
 43
0.0000001
 44
0.0000000001
 40
0.0
 40
0.0
 40
0.0
 40
0.0
 40
0.1114885383
 40
0.2304595448
 40
0.4840754304
 40
0.7462642857
 40
1.0
 40
1.0
 40
1.0
 40
1.0
 10
73.836017269
 20
110.9731083579
 30
0.0
 10
73.836055993
 20
111.0174644162
 30
0.0
 10
73.8296951535
 20
111.1092279327
 30
0.0
 10
73.7942231278
 20
111.2988442151
 30
0.0
 10
73.7087059459
 20
111.5383703866
 30
0.0
 10
73.5555999313
 20
111.8050860176
 30
0.0
 10
73.4222600236
 20
111.9631804998
 30
0.0
 10
73.3492875783
 20
112.0329360636
 30
0.0
  0
SPLINE
  5
2D0
100
AcDbEntity
  8
0
100
AcDbSpline
 62
7
  6
CONTINUOUS
 70
0
 71
3
 72
11
 73
7
 74
0
 42
0.0000001
 43
0.0000001
 44
0.0000000001
 40
0.0
 40
0.0
 40
0.0
 40
0.0
 40
0.2884731253
 40
0.5480314768
 40
0.7821541056
 40
1.0
 40
1.0
 40
1.0
 40
1.0
 10
68.5326396967
 20
114.0348812956
 30
0.0
 10
68.5326827355
 20
114.0837100185
 30
0.0
 10
68.539896552
 20
114.1767495852
 30
0.0
 10
68.5759405461
 20
114.3052250663
 30
0.0
 10
68.6363751245
 20
114.4110516388
 30
0.0
 10
68.6934680067
 20
114.464244045
 30
0.0
 10
68.7242722133
 20
114.4845119596
 30
0.0
  0
SPLINE
  5
2D1
100
AcDbEntity
  8
0
100
AcDbSpline
 62
7
  6
CONTINUOUS
 70
0
 71
3
 72
9
 73
5
 74
0
 42
0.0000001
 43
0.0000001
 44
0.0000000001
 40
0.0
 40
0.0
 40
0.0
 40
0.0
 40
0.2593750445
 40
1.0
 40
1.0
 40
1.0
 40
1.0
 10
68.5514871356
 20
113.8354206099
 30
0.0
 10
68.5483850302
 20
113.8524754409
 30
0.0
 10
68.5377708496
 20
113.918457772
 30
0.0
 10
68.5325960682
 20
113.9853835719
 30
0.0
 10
68.5326396967
 20
114.0348812956
 30
0.0
  0
SPLINE
  5
2D2
100
AcDbEntity
  8
0
100
AcDbSpline
 62
7
  6
CONTINUOUS
 70
0
 71
3
 72
11
 73
7
 74
0
 42
0.0000001
 43
0.0000001
 44
0.0000000001
 40
0.0
 40
0.0
 40
0.0
 40
0.0
 40
0.2451517221
 40
0.5056610361
 40
0.7631901207
 40
1.0
 40
1.0
 40
1.0
 40
1.0
 10
68.5514902312
 20
113.8354187788
 30
0.0
 10
68.5750796088
 20
113.739287978
 30
0.0
 10
68.6460704366
 20
113.5462342488
 30
0.0
 10
68.8014668604
 20
113.2785885741
 30
0.0
 10
68.9966698376
 20
113.042774511
 30
0.0
 10
69.1509328286
 20
112.9134180325
 30
0.0
 10
69.2311922842
 20
112.8614508967
 30
0.0
  0
SPLINE
  5
2D3
100
AcDbEntity
  8
0
100
AcDbSpline
 62
7
  6
CONTINUOUS
 70
0
 71
3
 72
12
 73
8
 74
0
 42
0.0000001
 43
0.0000001
 44
0.0000000001
 40
0.0
 40
0.0
 40
0.0
 40
0.0
 40
0.2941497847
 40
0.55418378
 40
0.7852794902
 40
0.8937808384
 40
1.0
 40
1.0
 40
1.0
 40
1.0
 10
73.2128684463
 20
110.5626812446
 30
0.0
 10
73.2544519933
 20
110.5416177141
 30
0.0
 10
73.3360605961
 20
110.5077103313
 30
0.0
 10
73.4591933566
 20
110.4837458311
 30
0.0
 10
73.5555396556
 20
110.4905919376
 30
0.0
 10
73.6228781884
 20
110.5129414125
 30
0.0
 10
73.6530264336
 20
110.5291622855
 30
0.0
 10
73.6670886764
 20
110.538413714
 30
0.0
  0
SPLINE
  5
2D4
100
AcDbEntity
  8
0
100
AcDbSpline
 62
7
  6
CONTINUOUS
 70
0
 71
3
 72
12
 73
8
 74
0
 42
0.0000001
 43
0.0000001
 44
0.0000000001
 40
0.0
 40
0.0
 40
0.0
 40
0.0
 40
0.2542876401
 40
0.5178608553
 40
0.7719306951
 40
0.8901679906
 40
1.0
 40
1.0
 40
1.0
 40
1.0
 10
76.0757155691
 20
109.4914036182
 30
0.0
 10
76.1372659026
 20
109.4375839526
 30
0.0
 10
76.25153255
 20
109.314919193
 30
0.0
 10
76.3883083665
 20
109.1066375803
 30
0.0
 10
76.4708836855
 20
108.9181630073
 30
0.0
 10
76.5110027209
 20
108.7681745424
 30
0.0
 10
76.521862341
 20
108.6954202593
 30
0.0
 10
76.5246340942
 20
108.6602145938
 30
0.0
  0
SPLINE
  5
2D5
100
AcDbEntity
  8
0
100
AcDbSpline
 62
7
  6
CONTINUOUS
 70
0
 71
3
 72
9
 73
5
 74
0
 42
0.0000001
 43
0.0000001
 44
0.0000000001
 40
0.0
 40
0.0
 40
0.0
 40
0.0
 40
0.4834110526
 40
1.0
 40
1.0
 40
1.0
 40
1.0
 10
66.237378288
 20
117.4627845972
 30
0.0
 10
66.7654245254
 20
117.3467766443
 30
0.0
 10
67.8410410852
 20
117.0268695945
 30
0.0
 10
68.8681196181
 20
116.5776021035
 30
0.0
 10
69.3846136724
 20
116.3187142953
 30
0.0
  0
SPLINE
  5
2D6
100
AcDbEntity
  8
0
100
AcDbSpline
 62
7
  6
CONTINUOUS
 70
0
 71
3
 72
9
 73
5
 74
0
 42
0.0000001
 43
0.0000001
 44
0.0000000001
 40
0.0
 40
0.0
 40
0.0
 40
0.0
 40
0.238984361
 40
1.0
 40
1.0
 40
1.0
 40
1.0
 10
75.9218167307
 20
109.6049825598
 30
0.0
 10
75.9350265097
 20
109.5973561487
 30
0.0
 10
75.9893276944
 20
109.5637661722
 30
0.0
 10
76.039701178
 20
109.5239988734
 30
0.0
 10
76.0757132751
 20
109.4914049932
 30
0.0
  0
SPLINE
  5
2D7
100
AcDbEntity
  8
0
100
AcDbSpline
 62
7
  6
CONTINUOUS
 70
0
 71
3
 72
11
 73
7
 74
0
 42
0.0000001
 43
0.0000001
 44
0.0000000001
 40
0.0
 40
0.0
 40
0.0
 40
0.0
 40
0.2276566647
 40
0.4653034788
 40
0.7212047596
 40
1.0
 40
1.0
 40
1.0
 40
1.0
 10
66.0447189129
 20
115.1138536569
 30
0.0
 10
66.0609704467
 20
115.1245583867
 30
0.0
 10
66.0971808761
 20
115.142187727
 30
0.0
 10
66.1580279467
 20
115.1549879256
 30
0.0
 10
66.22447239
 20
115.1543794418
 30
0.0
 10
66.2695951755
 20
115.1457292109
 30
0.0
 10
66.2926125936
 20
115.1395528415
 30
0.0
  0
SPLINE
  5
2D8
100
AcDbEntity
  8
0
100
AcDbSpline
 62
7
  6
CONTINUOUS
 70
0
 71
3
 72
9
 73
5
 74
0
 42
0.0000001
 43
0.0000001
 44
0.0000000001
 40
0.0
 40
0.0
 40
0.0
 40
0.0
 40
0.2359652965
 40
1.0
 40
1.0
 40
1.0
 40
1.0
 10
66.2926145673
 20
115.1395517424
 30
0.0
 10
66.3053650196
 20
115.1363666899
 30
0.0
 10
66.3588402309
 20
115.1206360584
 30
0.0
 10
66.4097045635
 20
115.0966789523
 30
0.0
 10
66.4465571423
 20
115.0754026464
 30
0.0
  0
SPLINE
  5
2D9
100
AcDbEntity
  8
0
100
AcDbSpline
 62
7
  6
CONTINUOUS
 70
0
 71
3
 72
9
 73
5
 74
0
 42
0.0000001
 43
0.0000001
 44
0.0000000001
 40
0.0
 40
0.0
 40
0.0
 40
0.0
 40
0.4883735328
 40
1.0
 40
1.0
 40
1.0
 40
1.0
 10
71.1523899773
 20
115.3003562541
 30
0.0
 10
71.6995309981
 20
114.944225904
 30
0.0
 10
72.7846870624
 20
114.1600163109
 30
0.0
 10
73.7982001746
 20
113.2858982782
 30
0.0
 10
74.2984386401
 20
112.8195246533
 30
0.0
  0
SPLINE
  5
2DA
100
AcDbEntity
  8
0
100
AcDbSpline
 62
7
  6
CONTINUOUS
 70
0
 71
3
 72
15
 73
11
 74
0
 42
0.0000001
 43
0.0000001
 44
0.0000000001
 40
0.0
 40
0.0
 40
0.0
 40
0.0
 40
0.1141519739
 40
0.2373641025
 40
0.3670316078
 40
0.500065903
 40
0.6330752074
 40
0.7626841976
 40
0.8858430164
 40
1.0
 40
1.0
 40
1.0
 40
1.0
 10
75.9218167307
 20
109.6049825598
 30
0.0
 10
75.8733420719
 20
109.632969036
 30
0.0
 10
75.7776088482
 20
109.7001500701
 30
0.0
 10
75.6459590953
 20
109.8235535841
 30
0.0
 10
75.5247413003
 20
109.9694600987
 30
0.0
 10
75.4184979741
 20
110.1323142078
 30
0.0
 10
75.3311970716
 20
110.3060271493
 30
0.0
 10
75.2660429862
 20
110.4841020296
 30
0.0
 10
75.2254804981
 20
110.659869809
 30
0.0
 10
75.2153833066
 20
110.7763539106
 30
0.0
 10
75.2154388147
 20
110.8323298636
 30
0.0
  0
SPLINE
  5
2DB
100
AcDbEntity
  8
0
100
AcDbSpline
 62
7
  6
CONTINUOUS
 70
0
 71
3
 72
12
 73
8
 74
0
 42
0.0000001
 43
0.0000001
 44
0.0000000001
 40
0.0
 40
0.0
 40
0.0
 40
0.0
 40
0.1086588109
 40
0.2188046922
 40
0.450893682
 40
0.7095226751
 40
1.0
 40
1.0
 40
1.0
 40
1.0
 10
66.962785928
 20
115.0365248984
 30
0.0
 10
66.9463251216
 20
115.0256944671
 30
0.0
 10
66.911162458
 20
115.0067792954
 30
0.0
 10
66.8331204766
 20
114.9811865294
 30
0.0
 10
66.7223712883
 20
114.9746842846
 30
0.0
 10
66.5829051261
 20
115.0062792879
 30
0.0
 10
66.4921754786
 20
115.049065425
 30
0.0
 10
66.4465571423
 20
115.0754026464
 30
0.0
  0
SPLINE
  5
2DC
100
AcDbEntity
  8
0
100
AcDbSpline
 62
7
  6
CONTINUOUS
 70
0
 71
3
 72
11
 73
7
 74
0
 42
0.0000001
 43
0.0000001
 44
0.0000000001
 40
0.0
 40
0.0
 40
0.0
 40
0.0
 40
0.2783810817
 40
0.5341799382
 40
0.7720125009
 40
1.0
 40
1.0
 40
1.0
 40
1.0
 10
11.5077905153
 20
41.8186246429
 30
0.0
 10
11.5126974419
 20
41.7905145114
 30
0.0
 10
11.526236478
 20
41.7371377091
 30
0.0
 10
11.5599185933
 20
41.6649246716
 30
0.0
 10
11.6056662584
 20
41.6059355387
 30
0.0
 10
11.6439964634
 20
41.5764040983
 30
0.0
 10
11.6642325783
 20
41.5647147817
 30
0.0
  0
SPLINE
  5
2DD
100
AcDbEntity
  8
0
100
AcDbSpline
 62
7
  6
CONTINUOUS
 70
0
 71
3
 72
9
 73
5
 74
0
 42
0.0000001
 43
0.0000001
 44
0.0000000001
 40
0.0
 40
0.0
 40
0.0
 40
0.0
 40
0.2421403214
 40
1.0
 40
1.0
 40
1.0
 40
1.0
 10
14.0786702202
 20
47.7086301763
 30
0.0
 10
14.0671108113
 20
47.7064349616
 30
0.0
 10
14.0195857036
 20
47.69625906
 30
0.0
 10
13.9730099811
 20
47.6818095567
 30
0.0
 10
13.9385056853
 20
47.668941605
 30
0.0
  0
SPLINE
  5
2DE
100
AcDbEntity
  8
0
100
AcDbSpline
 62
7
  6
CONTINUOUS
 70
0
 71
3
 72
11
 73
7
 74
0
 42
0.0000001
 43
0.0000001
 44
0.0000000001
 40
0.0
 40
0.0
 40
0.0
 40
0.0
 40
0.2190386961
 40
0.4627168273
 40
0.7256354831
 40
1.0
 40
1.0
 40
1.0
 40
1.0
 10
13.9385056853
 20
47.668941605
 30
0.0
 10
13.8617489966
 20
47.6403161441
 30
0.0
 10
13.7069161486
 20
47.5596860007
 30
0.0
 10
13.492122861
 20
47.3920146936
 30
0.0
 10
13.2910374467
 20
47.1788188115
 30
0.0
 10
13.1737996408
 20
47.0147847716
 30
0.0
 10
13.1196001185
 20
46.927654016
 30
0.0
  0
SPLINE
  5
2DF
100
AcDbEntity
  8
0
100
AcDbSpline
 62
7
  6
CONTINUOUS
 70
0
 71
3
 72
14
 73
10
 74
0
 42
0.0000001
 43
0.0000001
 44
0.0000000001
 40
0.0
 40
0.0
 40
0.0
 40
0.0
 40
0.2732507613
 40
0.4072141495
 40
0.5374914084
 40
0.6628320528
 40
0.7821758494
 40
0.8947305917
 40
1.0
 40
1.0
 40
1.0
 40
1.0
 10
12.6213770995
 20
46.2324616076
 30
0.0
 10
12.3988429511
 20
45.8728972966
 30
0.0
 10
12.1055423065
 20
45.3116951389
 30
0.0
 10
11.8055793294
 20
44.5352861876
 30
0.0
 10
11.6329822391
 20
43.9568998662
 30
0.0
 10
11.5141939087
 20
43.3881956902
 30
0.0
 10
11.4510838094
 20
42.8380913307
 30
0.0
 10
11.4447573758
 20
42.3154196858
 30
0.0
 10
11.4797773035
 20
41.9791029065
 30
0.0
 10
11.5077905153
 20
41.8186246429
 30
0.0
  0
SPLINE
  5
2E0
100
AcDbEntity
  8
0
100
AcDbSpline
 62
7
  6
CONTINUOUS
 70
0
 71
3
 72
10
 73
6
 74
0
 42
0.0000001
 43
0.0000001
 44
0.0000000001
 40
0.0
 40
0.0
 40
0.0
 40
0.0
 40
0.5243852956
 40
0.7657156875
 40
1.0
 40
1.0
 40
1.0
 40
1.0
 10
23.6420816505
 20
34.7617928222
 30
0.0
 10
23.6001732837
 20
34.7518829618
 30
0.0
 10
23.5359007995
 20
34.7457732263
 30
0.0
 10
23.4550050912
 20
34.7624221385
 30
0.0
 10
23.4189143221
 20
34.7782944897
 30
0.0
 10
23.4022540148
 20
34.7879182551
 30
0.0
  0
SPLINE
  5
2E1
100
AcDbEntity
  8
0
100
AcDbSpline
 62
7
  6
CONTINUOUS
 70
0
 71
3
 72
11
 73
7
 74
0
 42
0.0000001
 43
0.0000001
 44
0.0000000001
 40
0.0
 40
0.0
 40
0.0
 40
0.0
 40
0.2154166446
 40
0.4594972731
 40
0.7247131958
 40
1.0
 40
1.0
 40
1.0
 40
1.0
 10
27.7079788517
 20
39.5953015583
 30
0.0
 10
27.7278797605
 20
39.5029443082
 30
0.0
 10
27.7402095319
 20
39.2992547524
 30
0.0
 10
27.6916244092
 20
38.9834735886
 30
0.0
 10
27.5813257761
 20
38.6559491696
 30
0.0
 10
27.4715669391
 20
38.4446404812
 30
0.0
 10
27.4080286379
 20
38.3419771118
 30
0.0
  0
SPLINE
  5
2E2
100
AcDbEntity
  8
0
100
AcDbSpline
 62
7
  6
CONTINUOUS
 70
0
 71
3
 72
14
 73
10
 74
0
 42
0.0000001
 43
0.0000001
 44
0.0000000001
 40
0.0
 40
0.0
 40
0.0
 40
0.0
 40
0.2741475804
 40
0.4075684878
 40
0.5370996151
 40
0.661791754
 40
0.7808514682
 40
0.8937204987
 40
1.0
 40
1.0
 40
1.0
 40
1.0
 10
27.0072006086
 20
37.5845201524
 30
0.0
 10
26.8104257049
 20
37.2665768921
 30
0.0
 10
26.4868264457
 20
36.8118834983
 30
0.0
 10
26.0023831377
 20
36.2618118845
 30
0.0
 10
25.6248294708
 20
35.8909483782
 30
0.0
 10
25.2347188168
 20
35.562979544
 30
0.0
 10
24.8369149553
 20
35.2819759176
 30
0.0
 10
24.4364762042
 20
35.0516248101
 30
0.0
 10
24.1626271983
 20
34.930017262
 30
0.0
 10
24.0268102573
 20
34.879366008
 30
0.0
  0
SPLINE
  5
2E3
100
AcDbEntity
  8
0
100
AcDbSpline
 62
7
  6
CONTINUOUS
 70
0
 71
3
 72
9
 73
5
 74
0
 42
0.0000001
 43
0.0000001
 44
0.0000000001
 40
0.0
 40
0.0
 40
0.0
 40
0.0
 40
0.2561161841
 40
1.0
 40
1.0
 40
1.0
 40
1.0
 10
24.0268102573
 20
34.879366008
 30
0.0
 10
23.9946191265
 20
34.8673607226
 30
0.0
 10
23.86826125
 20
34.822312342
 30
0.0
 10
23.7391923968
 20
34.7847561112
 30
0.0
 10
23.6420816505
 20
34.7617928222
 30
0.0
  0
SPLINE
  5
2E4
100
AcDbEntity
  8
0
100
AcDbSpline
 62
7
  6
CONTINUOUS
 70
0
 71
3
 72
16
 73
12
 74
0
 42
0.0000001
 43
0.0000001
 44
0.0000000001
 40
0.0
 40
0.0
 40
0.0
 40
0.0
 40
0.1462503107
 40
0.2902482728
 40
0.4295784009
 40
0.5620886981
 40
0.6860480745
 40
0.8003386469
 40
0.8537775623
 40
0.9047862684
 40
1.0
 40
1.0
 40
1.0
 40
1.0
 10
19.4015436608
 20
56.6813572561
 30
0.0
 10
19.2125136981
 20
56.3616715476
 30
0.0
 10
18.8666095653
 20
55.7093842271
 30
0.0
 10
18.447719326
 20
54.7004032895
 30
0.0
 10
18.1402818052
 20
53.6882219462
 30
0.0
 10
17.9522631
 20
52.6986520731
 30
0.0
 10
17.8885709545
 20
51.756816836
 30
0.0
 10
17.9420384119
 20
51.0148127138
 30
0.0
 10
18.0524080841
 20
50.4696326718
 30
0.0
 10
18.1981980214
 20
49.9836471295
 30
0.0
 10
18.3578958293
 20
49.6440638183
 30
0.0
 10
18.4872116732
 20
49.4397633157
 30
0.0
  0
SPLINE
  5
2E5
100
AcDbEntity
  8
0
100
AcDbSpline
 62
7
  6
CONTINUOUS
 70
0
 71
3
 72
14
 73
10
 74
0
 42
0.0000001
 43
0.0000001
 44
0.0000000001
 40
0.0
 40
0.0
 40
0.0
 40
0.0
 40
0.1052694083
 40
0.2178241506
 40
0.3371679472
 40
0.4625085916
 40
0.5927858505
 40
0.7267492387
 40
1.0
 40
1.0
 40
1.0
 40
1.0
 10
23.2458119527
 20
35.0418281178
 30
0.0
 10
23.2177987409
 20
35.2023063815
 30
0.0
 10
23.1827788132
 20
35.5386231607
 30
0.0
 10
23.1891052469
 20
36.0612948056
 30
0.0
 10
23.2522153461
 20
36.6113991651
 30
0.0
 10
23.3710036766
 20
37.1801033412
 30
0.0
 10
23.5436007668
 20
37.7584896625
 30
0.0
 10
23.8435637439
 20
38.5348986139
 30
0.0
 10
24.1368643885
 20
39.0961007715
 30
0.0
 10
24.3593985369
 20
39.4556650825
 30
0.0
  0
SPLINE
  5
2E6
100
AcDbEntity
  8
0
100
AcDbSpline
 62
7
  6
CONTINUOUS
 70
0
 71
3
 72
11
 73
7
 74
0
 42
0.0000001
 43
0.0000001
 44
0.0000000001
 40
0.0
 40
0.0
 40
0.0
 40
0.0
 40
0.2279875326
 40
0.4658201078
 40
0.7216189185
 40
1.0
 40
1.0
 40
1.0
 40
1.0
 10
23.4022540148
 20
34.7879182551
 30
0.0
 10
23.3820178973
 20
34.7996075743
 30
0.0
 10
23.3436876912
 20
34.8291390212
 30
0.0
 10
23.2979400274
 20
34.8881281543
 30
0.0
 10
23.2642579085
 20
34.9603411869
 30
0.0
 10
23.2507188794
 20
35.0137179863
 30
0.0
 10
23.2458119527
 20
35.0418281178
 30
0.0
  0
SPLINE
  5
2E7
100
AcDbEntity
  8
0
100
AcDbSpline
 62
7
  6
CONTINUOUS
 70
0
 71
3
 72
11
 73
7
 74
0
 42
0.0000001
 43
0.0000001
 44
0.0000000001
 40
0.0
 40
0.0
 40
0.0
 40
0.0
 40
0.2743299049
 40
0.5372972392
 40
0.7810061925
 40
1.0
 40
1.0
 40
1.0
 40
1.0
 10
24.8547909259
 20
40.1462954373
 30
0.0
 10
24.909043071
 20
40.2339545014
 30
0.0
 10
25.0265208546
 20
40.3990118062
 30
0.0
 10
25.2282442045
 20
40.6135589948
 30
0.0
 10
25.4438866295
 20
40.7822867101
 30
0.0
 10
25.5994199566
 20
40.8633889128
 30
0.0
 10
25.6765271228
 20
40.8921450799
 30
0.0
  0
SPLINE
  5
2E8
100
AcDbEntity
  8
0
100
AcDbSpline
 62
7
  6
CONTINUOUS
 70
0
 71
3
 72
9
 73
5
 74
0
 42
0.0000001
 43
0.0000001
 44
0.0000000001
 40
0.0
 40
0.0
 40
0.0
 40
0.0
 40
0.2581807262
 40
1.0
 40
1.0
 40
1.0
 40
1.0
 10
25.6765271228
 20
40.8921450799
 30
0.0
 10
25.6882813943
 20
40.8965286906
 30
0.0
 10
25.7341262291
 20
40.9126310298
 30
0.0
 10
25.7812793556
 20
40.9251086011
 30
0.0
 10
25.8166916576
 20
40.9318336513
 30
0.0
  0
SPLINE
  5
2E9
100
AcDbEntity
  8
0
100
AcDbSpline
 62
7
  6
CONTINUOUS
 70
0
 71
3
 72
18
 73
14
 74
0
 42
0.0000001
 43
0.0000001
 44
0.0000000001
 40
0.0
 40
0.0
 40
0.0
 40
0.0
 40
0.1530043431
 40
0.3039538015
 40
0.4485476357
 40
0.5830864147
 40
0.7049812343
 40
0.7609179647
 40
0.8135633557
 40
0.8632056038
 40
0.9103372211
 40
0.9556484918
 40
1.0
 40
1.0
 40
1.0
 40
1.0
 10
65.9785235827
 20
98.5590166072
 30
0.0
 10
66.3981657823
 20
98.5311274998
 30
0.0
 10
67.236065549
 20
98.5266901679
 30
0.0
 10
68.4637050839
 20
98.6692583147
 30
0.0
 10
69.6146337054
 20
98.9549792191
 30
0.0
 10
70.6394600688
 20
99.3717965821
 30
0.0
 10
71.3739434878
 20
99.8278861014
 30
0.0
 10
71.8513777898
 20
100.2462421403
 30
0.0
 10
72.1423703174
 20
100.5710985009
 30
0.0
 10
72.3729568011
 20
100.9126896705
 30
0.0
 10
72.5403151859
 20
101.2674688093
 30
0.0
 10
72.6418234624
 20
101.6314114811
 30
0.0
 10
72.6646606741
 20
101.878432995
 30
0.0
 10
72.6646481575
 20
102.000343401
 30
0.0
  0
SPLINE
  5
2EA
100
AcDbEntity
  8
0
100
AcDbSpline
 62
7
  6
CONTINUOUS
 70
0
 71
3
 72
18
 73
14
 74
0
 42
0.0000001
 43
0.0000001
 44
0.0000000001
 40
0.0
 40
0.0
 40
0.0
 40
0.0
 40
0.1530043431
 40
0.3039538015
 40
0.4485476357
 40
0.5830864147
 40
0.7049812343
 40
0.7609179647
 40
0.8135633557
 40
0.8632056038
 40
0.9103372211
 40
0.9556484918
 40
1.0
 40
1.0
 40
1.0
 40
1.0
 10
53.3919704751
 20
105.8257020376
 30
0.0
 10
53.8116126747
 20
105.7978129302
 30
0.0
 10
54.6495124414
 20
105.7933755984
 30
0.0
 10
55.8771519763
 20
105.9359437452
 30
0.0
 10
57.0280805978
 20
106.2216646495
 30
0.0
 10
58.0529069612
 20
106.6384820125
 30
0.0
 10
58.7873903802
 20
107.0945715319
 30
0.0
 10
59.2648246822
 20
107.5129275708
 30
0.0
 10
59.5558172098
 20
107.8377839313
 30
0.0
 10
59.7864036935
 20
108.179375101
 30
0.0
 10
59.9537620783
 20
108.5341542397
 30
0.0
 10
60.0552703548
 20
108.8980969115
 30
0.0
 10
60.0781075665
 20
109.1451184254
 30
0.0
 10
60.0780950499
 20
109.2670288314
 30
0.0
  0
SPLINE
  5
2EB
100
AcDbEntity
  8
0
100
AcDbSpline
 62
7
  6
CONTINUOUS
 70
0
 71
3
 72
14
 73
10
 74
0
 42
0.0000001
 43
0.0000001
 44
0.0000000001
 40
0.0
 40
0.0
 40
0.0
 40
0.0
 40
0.2152440845
 40
0.3315765684
 40
0.4539056125
 40
0.5821873674
 40
0.7162154771
 40
0.8556774354
 40
1.0
 40
1.0
 40
1.0
 40
1.0
 10
81.3724800443
 20
35.2690653343
 30
0.0
 10
80.1697827392
 20
35.2112339804
 30
0.0
 10
78.3239316426
 20
34.8797815988
 30
0.0
 10
75.9170118306
 20
34.0662068915
 30
0.0
 10
74.0377166793
 20
33.2327584102
 30
0.0
 10
72.1480538996
 20
32.1993365533
 30
0.0
 10
70.2617311242
 20
30.9736346065
 30
0.0
 10
68.3940835229
 20
29.5656195764
 30
0.0
 10
67.1898997778
 20
28.5292834107
 30
0.0
 10
66.5940098466
 20
27.9845576083
 30
0.0
  0
SPLINE
  5
2EC
100
AcDbEntity
  8
0
100
AcDbSpline
 62
7
  6
CONTINUOUS
 70
0
 71
3
 72
9
 73
5
 74
0
 42
0.0000001
 43
0.0000001
 44
0.0000000001
 40
0.0
 40
0.0
 40
0.0
 40
0.0
 40
0.2548151589
 40
1.0
 40
1.0
 40
1.0
 40
1.0
 10
67.7378521569
 20
92.9219667767
 30
0.0
 10
67.5859845024
 20
92.8690423367
 30
0.0
 10
66.987591568
 20
92.6683361304
 30
0.0
 10
66.3795308017
 20
92.4961758253
 30
0.0
 10
65.9222556077
 20
92.386175828
 30
0.0
  0
SPLINE
  5
2ED
100
AcDbEntity
  8
0
100
AcDbSpline
 62
7
  6
CONTINUOUS
 70
0
 71
3
 72
14
 73
10
 74
0
 42
0.0000001
 43
0.0000001
 44
0.0000000001
 40
0.0
 40
0.0
 40
0.0
 40
0.0
 40
0.1080462435
 40
0.2181307324
 40
0.3321103354
 40
0.4514935932
 40
0.5774375646
 40
0.7107326287
 40
1.0
 40
1.0
 40
1.0
 40
1.0
 10
72.6646481575
 20
102.000343401
 30
0.0
 10
72.6646364954
 20
102.1139308018
 30
0.0
 10
72.6449084871
 20
102.3437062616
 30
0.0
 10
72.5568881772
 20
102.6831129726
 30
0.0
 10
72.4115002823
 20
103.0151609377
 30
0.0
 10
72.210807678
 20
103.336575562
 30
0.0
 10
71.9568041993
 20
103.6444163144
 30
0.0
 10
71.5395058841
 20
104.043798139
 30
0.0
 10
71.170652212
 20
104.2977597074
 30
0.0
 10
70.9072902622
 20
104.4498083602
 30
0.0
  0
SPLINE
  5
2EE
100
AcDbEntity
  8
0
100
AcDbSpline
 62
7
  6
CONTINUOUS
 70
0
 71
3
 72
15
 73
11
 74
0
 42
0.0000001
 43
0.0000001
 44
0.0000000001
 40
0.0
 40
0.0
 40
0.0
 40
0.0
 40
0.1066128224
 40
0.2188281057
 40
0.3366104021
 40
0.4598526894
 40
0.5882642081
 40
0.7214402796
 40
0.8589139664
 40
1.0
 40
1.0
 40
1.0
 40
1.0
 10
66.5940098466
 20
91.9983471113
 30
0.0
 10
67.2149714033
 20
92.1477227398
 30
0.0
 10
68.4735945347
 20
92.5235754728
 30
0.0
 10
70.3447303113
 20
93.2821337725
 30
0.0
 10
72.2323904318
 20
94.24389063
 30
0.0
 10
74.121466266
 20
95.4008164873
 30
0.0
 10
75.9976274402
 20
96.743625764
 30
0.0
 10
77.8462224955
 20
98.2620720082
 30
0.0
 10
79.652393676
 20
99.9439277778
 30
0.0
 10
80.8058097222
 20
101.1513625763
 30
0.0
 10
81.3724800443
 20
101.7784450171
 30
0.0
  0
SPLINE
  5
2EF
100
AcDbEntity
  8
0
100
AcDbSpline
 62
7
  6
CONTINUOUS
 70
0
 71
3
 72
11
 73
7
 74
0
 42
0.0000001
 43
0.0000001
 44
0.0000000001
 40
0.0
 40
0.0
 40
0.0
 40
0.0
 40
0.2295271384
 40
0.4751825543
 40
0.7334538166
 40
1.0
 40
1.0
 40
1.0
 40
1.0
 10
70.9072902622
 20
104.4498083602
 30
0.0
 10
70.6607215629
 20
104.5921616447
 30
0.0
 10
70.1277629496
 20
104.8488272916
 30
0.0
 10
69.2639279431
 20
105.1402763491
 30
0.0
 10
68.3286832306
 20
105.3452442177
 30
0.0
 10
67.6807139153
 20
105.4197451583
 30
0.0
 10
67.3508108951
 20
105.4416702668
 30
0.0
  0
SPLINE
  5
2F0
100
AcDbEntity
  8
0
100
AcDbSpline
 62
7
  6
CONTINUOUS
 70
0
 71
3
 72
18
 73
14
 74
0
 42
0.0000001
 43
0.0000001
 44
0.0000000001
 40
0.0
 40
0.0
 40
0.0
 40
0.0
 40
0.1530010951
 40
0.3039434933
 40
0.4485341347
 40
0.5830694931
 40
0.7049623613
 40
0.7608999081
 40
0.8135446882
 40
0.8631880525
 40
0.9103136828
 40
0.9556267033
 40
1.0
 40
1.0
 40
1.0
 40
1.0
 10
67.3508108951
 20
105.4416702668
 30
0.0
 10
66.9311773045
 20
105.469558802
 30
0.0
 10
66.093305351
 20
105.4740001336
 30
0.0
 10
64.8657018797
 20
105.3314339383
 30
0.0
 10
63.714807935
 20
105.0457360822
 30
0.0
 10
62.6899889876
 20
104.6289478642
 30
0.0
 10
61.9555299397
 20
104.1728602123
 30
0.0
 10
61.47803379
 20
103.7545746918
 30
0.0
 10
61.1870833729
 20
103.42967875
 30
0.0
 10
60.9564292504
 20
103.0881500242
 30
0.0
 10
60.7890869863
 20
102.7333777207
 30
0.0
 10
60.6874424886
 20
102.3694140632
 30
0.0
 10
60.6647197648
 20
102.122313906
 30
0.0
 10
60.6647250293
 20
102.0003435218
 30
0.0
  0
SPLINE
  5
2F1
100
AcDbEntity
  8
0
100
AcDbSpline
 62
7
  6
CONTINUOUS
 70
0
 71
3
 72
14
 73
10
 74
0
 42
0.0000001
 43
0.0000001
 44
0.0000000001
 40
0.0
 40
0.0
 40
0.0
 40
0.0
 40
0.1080462435
 40
0.2181307324
 40
0.3321103354
 40
0.4514935932
 40
0.5774375646
 40
0.7107326287
 40
1.0
 40
1.0
 40
1.0
 40
1.0
 10
60.0780950499
 20
109.2670288314
 30
0.0
 10
60.0780833878
 20
109.3806162322
 30
0.0
 10
60.0583553795
 20
109.6103916921
 30
0.0
 10
59.9703350696
 20
109.9497984031
 30
0.0
 10
59.8249471746
 20
110.2818463682
 30
0.0
 10
59.6242545704
 20
110.6032609924
 30
0.0
 10
59.3702510916
 20
110.9111017448
 30
0.0
 10
58.9529527765
 20
111.3104835695
 30
0.0
 10
58.5840991044
 20
111.5644451378
 30
0.0
 10
58.3207371546
 20
111.7164937907
 30
0.0
  0
SPLINE
  5
2F2
100
AcDbEntity
  8
0
100
AcDbSpline
 62
7
  6
CONTINUOUS
 70
0
 71
3
 72
11
 73
7
 74
0
 42
0.0000001
 43
0.0000001
 44
0.0000000001
 40
0.0
 40
0.0
 40
0.0
 40
0.0
 40
0.2295271384
 40
0.4751825543
 40
0.7334538166
 40
1.0
 40
1.0
 40
1.0
 40
1.0
 10
58.3207371546
 20
111.7164937907
 30
0.0
 10
58.0741684553
 20
111.8588470751
 30
0.0
 10
57.541209842
 20
112.115512722
 30
0.0
 10
56.6773748355
 20
112.4069617796
 30
0.0
 10
55.7421301229
 20
112.6119296482
 30
0.0
 10
55.0941608077
 20
112.6864305887
 30
0.0
 10
54.7642577875
 20
112.7083556972
 30
0.0
  0
SPLINE
  5
2F3
100
AcDbEntity
  8
0
100
AcDbSpline
 62
7
  6
CONTINUOUS
 70
0
 71
3
 72
18
 73
14
 74
0
 42
0.0000001
 43
0.0000001
 44
0.0000000001
 40
0.0
 40
0.0
 40
0.0
 40
0.0
 40
0.1530010951
 40
0.3039434933
 40
0.4485341347
 40
0.5830694931
 40
0.7049623613
 40
0.7608999081
 40
0.8135446882
 40
0.8631880525
 40
0.9103136828
 40
0.9556267033
 40
1.0
 40
1.0
 40
1.0
 40
1.0
 10
54.7642577875
 20
112.7083556972
 30
0.0
 10
54.3446241969
 20
112.7362442325
 30
0.0
 10
53.5067522434
 20
112.7406855641
 30
0.0
 10
52.2791487721
 20
112.5981193688
 30
0.0
 10
51.1282548274
 20
112.3124215127
 30
0.0
 10
50.1034358799
 20
111.8956332947
 30
0.0
 10
49.3689768321
 20
111.4395456427
 30
0.0
 10
48.8914806824
 20
111.0212601223
 30
0.0
 10
48.6005302653
 20
110.6963641805
 30
0.0
 10
48.3698761428
 20
110.3548354547
 30
0.0
 10
48.2025338787
 20
110.0000631511
 30
0.0
 10
48.1008893809
 20
109.6360994937
 30
0.0
 10
48.0781666572
 20
109.3889993365
 30
0.0
 10
48.0781719217
 20
109.2670289523
 30
0.0
  0
SPLINE
  5
2F4
100
AcDbEntity
  8
0
100
AcDbSpline
 62
7
  6
CONTINUOUS
 70
0
 71
3
 72
9
 73
5
 74
0
 42
0.0000001
 43
0.0000001
 44
0.0000000001
 40
0.0
 40
0.0
 40
0.0
 40
0.0
 40
0.50808746
 40
1.0
 40
1.0
 40
1.0
 40
1.0
 10
80.7007258055
 20
102.1662737339
 30
0.0
 10
80.0307377034
 20
101.4248589148
 30
0.0
 10
78.6640082911
 20
100.0082468116
 30
0.0
 10
77.2012338713
 20
98.690566262
 30
0.0
 10
76.4581027822
 20
98.0710755164
 30
0.0
  0
SPLINE
  5
2F5
100
AcDbEntity
  8
0
100
AcDbSpline
 62
7
  6
CONTINUOUS
 70
0
 71
3
 72
11
 73
7
 74
0
 42
0.0000001
 43
0.0000001
 44
0.0000000001
 40
0.0
 40
0.0
 40
0.0
 40
0.0
 40
0.2670744955
 40
0.5232977979
 40
0.7677477118
 40
1.0
 40
1.0
 40
1.0
 40
1.0
 10
75.8217040295
 20
98.4384921955
 30
0.0
 10
75.1688022276
 20
97.8942186077
 30
0.0
 10
73.8529632574
 20
96.8705649114
 30
0.0
 10
71.8165226467
 20
95.5158433036
 30
0.0
 10
69.773678555
 20
94.3842865799
 30
0.0
 10
68.3836013765
 20
93.7696811846
 30
0.0
 10
67.6931799925
 20
93.5056602603
 30
0.0
  0
SPLINE
  5
2F6
100
AcDbEntity
  8
0
100
AcDbSpline
 62
7
  6
CONTINUOUS
 70
0
 71
3
 72
9
 73
5
 74
0
 42
0.0000001
 43
0.0000001
 44
0.0000000001
 40
0.0
 40
0.0
 40
0.0
 40
0.0
 40
0.5081148297
 40
1.0
 40
1.0
 40
1.0
 40
1.0
 10
29.5617480103
 20
102.4609775485
 30
0.0
 10
29.2538911222
 20
99.7671554378
 30
0.0
 10
28.7870389391
 20
94.4485434413
 30
0.0
 10
28.6223230002
 20
89.111460961
 30
0.0
 10
28.6223230002
 20
86.4867078199
 30
0.0
  0
SPLINE
  5
2F7
100
AcDbEntity
  8
0
100
AcDbSpline
 62
7
  6
CONTINUOUS
 70
0
 71
3
 72
9
 73
5
 74
0
 42
0.0000001
 43
0.0000001
 44
0.0000000001
 40
0.0
 40
0.0
 40
0.0
 40
0.0
 40
0.2536286188
 40
1.0
 40
1.0
 40
1.0
 40
1.0
 10
15.0681368345
 20
78.6612415002
 30
0.0
 10
14.9807692173
 20
77.4283966044
 30
0.0
 10
14.67550575
 20
72.564901182
 30
0.0
 10
14.5291640604
 20
67.6911877711
 30
0.0
 10
14.5167848726
 20
64.0541278969
 30
0.0
  0
SPLINE
  5
2F8
100
AcDbEntity
  8
0
100
AcDbSpline
 62
7
  6
CONTINUOUS
 70
0
 71
3
 72
11
 73
7
 74
0
 42
0.0000001
 43
0.0000001
 44
0.0000000001
 40
0.0
 40
0.0
 40
0.0
 40
0.0
 40
0.2372423294
 40
0.4999983821
 40
0.7627553152
 40
1.0
 40
1.0
 40
1.0
 40
1.0
 10
14.4460744889
 20
64.0133034815
 30
0.0
 10
14.4259965141
 20
64.0017115265
 30
0.0
 10
14.3880034257
 20
63.9697324382
 30
0.0
 10
14.3436593301
 20
63.9091339603
 30
0.0
 10
14.313351822
 20
63.840431238
 30
0.0
 10
14.3046537215
 20
63.7915384112
 30
0.0
 10
14.3046537215
 20
63.7683541673
 30
0.0
  0
SPLINE
  5
2F9
100
AcDbEntity
  8
0
100
AcDbSpline
 62
7
  6
CONTINUOUS
 70
0
 71
3
 72
20
 73
16
 74
0
 42
0.0000001
 43
0.0000001
 44
0.0000000001
 40
0.0
 40
0.0
 40
0.0
 40
0.0
 40
0.0391405458
 40
0.080034397
 40
0.1245720621
 40
0.1739561817
 40
0.2286942657
 40
0.2887656737
 40
0.3537608837
 40
0.4229535573
 40
0.5699680349
 40
0.7211895492
 40
0.8672428935
 40
0.9357709523
 40
1.0
 40
1.0
 40
1.0
 40
1.0
 10
49.8831520866
 20
25.0390658191
 30
0.0
 10
49.9622410739
 20
25.0847440472
 30
0.0
 10
50.1112249455
 20
25.2023131322
 30
0.0
 10
50.2822034698
 20
25.4413282121
 30
0.0
 10
50.4000543572
 20
25.7356998236
 30
0.0
 10
50.4641893119
 20
26.0783865824
 30
0.0
 10
50.4750264942
 20
26.4626393165
 30
0.0
 10
50.4328257278
 20
26.8810447375
 30
0.0
 10
50.3383703162
 20
27.3251968864
 30
0.0
 10
50.1414799547
 20
27.9519405504
 30
0.0
 10
49.7792096772
 20
28.7336214454
 30
0.0
 10
49.2037546639
 20
29.6002657029
 30
0.0
 10
48.6237116705
 20
30.2328343852
 30
0.0
 10
48.1208102305
 20
30.6469073694
 30
0.0
 10
47.862008735
 20
30.8185866932
 30
0.0
 10
47.7322126626
 20
30.8935227953
 30
0.0
  0
LINE
  5
2FA
100
AcDbEntity
  8
0
100
AcDbLine
 62
7
  6
CONTINUOUS
 10
14.5157196734
 20
63.5788484157
 11
14.5156014478
 21
63.3594175958
  0
SPLINE
  5
2FB
100
AcDbEntity
  8
0
100
AcDbSpline
 62
7
  6
CONTINUOUS
 70
0
 71
3
 72
9
 73
5
 74
0
 42
0.0000001
 43
0.0000001
 44
0.0000000001
 40
0.0
 40
0.0
 40
0.0
 40
0.0
 40
0.2520274698
 40
1.0
 40
1.0
 40
1.0
 40
1.0
 10
15.7127557132
 20
60.6124045467
 30
0.0
 10
15.7217945388
 20
60.1677268074
 30
0.0
 10
15.7657412063
 20
58.4035003914
 30
0.0
 10
15.8422680404
 20
56.6400703897
 30
0.0
 10
15.9186122788
 20
55.3222832465
 30
0.0
  0
SPLINE
  5
2FC
100
AcDbEntity
  8
0
100
AcDbSpline
 62
7
  6
CONTINUOUS
 70
0
 71
3
 72
18
 73
14
 74
0
 42
0.0000001
 43
0.0000001
 44
0.0000000001
 40
0.0
 40
0.0
 40
0.0
 40
0.0
 40
0.0449181579
 40
0.091857252
 40
0.1419816245
 40
0.1959972684
 40
0.2541436297
 40
0.3162909455
 40
0.4505077364
 40
0.5931877613
 40
0.737044488
 40
0.8746547384
 40
1.0
 40
1.0
 40
1.0
 40
1.0
 10
49.5782352361
 20
81.8548928715
 30
0.0
 10
49.6733759785
 20
81.9098397975
 30
0.0
 10
49.8548308907
 20
82.0464925022
 30
0.0
 10
50.0791959424
 20
82.3148995297
 30
0.0
 10
50.2558444975
 20
82.6419612936
 30
0.0
 10
50.3819036645
 20
83.0201205043
 30
0.0
 10
50.4560548919
 20
83.4413478627
 30
0.0
 10
50.4848575211
 20
84.0645789165
 30
0.0
 10
50.3798183158
 20
84.893827383
 30
0.0
 10
50.0611565349
 20
85.8778779847
 30
0.0
 10
49.5683211334
 20
86.7975956733
 30
0.0
 10
48.9390690058
 20
87.5760666624
 30
0.0
 10
48.4290217712
 20
87.9811058964
 30
0.0
 10
48.1635065901
 20
88.1343976897
 30
0.0
  0
SPLINE
  5
2FD
100
AcDbEntity
  8
0
100
AcDbSpline
 62
7
  6
CONTINUOUS
 70
0
 71
3
 72
9
 73
5
 74
0
 42
0.0000001
 43
0.0000001
 44
0.0000000001
 40
0.0
 40
0.0
 40
0.0
 40
0.0
 40
0.4845429565
 40
1.0
 40
1.0
 40
1.0
 40
1.0
 10
72.8511478754
 20
82.7917979237
 30
0.0
 10
73.4691616782
 20
80.0419743505
 30
0.0
 10
74.3800776423
 20
74.2814200836
 30
0.0
 10
74.6549935908
 20
68.4601708813
 30
0.0
 10
74.6549935908
 20
65.461938131
 30
0.0
  0
SPLINE
  5
2FE
100
AcDbEntity
  8
0
100
AcDbSpline
 62
7
  6
CONTINUOUS
 70
0
 71
3
 72
9
 73
5
 74
0
 42
0.0000001
 43
0.0000001
 44
0.0000000001
 40
0.0
 40
0.0
 40
0.0
 40
0.0
 40
0.4876416399
 40
1.0
 40
1.0
 40
1.0
 40
1.0
 10
74.6549935908
 20
65.461938131
 30
0.0
 10
74.6549935908
 20
62.2897868877
 30
0.0
 10
74.3294416078
 20
55.7821117
 30
0.0
 10
73.4366265904
 20
49.3302979229
 30
0.0
 10
72.8511478754
 20
46.0491891529
 30
0.0
  0
SPLINE
  5
2FF
100
AcDbEntity
  8
0
100
AcDbSpline
 62
7
  6
CONTINUOUS
 70
0
 71
3
 72
9
 73
5
 74
0
 42
0.0000001
 43
0.0000001
 44
0.0000000001
 40
0.0
 40
0.0
 40
0.0
 40
0.0
 40
0.2463847166
 40
1.0
 40
1.0
 40
1.0
 40
1.0
 10
66.5940098466
 20
27.9845576083
 30
0.0
 10
66.3698926925
 20
27.7796835364
 30
0.0
 10
65.4696610779
 20
26.9379298792
 30
0.0
 10
64.606752548
 20
26.0563997163
 30
0.0
 10
63.9777256489
 20
25.3730772853
 30
0.0
  0
SPLINE
  5
300
100
AcDbEntity
  8
0
100
AcDbSpline
 62
7
  6
CONTINUOUS
 70
0
 71
3
 72
18
 73
14
 74
0
 42
0.0000001
 43
0.0000001
 44
0.0000000001
 40
0.0
 40
0.0
 40
0.0
 40
0.0
 40
0.0449181579
 40
0.091857252
 40
0.1419816245
 40
0.1959972684
 40
0.2541436297
 40
0.3162909455
 40
0.4505077364
 40
0.5931877613
 40
0.737044488
 40
0.8746547384
 40
1.0
 40
1.0
 40
1.0
 40
1.0
 10
36.9916821285
 20
89.1215783019
 30
0.0
 10
37.0868228709
 20
89.176525228
 30
0.0
 10
37.268277783
 20
89.3131779327
 30
0.0
 10
37.4926428348
 20
89.5815849602
 30
0.0
 10
37.6692913899
 20
89.908646724
 30
0.0
 10
37.7953505569
 20
90.2868059348
 30
0.0
 10
37.8695017842
 20
90.7080332932
 30
0.0
 10
37.8983044135
 20
91.3312643469
 30
0.0
 10
37.7932652082
 20
92.1605128135
 30
0.0
 10
37.4746034273
 20
93.1445634152
 30
0.0
 10
36.9817680258
 20
94.0642811037
 30
0.0
 10
36.3525158982
 20
94.8427520929
 30
0.0
 10
35.8424686636
 20
95.2477913269
 30
0.0
 10
35.5769534825
 20
95.4010831202
 30
0.0
  0
SPLINE
  5
301
100
AcDbEntity
  8
0
100
AcDbSpline
 62
7
  6
CONTINUOUS
 70
0
 71
3
 72
9
 73
5
 74
0
 42
0.0000001
 43
0.0000001
 44
0.0000000001
 40
0.0
 40
0.0
 40
0.0
 40
0.0
 40
0.5116222282
 40
1.0
 40
1.0
 40
1.0
 40
1.0
 10
16.5731249462
 20
47.8980852098
 30
0.0
 10
16.6620034136
 20
47.7114275033
 30
0.0
 10
16.8607233529
 20
47.357763176
 30
0.0
 10
17.111862745
 20
47.038625467
 30
0.0
 10
17.2466615668
 20
46.8944924115
 30
0.0
  0
SPLINE
  5
302
100
AcDbEntity
  8
0
100
AcDbSpline
 62
7
  6
CONTINUOUS
 70
0
 71
3
 72
9
 73
5
 74
0
 42
0.0000001
 43
0.0000001
 44
0.0000000001
 40
0.0
 40
0.0
 40
0.0
 40
0.0
 40
0.5231355781
 40
1.0
 40
1.0
 40
1.0
 40
1.0
 10
47.7322126626
 20
30.8935227953
 30
0.0
 10
47.6074367063
 20
30.9655605975
 30
0.0
 10
47.3603660516
 20
31.0891963109
 30
0.0
 10
47.0972786454
 20
31.1754572177
 30
0.0
 10
46.9691714688
 20
31.2043929233
 30
0.0
  0
SPLINE
  5
303
100
AcDbEntity
  8
0
100
AcDbSpline
 62
7
  6
CONTINUOUS
 70
0
 71
3
 72
11
 73
7
 74
0
 42
0.0000001
 43
0.0000001
 44
0.0000000001
 40
0.0
 40
0.0
 40
0.0
 40
0.0
 40
0.1962743355
 40
0.430601041
 40
0.6998093331
 40
1.0
 40
1.0
 40
1.0
 40
1.0
 10
18.1247961961
 20
57.5541286398
 30
0.0
 10
18.3001875618
 20
57.4196559463
 30
0.0
 10
18.6943759794
 20
57.1369220215
 30
0.0
 10
19.3519269709
 20
56.7024827964
 30
0.0
 10
20.1211438318
 20
56.2254690636
 30
0.0
 10
20.6735484408
 20
55.8999050802
 30
0.0
 10
20.9662849999
 20
55.7308973517
 30
0.0
  0
SPLINE
  5
304
100
AcDbEntity
  8
0
100
AcDbSpline
 62
7
  6
CONTINUOUS
 70
0
 71
3
 72
9
 73
5
 74
0
 42
0.0000001
 43
0.0000001
 44
0.0000000001
 40
0.0
 40
0.0
 40
0.0
 40
0.0
 40
0.4761767842
 40
1.0
 40
1.0
 40
1.0
 40
1.0
 10
20.9662849999
 20
55.7308973517
 30
0.0
 10
21.6255032412
 20
55.3503060859
 30
0.0
 10
23.0256507922
 20
54.5782689721
 30
0.0
 10
24.4468394787
 20
53.8460089404
 30
0.0
 10
25.1958934475
 20
53.4717210946
 30
0.0
  0
SPLINE
  5
305
100
AcDbEntity
  8
0
100
AcDbSpline
 62
7
  6
CONTINUOUS
 70
0
 71
3
 72
11
 73
7
 74
0
 42
0.0000001
 43
0.0000001
 44
0.0000000001
 40
0.0
 40
0.0
 40
0.0
 40
0.0
 40
0.2798394028
 40
0.5354763662
 40
0.7722115225
 40
1.0
 40
1.0
 40
1.0
 40
1.0
 10
48.1635065901
 20
88.1343976897
 30
0.0
 10
48.0043231063
 20
88.2263002379
 30
0.0
 10
47.6826493269
 20
88.3754331536
 30
0.0
 10
47.1814923599
 20
88.4817181478
 30
0.0
 10
46.7029652272
 20
88.4527403684
 30
0.0
 10
46.4127587174
 20
88.3411084674
 30
0.0
 10
46.2831938312
 20
88.2662827079
 30
0.0
  0
SPLINE
  5
306
100
AcDbEntity
  8
0
100
AcDbSpline
 62
7
  6
CONTINUOUS
 70
0
 71
3
 72
20
 73
16
 74
0
 42
0.0000001
 43
0.0000001
 44
0.0000000001
 40
0.0
 40
0.0
 40
0.0
 40
0.0
 40
0.0468130763
 40
0.0928977002
 40
0.1393777437
 40
0.1873343975
 40
0.2376913133
 40
0.2911332335
 40
0.3480967002
 40
0.4087855112
 40
0.4732039174
 40
0.5411852054
 40
0.6863957759
 40
0.8408965751
 40
1.0
 40
1.0
 40
1.0
 40
1.0
 10
26.0279229238
 20
41.8439862571
 30
0.0
 10
25.8245939348
 20
41.88782925
 30
0.0
 10
25.4276983786
 20
42.0111691308
 30
0.0
 10
24.8793289192
 20
42.3069118832
 30
0.0
 10
24.3938575428
 20
42.7055689583
 30
0.0
 10
23.9785407173
 20
43.201406354
 30
0.0
 10
23.6383837722
 20
43.7870058003
 30
0.0
 10
23.3765240567
 20
44.4541878536
 30
0.0
 10
23.1953731019
 20
45.1945578852
 30
0.0
 10
23.0965617735
 20
45.9991350797
 30
0.0
 10
23.0809815662
 20
46.8583390785
 30
0.0
 10
23.1734228974
 20
48.0898173622
 30
0.0
 10
23.5038592616
 20
49.6973234788
 30
0.0
 10
24.1945034374
 20
51.6212894817
 30
0.0
 10
24.8335308424
 20
52.864718691
 30
0.0
 10
25.1958934475
 20
53.4717210946
 30
0.0
  0
SPLINE
  5
307
100
AcDbEntity
  8
0
100
AcDbSpline
 62
7
  6
CONTINUOUS
 70
0
 71
3
 72
11
 73
7
 74
0
 42
0.0000001
 43
0.0000001
 44
0.0000000001
 40
0.0
 40
0.0
 40
0.0
 40
0.0
 40
0.2798394028
 40
0.5354763662
 40
0.7722115225
 40
1.0
 40
1.0
 40
1.0
 40
1.0
 10
35.5769534825
 20
95.4010831202
 30
0.0
 10
35.4177699987
 20
95.4929856683
 30
0.0
 10
35.0960962193
 20
95.642118584
 30
0.0
 10
34.5949392523
 20
95.7484035783
 30
0.0
 10
34.1164121196
 20
95.7194257989
 30
0.0
 10
33.8262056098
 20
95.6077938979
 30
0.0
 10
33.6966407236
 20
95.5329681383
 30
0.0
  0
SPLINE
  5
308
100
AcDbEntity
  8
0
100
AcDbSpline
 62
7
  6
CONTINUOUS
 70
0
 71
3
 72
15
 73
11
 74
0
 42
0.0000001
 43
0.0000001
 44
0.0000000001
 40
0.0
 40
0.0
 40
0.0
 40
0.0
 40
0.1296566077
 40
0.2522378514
 40
0.3703059772
 40
0.4869278998
 40
0.6053842325
 40
0.7287826286
 40
0.8597027742
 40
1.0
 40
1.0
 40
1.0
 40
1.0
 10
16.0904606414
 20
55.9915340621
 30
0.0
 10
16.1615562396
 20
56.2024228695
 30
0.0
 10
16.3314986388
 20
56.6032052623
 30
0.0
 10
16.681821529
 20
57.1379471835
 30
0.0
 10
17.1152911669
 20
57.577827334
 30
0.0
 10
17.6251027594
 20
57.9140432052
 30
0.0
 10
18.2024014843
 20
58.1392956083
 30
0.0
 10
18.8366050532
 20
58.2497723303
 30
0.0
 10
19.5170864581
 20
58.2440478699
 30
0.0
 10
19.9780398482
 20
58.1658287842
 30
0.0
 10
20.2122301036
 20
58.1097343487
 30
0.0
  0
SPLINE
  5
309
100
AcDbEntity
  8
0
100
AcDbSpline
 62
7
  6
CONTINUOUS
 70
0
 71
3
 72
15
 73
11
 74
0
 42
0.0000001
 43
0.0000001
 44
0.0000000001
 40
0.0
 40
0.0
 40
0.0
 40
0.0
 40
0.0970250094
 40
0.2088862245
 40
0.3339359205
 40
0.468524848
 40
0.60784989
 40
0.7464674502
 40
0.8788478538
 40
1.0
 40
1.0
 40
1.0
 40
1.0
 10
45.4260622781
 20
30.3162139646
 30
0.0
 10
45.3765227438
 20
30.1267630732
 30
0.0
 10
45.3360639744
 20
29.7012343273
 30
0.0
 10
45.4217668934
 20
29.0291686133
 30
0.0
 10
45.6420899502
 20
28.3092412616
 30
0.0
 10
45.9848358098
 20
27.5780708751
 30
0.0
 10
46.4313597703
 20
26.8728770855
 30
0.0
 10
46.9569786702
 20
26.2301724521
 30
0.0
 10
47.5323672088
 20
25.6837359681
 30
0.0
 10
47.9517487785
 20
25.3859672345
 30
0.0
 10
48.1635065901
 20
25.2637115708
 30
0.0
  0
SPLINE
  5
30A
100
AcDbEntity
  8
0
100
AcDbSpline
 62
7
  6
CONTINUOUS
 70
0
 71
3
 72
9
 73
5
 74
0
 42
0.0000001
 43
0.0000001
 44
0.0000000001
 40
0.0
 40
0.0
 40
0.0
 40
0.0
 40
0.4906669468
 40
1.0
 40
1.0
 40
1.0
 40
1.0
 10
54.8762761705
 20
18.6065535641
 30
0.0
 10
54.5575995475
 20
21.0270770971
 30
0.0
 10
54.0851231873
 20
25.9847025203
 30
0.0
 10
53.9368511605
 20
30.9617870023
 30
0.0
 10
53.9368511605
 20
33.4960752029
 30
0.0
  0
SPLINE
  5
30B
100
AcDbEntity
  8
0
100
AcDbSpline
 62
7
  6
CONTINUOUS
 70
0
 71
3
 72
9
 73
5
 74
0
 42
0.0000001
 43
0.0000001
 44
0.0000000001
 40
0.0
 40
0.0
 40
0.0
 40
0.0
 40
0.4901153709
 40
1.0
 40
1.0
 40
1.0
 40
1.0
 10
42.5181209035
 20
28.5365124018
 30
0.0
 10
42.0578092488
 20
31.4792028628
 30
0.0
 10
41.3495470251
 20
37.5210511315
 30
0.0
 10
41.062975871
 20
43.5963449249
 30
0.0
 10
41.0147772555
 20
46.6945847047
 30
0.0
  0
SPLINE
  5
30C
100
AcDbEntity
  8
0
100
AcDbSpline
 62
7
  6
CONTINUOUS
 70
0
 71
3
 72
9
 73
5
 74
0
 42
0.0000001
 43
0.0000001
 44
0.0000000001
 40
0.0
 40
0.0
 40
0.0
 40
0.0
 40
0.2432571893
 40
1.0
 40
1.0
 40
1.0
 40
1.0
 10
63.9777256489
 20
91.5888206956
 30
0.0
 10
64.1920959023
 20
91.6034786769
 30
0.0
 10
65.0719257619
 20
91.6837608936
 30
0.0
 10
65.9441128706
 20
91.8420109126
 30
0.0
 10
66.5940098466
 20
91.9983471113
 30
0.0
  0
SPLINE
  5
30D
100
AcDbEntity
  8
0
100
AcDbSpline
 62
7
  6
CONTINUOUS
 70
0
 71
3
 72
12
 73
8
 74
0
 42
0.0000001
 43
0.0000001
 44
0.0000000001
 40
0.0
 40
0.0
 40
0.0
 40
0.0
 40
0.3007092944
 40
0.5640775087
 40
0.7930566973
 40
0.8983222278
 40
1.0
 40
1.0
 40
1.0
 40
1.0
 10
48.1635065901
 20
25.2637115708
 30
0.0
 10
48.3205937491
 20
25.1730193089
 30
0.0
 10
48.6281177999
 20
25.0231301551
 30
0.0
 10
49.0929178802
 20
24.8965929015
 30
0.0
 10
49.4593108376
 20
24.8923835044
 30
0.0
 10
49.7156451673
 20
24.9562884182
 30
0.0
 10
49.8300417659
 20
25.0083916958
 30
0.0
 10
49.8831520866
 20
25.0390658191
 30
0.0
  0
SPLINE
  5
30E
100
AcDbEntity
  8
0
100
AcDbSpline
 62
7
  6
CONTINUOUS
 70
0
 71
3
 72
14
 73
10
 74
0
 42
0.0000001
 43
0.0000001
 44
0.0000000001
 40
0.0
 40
0.0
 40
0.0
 40
0.0
 40
0.1437782718
 40
0.285713645
 40
0.4236878629
 40
0.5557733886
 40
0.6803578183
 40
0.7962807203
 40
1.0
 40
1.0
 40
1.0
 40
1.0
 10
18.1247961961
 20
57.5541286398
 30
0.0
 10
17.876255162
 20
57.1377915153
 30
0.0
 10
17.4183043035
 20
56.2883603564
 30
0.0
 10
16.8530298723
 20
54.9741074086
 30
0.0
 10
16.4228888587
 20
53.6506520761
 30
0.0
 10
16.1376605546
 20
52.3485145877
 30
0.0
 10
16.0041463877
 20
51.0953201642
 30
0.0
 10
16.0306394039
 20
49.5970394109
 30
0.0
 10
16.2777656935
 20
48.5183825925
 30
0.0
 10
16.5731249462
 20
47.8980852098
 30
0.0
  0
LINE
  5
30F
100
AcDbEntity
  8
0
100
AcDbLine
 62
7
  6
CONTINUOUS
 10
39.8301296081
 20
48.744398584
 11
39.8304612934
 21
49.1120161078
  0
SPLINE
  5
310
100
AcDbEntity
  8
0
100
AcDbSpline
 62
7
  6
CONTINUOUS
 70
0
 71
3
 72
9
 73
5
 74
0
 42
0.0000001
 43
0.0000001
 44
0.0000000001
 40
0.0
 40
0.0
 40
0.0
 40
0.0
 40
0.4744878343
 40
1.0
 40
1.0
 40
1.0
 40
1.0
 10
39.6191818817
 20
49.1533351555
 30
0.0
 10
39.6191818817
 20
49.1765193994
 30
0.0
 10
39.6278711827
 20
49.2253969841
 30
0.0
 10
39.6477666005
 20
49.2704818808
 30
0.0
 10
39.6606052348
 20
49.2927191711
 30
0.0
  0
SPLINE
  5
311
100
AcDbEntity
  8
0
100
AcDbSpline
 62
7
  6
CONTINUOUS
 70
0
 71
3
 72
9
 73
5
 74
0
 42
0.0000001
 43
0.0000001
 44
0.0000000001
 40
0.0
 40
0.0
 40
0.0
 40
0.0
 40
0.5255138057
 40
1.0
 40
1.0
 40
1.0
 40
1.0
 10
39.6606052348
 20
49.2927191711
 30
0.0
 10
39.673443826
 20
49.3149563868
 30
0.0
 10
39.7025403856
 20
49.3547286684
 30
0.0
 10
39.7405246743
 20
49.3866925147
 30
0.0
 10
39.7606026492
 20
49.3982844697
 30
0.0
  0
SPLINE
  5
312
100
AcDbEntity
  8
0
100
AcDbSpline
 62
7
  6
CONTINUOUS
 70
0
 71
3
 72
9
 73
5
 74
0
 42
0.0000001
 43
0.0000001
 44
0.0000000001
 40
0.0
 40
0.0
 40
0.0
 40
0.0
 40
0.2463731146
 40
1.0
 40
1.0
 40
1.0
 40
1.0
 10
39.8313130329
 20
49.4391088851
 30
0.0
 10
39.8353993435
 20
50.6396849437
 30
0.0
 10
39.8948567545
 20
55.5124735125
 30
0.0
 10
40.1230621118
 20
60.3829648738
 30
0.0
 10
40.3826649948
 20
64.0462224884
 30
0.0
  0
SPLINE
  5
313
100
AcDbEntity
  8
0
100
AcDbSpline
 62
7
  6
CONTINUOUS
 70
0
 71
3
 72
9
 73
5
 74
0
 42
0.0000001
 43
0.0000001
 44
0.0000000001
 40
0.0
 40
0.0
 40
0.0
 40
0.0
 40
0.4918851703
 40
1.0
 40
1.0
 40
1.0
 40
1.0
 10
53.9368511605
 20
71.871688808
 30
0.0
 10
53.9368511605
 20
74.4964419492
 30
0.0
 10
54.1015670994
 20
79.8335244294
 30
0.0
 10
54.5684192825
 20
85.1521364259
 30
0.0
 10
54.8762761705
 20
87.8459585367
 30
0.0
  0
SPLINE
  5
314
100
AcDbEntity
  8
0
100
AcDbSpline
 62
7
  6
CONTINUOUS
 70
0
 71
3
 72
12
 73
8
 74
0
 42
0.0000001
 43
0.0000001
 44
0.0000000001
 40
0.0
 40
0.0
 40
0.0
 40
0.0
 40
0.2835669732
 40
0.5402209946
 40
0.7751402033
 40
0.888069523
 40
1.0
 40
1.0
 40
1.0
 40
1.0
 10
47.7322126626
 20
82.0065741076
 30
0.0
 10
47.8907945482
 20
81.9150188845
 30
0.0
 10
48.2089493254
 20
81.7656965313
 30
0.0
 10
48.7015918238
 20
81.6542153436
 30
0.0
 10
49.097707746
 20
81.6728189472
 30
0.0
 10
49.3838070544
 20
81.7561131863
 30
0.0
 10
49.5156445882
 20
81.8187447017
 30
0.0
 10
49.5782352361
 20
81.8548928715
 30
0.0
  0
SPLINE
  5
315
100
AcDbEntity
  8
0
100
AcDbSpline
 62
7
  6
CONTINUOUS
 70
0
 71
3
 72
18
 73
14
 74
0
 42
0.0000001
 43
0.0000001
 44
0.0000000001
 40
0.0
 40
0.0
 40
0.0
 40
0.0
 40
0.0461889485
 40
0.0941734543
 40
0.1449844341
 40
0.1992883321
 40
0.318900577
 40
0.3841320645
 40
0.4522405915
 40
0.5939560365
 40
0.7373300642
 40
0.8748478755
 40
1.0
 40
1.0
 40
1.0
 40
1.0
 10
33.6966407236
 20
95.5329681383
 30
0.0
 10
33.5983932586
 20
95.4762286822
 30
0.0
 10
33.4110459695
 20
95.3365324486
 30
0.0
 10
33.1778222377
 20
95.0640993667
 30
0.0
 10
32.9934559858
 20
94.7337329048
 30
0.0
 10
32.8122399957
 20
94.2099435564
 30
0.0
 10
32.7531360615
 20
93.6167701407
 30
0.0
 10
32.7988678628
 20
92.9965345504
 30
0.0
 10
32.9212637337
 20
92.3307877131
 30
0.0
 10
33.2067063717
 20
91.5055280871
 30
0.0
 10
33.7205379232
 20
90.5970524427
 30
0.0
 10
34.3654638706
 20
89.8289654617
 30
0.0
 10
34.8794307287
 20
89.4269633453
 30
0.0
 10
35.1456595549
 20
89.2732595381
 30
0.0
  0
SPLINE
  5
316
100
AcDbEntity
  8
0
100
AcDbSpline
 62
7
  6
CONTINUOUS
 70
0
 71
3
 72
25
 73
21
 74
0
 42
0.0000001
 43
0.0000001
 44
0.0000000001
 40
0.0
 40
0.0
 40
0.0
 40
0.0
 40
0.0757338809
 40
0.1540553805
 40
0.2337840371
 40
0.313688451
 40
0.3925224157
 40
0.4690807177
 40
0.5422444785
 40
0.6110316182
 40
0.6746600133
 40
0.7326258289
 40
0.7848191947
 40
0.8316811927
 40
0.8743866756
 40
0.8948283218
 40
0.9150396717
 40
0.9353546945
 40
0.9561049217
 40
1.0
 40
1.0
 40
1.0
 40
1.0
 10
23.9263083443
 20
55.945193225
 30
0.0
 10
24.2447503903
 20
55.6515255197
 30
0.0
 10
24.8627688561
 20
55.0212761249
 30
0.0
 10
25.7117862427
 20
53.9862471937
 30
0.0
 10
26.4863211179
 20
52.8652615162
 30
0.0
 10
27.1719074647
 20
51.6845294977
 30
0.0
 10
27.7565178122
 20
50.4707885049
 30
0.0
 10
28.2303501125
 20
49.2508936478
 30
0.0
 10
28.585785536
 20
48.0510756857
 30
0.0
 10
28.8172261891
 20
46.8963829708
 30
0.0
 10
28.9209099434
 20
45.8101499888
 30
0.0
 10
28.894713983
 20
44.8135325135
 30
0.0
 10
28.7372404855
 20
43.9250826844
 30
0.0
 10
28.4477214069
 20
43.1615751902
 30
0.0
 10
28.0883482331
 20
42.6355095922
 30
0.0
 10
27.7411534293
 20
42.3065445671
 30
0.0
 10
27.4550039224
 20
42.1050339186
 30
0.0
 10
27.1407961325
 20
41.9468494623
 30
0.0
 10
26.6787551326
 20
41.7921273643
 30
0.0
 10
26.3063343945
 20
41.7488937734
 30
0.0
 10
26.0552711302
 20
41.7470144373
 30
0.0
  0
SPLINE
  5
317
100
AcDbEntity
  8
0
100
AcDbSpline
 62
7
  6
CONTINUOUS
 70
0
 71
3
 72
12
 73
8
 74
0
 42
0.0000001
 43
0.0000001
 44
0.0000000001
 40
0.0
 40
0.0
 40
0.0
 40
0.0
 40
0.2835669732
 40
0.5402209946
 40
0.7751402033
 40
0.888069523
 40
1.0
 40
1.0
 40
1.0
 40
1.0
 10
35.1456595549
 20
89.2732595381
 30
0.0
 10
35.3042414406
 20
89.181704315
 30
0.0
 10
35.6223962177
 20
89.0323819618
 30
0.0
 10
36.1150387162
 20
88.920900774
 30
0.0
 10
36.5111546384
 20
88.9395043777
 30
0.0
 10
36.7972539467
 20
89.0227986168
 30
0.0
 10
36.9290914806
 20
89.0854301322
 30
0.0
 10
36.9916821285
 20
89.1215783019
 30
0.0
  0
SPLINE
  5
318
100
AcDbEntity
  8
0
100
AcDbSpline
 62
7
  6
CONTINUOUS
 70
0
 71
3
 72
18
 73
14
 74
0
 42
0.0000001
 43
0.0000001
 44
0.0000000001
 40
0.0
 40
0.0
 40
0.0
 40
0.0
 40
0.0461889485
 40
0.0941734543
 40
0.1449844341
 40
0.1992883321
 40
0.318900577
 40
0.3841320645
 40
0.4522405915
 40
0.5939560365
 40
0.7373300642
 40
0.8748478755
 40
1.0
 40
1.0
 40
1.0
 40
1.0
 10
46.2831938312
 20
88.2662827079
 30
0.0
 10
46.1849463663
 20
88.2095432517
 30
0.0
 10
45.9975990771
 20
88.0698470181
 30
0.0
 10
45.7643753454
 20
87.7974139362
 30
0.0
 10
45.5800090934
 20
87.4670474743
 30
0.0
 10
45.3987931033
 20
86.943258126
 30
0.0
 10
45.3396891691
 20
86.3500847103
 30
0.0
 10
45.3854209705
 20
85.7298491199
 30
0.0
 10
45.5078168413
 20
85.0641022826
 30
0.0
 10
45.7932594793
 20
84.2388426566
 30
0.0
 10
46.3070910308
 20
83.3303670122
 30
0.0
 10
46.9520169782
 20
82.5622800313
 30
0.0
 10
47.4659838363
 20
82.1602779149
 30
0.0
 10
47.7322126626
 20
82.0065741076
 30
0.0
  0
SPLINE
  5
319
100
AcDbEntity
  8
0
100
AcDbSpline
 62
7
  6
CONTINUOUS
 70
0
 71
3
 72
9
 73
5
 74
0
 42
0.0000001
 43
0.0000001
 44
0.0000000001
 40
0.0
 40
0.0
 40
0.0
 40
0.0
 40
0.2552674452
 40
1.0
 40
1.0
 40
1.0
 40
1.0
 10
65.9222556077
 20
92.386175828
 30
0.0
 10
65.7586707307
 20
92.3468246097
 30
0.0
 10
65.1156857563
 20
92.2018210545
 30
0.0
 10
64.4640956512
 20
92.0942964909
 30
0.0
 10
63.9764415333
 20
92.0382288891
 30
0.0
  0
ELLIPSE
  5
31A
100
AcDbEntity
  8
0
100
AcDbEllipse
 62
7
  6
CONTINUOUS
 10
29.1527032807
 20
72.3556391296
 30
0.0
 11
15.0958037187
 21
-0.651505755
 31
0.0
 40
0.5463706166
 41
-2.6307866688
 42
-2.03444212
  0
ELLIPSE
  5
31B
100
AcDbEntity
  8
0
100
AcDbEllipse
 62
7
  6
CONTINUOUS
 10
29.1527032807
 20
76.101768422
 30
0.0
 11
15.0935379149
 21
0.7278396047
 31
0.0
 40
0.6068867499
 41
-2.6836195041
 42
-2.0872749553
  0
ELLIPSE
  5
31C
100
AcDbEntity
  8
0
100
AcDbEllipse
 62
7
  6
CONTINUOUS
 10
74.2497534371
 20
102.3198140835
 30
0.0
 11
-10.6193033137
 21
16.2028556786
 31
0.0
 40
0.5357615102
 41
-1.1135444325
 42
-0.5155232157
  0
ELLIPSE
  5
31D
100
AcDbEntity
  8
0
100
AcDbEllipse
 62
7
  6
CONTINUOUS
 10
71.1850586735
 20
113.322965797
 30
0.0
 11
-0.7718466609
 21
1.3464081564
 31
0.0
 40
0.5779434714
 41
5.5330059334
 42
7.0716205141
  0
ENDSEC
  0
SECTION
  2
OBJECTS
  0
DICTIONARY
  5
C
100
AcDbDictionary
280
0
281
1
  3
ACAD_GROUP
350
D
  3
ACAD_MLINESTYLE
350
17
  3
ACAD_LAYOUT
350
1A
  3
ACAD_PLOTSETTINGS
350
19
  3
ACAD_PLOTSTYLENAME
350
E
  0
DICTIONARY
  5
D
102
{ACAD_REACTORS
330
C
102
}
100
AcDbDictionary
280
0
281
1
  0
ACDBDICTIONARYWDFLT
  5
E
102
{ACAD_REACTORS
330
C
102
}
100
AcDbDictionary
281
1
  3
Normal
350
F
100
AcDbDictionaryWithDefault
340
F
  0
DICTIONARY
  5
17
102
{ACAD_REACTORS
330
C
102
}
100
AcDbDictionary
280
0
281
1
  3
Standard
350
18
  0
DICTIONARY
  5
19
102
{ACAD_REACTORS
330
C
102
}
100
AcDbDictionary
281
1
  0
DICTIONARY
  5
1A
102
{ACAD_REACTORS
330
C
102
}
100
AcDbDictionary
281
1
  3
Model
350
31E
  3
Layout1
350
31F
  0
ACDBPLACEHOLDER
  5
F
102
{ACAD_REACTORS
330
E
102
}
  0
MLINESTYLE
  5
18
102
{ACAD_REACTORS
330
17
102
}
100
AcDbMlineStyle
  2
STANDARD
 70
0
  3

 62
256
 51
90.0
 52
90.0
 71
2
 49
0.5
 62
256
  6
BYLAYER
 49
-0.5
 62
256
  6
BYLAYER
  0
LAYOUT
  5
31E
102
{ACAD_REACTORS
330
1A
102
}
100
AcDbPlotSettings
  1

  2
none_device
  4

  6

 40
0.0
 41
0.0
 42
0.0
 43
0.0
 44
210.0
 45
297.0
 46
0.0
 47
0.0
 48
0.0
 49
0.0
140
0.0
141
0.0
142
1.0
143
1.0
 70
1024
 72
1
 73
0
 74
0
  7

 75
0
147
1.0
148
0.0
149
0.0
100
AcDbLayout
  1
Model
 70
0
 71
0
 10
0.0
 20
0.0
 11
210.0
 21
297.0
 12
0.0
 22
0.0
 32
0.0
 14
0.0
 24
0.0
 34
0.0
 15
0.0
 25
0.0
 35
0.0
146
0.0
 13
0.0
 23
0.0
 33
0.0
 16
1.0
 26
0.0
 36
0.0
 17
0.0
 27
1.0
 37
0.0
 76
0
330
210
345
0
346
0
  0
LAYOUT
  5
31F
102
{ACAD_REACTORS
330
1A
102
}
100
AcDbPlotSettings
  1

  2
none_device
  4

  6

 40
0.0
 41
0.0
 42
0.0
 43
0.0
 44
210.0
 45
297.0
 46
0.0
 47
0.0
 48
0.0
 49
0.0
140
0.0
141
0.0
142
1.0
143
1.0
 70
0
 72
1
 73
0
 74
0
  7

 75
0
147
1.0
148
0.0
149
0.0
100
AcDbLayout
  1
Layout1
 70
0
 71
1
 10
0.0
 20
0.0
 11
210.0
 21
297.0
 12
0.0
 22
0.0
 32
0.0
 14
0.0
 24
0.0
 34
0.0
 15
0.0
 25
0.0
 35
0.0
146
0.0
 13
0.0
 23
0.0
 33
0.0
 16
1.0
 26
0.0
 36
0.0
 17
0.0
 27
1.0
 37
0.0
 76
0
330
211
345
0
346
0
  0
ENDSEC
  0
EOF
