999
DXF file: C:\Users\sesa63760\Dev\_Creo\CAD\MCADFD0001753_3D-CAD\drw0001_1.dxf
999
Pro/ENGINEER 2019471 by Parametric Technology Corporation
  0
SECTION
  2
HEADER
  9
$ACADVER
  1
AC1024
  9
$DWGCODEPAGE
  3
ANSI_1252
  9
$EXTMAX
 10
131.1182492561
 20
185.438666805
 30
0.0
  9
$EXTMIN
 10
0.0
 20
0.0
 30
0.0
  9
$LIMMIN
 10
0.0
 20
0.0
  9
$LIMMAX
 10
131.1182492561
 20
185.438666805
  9
$VIEWCTR
 10
65.559124628
 20
92.7193334025
  9
$VIEWSIZE
 40
185.438666805
  9
$CLAYER
  8
0
  9
$LTSCALE
 40
12.0878538362
  9
$CELTYPE
  6
BYLAYER
  9
$DIMSCALE
 40
1.0
  9
$DIMASZ
 40
1.5609315388
  9
$DIMEXO
 40
1.0
  9
$DIMDLI
 40
8.351608105
  9
$DIMEXE
 40
1.0
  9
$DIMCEN
 40
1.9780124459
  9
$DIMLFAC
 40
1.0
  9
$DIMBLK
  1
_FILLED
  9
$DIMALT
 70
0
  9
$DIMALTF
 40
0.0393700787
  9
$DIMTXT
 40
2.1853041543
  9
$DIMTOL
 70
1
  9
$DIMLIM
 70
0
  9
$DIMTFAC
 40
1.0
  9
$DIMTP
 40
0.01
  9
$DIMTM
 40
0.01
  9
$DIMGAP
 40
0.625
  9
$DIMDSEP
 70
46
  9
$AUNITS
 70
0
  9
$PDMODE
 70
3
  9
$PDSIZE
 40
0.3125
  9
$HANDSEED
  5
2F2
  9
$TILEMODE
 70
1
  9
$MEASUREMENT
 70
1
  9
$INSUNITS
 70
4
  0
ENDSEC
  0
SECTION
  2
CLASSES
  0
CLASS
  1
ACDBDICTIONARYWDFLT
  2
AcDbDictionaryWithDefault
  3
AutoCAD 2000
 90
0
 91
1
280
0
281
0
  0
CLASS
  1
ACDBPLACEHOLDER
  2
AcDbPlaceHolder
  3
AutoCAD 2000
 90
0
 91
1
280
0
281
0
  0
CLASS
  1
LAYOUT
  2
AcDbLayout
  3
AutoCAD 2000
 90
0
 91
0
280
0
281
0
  0
ENDSEC
  0
SECTION
  2
TABLES
  0
TABLE
  2
VPORT
  5
8
100
AcDbSymbolTable
 70
2
  0
VPORT
  5
1F4
100
AcDbSymbolTableRecord
100
AcDbViewportTableRecord
  2
*ACTIVE
 70
0
 10
0.0
 20
0.0
 11
1.0
 21
1.0
 12
65.559124628
 22
92.7193334025
 13
0.0
 23
0.0
 14
1.0
 24
1.0
 15
0.0
 25
0.0
 16
0.0
 26
0.0
 36
1.0
 17
0.0
 27
0.0
 37
0.0
 40
185.438666805
 41
0.7070707071
 42
50.0
 43
0.0
 44
0.0
 50
0.0
 51
0.0
 71
0
 72
100
 73
1
 74
1
 75
0
 76
0
 77
0
 78
0
  0
ENDTAB
  0
TABLE
  2
LTYPE
  5
5
100
AcDbSymbolTable
 70
6
  0
LTYPE
  5
14
100
AcDbSymbolTableRecord
100
AcDbLinetypeTableRecord
  2
BYBLOCK
 70
0
  3

 72
65
 73
0
 40
0.0
  0
LTYPE
  5
15
100
AcDbSymbolTableRecord
100
AcDbLinetypeTableRecord
  2
BYLAYER
 70
0
  3

 72
65
 73
0
 40
0.0
  0
LTYPE
  5
16
100
AcDbSymbolTableRecord
100
AcDbLinetypeTableRecord
  2
CONTINUOUS
 70
64
  3
Solid line
 72
65
 73
0
 40
0.0
  0
LTYPE
  5
1F5
100
AcDbSymbolTableRecord
100
AcDbLinetypeTableRecord
  2
CENTER
 70
64
  3
____ _ ____ _ ____ _ ____ _ ____ _ ____ _ ____
 72
65
 73
4
 40
0.6
 49
0.375
 74
0
 49
-0.075
 74
0
 49
0.075
 74
0
 49
-0.075
 74
0
  0
LTYPE
  5
1F6
100
AcDbSymbolTableRecord
100
AcDbLinetypeTableRecord
  2
HIDDEN
 70
64
  3
- - - - - - - - - - - - - - - - - - - -
 72
65
 73
2
 40
0.2
 49
0.1
 74
0
 49
-0.1
 74
0
  0
LTYPE
  5
1F7
100
AcDbSymbolTableRecord
100
AcDbLinetypeTableRecord
  2
PHANTOM
 70
64
  3
_____ _ _ _____ _ _ _____ _ _ _____
 72
65
 73
6
 40
0.8
 49
0.45
 74
0
 49
-0.05
 74
0
 49
0.1
 74
0
 49
-0.05
 74
0
 49
0.1
 74
0
 49
-0.05
 74
0
  0
LTYPE
  5
1F8
100
AcDbSymbolTableRecord
100
AcDbLinetypeTableRecord
  2
DOT
 70
64
  3
. . . . . . . . . . . . . . . . . . . .
 72
65
 73
2
 40
0.2
 49
0.1
 74
0
 49
-0.1
 74
0
  0
LTYPE
  5
1F9
100
AcDbSymbolTableRecord
100
AcDbLinetypeTableRecord
  2
DASHED
 70
64
  3
- - - - - - - - - - - - - - - - - - - -
 72
65
 73
2
 40
0.2
 49
0.1
 74
0
 49
-0.1
 74
0
  0
ENDTAB
  0
TABLE
  2
LAYER
  5
2
100
AcDbSymbolTable
 70
36
  0
LAYER
  5
10
100
AcDbSymbolTableRecord
100
AcDbLayerTableRecord
  2
0
 70
0
 62
7
  6
CONTINUOUS
370
-3
390
F
  0
LAYER
  5
1FA
100
AcDbSymbolTableRecord
100
AcDbLayerTableRecord
  2
DEFAULT_1
 70
0
 62
7
  6
CENTER
370
-3
390
F
  0
LAYER
  5
1FB
100
AcDbSymbolTableRecord
100
AcDbLayerTableRecord
  2
DEFAULT_2
 70
0
 62
8
  6
HIDDEN
370
-3
390
F
  0
LAYER
  5
1FC
100
AcDbSymbolTableRecord
100
AcDbLayerTableRecord
  2
DEFAULT_3
 70
0
 62
7
  6
PHANTOM
370
-3
390
F
  0
LAYER
  5
1FD
100
AcDbSymbolTableRecord
100
AcDbLayerTableRecord
  2
00_COMPONENTS
 70
0
 62
7
  6
CONTINUOUS
370
-3
390
F
  0
LAYER
  5
1FE
100
AcDbSymbolTableRecord
100
AcDbLayerTableRecord
  2
01_1_DEFAULT_DATUMS
 70
0
 62
7
  6
CONTINUOUS
370
-3
390
F
  0
LAYER
  5
1FF
100
AcDbSymbolTableRecord
100
AcDbLayerTableRecord
  2
01_PLANES
 70
0
 62
7
  6
CONTINUOUS
370
-3
390
F
  0
LAYER
  5
200
100
AcDbSymbolTableRecord
100
AcDbLayerTableRecord
  2
02_COORD_SYS
 70
0
 62
7
  6
CONTINUOUS
370
-3
390
F
  0
LAYER
  5
201
100
AcDbSymbolTableRecord
100
AcDbLayerTableRecord
  2
03_AXES
 70
0
 62
7
  6
CONTINUOUS
370
-3
390
F
  0
LAYER
  5
202
100
AcDbSymbolTableRecord
100
AcDbLayerTableRecord
  2
04_POINTS
 70
0
 62
7
  6
CONTINUOUS
370
-3
390
F
  0
LAYER
  5
203
100
AcDbSymbolTableRecord
100
AcDbLayerTableRecord
  2
05_CURVES
 70
0
 62
7
  6
CONTINUOUS
370
-3
390
F
  0
LAYER
  5
204
100
AcDbSymbolTableRecord
100
AcDbLayerTableRecord
  2
06_SURFS
 70
0
 62
7
  6
CONTINUOUS
370
-3
390
F
  0
LAYER
  5
205
100
AcDbSymbolTableRecord
100
AcDbLayerTableRecord
  2
07_COSMETICS
 70
0
 62
7
  6
CONTINUOUS
370
-3
390
F
  0
LAYER
  5
206
100
AcDbSymbolTableRecord
100
AcDbLayerTableRecord
  2
10_NOTES
 70
0
 62
7
  6
CONTINUOUS
370
-3
390
F
  0
LAYER
  5
207
100
AcDbSymbolTableRecord
100
AcDbLayerTableRecord
  2
11_NOTES_PUB
 70
0
 62
7
  6
CONTINUOUS
370
-3
390
F
  0
LAYER
  5
208
100
AcDbSymbolTableRecord
100
AcDbLayerTableRecord
  2
13_REF_GTOL
 70
0
 62
7
  6
CONTINUOUS
370
-3
390
F
  0
LAYER
  5
209
100
AcDbSymbolTableRecord
100
AcDbLayerTableRecord
  2
16_MISC
 70
0
 62
7
  6
CONTINUOUS
370
-3
390
F
  0
LAYER
  5
20A
100
AcDbSymbolTableRecord
100
AcDbLayerTableRecord
  2
17_NO_PRINT
 70
0
 62
7
  6
CONTINUOUS
370
-3
390
F
  0
LAYER
  5
20B
100
AcDbSymbolTableRecord
100
AcDbLayerTableRecord
  2
18_DATUM_CAMS_JOINTS
 70
0
 62
7
  6
CONTINUOUS
370
-3
390
F
  0
LAYER
  5
20C
100
AcDbSymbolTableRecord
100
AcDbLayerTableRecord
  2
19_DATUM_FUNCTIONAL
 70
0
 62
7
  6
CONTINUOUS
370
-3
390
F
  0
LAYER
  5
20D
100
AcDbSymbolTableRecord
100
AcDbLayerTableRecord
  2
20_DATUM_KINEMATIC_SCHEME
 70
0
 62
7
  6
CONTINUOUS
370
-3
390
F
  0
ENDTAB
  0
TABLE
  2
STYLE
  5
3
100
AcDbSymbolTable
 70
1
  0
STYLE
  5
11
100
AcDbSymbolTableRecord
100
AcDbTextStyleTableRecord
  2
STANDARD
 70
0
 40
0.0
 41
0.8
 50
0.0
 71
0
 42
0.2
  3
txt
  4

  0
STYLE
  5
20E
100
AcDbSymbolTableRecord
100
AcDbTextStyleTableRecord
  2
TEXTSTYLE_1
 70
0
 40
0.0
 41
0.8
 50
0.0
 71
0
 42
0.2
  3
gdt
  4

  0
ENDTAB
  0
TABLE
  2
VIEW
  5
6
100
AcDbSymbolTable
 70
0
  0
ENDTAB
  0
TABLE
  2
UCS
  5
7
100
AcDbSymbolTable
 70
0
  0
ENDTAB
  0
TABLE
  2
APPID
  5
9
100
AcDbSymbolTable
 70
1
  0
APPID
  5
20F
100
AcDbSymbolTableRecord
100
AcDbRegAppTableRecord
  2
ACAD
 70
0
  0
ENDTAB
  0
TABLE
  2
BLOCK_RECORD
  5
1
100
AcDbSymbolTable
 70
0
  0
BLOCK_RECORD
  5
210
100
AcDbSymbolTableRecord
100
AcDbBlockTableRecord
  2
*Model_Space
  0
BLOCK_RECORD
  5
211
100
AcDbSymbolTableRecord
100
AcDbBlockTableRecord
  2
*Paper_Space
  0
BLOCK_RECORD
  5
212
100
AcDbSymbolTableRecord
100
AcDbBlockTableRecord
  2
_FILLED
  0
ENDTAB
  0
TABLE
  2
DIMSTYLE
  5
A
100
AcDbSymbolTable
 70
1
100
AcDbDimStyleTable
 71
0
  0
DIMSTYLE
105
213
100
AcDbSymbolTableRecord
100
AcDbDimStyleTableRecord
  2
STANDARD
 70
0
  3

  4

 40
1.0
 41
1.5609315388
 42
1.0
 43
0.38
 44
1.0
 45
0.0
 46
0.0
 47
0.01
 48
0.01
140
2.1853041543
141
0.09
142
0.0
143
25.4
144
1.0
145
0.0
146
1.0
147
0.625
 71
1
 72
0
 73
0
 74
0
 75
0
 76
0
 77
1
 78
8
 79
2
170
0
171
1
172
0
173
0
174
0
175
0
176
0
177
0
178
0
270
2
179
2
271
2
272
2
273
2
274
2
275
0
280
0
281
0
282
0
283
1
284
8
285
0
286
0
287
3
288
0
340
11
278
46
341
212
342
212
343
212
344
212
  0
ENDTAB
  0
ENDSEC
  0
SECTION
  2
BLOCKS
  0
BLOCK
  5
20
100
AcDbEntity
  8
0
100
AcDbBlockBegin
  2
*Model_Space
 70
0
 10
0.0
 20
0.0
 30
0.0
  3
*Model_Space
  1

  0
ENDBLK
  5
21
100
AcDbEntity
  8
0
100
AcDbBlockEnd
  0
BLOCK
  5
1C
100
AcDbEntity
  8
0
100
AcDbBlockBegin
  2
*Paper_Space
 70
0
 10
0.0
 20
0.0
 30
0.0
  3
*Paper_Space
  1

  0
ENDBLK
  5
1D
100
AcDbEntity
  8
0
100
AcDbBlockEnd
  0
BLOCK
  5
214
100
AcDbEntity
  8
0
100
AcDbBlockBegin
  2
_FILLED
 70
64
 10
0.0
 20
0.0
  3
_FILLED
  1

  0
SOLID
  5
215
100
AcDbEntity
  8
0
  6
BYBLOCK
 62
0
100
AcDbTrace
 10
0.0
 20
0.0
 11
-1.0
 21
0.25
 12
-1.0
 22
-0.25
 13
-1.0
 23
-0.25
  0
ENDBLK
  5
216
100
AcDbEntity
  8
0
  6
BYBLOCK
 62
0
100
AcDbBlockEnd
  0
ENDSEC
  0
SECTION
  2
ENTITIES
  0
LINE
  5
217
100
AcDbEntity
  8
0
100
AcDbLine
 62
7
  6
CONTINUOUS
 10
19.301867737
 20
99.0739866634
 11
19.301867737
 21
101.9317449717
  0
LINE
  5
218
100
AcDbEntity
  8
0
100
AcDbLine
 62
7
  6
CONTINUOUS
 10
33.3230065693
 20
132.7578428871
 11
66.0343903326
 21
151.6436563753
  0
LINE
  5
219
100
AcDbEntity
  8
0
100
AcDbLine
 62
7
  6
CONTINUOUS
 10
70.8217808785
 20
145.9481820452
 11
69.9120401089
 21
145.3494886828
  0
LINE
  5
21A
100
AcDbEntity
  8
0
100
AcDbLine
 62
7
  6
CONTINUOUS
 10
70.31387374
 20
145.3110378697
 11
71.0217655919
 21
145.7768960209
  0
LINE
  5
21B
100
AcDbEntity
  8
0
100
AcDbLine
 62
7
  6
CONTINUOUS
 10
68.395547353
 20
145.821765771
 11
70.1039129087
 21
146.8080851969
  0
LINE
  5
21C
100
AcDbEntity
  8
0
100
AcDbLine
 62
7
  6
CONTINUOUS
 10
73.1574954347
 20
149.4573182003
 11
70.1047033058
 21
147.6984138226
  0
LINE
  5
21D
100
AcDbEntity
  8
0
100
AcDbLine
 62
7
  6
CONTINUOUS
 10
74.1711731951
 20
147.083971981
 11
73.2519386902
 21
146.5543435207
  0
LINE
  5
21E
100
AcDbEntity
  8
0
100
AcDbLine
 62
7
  6
CONTINUOUS
 10
73.2501559349
 20
144.54619077
 11
74.1693904398
 21
145.0758192302
  0
LINE
  5
21F
100
AcDbEntity
  8
0
100
AcDbLine
 62
7
  6
CONTINUOUS
 10
75.019714995
 20
145.5359854795
 11
75.9389494999
 21
146.0656139398
  0
LINE
  5
220
100
AcDbEntity
  8
0
100
AcDbLine
 62
7
  6
CONTINUOUS
 10
15.3458297387
 20
71.7793917138
 11
27.0838511761
 21
65.0025951888
  0
LINE
  5
221
100
AcDbEntity
  8
0
100
AcDbLine
 62
7
  6
CONTINUOUS
 10
84.0227738623
 20
34.2475758154
 11
33.3230065693
 21
63.5184379145
  0
LINE
  5
222
100
AcDbEntity
  8
0
100
AcDbLine
 62
7
  6
CONTINUOUS
 10
25.8779882465
 20
98.1351059168
 11
25.8779882465
 21
95.2773476085
  0
LINE
  5
223
100
AcDbEntity
  8
0
100
AcDbLine
 62
7
  6
CONTINUOUS
 10
74.9586999869
 20
144.8509980023
 11
73.9563636173
 21
144.191368192
  0
LINE
  5
224
100
AcDbEntity
  8
0
100
AcDbLine
 62
7
  6
CONTINUOUS
 10
75.0186192819
 20
144.3017389942
 11
73.1539081573
 21
143.0745870292
  0
LINE
  5
225
100
AcDbEntity
  8
0
100
AcDbLine
 62
7
  6
CONTINUOUS
 10
32.3835815592
 20
116.7835731584
 11
18.8293953935
 21
108.9581068388
  0
LINE
  5
226
100
AcDbEntity
  8
0
100
AcDbLine
 62
7
  6
CONTINUOUS
 10
78.1657636579
 20
143.0551538787
 11
81.2178995475
 21
144.8136801559
  0
LINE
  5
227
100
AcDbEntity
  8
0
100
AcDbLine
 62
7
  6
CONTINUOUS
 10
79.0838030296
 20
142.2385459863
 11
78.1645685247
 21
141.708917526
  0
LINE
  5
228
100
AcDbEntity
  8
0
100
AcDbLine
 62
7
  6
CONTINUOUS
 10
71.6646185953
 20
44.1775346532
 11
30.72819969
 21
67.8116524527
  0
LINE
  5
229
100
AcDbEntity
  8
0
100
AcDbLine
 62
7
  6
CONTINUOUS
 10
16.3826356585
 20
76.5293269461
 11
28.1206570959
 21
69.7525304211
  0
LINE
  5
22A
100
AcDbEntity
  8
0
100
AcDbLine
 62
7
  6
CONTINUOUS
 10
16.8307458676
 20
77.2533706032
 11
28.5687673051
 21
70.4765740782
  0
LINE
  5
22B
100
AcDbEntity
  8
0
100
AcDbLine
 62
7
  6
CONTINUOUS
 10
31.4692374107
 20
69.8921668969
 11
29.4720271442
 21
71.0452306961
  0
LINE
  5
22C
100
AcDbEntity
  8
0
100
AcDbLine
 62
7
  6
CONTINUOUS
 10
17.8399287792
 20
78.0054955149
 11
29.5779502166
 21
71.2286989899
  0
LINE
  5
22D
100
AcDbEntity
  8
0
100
AcDbLine
 62
7
  6
CONTINUOUS
 10
28.5687673051
 20
70.4765740782
 11
28.6160494849
 21
70.4431607759
  0
LINE
  5
22E
100
AcDbEntity
  8
0
100
AcDbLine
 62
7
  6
CONTINUOUS
 10
31.1692871969
 20
68.6388424504
 11
31.2165693768
 21
68.605429148
  0
LINE
  5
22F
100
AcDbEntity
  8
0
100
AcDbLine
 62
7
  6
CONTINUOUS
 10
29.2467143434
 20
70.6934975415
 11
31.1380015375
 21
69.3569654485
  0
LINE
  5
230
100
AcDbEntity
  8
0
100
AcDbLine
 62
7
  6
CONTINUOUS
 10
16.8307458676
 20
77.2533706032
 11
16.3826356585
 21
76.5293269462
  0
LINE
  5
231
100
AcDbEntity
  8
0
100
AcDbLine
 62
7
  6
CONTINUOUS
 10
77.0430116456
 20
140.8292628793
 11
77.6985202612
 21
141.260648028
  0
LINE
  5
232
100
AcDbEntity
  8
0
100
AcDbLine
 62
7
  6
CONTINUOUS
 10
81.3589554578
 20
142.5658375738
 11
79.082763848
 21
141.0679591
  0
LINE
  5
233
100
AcDbEntity
  8
0
100
AcDbLine
 62
7
  6
CONTINUOUS
 10
79.7891418245
 20
139.8406132436
 11
82.1153910349
 21
141.3714998522
  0
LINE
  5
234
100
AcDbEntity
  8
0
100
AcDbLine
 62
7
  6
CONTINUOUS
 10
82.7205420437
 20
140.4160767885
 11
80.4017828401
 21
138.8901192954
  0
LINE
  5
235
100
AcDbEntity
  8
0
100
AcDbLine
 62
7
  6
CONTINUOUS
 10
81.4770772682
 20
138.2693118124
 11
83.9579840627
 21
139.7016554681
  0
LINE
  5
236
100
AcDbEntity
  8
0
100
AcDbLine
 62
7
  6
CONTINUOUS
 10
21.5504423414
 20
103.2299523756
 11
19.301867737
 21
101.9317449717
  0
LINE
  5
237
100
AcDbEntity
  8
0
100
AcDbLine
 62
7
  6
CONTINUOUS
 10
70.1612749473
 20
62.335606956
 11
68.9870968711
 21
62.3272077593
  0
LINE
  5
238
100
AcDbEntity
  8
0
100
AcDbLine
 62
7
  6
CONTINUOUS
 10
26.8675333853
 20
77.0698716295
 11
22.495958636
 21
79.5937443902
  0
LINE
  5
239
100
AcDbEntity
  8
0
100
AcDbLine
 62
7
  6
CONTINUOUS
 10
70.6314829365
 20
52.810112405
 11
32.5889797236
 21
74.7734649982
  0
LINE
  5
23A
100
AcDbEntity
  8
0
100
AcDbLine
 62
7
  6
CONTINUOUS
 10
22.495958636
 20
79.5937443902
 11
20.5460560409
 21
76.4431475569
  0
LINE
  5
23B
100
AcDbEntity
  8
0
100
AcDbLine
 62
7
  6
CONTINUOUS
 10
70.3796381308
 20
56.348286486
 11
32.3371349179
 21
78.3116390792
  0
LINE
  5
23C
100
AcDbEntity
  8
0
100
AcDbLine
 62
7
  6
CONTINUOUS
 10
68.9870968711
 20
62.3272077593
 11
18.287329578
 21
91.5980698584
  0
LINE
  5
23D
100
AcDbEntity
  8
0
100
AcDbLine
 62
7
  6
CONTINUOUS
 10
27.1221764848
 20
72.6465085399
 11
27.7247848446
 21
73.6201858892
  0
LINE
  5
23E
100
AcDbEntity
  8
0
100
AcDbLine
 62
7
  6
CONTINUOUS
 10
29.1986919802
 20
72.3779365092
 11
28.7745097818
 21
71.6925550474
  0
LINE
  5
23F
100
AcDbEntity
  8
0
100
AcDbLine
 62
7
  6
CONTINUOUS
 10
28.1206570959
 20
69.7525304211
 11
28.5687673051
 21
70.4765740782
  0
LINE
  5
240
100
AcDbEntity
  8
0
100
AcDbLine
 62
7
  6
CONTINUOUS
 10
28.1265628508
 20
99.4333133207
 11
25.8779882465
 21
98.1351059168
  0
LINE
  5
241
100
AcDbEntity
  8
0
100
AcDbLine
 62
7
  6
CONTINUOUS
 10
27.9903651973
 20
96.4969217298
 11
25.8779882465
 21
95.2773476085
  0
LINE
  5
242
100
AcDbEntity
  8
0
100
AcDbLine
 62
7
  6
CONTINUOUS
 10
98.3306016499
 20
134.9239473393
 11
95.277809521
 21
133.1650429616
  0
LINE
  5
243
100
AcDbEntity
  8
0
100
AcDbLine
 62
7
  6
CONTINUOUS
 10
29.5779502166
 20
71.2286989899
 11
29.2467143434
 21
70.6934975415
  0
LINE
  5
244
100
AcDbEntity
  8
0
100
AcDbLine
 62
7
  6
CONTINUOUS
 10
31.1380015375
 20
69.3569654485
 11
31.4692374107
 21
69.8921668969
  0
LINE
  5
245
100
AcDbEntity
  8
0
100
AcDbLine
 62
7
  6
CONTINUOUS
 10
31.2165693768
 20
68.605429148
 11
30.7684591676
 21
67.881385491
  0
LINE
  5
246
100
AcDbEntity
  8
0
100
AcDbLine
 62
7
  6
CONTINUOUS
 10
95.9948870938
 20
131.4148111843
 11
95.0851463241
 21
130.8161178219
  0
LINE
  5
247
100
AcDbEntity
  8
0
100
AcDbLine
 62
7
  6
CONTINUOUS
 10
95.4869799552
 20
130.7776670088
 11
96.1948718071
 21
131.24352516
  0
LINE
  5
248
100
AcDbEntity
  8
0
100
AcDbLine
 62
7
  6
CONTINUOUS
 10
93.5686535682
 20
131.2883949101
 11
95.277019124
 21
132.274714336
  0
LINE
  5
249
100
AcDbEntity
  8
0
100
AcDbLine
 62
7
  6
CONTINUOUS
 10
99.3442794103
 20
132.5506011201
 11
98.4250449054
 21
132.0209726598
  0
LINE
  5
24A
100
AcDbEntity
  8
0
100
AcDbLine
 62
7
  6
CONTINUOUS
 10
98.4232621502
 20
130.012819909
 11
99.3424966551
 21
130.5424483693
  0
LINE
  5
24B
100
AcDbEntity
  8
0
100
AcDbLine
 62
7
  6
CONTINUOUS
 10
100.1928212103
 20
131.0026146186
 11
101.1120557152
 21
131.5322430789
  0
LINE
  5
24C
100
AcDbEntity
  8
0
100
AcDbLine
 62
7
  6
CONTINUOUS
 10
25.8779882465
 20
95.2773476085
 11
19.301867737
 21
99.0739866634
  0
LINE
  5
24D
100
AcDbEntity
  8
0
100
AcDbLine
 62
7
  6
CONTINUOUS
 10
19.301867737
 20
101.9317449717
 11
25.8779882465
 21
98.1351059168
  0
LINE
  5
24E
100
AcDbEntity
  8
0
100
AcDbLine
 62
7
  6
CONTINUOUS
 10
100.1318062022
 20
130.3176271414
 11
99.1294698325
 21
129.657997331
  0
LINE
  5
24F
100
AcDbEntity
  8
0
100
AcDbLine
 62
7
  6
CONTINUOUS
 10
100.1917254971
 20
129.7683681333
 11
98.3270143725
 21
128.5412161683
  0
LINE
  5
250
100
AcDbEntity
  8
0
100
AcDbLine
 62
7
  6
CONTINUOUS
 10
103.3388698731
 20
128.5217830178
 11
106.3910057627
 21
130.280309295
  0
LINE
  5
251
100
AcDbEntity
  8
0
100
AcDbLine
 62
7
  6
CONTINUOUS
 10
104.2569092448
 20
127.7051751254
 11
103.3376747399
 21
127.1755466651
  0
LINE
  5
252
100
AcDbEntity
  8
0
100
AcDbLine
 62
7
  6
CONTINUOUS
 10
28.1265628508
 20
99.4333133207
 11
21.5504423414
 21
103.2299523756
  0
LINE
  5
253
100
AcDbEntity
  8
0
100
AcDbLine
 62
7
  6
CONTINUOUS
 10
18.8293953935
 20
108.9581068388
 11
69.5291626865
 21
79.6872447397
  0
LINE
  5
254
100
AcDbEntity
  8
0
100
AcDbLine
 62
7
  6
CONTINUOUS
 10
102.2161178609
 20
126.2958920184
 11
102.8716264764
 21
126.727277167
  0
LINE
  5
255
100
AcDbEntity
  8
0
100
AcDbLine
 62
7
  6
CONTINUOUS
 10
106.532061673
 20
128.0324667128
 11
104.2558700632
 21
126.534588239
  0
LINE
  5
256
100
AcDbEntity
  8
0
100
AcDbLine
 62
7
  6
CONTINUOUS
 10
104.9622480398
 20
125.3072423827
 11
107.2884972501
 21
126.8381289913
  0
LINE
  5
257
100
AcDbEntity
  8
0
100
AcDbLine
 62
7
  6
CONTINUOUS
 10
107.8936482589
 20
125.8827059276
 11
105.5748890553
 21
124.3567484344
  0
LINE
  5
258
100
AcDbEntity
  8
0
100
AcDbLine
 62
7
  6
CONTINUOUS
 10
106.6501834834
 20
123.7359409514
 11
109.1310902779
 21
125.1682846071
  0
LINE
  5
259
100
AcDbEntity
  8
0
100
AcDbLine
 62
7
  6
CONTINUOUS
 10
84.0227738623
 20
103.486980788
 11
116.7341576256
 21
122.3727942762
  0
LINE
  5
25A
100
AcDbEntity
  8
0
100
AcDbLine
 62
7
  6
CONTINUOUS
 10
70.1047033058
 20
147.6984138226
 11
70.103517658
 21
146.3628621276
  0
LINE
  5
25B
100
AcDbEntity
  8
0
100
AcDbLine
 62
7
  6
CONTINUOUS
 10
71.0218149374
 20
145.8326949401
 11
71.021716962
 21
145.7219063399
  0
LINE
  5
25C
100
AcDbEntity
  8
0
100
AcDbLine
 62
7
  6
CONTINUOUS
 10
83.0833488522
 20
87.5127110593
 11
32.3835815592
 21
116.7835731584
  0
LINE
  5
25D
100
AcDbEntity
  8
0
100
AcDbLine
 62
7
  6
CONTINUOUS
 10
73.2519386902
 20
146.5543435207
 11
73.2501559349
 21
144.54619077
  0
LINE
  5
25E
100
AcDbEntity
  8
0
100
AcDbLine
 62
7
  6
CONTINUOUS
 10
74.1693904398
 20
145.0758192302
 11
74.1711731951
 21
147.083971981
  0
LINE
  5
25F
100
AcDbEntity
  8
0
100
AcDbLine
 62
7
  6
CONTINUOUS
 10
75.0179302478
 20
143.5255888837
 11
75.019714995
 21
145.5359854795
  0
LINE
  5
260
100
AcDbEntity
  8
0
100
AcDbLine
 62
7
  6
CONTINUOUS
 10
114.0544969222
 20
75.428082658
 11
117.9435680269
 21
73.1827458423
  0
LINE
  5
261
100
AcDbEntity
  8
0
100
AcDbLine
 62
7
  6
CONTINUOUS
 10
78.1645685247
 20
141.708917526
 11
78.1657636579
 21
143.0551538787
  0
LINE
  5
262
100
AcDbEntity
  8
0
100
AcDbLine
 62
7
  6
CONTINUOUS
 10
79.082763848
 20
141.0679591
 11
79.0838030296
 21
142.2385459863
  0
LINE
  5
263
100
AcDbEntity
  8
0
100
AcDbLine
 62
7
  6
CONTINUOUS
 10
83.0833488522
 20
87.5127110593
 11
69.5291626865
 21
79.6872447397
  0
LINE
  5
264
100
AcDbEntity
  8
0
100
AcDbLine
 62
7
  6
CONTINUOUS
 10
81.3589594147
 20
142.5657745431
 11
81.2178995475
 21
144.8136801559
  0
LINE
  5
265
100
AcDbEntity
  8
0
100
AcDbLine
 62
7
  6
CONTINUOUS
 10
82.7205420437
 20
140.4160767885
 11
82.8070702033
 21
139.0371790079
  0
LINE
  5
266
100
AcDbEntity
  8
0
100
AcDbLine
 62
7
  6
CONTINUOUS
 10
114.0544969222
 20
101.3112929132
 11
117.9435680269
 21
103.5566357595
  0
LINE
  5
267
100
AcDbEntity
  8
0
100
AcDbLine
 62
7
  6
CONTINUOUS
 10
33.3230065693
 20
132.7578428871
 11
84.0227738623
 21
103.486980788
  0
LINE
  5
268
100
AcDbEntity
  8
0
100
AcDbLine
 62
7
  6
CONTINUOUS
 10
95.277809521
 20
133.1650429616
 11
95.2766238733
 21
131.8294912667
  0
LINE
  5
269
100
AcDbEntity
  8
0
100
AcDbLine
 62
7
  6
CONTINUOUS
 10
96.1949211526
 20
131.2993240792
 11
96.1948231772
 21
131.188535479
  0
LINE
  5
26A
100
AcDbEntity
  8
0
100
AcDbLine
 62
7
  6
CONTINUOUS
 10
98.4250449054
 20
132.0209726598
 11
98.4232621502
 21
130.012819909
  0
LINE
  5
26B
100
AcDbEntity
  8
0
100
AcDbLine
 62
7
  6
CONTINUOUS
 10
99.3424966551
 20
130.5424483693
 11
99.3442794103
 21
132.5506011201
  0
LINE
  5
26C
100
AcDbEntity
  8
0
100
AcDbLine
 62
7
  6
CONTINUOUS
 10
100.191036463
 20
128.9922180227
 11
100.1928212103
 21
131.0026146186
  0
LINE
  5
26D
100
AcDbEntity
  8
0
100
AcDbLine
 62
7
  6
CONTINUOUS
 10
103.3376747399
 20
127.1755466651
 11
103.3388698731
 21
128.5217830178
  0
LINE
  5
26E
100
AcDbEntity
  8
0
100
AcDbLine
 62
7
  6
CONTINUOUS
 10
106.53206563
 20
128.0324036822
 11
106.3910057627
 21
130.280309295
  0
LINE
  5
26F
100
AcDbEntity
  8
0
100
AcDbLine
 62
7
  6
CONTINUOUS
 10
104.2558700632
 20
126.534588239
 11
104.2569092448
 21
127.7051751254
  0
LINE
  5
270
100
AcDbEntity
  8
0
100
AcDbLine
 62
7
  6
CONTINUOUS
 10
116.8829122711
 20
73.7951332372
 11
114.0544969222
 21
72.1621566217
  0
LINE
  5
271
100
AcDbEntity
  8
0
100
AcDbLine
 62
7
  6
CONTINUOUS
 10
107.8936482589
 20
125.8827059276
 11
107.9801764185
 21
124.503808147
  0
LINE
  5
272
100
AcDbEntity
  8
0
100
AcDbLine
 62
7
  6
CONTINUOUS
 10
114.0544969222
 20
72.1621566217
 11
114.0544969222
 21
101.3112929132
  0
LINE
  5
273
100
AcDbEntity
  8
0
100
AcDbLine
 62
7
  6
CONTINUOUS
 10
71.6646185953
 20
44.1775346532
 11
83.0938172843
 21
50.7761462045
  0
LINE
  5
274
100
AcDbEntity
  8
0
100
AcDbLine
 62
7
  6
CONTINUOUS
 10
81.4770772682
 20
138.2693118124
 11
68.395547353
 21
145.821765771
  0
LINE
  5
275
100
AcDbEntity
  8
0
100
AcDbLine
 62
7
  6
CONTINUOUS
 10
93.5686535682
 20
131.2883949101
 11
106.6501834834
 21
123.7359409514
  0
LINE
  5
276
100
AcDbEntity
  8
0
100
AcDbLine
 62
7
  6
CONTINUOUS
 10
105.1161445082
 20
125.1936633577
 11
102.8572653485
 21
126.4977974617
  0
LINE
  5
277
100
AcDbEntity
  8
0
100
AcDbLine
 62
7
  6
CONTINUOUS
 10
97.5919183686
 20
129.5376789744
 11
95.3330458003
 21
130.8418101068
  0
LINE
  5
278
100
AcDbEntity
  8
0
100
AcDbLine
 62
7
  6
CONTINUOUS
 10
72.4188121534
 20
144.0710498353
 11
70.1599395851
 21
145.3751809678
  0
LINE
  5
279
100
AcDbEntity
  8
0
100
AcDbLine
 62
7
  6
CONTINUOUS
 10
79.9430382929
 20
139.7270342187
 11
77.6841591333
 21
141.0311683226
  0
LINE
  5
27A
100
AcDbEntity
  8
0
100
AcDbLine
 62
7
  6
CONTINUOUS
 10
117.9435680269
 20
53.8316385563
 11
117.9435680269
 21
73.1827458423
  0
LINE
  5
27B
100
AcDbEntity
  8
0
100
AcDbLine
 62
7
  6
CONTINUOUS
 10
117.9435680269
 20
103.5566357595
 11
117.9435680269
 21
115.1509700828
  0
LINE
  5
27C
100
AcDbEntity
  8
0
100
AcDbLine
 62
7
  6
CONTINUOUS
 10
103.3376747399
 20
127.1755466651
 11
100.191036463
 21
128.9922180227
  0
LINE
  5
27D
100
AcDbEntity
  8
0
100
AcDbLine
 62
7
  6
CONTINUOUS
 10
98.4232621502
 20
130.012819909
 11
95.2766238733
 21
131.8294912667
  0
LINE
  5
27E
100
AcDbEntity
  8
0
100
AcDbLine
 62
7
  6
CONTINUOUS
 10
78.1645685247
 20
141.708917526
 11
75.0179302478
 21
143.5255888837
  0
LINE
  5
27F
100
AcDbEntity
  8
0
100
AcDbLine
 62
7
  6
CONTINUOUS
 10
73.2501559349
 20
144.54619077
 11
70.103517658
 21
146.3628621276
  0
LINE
  5
280
100
AcDbEntity
  8
0
100
AcDbLine
 62
7
  6
CONTINUOUS
 10
99.1294698325
 20
129.657997331
 11
98.4691203266
 21
130.0392416711
  0
LINE
  5
281
100
AcDbEntity
  8
0
100
AcDbLine
 62
7
  6
CONTINUOUS
 10
73.9563636173
 20
144.191368192
 11
73.2960141114
 21
144.5726125321
  0
LINE
  5
282
100
AcDbEntity
  8
0
100
AcDbLine
 62
7
  6
CONTINUOUS
 10
83.9579840627
 20
139.7016554681
 11
82.7205420437
 21
140.4160767885
  0
LINE
  5
283
100
AcDbEntity
  8
0
100
AcDbLine
 62
7
  6
CONTINUOUS
 10
107.8936482589
 20
125.8827059276
 11
109.1310902779
 21
125.1682846072
  0
LINE
  5
284
100
AcDbEntity
  8
0
100
AcDbLine
 62
7
  6
CONTINUOUS
 10
66.0343903326
 20
151.6436563753
 11
71.4877113801
 21
148.495251227
  0
LINE
  5
285
100
AcDbEntity
  8
0
100
AcDbLine
 62
7
  6
CONTINUOUS
 10
81.3439554717
 20
142.8048747811
 11
96.6608175953
 21
133.9618803661
  0
LINE
  5
286
100
AcDbEntity
  8
0
100
AcDbLine
 62
7
  6
CONTINUOUS
 10
106.5170616869
 20
128.2715039201
 11
116.7341576256
 21
122.3727942762
  0
LINE
  5
287
100
AcDbEntity
  8
0
100
AcDbLine
 62
7
  6
CONTINUOUS
 10
116.7341576256
 20
122.3727942762
 11
117.9435680269
 21
115.1509700828
  0
LINE
  5
288
100
AcDbEntity
  8
0
100
AcDbLine
 62
7
  6
CONTINUOUS
 10
117.9435680269
 20
53.8316385563
 11
84.0227738623
 21
34.2475758154
  0
ARC
  5
289
100
AcDbEntity
  8
0
100
AcDbCircle
 62
7
  6
CONTINUOUS
 10
248.7211179033
 20
87.7301966214
 40
220.9047773573
100
AcDbArc
 50
176.9631564167
 51
177.7255888427
  0
ARC
  5
28A
100
AcDbEntity
  8
0
100
AcDbCircle
 62
7
  6
CONTINUOUS
 10
161.236511618
 20
93.7766636211
 40
141.7914933998
100
AcDbArc
 50
181.158749056
 51
183.2981485217
  0
ARC
  5
28B
100
AcDbEntity
  8
0
100
AcDbCircle
 62
7
  6
CONTINUOUS
 10
210.9071475506
 20
64.4710985214
 40
140.7620722322
100
AcDbArc
 50
180.8692636155
 51
183.3081463267
  0
ARC
  5
28C
100
AcDbEntity
  8
0
100
AcDbCircle
 62
7
  6
CONTINUOUS
 10
142.1005893121
 20
92.2821398269
 40
122.5922915932
100
AcDbArc
 50
186.601345292
 51
187.4215518198
  0
ARC
  5
28D
100
AcDbEntity
  8
0
100
AcDbCircle
 62
7
  6
CONTINUOUS
 10
137.1773370474
 20
77.1731043711
 40
104.7481354254
100
AcDbArc
 50
185.8630151367
 51
187.4902300556
  0
ARC
  5
28E
100
AcDbEntity
  8
0
100
AcDbCircle
 62
7
  6
CONTINUOUS
 10
65.5922195035
 20
130.1905933167
 40
18.9491715228
100
AcDbArc
 50
56.9052324962
 51
59.9885238441
  0
ARC
  5
28F
100
AcDbEntity
  8
0
100
AcDbCircle
 62
7
  6
CONTINUOUS
 10
90.7653257187
 20
115.6572224558
 40
18.9491715229
100
AcDbArc
 50
56.9052324962
 51
59.9885238441
  0
ARC
  5
290
100
AcDbEntity
  8
0
100
AcDbCircle
 62
7
  6
CONTINUOUS
 10
66.4662045793
 20
131.7219792776
 40
17.185964075
100
AcDbArc
 50
59.9580093671
 51
63.363465803
  0
ARC
  5
291
100
AcDbEntity
  8
0
100
AcDbCircle
 62
7
  6
CONTINUOUS
 10
91.6393107946
 20
117.1886084167
 40
17.185964075
100
AcDbArc
 50
59.9580093671
 51
63.363465803
  0
ARC
  5
292
100
AcDbEntity
  8
0
100
AcDbCircle
 62
7
  6
CONTINUOUS
 10
30.0855467852
 20
82.8376647972
 40
10.8
100
AcDbArc
 50
264.4006118132
 51
267.6276110388
  0
ARC
  5
293
100
AcDbEntity
  8
0
100
AcDbCircle
 62
7
  6
CONTINUOUS
 10
30.0855467852
 20
82.8376647972
 40
10.8
100
AcDbArc
 50
161.3668624447
 51
205.4614321777
  0
ARC
  5
294
100
AcDbEntity
  8
0
100
AcDbCircle
 62
7
  6
CONTINUOUS
 10
29.3421970192
 20
80.1205358006
 40
7.9922823704
100
AcDbArc
 50
267.9922606315
 51
273.2083152421
  0
ARC
  5
295
100
AcDbEntity
  8
0
100
AcDbCircle
 62
7
  6
CONTINUOUS
 10
29.7905049416
 20
75.676806947
 40
3.633032324
100
AcDbArc
 50
267.6015984073
 51
270.0959275948
  0
SPLINE
  5
296
100
AcDbEntity
  8
0
100
AcDbSpline
 62
7
  6
CONTINUOUS
 70
0
 71
3
 72
10
 73
6
 74
0
 42
0.0000001
 43
0.0000001
 44
0.0000000001
 40
0.0
 40
0.0
 40
0.0
 40
0.0
 40
0.2363523362
 40
0.478040779
 40
1.0
 40
1.0
 40
1.0
 40
1.0
 10
72.5915972311
 20
144.720141185
 30
0.0
 10
72.6118827291
 20
144.7334882174
 30
0.0
 10
72.656037687
 20
144.7560614689
 30
0.0
 10
72.7560449065
 20
144.7821952192
 30
0.0
 10
72.8366608317
 20
144.7778951713
 30
0.0
 10
72.889236799
 20
144.7673372913
 30
0.0
  0
SPLINE
  5
297
100
AcDbEntity
  8
0
100
AcDbSpline
 62
7
  6
CONTINUOUS
 70
0
 71
3
 72
11
 73
7
 74
0
 42
0.0000001
 43
0.0000001
 44
0.0000000001
 40
0.0
 40
0.0
 40
0.0
 40
0.0
 40
0.2290777674
 40
0.4674013463
 40
0.7227921742
 40
1.0
 40
1.0
 40
1.0
 40
1.0
 10
77.5344136942
 20
140.7740429394
 30
0.0
 10
77.5539132171
 20
140.7868715077
 30
0.0
 10
77.5905909057
 20
140.8181053272
 30
0.0
 10
77.6342439344
 20
140.8781524974
 30
0.0
 10
77.6663735755
 20
140.9503608423
 30
0.0
 10
77.6794010023
 20
141.003325342
 30
0.0
 10
77.6841630483
 20
141.0311660742
 30
0.0
  0
SPLINE
  5
298
100
AcDbEntity
  8
0
100
AcDbSpline
 62
7
  6
CONTINUOUS
 70
0
 71
3
 72
15
 73
11
 74
0
 42
0.0000001
 43
0.0000001
 44
0.0000000001
 40
0.0
 40
0.0
 40
0.0
 40
0.0
 40
0.1114312588
 40
0.2331149423
 40
0.3622285914
 40
0.4955856599
 40
0.6295523994
 40
0.7604488859
 40
0.8849553985
 40
1.0
 40
1.0
 40
1.0
 40
1.0
 10
82.7205420437
 20
140.4160767885
 30
0.0
 10
82.717822951
 20
140.4594077794
 30
0.0
 10
82.7041223244
 20
140.54962281
 30
0.0
 10
82.6641106863
 20
140.6853140389
 30
0.0
 10
82.6050151502
 20
140.8231824489
 30
0.0
 10
82.5291198281
 20
140.9580372609
 30
0.0
 10
82.4392060158
 20
141.0848281272
 30
0.0
 10
82.3386704475
 20
141.1988552565
 30
0.0
 10
82.2312805701
 20
141.2957634824
 30
0.0
 10
82.1542133093
 20
141.3490865415
 30
0.0
 10
82.1153942109
 20
141.3714980181
 30
0.0
  0
SPLINE
  5
299
100
AcDbEntity
  8
0
100
AcDbSpline
 62
7
  6
CONTINUOUS
 70
0
 71
3
 72
15
 73
11
 74
0
 42
0.0000001
 43
0.0000001
 44
0.0000000001
 40
0.0
 40
0.0
 40
0.0
 40
0.0
 40
0.1150680189
 40
0.239539196
 40
0.3704514869
 40
0.504414117
 40
0.6377675374
 40
0.7668962785
 40
0.8885467142
 40
1.0
 40
1.0
 40
1.0
 40
1.0
 10
82.1153942109
 20
141.3714980181
 30
0.0
 10
82.0668605862
 20
141.3995185188
 30
0.0
 10
81.9705224156
 20
141.4661573938
 30
0.0
 10
81.836296575
 20
141.5873093485
 30
0.0
 10
81.7106280139
 20
141.7298286746
 30
0.0
 10
81.5982411742
 20
141.8883264862
 30
0.0
 10
81.5033612612
 20
142.0568935655
 30
0.0
 10
81.4295047902
 20
142.2292232709
 30
0.0
 10
81.3794711366
 20
142.3988336097
 30
0.0
 10
81.3623533334
 20
142.5115996311
 30
0.0
 10
81.3589594147
 20
142.5657745431
 30
0.0
  0
SPLINE
  5
29A
100
AcDbEntity
  8
0
100
AcDbSpline
 62
7
  6
CONTINUOUS
 70
0
 71
3
 72
11
 73
7
 74
0
 42
0.0000001
 43
0.0000001
 44
0.0000000001
 40
0.0
 40
0.0
 40
0.0
 40
0.0
 40
0.2930440309
 40
0.5530171486
 40
0.7847456105
 40
1.0
 40
1.0
 40
1.0
 40
1.0
 10
69.7855073791
 20
145.019343054
 30
0.0
 10
69.7838354452
 20
145.0553286821
 30
0.0
 10
69.785792198
 20
145.1236946001
 30
0.0
 10
69.8079019295
 20
145.2184372231
 30
0.0
 10
69.8491791381
 20
145.2962539765
 30
0.0
 10
69.8899455166
 20
145.3349268685
 30
0.0
 10
69.9120439306
 20
145.3494828823
 30
0.0
  0
SPLINE
  5
29B
100
AcDbEntity
  8
0
100
AcDbSpline
 62
7
  6
CONTINUOUS
 70
0
 71
3
 72
9
 73
5
 74
0
 42
0.0000001
 43
0.0000001
 44
0.0000000001
 40
0.0
 40
0.0
 40
0.0
 40
0.0
 40
0.2620227153
 40
1.0
 40
1.0
 40
1.0
 40
1.0
 10
77.7033422867
 20
141.2087375833
 30
0.0
 10
77.7033286523
 20
141.1931201507
 30
0.0
 10
77.7017650213
 20
141.1335425485
 30
0.0
 10
77.6941214724
 20
141.0740112278
 30
0.0
 10
77.6841591333
 20
141.0311683226
 30
0.0
  0
SPLINE
  5
29C
100
AcDbEntity
  8
0
100
AcDbSpline
 62
7
  6
CONTINUOUS
 70
0
 71
3
 72
11
 73
7
 74
0
 42
0.0000001
 43
0.0000001
 44
0.0000000001
 40
0.0
 40
0.0
 40
0.0
 40
0.0
 40
0.288501932
 40
0.5480576509
 40
0.7821665805
 40
1.0
 40
1.0
 40
1.0
 40
1.0
 10
71.0217129627
 20
145.7219040377
 30
0.0
 10
71.0216746747
 20
145.673059363
 30
0.0
 10
71.0145019608
 20
145.5799917715
 30
0.0
 10
70.9784655919
 20
145.4514765404
 30
0.0
 10
70.9180182488
 20
145.3456319386
 30
0.0
 10
70.8609204663
 20
145.2924253296
 30
0.0
 10
70.8301109458
 20
145.2721541238
 30
0.0
  0
SPLINE
  5
29D
100
AcDbEntity
  8
0
100
AcDbSpline
 62
7
  6
CONTINUOUS
 70
0
 71
3
 72
11
 73
7
 74
0
 42
0.0000001
 43
0.0000001
 44
0.0000000001
 40
0.0
 40
0.0
 40
0.0
 40
0.0
 40
0.2301545566
 40
0.4838709566
 40
0.7461637239
 40
1.0
 40
1.0
 40
1.0
 40
1.0
 10
77.7033422867
 20
141.2087375833
 30
0.0
 10
77.7034221961
 20
141.3002690063
 30
0.0
 10
77.6763473908
 20
141.4929396604
 30
0.0
 10
77.5760796125
 20
141.7738873282
 30
0.0
 10
77.4229113376
 20
142.0407466588
 30
0.0
 10
77.2895850414
 20
142.1988097252
 30
0.0
 10
77.2166125961
 20
142.268565289
 30
0.0
  0
SPLINE
  5
29E
100
AcDbEntity
  8
0
100
AcDbSpline
 62
7
  6
CONTINUOUS
 70
0
 71
3
 72
11
 73
7
 74
0
 42
0.0000001
 43
0.0000001
 44
0.0000000001
 40
0.0
 40
0.0
 40
0.0
 40
0.0
 40
0.2884731253
 40
0.5480314768
 40
0.7821541056
 40
1.0
 40
1.0
 40
1.0
 40
1.0
 10
72.3999647145
 20
144.270510521
 30
0.0
 10
72.4000077533
 20
144.3193392439
 30
0.0
 10
72.4072215697
 20
144.4123788106
 30
0.0
 10
72.4432655638
 20
144.5408542917
 30
0.0
 10
72.5037001423
 20
144.6466808642
 30
0.0
 10
72.5607930244
 20
144.6998732704
 30
0.0
 10
72.5915972311
 20
144.720141185
 30
0.0
  0
SPLINE
  5
29F
100
AcDbEntity
  8
0
100
AcDbSpline
 62
7
  6
CONTINUOUS
 70
0
 71
3
 72
9
 73
5
 74
0
 42
0.0000001
 43
0.0000001
 44
0.0000000001
 40
0.0
 40
0.0
 40
0.0
 40
0.0
 40
0.2593750445
 40
1.0
 40
1.0
 40
1.0
 40
1.0
 10
72.4188121534
 20
144.0710498353
 30
0.0
 10
72.415710048
 20
144.0881046663
 30
0.0
 10
72.4050958674
 20
144.1540869974
 30
0.0
 10
72.399921086
 20
144.2210127973
 30
0.0
 10
72.3999647145
 20
144.270510521
 30
0.0
  0
SPLINE
  5
2A0
100
AcDbEntity
  8
0
100
AcDbSpline
 62
7
  6
CONTINUOUS
 70
0
 71
3
 72
11
 73
7
 74
0
 42
0.0000001
 43
0.0000001
 44
0.0000000001
 40
0.0
 40
0.0
 40
0.0
 40
0.0
 40
0.2451517221
 40
0.5056610361
 40
0.7631901207
 40
1.0
 40
1.0
 40
1.0
 40
1.0
 10
72.418815249
 20
144.0710480042
 30
0.0
 10
72.4424046266
 20
143.9749172034
 30
0.0
 10
72.5133954544
 20
143.7818634742
 30
0.0
 10
72.6687918782
 20
143.5142177995
 30
0.0
 10
72.8639948554
 20
143.2784037364
 30
0.0
 10
73.0182578463
 20
143.1490472579
 30
0.0
 10
73.098517302
 20
143.0970801221
 30
0.0
  0
SPLINE
  5
2A1
100
AcDbEntity
  8
0
100
AcDbSpline
 62
7
  6
CONTINUOUS
 70
0
 71
3
 72
11
 73
7
 74
0
 42
0.0000001
 43
0.0000001
 44
0.0000000001
 40
0.0
 40
0.0
 40
0.0
 40
0.0
 40
0.2943821437
 40
0.5546215488
 40
0.7858998094
 40
1.0
 40
1.0
 40
1.0
 40
1.0
 10
77.0801934641
 20
140.79831047
 30
0.0
 10
77.121777011
 20
140.7772469396
 30
0.0
 10
77.2033640882
 20
140.7433219051
 30
0.0
 10
77.326581279
 20
140.71942664
 30
0.0
 10
77.4396053526
 20
140.7272613932
 30
0.0
 10
77.5060915682
 20
140.7554100565
 30
0.0
 10
77.5344136942
 20
140.7740429394
 30
0.0
  0
SPLINE
  5
2A2
100
AcDbEntity
  8
0
100
AcDbSpline
 62
7
  6
CONTINUOUS
 70
0
 71
3
 72
11
 73
7
 74
0
 42
0.0000001
 43
0.0000001
 44
0.0000000001
 40
0.0
 40
0.0
 40
0.0
 40
0.0
 40
0.2543829302
 40
0.5180549151
 40
0.7722199635
 40
1.0
 40
1.0
 40
1.0
 40
1.0
 10
79.9430405869
 20
139.7270328436
 30
0.0
 10
80.0045909204
 20
139.673213178
 30
0.0
 10
80.1188443752
 20
139.5505725909
 30
0.0
 10
80.2556806229
 20
139.3421802511
 30
0.0
 10
80.3522619334
 20
139.1216439172
 30
0.0
 10
80.3862129406
 20
138.9688293167
 30
0.0
 10
80.391959112
 20
138.8958438192
 30
0.0
  0
SPLINE
  5
2A3
100
AcDbEntity
  8
0
100
AcDbSpline
 62
7
  6
CONTINUOUS
 70
0
 71
3
 72
9
 73
5
 74
0
 42
0.0000001
 43
0.0000001
 44
0.0000000001
 40
0.0
 40
0.0
 40
0.0
 40
0.0
 40
0.4834110526
 40
1.0
 40
1.0
 40
1.0
 40
1.0
 10
70.1047033058
 20
147.6984138226
 30
0.0
 10
70.6327495432
 20
147.5824058697
 30
0.0
 10
71.708366103
 20
147.2624988199
 30
0.0
 10
72.7354446359
 20
146.8132313289
 30
0.0
 10
73.2519386902
 20
146.5543435207
 30
0.0
  0
SPLINE
  5
2A4
100
AcDbEntity
  8
0
100
AcDbSpline
 62
7
  6
CONTINUOUS
 70
0
 71
3
 72
9
 73
5
 74
0
 42
0.0000001
 43
0.0000001
 44
0.0000000001
 40
0.0
 40
0.0
 40
0.0
 40
0.0
 40
0.238984361
 40
1.0
 40
1.0
 40
1.0
 40
1.0
 10
79.7891417485
 20
139.8406117852
 30
0.0
 10
79.8023515275
 20
139.8329853741
 30
0.0
 10
79.8566527122
 20
139.7993953976
 30
0.0
 10
79.9070261957
 20
139.7596280988
 30
0.0
 10
79.9430382929
 20
139.7270342187
 30
0.0
  0
SPLINE
  5
2A5
100
AcDbEntity
  8
0
100
AcDbSpline
 62
7
  6
CONTINUOUS
 70
0
 71
3
 72
11
 73
7
 74
0
 42
0.0000001
 43
0.0000001
 44
0.0000000001
 40
0.0
 40
0.0
 40
0.0
 40
0.0
 40
0.2276566647
 40
0.4653034788
 40
0.7212047596
 40
1.0
 40
1.0
 40
1.0
 40
1.0
 10
69.9120439306
 20
145.3494828823
 30
0.0
 10
69.9282954645
 20
145.3601876121
 30
0.0
 10
69.9645058939
 20
145.3778169524
 30
0.0
 10
70.0253529645
 20
145.390617151
 30
0.0
 10
70.0917974078
 20
145.3900086672
 30
0.0
 10
70.1369201932
 20
145.3813584363
 30
0.0
 10
70.1599376113
 20
145.3751820669
 30
0.0
  0
SPLINE
  5
2A6
100
AcDbEntity
  8
0
100
AcDbSpline
 62
7
  6
CONTINUOUS
 70
0
 71
3
 72
9
 73
5
 74
0
 42
0.0000001
 43
0.0000001
 44
0.0000000001
 40
0.0
 40
0.0
 40
0.0
 40
0.0
 40
0.2359652965
 40
1.0
 40
1.0
 40
1.0
 40
1.0
 10
70.1599395851
 20
145.3751809678
 30
0.0
 10
70.1726900374
 20
145.3719959154
 30
0.0
 10
70.2261652487
 20
145.3562652838
 30
0.0
 10
70.2770295812
 20
145.3323081777
 30
0.0
 10
70.31388216
 20
145.3110318718
 30
0.0
  0
SPLINE
  5
2A7
100
AcDbEntity
  8
0
100
AcDbSpline
 62
7
  6
CONTINUOUS
 70
0
 71
3
 72
9
 73
5
 74
0
 42
0.0000001
 43
0.0000001
 44
0.0000000001
 40
0.0
 40
0.0
 40
0.0
 40
0.0
 40
0.4883735328
 40
1.0
 40
1.0
 40
1.0
 40
1.0
 10
75.019714995
 20
145.5359854795
 30
0.0
 10
75.5668560159
 20
145.1798551294
 30
0.0
 10
76.6520120802
 20
144.3956455363
 30
0.0
 10
77.6655251924
 20
143.5215275036
 30
0.0
 10
78.1657636579
 20
143.0551538787
 30
0.0
  0
SPLINE
  5
2A8
100
AcDbEntity
  8
0
100
AcDbSpline
 62
7
  6
CONTINUOUS
 70
0
 71
3
 72
15
 73
11
 74
0
 42
0.0000001
 43
0.0000001
 44
0.0000000001
 40
0.0
 40
0.0
 40
0.0
 40
0.0
 40
0.1141519739
 40
0.2373641025
 40
0.3670316078
 40
0.500065903
 40
0.6330752074
 40
0.7626841976
 40
0.8858430164
 40
1.0
 40
1.0
 40
1.0
 40
1.0
 10
79.7891417485
 20
139.8406117852
 30
0.0
 10
79.7406670896
 20
139.8685982614
 30
0.0
 10
79.6449338659
 20
139.9357792955
 30
0.0
 10
79.513284113
 20
140.0591828095
 30
0.0
 10
79.392066318
 20
140.2050893241
 30
0.0
 10
79.2858229919
 20
140.3679434332
 30
0.0
 10
79.1985220894
 20
140.5416563747
 30
0.0
 10
79.133368004
 20
140.7197312551
 30
0.0
 10
79.0928055159
 20
140.8954990344
 30
0.0
 10
79.0827083244
 20
141.011983136
 30
0.0
 10
79.0827638325
 20
141.0679590891
 30
0.0
  0
SPLINE
  5
2A9
100
AcDbEntity
  8
0
100
AcDbSpline
 62
7
  6
CONTINUOUS
 70
0
 71
3
 72
11
 73
7
 74
0
 42
0.0000001
 43
0.0000001
 44
0.0000000001
 40
0.0
 40
0.0
 40
0.0
 40
0.0
 40
0.2181496346
 40
0.4504332386
 40
0.7092791005
 40
1.0
 40
1.0
 40
1.0
 40
1.0
 10
70.8301109458
 20
145.2721541238
 30
0.0
 10
70.7970909789
 20
145.2504285489
 30
0.0
 10
70.7200876571
 20
145.2177914685
 30
0.0
 10
70.5897680238
 20
145.210372822
 30
0.0
 10
70.4502058824
 20
145.2418884485
 30
0.0
 10
70.3595004963
 20
145.2846946504
 30
0.0
 10
70.31388216
 20
145.3110318718
 30
0.0
  0
SPLINE
  5
2AA
100
AcDbEntity
  8
0
100
AcDbSpline
 62
7
  6
CONTINUOUS
 70
0
 71
3
 72
10
 73
6
 74
0
 42
0.0000001
 43
0.0000001
 44
0.0000000001
 40
0.0
 40
0.0
 40
0.0
 40
0.0
 40
0.2363523362
 40
0.478040779
 40
1.0
 40
1.0
 40
1.0
 40
1.0
 10
97.7647034463
 20
130.1867703241
 30
0.0
 10
97.7849889444
 20
130.2001173565
 30
0.0
 10
97.8291439022
 20
130.222690608
 30
0.0
 10
97.9291511218
 20
130.2488243583
 30
0.0
 10
98.009767047
 20
130.2445243104
 30
0.0
 10
98.0623430142
 20
130.2339664304
 30
0.0
  0
SPLINE
  5
2AB
100
AcDbEntity
  8
0
100
AcDbSpline
 62
7
  6
CONTINUOUS
 70
0
 71
3
 72
11
 73
7
 74
0
 42
0.0000001
 43
0.0000001
 44
0.0000000001
 40
0.0
 40
0.0
 40
0.0
 40
0.0
 40
0.2290777674
 40
0.4674013463
 40
0.7227921742
 40
1.0
 40
1.0
 40
1.0
 40
1.0
 10
102.7075199094
 20
126.2406720785
 30
0.0
 10
102.7270194324
 20
126.2535006468
 30
0.0
 10
102.763697121
 20
126.2847344663
 30
0.0
 10
102.8073501497
 20
126.3447816365
 30
0.0
 10
102.8394797908
 20
126.4169899814
 30
0.0
 10
102.8525072175
 20
126.4699544811
 30
0.0
 10
102.8572692636
 20
126.4977952133
 30
0.0
  0
SPLINE
  5
2AC
100
AcDbEntity
  8
0
100
AcDbSpline
 62
7
  6
CONTINUOUS
 70
0
 71
3
 72
15
 73
11
 74
0
 42
0.0000001
 43
0.0000001
 44
0.0000000001
 40
0.0
 40
0.0
 40
0.0
 40
0.0
 40
0.1114312588
 40
0.2331149423
 40
0.3622285914
 40
0.4955856599
 40
0.6295523994
 40
0.7604488859
 40
0.8849553985
 40
1.0
 40
1.0
 40
1.0
 40
1.0
 10
107.8936482589
 20
125.8827059276
 30
0.0
 10
107.8909291662
 20
125.9260369185
 30
0.0
 10
107.8772285397
 20
126.016251949
 30
0.0
 10
107.8372169015
 20
126.151943178
 30
0.0
 10
107.7781213654
 20
126.2898115879
 30
0.0
 10
107.7022260433
 20
126.4246664
 30
0.0
 10
107.6123122311
 20
126.5514572663
 30
0.0
 10
107.5117766628
 20
126.6654843956
 30
0.0
 10
107.4043867854
 20
126.7623926215
 30
0.0
 10
107.3273195245
 20
126.8157156805
 30
0.0
 10
107.2885004262
 20
126.8381271572
 30
0.0
  0
SPLINE
  5
2AD
100
AcDbEntity
  8
0
100
AcDbSpline
 62
7
  6
CONTINUOUS
 70
0
 71
3
 72
15
 73
11
 74
0
 42
0.0000001
 43
0.0000001
 44
0.0000000001
 40
0.0
 40
0.0
 40
0.0
 40
0.0
 40
0.1150680189
 40
0.239539196
 40
0.3704514869
 40
0.504414117
 40
0.6377675374
 40
0.7668962785
 40
0.8885467142
 40
1.0
 40
1.0
 40
1.0
 40
1.0
 10
107.2885004262
 20
126.8381271572
 30
0.0
 10
107.2399668015
 20
126.8661476578
 30
0.0
 10
107.1436286309
 20
126.9327865329
 30
0.0
 10
107.0094027903
 20
127.0539384875
 30
0.0
 10
106.8837342291
 20
127.1964578137
 30
0.0
 10
106.7713473894
 20
127.3549556253
 30
0.0
 10
106.6764674764
 20
127.5235227046
 30
0.0
 10
106.6026110054
 20
127.6958524099
 30
0.0
 10
106.5525773518
 20
127.8654627487
 30
0.0
 10
106.5354595486
 20
127.9782287702
 30
0.0
 10
106.53206563
 20
128.0324036822
 30
0.0
  0
SPLINE
  5
2AE
100
AcDbEntity
  8
0
100
AcDbSpline
 62
7
  6
CONTINUOUS
 70
0
 71
3
 72
11
 73
7
 74
0
 42
0.0000001
 43
0.0000001
 44
0.0000000001
 40
0.0
 40
0.0
 40
0.0
 40
0.0
 40
0.2930440309
 40
0.5530171486
 40
0.7847456105
 40
1.0
 40
1.0
 40
1.0
 40
1.0
 10
94.9586135944
 20
130.4859721931
 30
0.0
 10
94.9569416605
 20
130.5219578212
 30
0.0
 10
94.9588984132
 20
130.5903237392
 30
0.0
 10
94.9810081447
 20
130.6850663622
 30
0.0
 10
95.0222853533
 20
130.7628831156
 30
0.0
 10
95.0630517318
 20
130.8015560076
 30
0.0
 10
95.0851501459
 20
130.8161120214
 30
0.0
  0
SPLINE
  5
2AF
100
AcDbEntity
  8
0
100
AcDbSpline
 62
7
  6
CONTINUOUS
 70
0
 71
3
 72
9
 73
5
 74
0
 42
0.0000001
 43
0.0000001
 44
0.0000000001
 40
0.0
 40
0.0
 40
0.0
 40
0.0
 40
0.2620227153
 40
1.0
 40
1.0
 40
1.0
 40
1.0
 10
102.876448502
 20
126.6753667224
 30
0.0
 10
102.8764348675
 20
126.6597492898
 30
0.0
 10
102.8748712365
 20
126.6001716876
 30
0.0
 10
102.8672276876
 20
126.5406403669
 30
0.0
 10
102.8572653485
 20
126.4977974617
 30
0.0
  0
SPLINE
  5
2B0
100
AcDbEntity
  8
0
100
AcDbSpline
 62
7
  6
CONTINUOUS
 70
0
 71
3
 72
11
 73
7
 74
0
 42
0.0000001
 43
0.0000001
 44
0.0000000001
 40
0.0
 40
0.0
 40
0.0
 40
0.0
 40
0.288501932
 40
0.5480576509
 40
0.7821665805
 40
1.0
 40
1.0
 40
1.0
 40
1.0
 10
96.194819178
 20
131.1885331767
 30
0.0
 10
96.1947808899
 20
131.1396885021
 30
0.0
 10
96.187608176
 20
131.0466209105
 30
0.0
 10
96.1515718071
 20
130.9181056795
 30
0.0
 10
96.0911244641
 20
130.8122610777
 30
0.0
 10
96.0340266815
 20
130.7590544687
 30
0.0
 10
96.003217161
 20
130.7387832629
 30
0.0
  0
SPLINE
  5
2B1
100
AcDbEntity
  8
0
100
AcDbSpline
 62
7
  6
CONTINUOUS
 70
0
 71
3
 72
11
 73
7
 74
0
 42
0.0000001
 43
0.0000001
 44
0.0000000001
 40
0.0
 40
0.0
 40
0.0
 40
0.0
 40
0.2301545566
 40
0.4838709566
 40
0.7461637239
 40
1.0
 40
1.0
 40
1.0
 40
1.0
 10
102.876448502
 20
126.6753667224
 30
0.0
 10
102.8765284114
 20
126.7668981454
 30
0.0
 10
102.849453606
 20
126.9595687995
 30
0.0
 10
102.7491858278
 20
127.2405164673
 30
0.0
 10
102.5960175528
 20
127.5073757979
 30
0.0
 10
102.4626912566
 20
127.6654388643
 30
0.0
 10
102.3897188113
 20
127.7351944281
 30
0.0
  0
SPLINE
  5
2B2
100
AcDbEntity
  8
0
100
AcDbSpline
 62
7
  6
CONTINUOUS
 70
0
 71
3
 72
11
 73
7
 74
0
 42
0.0000001
 43
0.0000001
 44
0.0000000001
 40
0.0
 40
0.0
 40
0.0
 40
0.0
 40
0.2884731253
 40
0.5480314768
 40
0.7821541056
 40
1.0
 40
1.0
 40
1.0
 40
1.0
 10
97.5730709297
 20
129.7371396601
 30
0.0
 10
97.5731139685
 20
129.785968383
 30
0.0
 10
97.580327785
 20
129.8790079497
 30
0.0
 10
97.6163717791
 20
130.0074834308
 30
0.0
 10
97.6768063575
 20
130.1133100032
 30
0.0
 10
97.7338992397
 20
130.1665024094
 30
0.0
 10
97.7647034463
 20
130.1867703241
 30
0.0
  0
SPLINE
  5
2B3
100
AcDbEntity
  8
0
100
AcDbSpline
 62
7
  6
CONTINUOUS
 70
0
 71
3
 72
9
 73
5
 74
0
 42
0.0000001
 43
0.0000001
 44
0.0000000001
 40
0.0
 40
0.0
 40
0.0
 40
0.0
 40
0.2593750445
 40
1.0
 40
1.0
 40
1.0
 40
1.0
 10
97.5919183686
 20
129.5376789744
 30
0.0
 10
97.5888162632
 20
129.5547338054
 30
0.0
 10
97.5782020826
 20
129.6207161365
 30
0.0
 10
97.5730273012
 20
129.6876419363
 30
0.0
 10
97.5730709297
 20
129.7371396601
 30
0.0
  0
SPLINE
  5
2B4
100
AcDbEntity
  8
0
100
AcDbSpline
 62
7
  6
CONTINUOUS
 70
0
 71
3
 72
11
 73
7
 74
0
 42
0.0000001
 43
0.0000001
 44
0.0000000001
 40
0.0
 40
0.0
 40
0.0
 40
0.0
 40
0.2451517221
 40
0.5056610361
 40
0.7631901207
 40
1.0
 40
1.0
 40
1.0
 40
1.0
 10
97.5919214642
 20
129.5376771433
 30
0.0
 10
97.6155108418
 20
129.4415463424
 30
0.0
 10
97.6865016696
 20
129.2484926132
 30
0.0
 10
97.8418980934
 20
128.9808469386
 30
0.0
 10
98.0371010706
 20
128.7450328755
 30
0.0
 10
98.1913640616
 20
128.615676397
 30
0.0
 10
98.2716235172
 20
128.5637092612
 30
0.0
  0
SPLINE
  5
2B5
100
AcDbEntity
  8
0
100
AcDbSpline
 62
7
  6
CONTINUOUS
 70
0
 71
3
 72
11
 73
7
 74
0
 42
0.0000001
 43
0.0000001
 44
0.0000000001
 40
0.0
 40
0.0
 40
0.0
 40
0.0
 40
0.2943821437
 40
0.5546215488
 40
0.7858998094
 40
1.0
 40
1.0
 40
1.0
 40
1.0
 10
102.2532996793
 20
126.2649396091
 30
0.0
 10
102.2948832263
 20
126.2438760786
 30
0.0
 10
102.3764703035
 20
126.2099510442
 30
0.0
 10
102.4996874943
 20
126.186055779
 30
0.0
 10
102.6127115679
 20
126.1938905322
 30
0.0
 10
102.6791977834
 20
126.2220391956
 30
0.0
 10
102.7075199094
 20
126.2406720785
 30
0.0
  0
SPLINE
  5
2B6
100
AcDbEntity
  8
0
100
AcDbSpline
 62
7
  6
CONTINUOUS
 70
0
 71
3
 72
11
 73
7
 74
0
 42
0.0000001
 43
0.0000001
 44
0.0000000001
 40
0.0
 40
0.0
 40
0.0
 40
0.0
 40
0.2543829302
 40
0.5180549151
 40
0.7722199635
 40
1.0
 40
1.0
 40
1.0
 40
1.0
 10
105.1161468021
 20
125.1936619827
 30
0.0
 10
105.1776971356
 20
125.139842317
 30
0.0
 10
105.2919505904
 20
125.01720173
 30
0.0
 10
105.4287868381
 20
124.8088093902
 30
0.0
 10
105.5253681486
 20
124.5882730563
 30
0.0
 10
105.5593191559
 20
124.4354584557
 30
0.0
 10
105.5650653272
 20
124.3624729583
 30
0.0
  0
SPLINE
  5
2B7
100
AcDbEntity
  8
0
100
AcDbSpline
 62
7
  6
CONTINUOUS
 70
0
 71
3
 72
9
 73
5
 74
0
 42
0.0000001
 43
0.0000001
 44
0.0000000001
 40
0.0
 40
0.0
 40
0.0
 40
0.0
 40
0.4834110526
 40
1.0
 40
1.0
 40
1.0
 40
1.0
 10
95.277809521
 20
133.1650429616
 30
0.0
 10
95.8058557584
 20
133.0490350088
 30
0.0
 10
96.8814723182
 20
132.7291279589
 30
0.0
 10
97.9085508511
 20
132.279860468
 30
0.0
 10
98.4250449054
 20
132.0209726598
 30
0.0
  0
SPLINE
  5
2B8
100
AcDbEntity
  8
0
100
AcDbSpline
 62
7
  6
CONTINUOUS
 70
0
 71
3
 72
9
 73
5
 74
0
 42
0.0000001
 43
0.0000001
 44
0.0000000001
 40
0.0
 40
0.0
 40
0.0
 40
0.0
 40
0.238984361
 40
1.0
 40
1.0
 40
1.0
 40
1.0
 10
104.9622479638
 20
125.3072409243
 30
0.0
 10
104.9754577427
 20
125.2996145132
 30
0.0
 10
105.0297589274
 20
125.2660245367
 30
0.0
 10
105.080132411
 20
125.2262572378
 30
0.0
 10
105.1161445082
 20
125.1936633577
 30
0.0
  0
SPLINE
  5
2B9
100
AcDbEntity
  8
0
100
AcDbSpline
 62
7
  6
CONTINUOUS
 70
0
 71
3
 72
11
 73
7
 74
0
 42
0.0000001
 43
0.0000001
 44
0.0000000001
 40
0.0
 40
0.0
 40
0.0
 40
0.0
 40
0.2276566647
 40
0.4653034788
 40
0.7212047596
 40
1.0
 40
1.0
 40
1.0
 40
1.0
 10
95.0851501459
 20
130.8161120214
 30
0.0
 10
95.1014016797
 20
130.8268167512
 30
0.0
 10
95.1376121091
 20
130.8444460915
 30
0.0
 10
95.1984591798
 20
130.8572462901
 30
0.0
 10
95.264903623
 20
130.8566378063
 30
0.0
 10
95.3100264085
 20
130.8479875754
 30
0.0
 10
95.3330438266
 20
130.841811206
 30
0.0
  0
SPLINE
  5
2BA
100
AcDbEntity
  8
0
100
AcDbSpline
 62
7
  6
CONTINUOUS
 70
0
 71
3
 72
9
 73
5
 74
0
 42
0.0000001
 43
0.0000001
 44
0.0000000001
 40
0.0
 40
0.0
 40
0.0
 40
0.0
 40
0.2359652965
 40
1.0
 40
1.0
 40
1.0
 40
1.0
 10
95.3330458003
 20
130.8418101068
 30
0.0
 10
95.3457962526
 20
130.8386250544
 30
0.0
 10
95.3992714639
 20
130.8228944229
 30
0.0
 10
95.4501357965
 20
130.7989373168
 30
0.0
 10
95.4869883753
 20
130.7776610109
 30
0.0
  0
SPLINE
  5
2BB
100
AcDbEntity
  8
0
100
AcDbSpline
 62
7
  6
CONTINUOUS
 70
0
 71
3
 72
9
 73
5
 74
0
 42
0.0000001
 43
0.0000001
 44
0.0000000001
 40
0.0
 40
0.0
 40
0.0
 40
0.0
 40
0.4883735328
 40
1.0
 40
1.0
 40
1.0
 40
1.0
 10
100.1928212103
 20
131.0026146186
 30
0.0
 10
100.7399622312
 20
130.6464842685
 30
0.0
 10
101.8251182954
 20
129.8622746754
 30
0.0
 10
102.8386314076
 20
128.9881566427
 30
0.0
 10
103.3388698731
 20
128.5217830178
 30
0.0
  0
SPLINE
  5
2BC
100
AcDbEntity
  8
0
100
AcDbSpline
 62
7
  6
CONTINUOUS
 70
0
 71
3
 72
15
 73
11
 74
0
 42
0.0000001
 43
0.0000001
 44
0.0000000001
 40
0.0
 40
0.0
 40
0.0
 40
0.0
 40
0.1141519739
 40
0.2373641025
 40
0.3670316078
 40
0.500065903
 40
0.6330752074
 40
0.7626841976
 40
0.8858430164
 40
1.0
 40
1.0
 40
1.0
 40
1.0
 10
104.9622479638
 20
125.3072409243
 30
0.0
 10
104.9137733049
 20
125.3352274005
 30
0.0
 10
104.8180400812
 20
125.4024084346
 30
0.0
 10
104.6863903283
 20
125.5258119486
 30
0.0
 10
104.5651725333
 20
125.6717184632
 30
0.0
 10
104.4589292071
 20
125.8345725723
 30
0.0
 10
104.3716283046
 20
126.0082855138
 30
0.0
 10
104.3064742192
 20
126.1863603941
 30
0.0
 10
104.2659117311
 20
126.3621281735
 30
0.0
 10
104.2558145397
 20
126.4786122751
 30
0.0
 10
104.2558700477
 20
126.5345882281
 30
0.0
  0
SPLINE
  5
2BD
100
AcDbEntity
  8
0
100
AcDbSpline
 62
7
  6
CONTINUOUS
 70
0
 71
3
 72
11
 73
7
 74
0
 42
0.0000001
 43
0.0000001
 44
0.0000000001
 40
0.0
 40
0.0
 40
0.0
 40
0.0
 40
0.2181496346
 40
0.4504332386
 40
0.7092791005
 40
1.0
 40
1.0
 40
1.0
 40
1.0
 10
96.003217161
 20
130.7387832629
 30
0.0
 10
95.9701971942
 20
130.717057688
 30
0.0
 10
95.8931938724
 20
130.6844206075
 30
0.0
 10
95.762874239
 20
130.6770019611
 30
0.0
 10
95.6233120976
 20
130.7085175876
 30
0.0
 10
95.5326067116
 20
130.7513237895
 30
0.0
 10
95.4869883753
 20
130.7776610109
 30
0.0
  0
SPLINE
  5
2BE
100
AcDbEntity
  8
0
100
AcDbSpline
 62
7
  6
CONTINUOUS
 70
0
 71
3
 72
9
 73
5
 74
0
 42
0.0000001
 43
0.0000001
 44
0.0000000001
 40
0.0
 40
0.0
 40
0.0
 40
0.0
 40
0.2560793597
 40
1.0
 40
1.0
 40
1.0
 40
1.0
 10
33.3230065693
 20
132.7578428871
 30
0.0
 10
33.1678694726
 20
131.4003558298
 30
0.0
 10
32.6323261013
 20
126.091685074
 30
0.0
 10
32.3835815592
 20
120.7527954599
 30
0.0
 10
32.3835815592
 20
116.7835731584
 30
0.0
  0
SPLINE
  5
2BF
100
AcDbEntity
  8
0
100
AcDbSpline
 62
7
  6
CONTINUOUS
 70
0
 71
3
 72
9
 73
5
 74
0
 42
0.0000001
 43
0.0000001
 44
0.0000000001
 40
0.0
 40
0.0
 40
0.0
 40
0.0
 40
0.2543671679
 40
1.0
 40
1.0
 40
1.0
 40
1.0
 10
18.8293953935
 20
108.9581068388
 30
0.0
 10
18.7252782698
 20
107.4889095715
 30
0.0
 10
18.3714840045
 20
101.7092809284
 30
0.0
 10
18.2432771212
 20
95.915340506
 30
0.0
 10
18.287329578
 20
91.5980698584
 30
0.0
  0
SPLINE
  5
2C0
100
AcDbEntity
  8
0
100
AcDbSpline
 62
7
  6
CONTINUOUS
 70
0
 71
3
 72
11
 73
7
 74
0
 42
0.0000001
 43
0.0000001
 44
0.0000000001
 40
0.0
 40
0.0
 40
0.0
 40
0.0
 40
0.2118242107
 40
0.4409258569
 40
0.7018580823
 40
1.0
 40
1.0
 40
1.0
 40
1.0
 10
78.8231131389
 20
41.8630820315
 30
0.0
 10
78.93038626
 20
41.9250553024
 30
0.0
 10
79.1299350673
 20
42.0994894021
 30
0.0
 10
79.3272906984
 20
42.4670233703
 30
0.0
 10
79.4271037364
 20
42.9214402428
 30
0.0
 10
79.4301524929
 20
43.2504560888
 30
0.0
 10
79.4185923235
 20
43.4244442869
 30
0.0
  0
SPLINE
  5
2C1
100
AcDbEntity
  8
0
100
AcDbSpline
 62
7
  6
CONTINUOUS
 70
0
 71
3
 72
11
 73
7
 74
0
 42
0.0000001
 43
0.0000001
 44
0.0000000001
 40
0.0
 40
0.0
 40
0.0
 40
0.0
 40
0.219852111
 40
0.4554182904
 40
0.7147264434
 40
1.0
 40
1.0
 40
1.0
 40
1.0
 10
78.6758859133
 20
98.5339967125
 30
0.0
 10
78.8044634092
 20
98.6082691196
 30
0.0
 10
79.0466940335
 20
98.8071120715
 30
0.0
 10
79.3184761511
 20
99.2126238229
 30
0.0
 10
79.5004640448
 20
99.7114253335
 30
0.0
 10
79.5575181124
 20
100.0770260415
 30
0.0
 10
79.5723543445
 20
100.2691270532
 30
0.0
  0
SPLINE
  5
2C2
100
AcDbEntity
  8
0
100
AcDbSpline
 62
7
  6
CONTINUOUS
 70
0
 71
3
 72
11
 73
7
 74
0
 42
0.0000001
 43
0.0000001
 44
0.0000000001
 40
0.0
 40
0.0
 40
0.0
 40
0.0
 40
0.219852111
 40
0.4554182904
 40
0.7147264434
 40
1.0
 40
1.0
 40
1.0
 40
1.0
 10
66.0893328057
 20
105.800682143
 30
0.0
 10
66.2179103016
 20
105.87495455
 30
0.0
 10
66.4601409259
 20
106.073797502
 30
0.0
 10
66.7319230434
 20
106.4793092534
 30
0.0
 10
66.9139109372
 20
106.978110764
 30
0.0
 10
66.9709650047
 20
107.343711472
 30
0.0
 10
66.9858012369
 20
107.5358124837
 30
0.0
  0
SPLINE
  5
2C3
100
AcDbEntity
  8
0
100
AcDbSpline
 62
7
  6
CONTINUOUS
 70
0
 71
3
 72
11
 73
7
 74
0
 42
0.0000001
 43
0.0000001
 44
0.0000000001
 40
0.0
 40
0.0
 40
0.0
 40
0.0
 40
0.219852111
 40
0.4554182904
 40
0.7147264434
 40
1.0
 40
1.0
 40
1.0
 40
1.0
 10
53.502779698
 20
113.0673675734
 30
0.0
 10
53.631357194
 20
113.1416399805
 30
0.0
 10
53.8735878183
 20
113.3404829324
 30
0.0
 10
54.1453699358
 20
113.7459946839
 30
0.0
 10
54.3273578296
 20
114.2447961944
 30
0.0
 10
54.3844118971
 20
114.6103969024
 30
0.0
 10
54.3992481293
 20
114.8024979141
 30
0.0
  0
SPLINE
  5
2C4
100
AcDbEntity
  8
0
100
AcDbSpline
 62
7
  6
CONTINUOUS
 70
0
 71
3
 72
11
 73
7
 74
0
 42
0.0000001
 43
0.0000001
 44
0.0000000001
 40
0.0
 40
0.0
 40
0.0
 40
0.0
 40
0.219852111
 40
0.4554182904
 40
0.7147264434
 40
1.0
 40
1.0
 40
1.0
 40
1.0
 10
40.9162265904
 20
120.3340530039
 30
0.0
 10
41.0448040864
 20
120.408325411
 30
0.0
 10
41.2870347107
 20
120.6071683629
 30
0.0
 10
41.5588168282
 20
121.0126801143
 30
0.0
 10
41.740804722
 20
121.5114816249
 30
0.0
 10
41.7978587895
 20
121.8770823329
 30
0.0
 10
41.8126950217
 20
122.0691833446
 30
0.0
  0
SPLINE
  5
2C5
100
AcDbEntity
  8
0
100
AcDbSpline
 62
7
  6
CONTINUOUS
 70
0
 71
3
 72
9
 73
5
 74
0
 42
0.0000001
 43
0.0000001
 44
0.0000000001
 40
0.0
 40
0.0
 40
0.0
 40
0.0
 40
0.5115940762
 40
1.0
 40
1.0
 40
1.0
 40
1.0
 10
20.3344998518
 20
78.194709478
 30
0.0
 10
20.4232560674
 20
78.0083408611
 30
0.0
 10
20.6216688131
 20
77.6551901652
 30
0.0
 10
20.8723434878
 20
77.3364504471
 30
0.0
 10
21.006890638
 20
77.192461472
 30
0.0
  0
SPLINE
  5
2C6
100
AcDbEntity
  8
0
100
AcDbSpline
 62
7
  6
CONTINUOUS
 70
0
 71
3
 72
12
 73
8
 74
0
 42
0.0000001
 43
0.0000001
 44
0.0000000001
 40
0.0
 40
0.0
 40
0.0
 40
0.0
 40
0.1096396565
 40
0.2286963575
 40
0.485534618
 40
0.7500664451
 40
1.0
 40
1.0
 40
1.0
 40
1.0
 10
79.4185923235
 20
43.4244442869
 30
0.0
 10
79.4071963638
 20
43.5959610204
 30
0.0
 10
79.3564379319
 20
43.9521849163
 30
0.0
 10
79.160045453
 20
44.688938552
 30
0.0
 10
78.7488813299
 20
45.612811277
 30
0.0
 10
78.0654283183
 20
46.6170667631
 30
0.0
 10
77.489353722
 20
47.1921945116
 30
0.0
 10
77.1799308543
 20
47.4326190237
 30
0.0
  0
SPLINE
  5
2C7
100
AcDbEntity
  8
0
100
AcDbSpline
 62
7
  6
CONTINUOUS
 70
0
 71
3
 72
11
 73
7
 74
0
 42
0.0000001
 43
0.0000001
 44
0.0000000001
 40
0.0
 40
0.0
 40
0.0
 40
0.0
 40
0.3002037494
 40
0.5693737895
 40
0.8036950517
 40
1.0
 40
1.0
 40
1.0
 40
1.0
 10
24.7274020961
 20
86.0275180517
 30
0.0
 10
24.4346556369
 20
86.1965314803
 30
0.0
 10
23.8813793368
 20
86.5206017096
 30
0.0
 10
23.1144385539
 20
87.0011849388
 30
0.0
 10
22.4558999809
 20
87.4340225824
 30
0.0
 10
22.0614726157
 20
87.7165029579
 30
0.0
 10
21.8860556256
 20
87.8509953288
 30
0.0
  0
SPLINE
  5
2C8
100
AcDbEntity
  8
0
100
AcDbSpline
 62
7
  6
CONTINUOUS
 70
0
 71
3
 72
18
 73
14
 74
0
 42
0.0000001
 43
0.0000001
 44
0.0000000001
 40
0.0
 40
0.0
 40
0.0
 40
0.0
 40
0.046865963
 40
0.0929983937
 40
0.1395272842
 40
0.1875330734
 40
0.2911175523
 40
0.3481213925
 40
0.4088494167
 40
0.541167654
 40
0.6864045504
 40
0.8409119904
 40
1.0
 40
1.0
 40
1.0
 40
1.0
 10
29.7891811668
 20
72.1408516921
 30
0.0
 10
29.5857087681
 20
72.1847053168
 30
0.0
 10
29.1886117603
 20
72.3082690403
 30
0.0
 10
28.6397880688
 20
72.6039789683
 30
0.0
 10
28.1542744981
 20
73.0033133526
 30
0.0
 10
27.5867803745
 20
73.6814136569
 30
0.0
 10
27.1894675575
 20
74.5374150112
 30
0.0
 10
26.9562770735
 20
75.4934303674
 30
0.0
 10
26.8209831282
 20
76.5982478618
 30
0.0
 10
26.877598799
 20
78.1092275259
 30
0.0
 10
27.2655223314
 20
79.9956229408
 30
0.0
 10
27.9562907617
 20
81.919194045
 30
0.0
 10
28.5949854779
 20
83.1619132303
 30
0.0
 10
28.9571522661
 20
83.7685868384
 30
0.0
  0
SPLINE
  5
2C9
100
AcDbEntity
  8
0
100
AcDbSpline
 62
7
  6
CONTINUOUS
 70
0
 71
3
 72
11
 73
7
 74
0
 42
0.0000001
 43
0.0000001
 44
0.0000000001
 40
0.0
 40
0.0
 40
0.0
 40
0.0
 40
0.2660394274
 40
0.5238502763
 40
0.7696967687
 40
1.0
 40
1.0
 40
1.0
 40
1.0
 10
28.9571562759
 20
83.7685947711
 30
0.0
 10
28.5767169803
 20
83.9586928008
 30
0.0
 10
27.8301055977
 20
84.3380594884
 30
0.0
 10
26.7415322235
 20
84.9116638477
 30
0.0
 10
25.7085039725
 20
85.4680957519
 30
0.0
 10
25.0462307278
 20
85.8434217688
 30
0.0
 10
24.7273913421
 20
86.0274996153
 30
0.0
  0
SPLINE
  5
2CA
100
AcDbEntity
  8
0
100
AcDbSpline
 62
7
  6
CONTINUOUS
 70
0
 71
3
 72
9
 73
5
 74
0
 42
0.0000001
 43
0.0000001
 44
0.0000000001
 40
0.0
 40
0.0
 40
0.0
 40
0.0
 40
0.2390067502
 40
1.0
 40
1.0
 40
1.0
 40
1.0
 10
31.4692374107
 20
69.8921668969
 30
0.0
 10
31.4731190906
 20
69.8741525798
 30
0.0
 10
31.4870709187
 20
69.7982920525
 30
0.0
 10
31.4922617217
 20
69.7209361389
 30
0.0
 10
31.4922617217
 20
69.662262416
 30
0.0
  0
SPLINE
  5
2CB
100
AcDbEntity
  8
0
100
AcDbSpline
 62
7
  6
CONTINUOUS
 70
0
 71
3
 72
9
 73
5
 74
0
 42
0.0000001
 43
0.0000001
 44
0.0000000001
 40
0.0
 40
0.0
 40
0.0
 40
0.0
 40
0.4745363925
 40
1.0
 40
1.0
 40
1.0
 40
1.0
 10
31.4922617217
 20
69.662262416
 30
0.0
 10
31.4922617217
 20
69.4909809616
 30
0.0
 10
31.423812051
 20
69.1300168154
 30
0.0
 10
31.2691001083
 20
68.8001172973
 30
0.0
 10
31.1692871969
 20
68.6388424504
 30
0.0
  0
SPLINE
  5
2CC
100
AcDbEntity
  8
0
100
AcDbSpline
 62
7
  6
CONTINUOUS
 70
0
 71
3
 72
12
 73
8
 74
0
 42
0.0000001
 43
0.0000001
 44
0.0000000001
 40
0.0
 40
0.0
 40
0.0
 40
0.0
 40
0.2852116703
 40
0.5533551281
 40
0.6775286551
 40
0.7936387644
 40
1.0
 40
1.0
 40
1.0
 40
1.0
 10
30.7684591676
 20
67.881385491
 30
0.0
 10
30.5276866167
 20
67.4923520908
 30
0.0
 10
30.0002606042
 20
66.7729510475
 30
0.0
 10
29.2146329902
 20
66.012456303
 30
0.0
 10
28.5463046233
 20
65.5416559309
 30
0.0
 10
27.9166083032
 20
65.1992026591
 30
0.0
 10
27.4128067954
 20
65.0395768169
 30
0.0
 10
27.0838511761
 20
65.0025951888
 30
0.0
  0
SPLINE
  5
2CD
100
AcDbEntity
  8
0
100
AcDbSpline
 62
7
  6
CONTINUOUS
 70
0
 71
3
 72
11
 73
7
 74
0
 42
0.0000001
 43
0.0000001
 44
0.0000000001
 40
0.0
 40
0.0
 40
0.0
 40
0.0
 40
0.2100236721
 40
0.4511977302
 40
0.7179510938
 40
1.0
 40
1.0
 40
1.0
 40
1.0
 10
17.8399287792
 20
78.0054955149
 30
0.0
 10
17.752427787
 20
77.9888784488
 30
0.0
 10
17.5705003412
 20
77.9203986517
 30
0.0
 10
17.3172227141
 20
77.7480813031
 30
0.0
 10
17.078452238
 20
77.5107734299
 30
0.0
 10
16.9409737172
 20
77.3216631134
 30
0.0
 10
16.8780280475
 20
77.2199573009
 30
0.0
  0
SPLINE
  5
2CE
100
AcDbEntity
  8
0
100
AcDbSpline
 62
7
  6
CONTINUOUS
 70
0
 71
3
 72
11
 73
7
 74
0
 42
0.0000001
 43
0.0000001
 44
0.0000000001
 40
0.0
 40
0.0
 40
0.0
 40
0.0
 40
0.2654833967
 40
0.5252213258
 40
0.7720316251
 40
1.0
 40
1.0
 40
1.0
 40
1.0
 10
16.3826356585
 20
76.5293269462
 30
0.0
 10
16.1993009317
 20
76.2330999392
 30
0.0
 10
15.8715099473
 20
75.6246144469
 30
0.0
 10
15.5017929801
 20
74.6786255233
 30
0.0
 10
15.2698995165
 20
73.7402065339
 30
0.0
 10
15.211225465
 20
73.1165839681
 30
0.0
 10
15.211225465
 20
72.8174410606
 30
0.0
  0
SPLINE
  5
2CF
100
AcDbEntity
  8
0
100
AcDbSpline
 62
7
  6
CONTINUOUS
 70
0
 71
3
 72
9
 73
5
 74
0
 42
0.0000001
 43
0.0000001
 44
0.0000000001
 40
0.0
 40
0.0
 40
0.0
 40
0.0
 40
0.2646872339
 40
1.0
 40
1.0
 40
1.0
 40
1.0
 10
15.211225465
 20
72.8174410606
 30
0.0
 10
15.211225465
 20
72.7249269844
 30
0.0
 10
15.2214954848
 20
72.375635919
 30
0.0
 10
15.2749776967
 20
72.0264406703
 30
0.0
 10
15.3458297387
 20
71.7793917138
 30
0.0
  0
SPLINE
  5
2D0
100
AcDbEntity
  8
0
100
AcDbSpline
 62
7
  6
CONTINUOUS
 70
0
 71
3
 72
11
 73
7
 74
0
 42
0.0000001
 43
0.0000001
 44
0.0000000001
 40
0.0
 40
0.0
 40
0.0
 40
0.0
 40
0.2659819853
 40
0.5253651996
 40
0.7718391287
 40
1.0
 40
1.0
 40
1.0
 40
1.0
 10
23.4043532821
 20
86.825242256
 30
0.0
 10
23.1710004344
 20
86.4296411717
 30
0.0
 10
22.7543213621
 20
85.6211302123
 30
0.0
 10
22.2853909788
 20
84.3701276322
 30
0.0
 10
21.9922153154
 20
83.1334591057
 30
0.0
 10
21.9184700865
 20
82.3130872756
 30
0.0
 10
21.9184700865
 20
81.919099644
 30
0.0
  0
SPLINE
  5
2D1
100
AcDbEntity
  8
0
100
AcDbSpline
 62
7
  6
CONTINUOUS
 70
0
 71
3
 72
10
 73
6
 74
0
 42
0.0000001
 43
0.0000001
 44
0.0000000001
 40
0.0
 40
0.0
 40
0.0
 40
0.0
 40
0.2767204056
 40
0.5353944071
 40
1.0
 40
1.0
 40
1.0
 40
1.0
 10
21.9184700865
 20
81.919099644
 30
0.0
 10
21.9184700865
 20
81.695708409
 30
0.0
 10
21.9408125881
 20
81.2627017223
 30
0.0
 10
22.0783118013
 20
80.4667360693
 30
0.0
 10
22.2953604761
 20
79.9106607373
 30
0.0
 10
22.495958636
 20
79.5937443902
 30
0.0
  0
SPLINE
  5
2D2
100
AcDbEntity
  8
0
100
AcDbSpline
 62
7
  6
CONTINUOUS
 70
0
 71
3
 72
18
 73
14
 74
0
 42
0.0000001
 43
0.0000001
 44
0.0000000001
 40
0.0
 40
0.0
 40
0.0
 40
0.0
 40
0.1308727786
 40
0.2721865003
 40
0.4170567701
 40
0.5579889777
 40
0.6884023929
 40
0.7483692856
 40
0.8044849114
 40
0.8569418587
 40
0.9063259764
 40
0.9535910648
 40
1.0
 40
1.0
 40
1.0
 40
1.0
 10
41.8126950217
 20
122.0691833446
 30
0.0
 10
41.837245735
 20
122.387068426
 30
0.0
 10
41.8038425051
 20
123.0557513775
 30
0.0
 10
41.5547457787
 20
124.0461706441
 30
0.0
 10
41.1220339505
 20
124.9989856647
 30
0.0
 10
40.5371486441
 20
125.8344498097
 30
0.0
 10
39.9416252964
 20
126.3915453211
 30
0.0
 10
39.4290047246
 20
126.7078031106
 30
0.0
 10
39.0497784923
 20
126.8697515989
 30
0.0
 10
38.6733247796
 20
126.9591270483
 30
0.0
 10
38.3077530762
 20
126.9734520742
 30
0.0
 10
37.9619378426
 20
126.9115404205
 30
0.0
 10
37.7502116385
 20
126.8200948235
 30
0.0
 10
37.6523077697
 20
126.7635467953
 30
0.0
  0
SPLINE
  5
2D3
100
AcDbEntity
  8
0
100
AcDbSpline
 62
7
  6
CONTINUOUS
 70
0
 71
3
 72
18
 73
14
 74
0
 42
0.0000001
 43
0.0000001
 44
0.0000000001
 40
0.0
 40
0.0
 40
0.0
 40
0.0
 40
0.1308727786
 40
0.2721865003
 40
0.4170567701
 40
0.5579889777
 40
0.6884023929
 40
0.7483692856
 40
0.8044849114
 40
0.8569418587
 40
0.9063259764
 40
0.9535910648
 40
1.0
 40
1.0
 40
1.0
 40
1.0
 10
54.3992481293
 20
114.8024979141
 30
0.0
 10
54.4237988426
 20
115.1203829955
 30
0.0
 10
54.3903956128
 20
115.789065947
 30
0.0
 10
54.1412988864
 20
116.7794852137
 30
0.0
 10
53.7085870581
 20
117.7323002342
 30
0.0
 10
53.1237017517
 20
118.5677643792
 30
0.0
 10
52.528178404
 20
119.1248598906
 30
0.0
 10
52.0155578323
 20
119.4411176801
 30
0.0
 10
51.6363316
 20
119.6030661684
 30
0.0
 10
51.2598778872
 20
119.6924416179
 30
0.0
 10
50.8943061838
 20
119.7067666438
 30
0.0
 10
50.5484909502
 20
119.64485499
 30
0.0
 10
50.3367647461
 20
119.5534093931
 30
0.0
 10
50.2388608774
 20
119.4968613648
 30
0.0
  0
SPLINE
  5
2D4
100
AcDbEntity
  8
0
100
AcDbSpline
 62
7
  6
CONTINUOUS
 70
0
 71
3
 72
18
 73
14
 74
0
 42
0.0000001
 43
0.0000001
 44
0.0000000001
 40
0.0
 40
0.0
 40
0.0
 40
0.0
 40
0.1308727786
 40
0.2721865003
 40
0.4170567701
 40
0.5579889777
 40
0.6884023929
 40
0.7483692856
 40
0.8044849114
 40
0.8569418587
 40
0.9063259764
 40
0.9535910648
 40
1.0
 40
1.0
 40
1.0
 40
1.0
 10
66.9858012369
 20
107.5358124837
 30
0.0
 10
67.0103519502
 20
107.853697565
 30
0.0
 10
66.9769487204
 20
108.5223805165
 30
0.0
 10
66.727851994
 20
109.5127997832
 30
0.0
 10
66.2951401657
 20
110.4656148037
 30
0.0
 10
65.7102548594
 20
111.3010789488
 30
0.0
 10
65.1147315116
 20
111.8581744601
 30
0.0
 10
64.6021109399
 20
112.1744322497
 30
0.0
 10
64.2228847076
 20
112.3363807379
 30
0.0
 10
63.8464309948
 20
112.4257561874
 30
0.0
 10
63.4808592914
 20
112.4400812133
 30
0.0
 10
63.1350440578
 20
112.3781695595
 30
0.0
 10
62.9233178538
 20
112.2867239626
 30
0.0
 10
62.825413985
 20
112.2301759343
 30
0.0
  0
SPLINE
  5
2D5
100
AcDbEntity
  8
0
100
AcDbSpline
 62
7
  6
CONTINUOUS
 70
0
 71
3
 72
18
 73
14
 74
0
 42
0.0000001
 43
0.0000001
 44
0.0000000001
 40
0.0
 40
0.0
 40
0.0
 40
0.0
 40
0.1308727786
 40
0.2721865003
 40
0.4170567701
 40
0.5579889777
 40
0.6884023929
 40
0.7483692856
 40
0.8044849114
 40
0.8569418587
 40
0.9063259764
 40
0.9535910648
 40
1.0
 40
1.0
 40
1.0
 40
1.0
 10
79.5723543445
 20
100.2691270532
 30
0.0
 10
79.5969050578
 20
100.5870121346
 30
0.0
 10
79.563501828
 20
101.2556950861
 30
0.0
 10
79.3144051016
 20
102.2461143527
 30
0.0
 10
78.8816932733
 20
103.1989293733
 30
0.0
 10
78.296807967
 20
104.0343935183
 30
0.0
 10
77.7012846192
 20
104.5914890297
 30
0.0
 10
77.1886640475
 20
104.9077468192
 30
0.0
 10
76.8094378152
 20
105.0696953075
 30
0.0
 10
76.4329841024
 20
105.159070757
 30
0.0
 10
76.067412399
 20
105.1733957828
 30
0.0
 10
75.7215971655
 20
105.1114841291
 30
0.0
 10
75.5098709614
 20
105.0200385322
 30
0.0
 10
75.4119670926
 20
104.9634905039
 30
0.0
  0
SPLINE
  5
2D6
100
AcDbEntity
  8
0
100
AcDbSpline
 62
7
  6
CONTINUOUS
 70
0
 71
3
 72
11
 73
7
 74
0
 42
0.0000001
 43
0.0000001
 44
0.0000000001
 40
0.0
 40
0.0
 40
0.0
 40
0.0
 40
0.2232668816
 40
0.4603407008
 40
0.7184312262
 40
1.0
 40
1.0
 40
1.0
 40
1.0
 10
75.4119670926
 20
104.9634905039
 30
0.0
 10
75.2791159082
 20
104.886757351
 30
0.0
 10
75.0290540576
 20
104.6840170466
 30
0.0
 10
74.7455817824
 20
104.2731900758
 30
0.0
 10
74.5552629139
 20
103.7699307644
 30
0.0
 10
74.4960628101
 20
103.4013675745
 30
0.0
 10
74.4811643235
 20
103.2084604857
 30
0.0
  0
SPLINE
  5
2D7
100
AcDbEntity
  8
0
100
AcDbSpline
 62
7
  6
CONTINUOUS
 70
0
 71
3
 72
11
 73
7
 74
0
 42
0.0000001
 43
0.0000001
 44
0.0000000001
 40
0.0
 40
0.0
 40
0.0
 40
0.0
 40
0.2232668816
 40
0.4603407008
 40
0.7184312262
 40
1.0
 40
1.0
 40
1.0
 40
1.0
 10
62.825413985
 20
112.2301759343
 30
0.0
 10
62.6925628006
 20
112.1534427814
 30
0.0
 10
62.44250095
 20
111.9507024771
 30
0.0
 10
62.1590286748
 20
111.5398755063
 30
0.0
 10
61.9687098062
 20
111.0366161949
 30
0.0
 10
61.9095097025
 20
110.668053005
 30
0.0
 10
61.8946112158
 20
110.4751459162
 30
0.0
  0
SPLINE
  5
2D8
100
AcDbEntity
  8
0
100
AcDbSpline
 62
7
  6
CONTINUOUS
 70
0
 71
3
 72
11
 73
7
 74
0
 42
0.0000001
 43
0.0000001
 44
0.0000000001
 40
0.0
 40
0.0
 40
0.0
 40
0.0
 40
0.2232668816
 40
0.4603407008
 40
0.7184312262
 40
1.0
 40
1.0
 40
1.0
 40
1.0
 10
50.2388608774
 20
119.4968613648
 30
0.0
 10
50.1060096929
 20
119.4201282119
 30
0.0
 10
49.8559478424
 20
119.2173879076
 30
0.0
 10
49.5724755672
 20
118.8065609368
 30
0.0
 10
49.3821566986
 20
118.3033016254
 30
0.0
 10
49.3229565949
 20
117.9347384355
 30
0.0
 10
49.3080581082
 20
117.7418313467
 30
0.0
  0
SPLINE
  5
2D9
100
AcDbEntity
  8
0
100
AcDbSpline
 62
7
  6
CONTINUOUS
 70
0
 71
3
 72
9
 73
5
 74
0
 42
0.0000001
 43
0.0000001
 44
0.0000000001
 40
0.0
 40
0.0
 40
0.0
 40
0.0
 40
0.4897442755
 40
1.0
 40
1.0
 40
1.0
 40
1.0
 10
84.0227738623
 20
34.2475758154
 30
0.0
 10
83.6697885742
 20
36.928692455
 30
0.0
 10
83.166532998
 20
42.4334166904
 30
0.0
 10
83.0579601501
 20
47.9588618261
 30
0.0
 10
83.0938172843
 20
50.7761462043
 30
0.0
  0
SPLINE
  5
2DA
100
AcDbEntity
  8
0
100
AcDbSpline
 62
7
  6
CONTINUOUS
 70
0
 71
3
 72
9
 73
5
 74
0
 42
0.0000001
 43
0.0000001
 44
0.0000000001
 40
0.0
 40
0.0
 40
0.0
 40
0.0
 40
0.2463191249
 40
1.0
 40
1.0
 40
1.0
 40
1.0
 10
71.6646185953
 20
44.1775346531
 30
0.0
 10
71.5542831929
 20
44.8828892383
 30
0.0
 10
71.132816811
 20
47.750567467
 30
0.0
 10
70.8157453268
 20
50.6334268117
 30
0.0
 10
70.6314829365
 20
52.8101124049
 30
0.0
  0
SPLINE
  5
2DB
100
AcDbEntity
  8
0
100
AcDbSpline
 62
7
  6
CONTINUOUS
 70
0
 71
3
 72
18
 73
14
 74
0
 42
0.0000001
 43
0.0000001
 44
0.0000000001
 40
0.0
 40
0.0
 40
0.0
 40
0.0
 40
0.1360212094
 40
0.2822207579
 40
0.4314569323
 40
0.5758936239
 40
0.7081647248
 40
0.7679836723
 40
0.8229717113
 40
0.873050258
 40
0.918586552
 40
0.9604301571
 40
1.0
 40
1.0
 40
1.0
 40
1.0
 10
74.4037618128
 20
45.8320491946
 30
0.0
 10
74.4661475145
 20
45.5418619435
 30
0.0
 10
74.6580565888
 20
44.9525516067
 30
0.0
 10
75.0887782439
 20
44.1118689191
 30
0.0
 10
75.6456457643
 20
43.3258989062
 30
0.0
 10
76.2875961915
 20
42.6494629453
 30
0.0
 10
76.8741389049
 20
42.200171894
 30
0.0
 10
77.3485748628
 20
41.9419417098
 30
0.0
 10
77.6836827374
 20
41.8081602747
 30
0.0
 10
78.0043960156
 20
41.7306294028
 30
0.0
 10
78.3055612787
 20
41.7110696201
 30
0.0
 10
78.581915684
 20
41.7514568748
 30
0.0
 10
78.7483462629
 20
41.8198880999
 30
0.0
 10
78.8231131389
 20
41.8630820315
 30
0.0
  0
SPLINE
  5
2DC
100
AcDbEntity
  8
0
100
AcDbSpline
 62
7
  6
CONTINUOUS
 70
0
 71
3
 72
13
 73
9
 74
0
 42
0.0000001
 43
0.0000001
 44
0.0000000001
 40
0.0
 40
0.0
 40
0.0
 40
0.0
 40
0.285476541
 40
0.4234771825
 40
0.5555992577
 40
0.6802297341
 40
0.7961986447
 40
1.0
 40
1.0
 40
1.0
 40
1.0
 10
21.8860567366
 20
87.8509974571
 30
0.0
 10
21.392696594
 20
87.0245580776
 30
0.0
 10
20.7640531336
 20
85.7314444127
 30
0.0
 10
20.1842625304
 20
83.9479625216
 30
0.0
 10
19.8989612083
 20
82.6456572039
 30
0.0
 10
19.7654092539
 20
81.3923907297
 30
0.0
 10
19.7918833194
 20
79.8938970527
 30
0.0
 10
20.0390555142
 20
78.8150778908
 30
0.0
 10
20.3344998518
 20
78.194709478
 30
0.0
  0
SPLINE
  5
2DD
100
AcDbEntity
  8
0
100
AcDbSpline
 62
7
  6
CONTINUOUS
 70
0
 71
3
 72
11
 73
7
 74
0
 42
0.0000001
 43
0.0000001
 44
0.0000000001
 40
0.0
 40
0.0
 40
0.0
 40
0.0
 40
0.2232668816
 40
0.4603407008
 40
0.7184312262
 40
1.0
 40
1.0
 40
1.0
 40
1.0
 10
37.6523077697
 20
126.7635467953
 30
0.0
 10
37.5194565853
 20
126.6868136424
 30
0.0
 10
37.2693947348
 20
126.484073338
 30
0.0
 10
36.9859224596
 20
126.0732463672
 30
0.0
 10
36.795603591
 20
125.5699870558
 30
0.0
 10
36.7364034872
 20
125.2014238659
 30
0.0
 10
36.7215050006
 20
125.0085167771
 30
0.0
  0
SPLINE
  5
2DE
100
AcDbEntity
  8
0
100
AcDbSpline
 62
7
  6
CONTINUOUS
 70
0
 71
3
 72
11
 73
7
 74
0
 42
0.0000001
 43
0.0000001
 44
0.0000000001
 40
0.0
 40
0.0
 40
0.0
 40
0.0
 40
0.2472170805
 40
0.5045326669
 40
0.7595078534
 40
1.0
 40
1.0
 40
1.0
 40
1.0
 10
27.6242373562
 20
86.300103663
 30
0.0
 10
28.1967102252
 20
85.7792106409
 30
0.0
 10
29.2705944604
 20
84.6098004473
 30
0.0
 10
30.6102891016
 20
82.636541978
 30
0.0
 10
31.6621845043
 20
80.5199458355
 30
0.0
 10
32.1574968896
 20
79.0428275403
 30
0.0
 10
32.3371349179
 20
78.3116390792
 30
0.0
  0
SPLINE
  5
2DF
100
AcDbEntity
  8
0
100
AcDbSpline
 62
7
  6
CONTINUOUS
 70
0
 71
3
 72
10
 73
6
 74
0
 42
0.0000001
 43
0.0000001
 44
0.0000000001
 40
0.0
 40
0.0
 40
0.0
 40
0.0
 40
0.2870582644
 40
0.5510216857
 40
1.0
 40
1.0
 40
1.0
 40
1.0
 10
32.3371349179
 20
78.3116390792
 30
0.0
 10
32.2579144601
 20
77.9752308072
 30
0.0
 10
32.1457600421
 20
77.3177947637
 30
0.0
 10
32.1176264798
 20
76.1151407866
 30
0.0
 10
32.3195035286
 20
75.2420639029
 30
0.0
 10
32.5889797236
 20
74.7734649982
 30
0.0
  0
SPLINE
  5
2E0
100
AcDbEntity
  8
0
100
AcDbSpline
 62
7
  6
CONTINUOUS
 70
0
 71
3
 72
15
 73
11
 74
0
 42
0.0000001
 43
0.0000001
 44
0.0000000001
 40
0.0
 40
0.0
 40
0.0
 40
0.0
 40
0.1451619292
 40
0.2797138429
 40
0.4050338545
 40
0.5235992097
 40
0.6386719312
 40
0.7539900681
 40
0.8733289375
 40
1.0
 40
1.0
 40
1.0
 40
1.0
 10
32.5889797236
 20
74.7734649982
 30
0.0
 10
32.5564563395
 20
74.5678990769
 30
0.0
 10
32.4716699286
 20
74.1746999251
 30
0.0
 10
32.2732707342
 20
73.6267906307
 30
0.0
 10
32.0086054206
 20
73.150084067
 30
0.0
 10
31.6788130406
 20
72.7507927911
 30
0.0
 10
31.286185674
 20
72.4348899779
 30
0.0
 10
30.8351042217
 20
72.2076390019
 30
0.0
 10
30.3318418015
 20
72.0719952858
 30
0.0
 10
29.9781992166
 20
72.0441047569
 30
0.0
 10
29.7965875518
 20
72.043779715
 30
0.0
  0
SPLINE
  5
2E1
100
AcDbEntity
  8
0
100
AcDbSpline
 62
7
  6
CONTINUOUS
 70
0
 71
3
 72
9
 73
5
 74
0
 42
0.0000001
 43
0.0000001
 44
0.0000000001
 40
0.0
 40
0.0
 40
0.0
 40
0.0
 40
0.2359140215
 40
1.0
 40
1.0
 40
1.0
 40
1.0
 10
27.0838511761
 20
65.0025951888
 30
0.0
 10
27.0611161923
 20
65.0818681902
 30
0.0
 10
26.9786983035
 20
65.4218784155
 30
0.0
 10
26.9492469024
 20
65.7735422027
 30
0.0
 10
26.9492469024
 20
66.0406445356
 30
0.0
  0
SPLINE
  5
2E2
100
AcDbEntity
  8
0
100
AcDbSpline
 62
7
  6
CONTINUOUS
 70
0
 71
3
 72
11
 73
7
 74
0
 42
0.0000001
 43
0.0000001
 44
0.0000000001
 40
0.0
 40
0.0
 40
0.0
 40
0.0
 40
0.2279683749
 40
0.4747786742
 40
0.7345166033
 40
1.0
 40
1.0
 40
1.0
 40
1.0
 10
26.9492469024
 20
66.0406445356
 30
0.0
 10
26.9492469024
 20
66.3397874431
 30
0.0
 10
27.0079209539
 20
66.9634100089
 30
0.0
 10
27.2398144175
 20
67.9018289982
 30
0.0
 10
27.6095313847
 20
68.8478179218
 30
0.0
 10
27.9373223691
 20
69.4563034141
 30
0.0
 10
28.1206570959
 20
69.7525304211
 30
0.0
  0
SPLINE
  5
2E3
100
AcDbEntity
  8
0
100
AcDbSpline
 62
7
  6
CONTINUOUS
 70
0
 71
3
 72
11
 73
7
 74
0
 42
0.0000001
 43
0.0000001
 44
0.0000000001
 40
0.0
 40
0.0
 40
0.0
 40
0.0
 40
0.2820489062
 40
0.5488022698
 40
0.7899763279
 40
1.0
 40
1.0
 40
1.0
 40
1.0
 10
28.6160494849
 20
70.4431607759
 30
0.0
 10
28.6789951546
 20
70.5448665884
 30
0.0
 10
28.8164736754
 20
70.7339769048
 30
0.0
 10
29.0552441516
 20
70.9712847781
 30
0.0
 10
29.3085217786
 20
71.1436021267
 30
0.0
 10
29.4904492244
 20
71.2120819237
 30
0.0
 10
29.5779502166
 20
71.2286989899
 30
0.0
  0
SPLINE
  5
2E4
100
AcDbEntity
  8
0
100
AcDbSpline
 62
7
  6
CONTINUOUS
 70
0
 71
3
 72
17
 73
13
 74
0
 42
0.0000001
 43
0.0000001
 44
0.0000000001
 40
0.0
 40
0.0
 40
0.0
 40
0.0
 40
0.1311544752
 40
0.2727147137
 40
0.4182562742
 40
0.5602845188
 40
0.6917856805
 40
0.8079170755
 40
0.8600414295
 40
0.9086915662
 40
0.9548716424
 40
1.0
 40
1.0
 40
1.0
 40
1.0
 10
36.7215050006
 20
125.0085167771
 30
0.0
 10
36.6970391932
 20
124.6917310664
 30
0.0
 10
36.7346881154
 20
124.0250064886
 30
0.0
 10
37.0007490057
 20
123.0413319701
 30
0.0
 10
37.4548083187
 20
122.0996118051
 30
0.0
 10
38.0583710555
 20
121.2756072945
 30
0.0
 10
38.7602933074
 20
120.6345833402
 30
0.0
 10
39.4081974732
 20
120.2824640286
 30
0.0
 10
39.920526716
 20
120.1543147927
 30
0.0
 10
40.2785872159
 20
120.1351679335
 30
0.0
 10
40.6158087757
 20
120.1915346282
 30
0.0
 10
40.8215596838
 20
120.2793689476
 30
0.0
 10
40.9162265904
 20
120.3340530039
 30
0.0
  0
SPLINE
  5
2E5
100
AcDbEntity
  8
0
100
AcDbSpline
 62
7
  6
CONTINUOUS
 70
0
 71
3
 72
17
 73
13
 74
0
 42
0.0000001
 43
0.0000001
 44
0.0000000001
 40
0.0
 40
0.0
 40
0.0
 40
0.0
 40
0.1311544752
 40
0.2727147137
 40
0.4182562742
 40
0.5602845188
 40
0.6917856805
 40
0.8079170755
 40
0.8600414295
 40
0.9086915662
 40
0.9548716424
 40
1.0
 40
1.0
 40
1.0
 40
1.0
 10
49.3080581082
 20
117.7418313467
 30
0.0
 10
49.2835923008
 20
117.4250456359
 30
0.0
 10
49.321241223
 20
116.7583210582
 30
0.0
 10
49.5873021133
 20
115.7746465396
 30
0.0
 10
50.0413614263
 20
114.8329263746
 30
0.0
 10
50.6449241632
 20
114.008921864
 30
0.0
 10
51.3468464151
 20
113.3678979097
 30
0.0
 10
51.9947505808
 20
113.0157785981
 30
0.0
 10
52.5070798236
 20
112.8876293623
 30
0.0
 10
52.8651403235
 20
112.8684825031
 30
0.0
 10
53.2023618833
 20
112.9248491977
 30
0.0
 10
53.4081127914
 20
113.0126835172
 30
0.0
 10
53.502779698
 20
113.0673675734
 30
0.0
  0
SPLINE
  5
2E6
100
AcDbEntity
  8
0
100
AcDbSpline
 62
7
  6
CONTINUOUS
 70
0
 71
3
 72
17
 73
13
 74
0
 42
0.0000001
 43
0.0000001
 44
0.0000000001
 40
0.0
 40
0.0
 40
0.0
 40
0.0
 40
0.1311544752
 40
0.2727147137
 40
0.4182562742
 40
0.5602845188
 40
0.6917856805
 40
0.8079170755
 40
0.8600414295
 40
0.9086915662
 40
0.9548716424
 40
1.0
 40
1.0
 40
1.0
 40
1.0
 10
61.8946112158
 20
110.4751459162
 30
0.0
 10
61.8701454085
 20
110.1583602054
 30
0.0
 10
61.9077943306
 20
109.4916356277
 30
0.0
 10
62.1738552209
 20
108.5079611091
 30
0.0
 10
62.6279145339
 20
107.5662409441
 30
0.0
 10
63.2314772708
 20
106.7422364336
 30
0.0
 10
63.9333995227
 20
106.1012124793
 30
0.0
 10
64.5813036884
 20
105.7490931677
 30
0.0
 10
65.0936329312
 20
105.6209439318
 30
0.0
 10
65.4516934311
 20
105.6017970726
 30
0.0
 10
65.7889149909
 20
105.6581637672
 30
0.0
 10
65.9946658991
 20
105.7459980867
 30
0.0
 10
66.0893328057
 20
105.800682143
 30
0.0
  0
SPLINE
  5
2E7
100
AcDbEntity
  8
0
100
AcDbSpline
 62
7
  6
CONTINUOUS
 70
0
 71
3
 72
17
 73
13
 74
0
 42
0.0000001
 43
0.0000001
 44
0.0000000001
 40
0.0
 40
0.0
 40
0.0
 40
0.0
 40
0.1311544752
 40
0.2727147137
 40
0.4182562742
 40
0.5602845188
 40
0.6917856805
 40
0.8079170755
 40
0.8600414295
 40
0.9086915662
 40
0.9548716424
 40
1.0
 40
1.0
 40
1.0
 40
1.0
 10
74.4811643235
 20
103.2084604857
 30
0.0
 10
74.4566985161
 20
102.891674775
 30
0.0
 10
74.4943474382
 20
102.2249501972
 30
0.0
 10
74.7604083286
 20
101.2412756787
 30
0.0
 10
75.2144676415
 20
100.2995555137
 30
0.0
 10
75.8180303784
 20
99.4755510031
 30
0.0
 10
76.5199526303
 20
98.8345270488
 30
0.0
 10
77.1678567961
 20
98.4824077372
 30
0.0
 10
77.6801860388
 20
98.3542585013
 30
0.0
 10
78.0382465387
 20
98.3351116421
 30
0.0
 10
78.3754680985
 20
98.3914783368
 30
0.0
 10
78.5812190067
 20
98.4793126563
 30
0.0
 10
78.6758859133
 20
98.5339967125
 30
0.0
  0
SPLINE
  5
2E8
100
AcDbEntity
  8
0
100
AcDbSpline
 62
7
  6
CONTINUOUS
 70
0
 71
3
 72
10
 73
6
 74
0
 42
0.0000001
 43
0.0000001
 44
0.0000000001
 40
0.0
 40
0.0
 40
0.0
 40
0.0
 40
0.4489641384
 40
0.7129321561
 40
1.0
 40
1.0
 40
1.0
 40
1.0
 10
70.6314829365
 20
52.8101124049
 30
0.0
 10
70.36201534
 20
53.2786963576
 30
0.0
 10
70.160141475
 20
54.1517595469
 30
0.0
 10
70.1882626231
 20
55.3544131334
 30
0.0
 10
70.3004150558
 20
56.0118670999
 30
0.0
 10
70.3796381308
 20
56.3482864859
 30
0.0
  0
SPLINE
  5
2E9
100
AcDbEntity
  8
0
100
AcDbSpline
 62
7
  6
CONTINUOUS
 70
0
 71
3
 72
9
 73
5
 74
0
 42
0.0000001
 43
0.0000001
 44
0.0000000001
 40
0.0
 40
0.0
 40
0.0
 40
0.0
 40
0.2456376083
 40
1.0
 40
1.0
 40
1.0
 40
1.0
 10
68.9870968711
 20
62.3272077593
 30
0.0
 10
68.9725843948
 20
63.7494732226
 30
0.0
 10
68.9752950783
 20
69.540095621
 30
0.0
 10
69.2203872902
 20
75.3301135366
 30
0.0
 10
69.5291626865
 20
79.6872447397
 30
0.0
  0
SPLINE
  5
2EA
100
AcDbEntity
  8
0
100
AcDbSpline
 62
7
  6
CONTINUOUS
 70
0
 71
3
 72
9
 73
5
 74
0
 42
0.0000001
 43
0.0000001
 44
0.0000000001
 40
0.0
 40
0.0
 40
0.0
 40
0.0
 40
0.2439111149
 40
1.0
 40
1.0
 40
1.0
 40
1.0
 10
83.0833488522
 20
87.5127110593
 30
0.0
 10
83.0833488522
 20
88.8141226682
 30
0.0
 10
83.1651410524
 20
94.1495575872
 30
0.0
 10
83.56471825
 20
99.4788835706
 30
0.0
 10
84.0227738623
 20
103.486980788
 30
0.0
  0
SPLINE
  5
2EB
100
AcDbEntity
  8
0
100
AcDbSpline
 62
7
  6
CONTINUOUS
 70
0
 71
3
 72
14
 73
10
 74
0
 42
0.0000001
 43
0.0000001
 44
0.0000000001
 40
0.0
 40
0.0
 40
0.0
 40
0.0
 40
0.1297727059
 40
0.252454956
 40
0.3706110156
 40
0.4873217315
 40
0.6058770863
 40
0.7293840256
 40
1.0
 40
1.0
 40
1.0
 40
1.0
 10
19.8516776187
 20
86.2883201591
 30
0.0
 10
19.9228016953
 20
86.4993304303
 30
0.0
 10
20.0928241353
 20
86.9003339814
 30
0.0
 10
20.4434570996
 20
87.4352499053
 30
0.0
 10
20.8772370656
 20
87.8752129236
 30
0.0
 10
21.3873473963
 20
88.2114254879
 30
0.0
 10
21.9651518335
 20
88.4365509799
 30
0.0
 10
22.8363822899
 20
88.5882307471
 30
0.0
 10
23.5245431352
 20
88.5144228502
 30
0.0
 10
23.9760521308
 20
88.4059984766
 30
0.0
  0
ELLIPSE
  5
2EC
100
AcDbEntity
  8
0
100
AcDbEllipse
 62
7
  6
CONTINUOUS
 10
78.1170784549
 20
132.5554433089
 30
0.0
 11
-10.6193033137
 21
16.2028556786
 31
0.0
 40
0.5357615102
 41
-1.1135444325
 42
-0.5155232157
  0
ELLIPSE
  5
2ED
100
AcDbEntity
  8
0
100
AcDbEllipse
 62
7
  6
CONTINUOUS
 10
75.0523836913
 20
143.5585950225
 30
0.0
 11
-0.7718466609
 21
1.3464081564
 31
0.0
 40
0.5779434714
 41
5.5330059334
 42
7.0716205141
  0
ELLIPSE
  5
2EE
100
AcDbEntity
  8
0
100
AcDbEllipse
 62
7
  6
CONTINUOUS
 10
103.2901846701
 20
118.022072448
 30
0.0
 11
-10.6193033137
 21
16.2028556786
 31
0.0
 40
0.5357615102
 41
-1.1135444325
 42
-0.5155232157
  0
ELLIPSE
  5
2EF
100
AcDbEntity
  8
0
100
AcDbEllipse
 62
7
  6
CONTINUOUS
 10
100.2254899065
 20
129.0252241615
 30
0.0
 11
-0.7718466609
 21
1.3464081564
 31
0.0
 40
0.5779434714
 41
5.5330059334
 42
7.0716205141
  0
ENDSEC
  0
SECTION
  2
OBJECTS
  0
DICTIONARY
  5
C
100
AcDbDictionary
280
0
281
1
  3
ACAD_GROUP
350
D
  3
ACAD_MLINESTYLE
350
17
  3
ACAD_LAYOUT
350
1A
  3
ACAD_PLOTSETTINGS
350
19
  3
ACAD_PLOTSTYLENAME
350
E
  0
DICTIONARY
  5
D
102
{ACAD_REACTORS
330
C
102
}
100
AcDbDictionary
280
0
281
1
  0
ACDBDICTIONARYWDFLT
  5
E
102
{ACAD_REACTORS
330
C
102
}
100
AcDbDictionary
281
1
  3
Normal
350
F
100
AcDbDictionaryWithDefault
340
F
  0
DICTIONARY
  5
17
102
{ACAD_REACTORS
330
C
102
}
100
AcDbDictionary
280
0
281
1
  3
Standard
350
18
  0
DICTIONARY
  5
19
102
{ACAD_REACTORS
330
C
102
}
100
AcDbDictionary
281
1
  0
DICTIONARY
  5
1A
102
{ACAD_REACTORS
330
C
102
}
100
AcDbDictionary
281
1
  3
Model
350
2F0
  3
Layout1
350
2F1
  0
ACDBPLACEHOLDER
  5
F
102
{ACAD_REACTORS
330
E
102
}
  0
MLINESTYLE
  5
18
102
{ACAD_REACTORS
330
17
102
}
100
AcDbMlineStyle
  2
STANDARD
 70
0
  3

 62
256
 51
90.0
 52
90.0
 71
2
 49
0.5
 62
256
  6
BYLAYER
 49
-0.5
 62
256
  6
BYLAYER
  0
LAYOUT
  5
2F0
102
{ACAD_REACTORS
330
1A
102
}
100
AcDbPlotSettings
  1

  2
none_device
  4

  6

 40
0.0
 41
0.0
 42
0.0
 43
0.0
 44
210.0
 45
297.0
 46
0.0
 47
0.0
 48
0.0
 49
0.0
140
0.0
141
0.0
142
1.0
143
1.0
 70
1024
 72
1
 73
0
 74
0
  7

 75
0
147
1.0
148
0.0
149
0.0
100
AcDbLayout
  1
Model
 70
0
 71
0
 10
0.0
 20
0.0
 11
210.0
 21
297.0
 12
0.0
 22
0.0
 32
0.0
 14
0.0
 24
0.0
 34
0.0
 15
0.0
 25
0.0
 35
0.0
146
0.0
 13
0.0
 23
0.0
 33
0.0
 16
1.0
 26
0.0
 36
0.0
 17
0.0
 27
1.0
 37
0.0
 76
0
330
210
345
0
346
0
  0
LAYOUT
  5
2F1
102
{ACAD_REACTORS
330
1A
102
}
100
AcDbPlotSettings
  1

  2
none_device
  4

  6

 40
0.0
 41
0.0
 42
0.0
 43
0.0
 44
210.0
 45
297.0
 46
0.0
 47
0.0
 48
0.0
 49
0.0
140
0.0
141
0.0
142
1.0
143
1.0
 70
0
 72
1
 73
0
 74
0
  7

 75
0
147
1.0
148
0.0
149
0.0
100
AcDbLayout
  1
Layout1
 70
0
 71
1
 10
0.0
 20
0.0
 11
210.0
 21
297.0
 12
0.0
 22
0.0
 32
0.0
 14
0.0
 24
0.0
 34
0.0
 15
0.0
 25
0.0
 35
0.0
146
0.0
 13
0.0
 23
0.0
 33
0.0
 16
1.0
 26
0.0
 36
0.0
 17
0.0
 27
1.0
 37
0.0
 76
0
330
211
345
0
346
0
  0
ENDSEC
  0
EOF
