999
DXF file: C:\Users\sesa63760\Dev\_Creo\CAD\MCADFD0002071_3D-CAD\drw0001_1.dxf
999
Pro/ENGINEER 2019471 by Parametric Technology Corporation
  0
SECTION
  2
HEADER
  9
$ACADVER
  1
AC1024
  9
$DWGCODEPAGE
  3
ANSI_1252
  9
$EXTMAX
 10
84.7288213057
 20
119.8307615609
 30
0.0
  9
$EXTMIN
 10
-0.0
 20
0.0
 30
0.0
  9
$LIMMIN
 10
-0.0
 20
0.0
  9
$LIMMAX
 10
84.7288213057
 20
119.8307615609
  9
$VIEWCTR
 10
42.3644106528
 20
59.9153807804
  9
$VIEWSIZE
 40
119.8307615609
  9
$CLAYER
  8
0
  9
$LTSCALE
 40
7.8111903832
  9
$CELTYPE
  6
BYLAYER
  9
$DIMSCALE
 40
1.0
  9
$DIMASZ
 40
1.0086764441
  9
$DIMEXO
 40
1.0
  9
$DIMDLI
 40
5.3968224466
  9
$DIMEXE
 40
1.0
  9
$DIMCEN
 40
1.27819479
  9
$DIMLFAC
 40
1.0
  9
$DIMBLK
  1
_FILLED
  9
$DIMALT
 70
0
  9
$DIMALTF
 40
0.0393700787
  9
$DIMTXT
 40
1.4121470218
  9
$DIMTOL
 70
1
  9
$DIMLIM
 70
0
  9
$DIMTFAC
 40
1.0
  9
$DIMTP
 40
0.01
  9
$DIMTM
 40
0.01
  9
$DIMGAP
 40
0.625
  9
$DIMDSEP
 70
46
  9
$AUNITS
 70
0
  9
$PDMODE
 70
3
  9
$PDSIZE
 40
0.3125
  9
$HANDSEED
  5
33F
  9
$TILEMODE
 70
1
  9
$MEASUREMENT
 70
1
  9
$INSUNITS
 70
4
  0
ENDSEC
  0
SECTION
  2
CLASSES
  0
CLASS
  1
ACDBDICTIONARYWDFLT
  2
AcDbDictionaryWithDefault
  3
AutoCAD 2000
 90
0
 91
1
280
0
281
0
  0
CLASS
  1
ACDBPLACEHOLDER
  2
AcDbPlaceHolder
  3
AutoCAD 2000
 90
0
 91
1
280
0
281
0
  0
CLASS
  1
LAYOUT
  2
AcDbLayout
  3
AutoCAD 2000
 90
0
 91
0
280
0
281
0
  0
ENDSEC
  0
SECTION
  2
TABLES
  0
TABLE
  2
VPORT
  5
8
100
AcDbSymbolTable
 70
2
  0
VPORT
  5
1F4
100
AcDbSymbolTableRecord
100
AcDbViewportTableRecord
  2
*ACTIVE
 70
0
 10
0.0
 20
0.0
 11
1.0
 21
1.0
 12
42.3644106528
 22
59.9153807804
 13
0.0
 23
0.0
 14
1.0
 24
1.0
 15
0.0
 25
0.0
 16
0.0
 26
0.0
 36
1.0
 17
0.0
 27
0.0
 37
0.0
 40
119.8307615609
 41
0.7070707071
 42
50.0
 43
0.0
 44
0.0
 50
0.0
 51
0.0
 71
0
 72
100
 73
1
 74
1
 75
0
 76
0
 77
0
 78
0
  0
ENDTAB
  0
TABLE
  2
LTYPE
  5
5
100
AcDbSymbolTable
 70
6
  0
LTYPE
  5
14
100
AcDbSymbolTableRecord
100
AcDbLinetypeTableRecord
  2
BYBLOCK
 70
0
  3

 72
65
 73
0
 40
0.0
  0
LTYPE
  5
15
100
AcDbSymbolTableRecord
100
AcDbLinetypeTableRecord
  2
BYLAYER
 70
0
  3

 72
65
 73
0
 40
0.0
  0
LTYPE
  5
16
100
AcDbSymbolTableRecord
100
AcDbLinetypeTableRecord
  2
CONTINUOUS
 70
64
  3
Solid line
 72
65
 73
0
 40
0.0
  0
LTYPE
  5
1F5
100
AcDbSymbolTableRecord
100
AcDbLinetypeTableRecord
  2
CENTER
 70
64
  3
____ _ ____ _ ____ _ ____ _ ____ _ ____ _ ____
 72
65
 73
4
 40
0.6
 49
0.375
 74
0
 49
-0.075
 74
0
 49
0.075
 74
0
 49
-0.075
 74
0
  0
LTYPE
  5
1F6
100
AcDbSymbolTableRecord
100
AcDbLinetypeTableRecord
  2
HIDDEN
 70
64
  3
- - - - - - - - - - - - - - - - - - - -
 72
65
 73
2
 40
0.2
 49
0.1
 74
0
 49
-0.1
 74
0
  0
LTYPE
  5
1F7
100
AcDbSymbolTableRecord
100
AcDbLinetypeTableRecord
  2
PHANTOM
 70
64
  3
_____ _ _ _____ _ _ _____ _ _ _____
 72
65
 73
6
 40
0.8
 49
0.45
 74
0
 49
-0.05
 74
0
 49
0.1
 74
0
 49
-0.05
 74
0
 49
0.1
 74
0
 49
-0.05
 74
0
  0
LTYPE
  5
1F8
100
AcDbSymbolTableRecord
100
AcDbLinetypeTableRecord
  2
DOT
 70
64
  3
. . . . . . . . . . . . . . . . . . . .
 72
65
 73
2
 40
0.2
 49
0.1
 74
0
 49
-0.1
 74
0
  0
LTYPE
  5
1F9
100
AcDbSymbolTableRecord
100
AcDbLinetypeTableRecord
  2
DASHED
 70
64
  3
- - - - - - - - - - - - - - - - - - - -
 72
65
 73
2
 40
0.2
 49
0.1
 74
0
 49
-0.1
 74
0
  0
ENDTAB
  0
TABLE
  2
LAYER
  5
2
100
AcDbSymbolTable
 70
36
  0
LAYER
  5
10
100
AcDbSymbolTableRecord
100
AcDbLayerTableRecord
  2
0
 70
0
 62
7
  6
CONTINUOUS
370
-3
390
F
  0
LAYER
  5
1FA
100
AcDbSymbolTableRecord
100
AcDbLayerTableRecord
  2
DEFAULT_1
 70
0
 62
7
  6
CENTER
370
-3
390
F
  0
LAYER
  5
1FB
100
AcDbSymbolTableRecord
100
AcDbLayerTableRecord
  2
DEFAULT_2
 70
0
 62
8
  6
HIDDEN
370
-3
390
F
  0
LAYER
  5
1FC
100
AcDbSymbolTableRecord
100
AcDbLayerTableRecord
  2
DEFAULT_3
 70
0
 62
7
  6
PHANTOM
370
-3
390
F
  0
LAYER
  5
1FD
100
AcDbSymbolTableRecord
100
AcDbLayerTableRecord
  2
00_COMPONENTS
 70
0
 62
7
  6
CONTINUOUS
370
-3
390
F
  0
LAYER
  5
1FE
100
AcDbSymbolTableRecord
100
AcDbLayerTableRecord
  2
01_1_DEFAULT_DATUMS
 70
0
 62
7
  6
CONTINUOUS
370
-3
390
F
  0
LAYER
  5
1FF
100
AcDbSymbolTableRecord
100
AcDbLayerTableRecord
  2
01_PLANES
 70
0
 62
7
  6
CONTINUOUS
370
-3
390
F
  0
LAYER
  5
200
100
AcDbSymbolTableRecord
100
AcDbLayerTableRecord
  2
02_COORD_SYS
 70
0
 62
7
  6
CONTINUOUS
370
-3
390
F
  0
LAYER
  5
201
100
AcDbSymbolTableRecord
100
AcDbLayerTableRecord
  2
03_AXES
 70
0
 62
7
  6
CONTINUOUS
370
-3
390
F
  0
LAYER
  5
202
100
AcDbSymbolTableRecord
100
AcDbLayerTableRecord
  2
04_POINTS
 70
0
 62
7
  6
CONTINUOUS
370
-3
390
F
  0
LAYER
  5
203
100
AcDbSymbolTableRecord
100
AcDbLayerTableRecord
  2
05_CURVES
 70
0
 62
7
  6
CONTINUOUS
370
-3
390
F
  0
LAYER
  5
204
100
AcDbSymbolTableRecord
100
AcDbLayerTableRecord
  2
06_SURFS
 70
0
 62
7
  6
CONTINUOUS
370
-3
390
F
  0
LAYER
  5
205
100
AcDbSymbolTableRecord
100
AcDbLayerTableRecord
  2
07_COSMETICS
 70
0
 62
7
  6
CONTINUOUS
370
-3
390
F
  0
LAYER
  5
206
100
AcDbSymbolTableRecord
100
AcDbLayerTableRecord
  2
10_NOTES
 70
0
 62
7
  6
CONTINUOUS
370
-3
390
F
  0
LAYER
  5
207
100
AcDbSymbolTableRecord
100
AcDbLayerTableRecord
  2
11_NOTES_PUB
 70
0
 62
7
  6
CONTINUOUS
370
-3
390
F
  0
LAYER
  5
208
100
AcDbSymbolTableRecord
100
AcDbLayerTableRecord
  2
13_REF_GTOL
 70
0
 62
7
  6
CONTINUOUS
370
-3
390
F
  0
LAYER
  5
209
100
AcDbSymbolTableRecord
100
AcDbLayerTableRecord
  2
16_MISC
 70
0
 62
7
  6
CONTINUOUS
370
-3
390
F
  0
LAYER
  5
20A
100
AcDbSymbolTableRecord
100
AcDbLayerTableRecord
  2
17_NO_PRINT
 70
0
 62
7
  6
CONTINUOUS
370
-3
390
F
  0
LAYER
  5
20B
100
AcDbSymbolTableRecord
100
AcDbLayerTableRecord
  2
18_DATUM_CAMS_JOINTS
 70
0
 62
7
  6
CONTINUOUS
370
-3
390
F
  0
LAYER
  5
20C
100
AcDbSymbolTableRecord
100
AcDbLayerTableRecord
  2
19_DATUM_FUNCTIONAL
 70
0
 62
7
  6
CONTINUOUS
370
-3
390
F
  0
LAYER
  5
20D
100
AcDbSymbolTableRecord
100
AcDbLayerTableRecord
  2
20_DATUM_KINEMATIC_SCHEME
 70
0
 62
7
  6
CONTINUOUS
370
-3
390
F
  0
ENDTAB
  0
TABLE
  2
STYLE
  5
3
100
AcDbSymbolTable
 70
1
  0
STYLE
  5
11
100
AcDbSymbolTableRecord
100
AcDbTextStyleTableRecord
  2
STANDARD
 70
0
 40
0.0
 41
0.8
 50
0.0
 71
0
 42
0.2
  3
txt
  4

  0
STYLE
  5
20E
100
AcDbSymbolTableRecord
100
AcDbTextStyleTableRecord
  2
TEXTSTYLE_1
 70
0
 40
0.0
 41
0.8
 50
0.0
 71
0
 42
0.2
  3
gdt
  4

  0
ENDTAB
  0
TABLE
  2
VIEW
  5
6
100
AcDbSymbolTable
 70
0
  0
ENDTAB
  0
TABLE
  2
UCS
  5
7
100
AcDbSymbolTable
 70
0
  0
ENDTAB
  0
TABLE
  2
APPID
  5
9
100
AcDbSymbolTable
 70
1
  0
APPID
  5
20F
100
AcDbSymbolTableRecord
100
AcDbRegAppTableRecord
  2
ACAD
 70
0
  0
ENDTAB
  0
TABLE
  2
BLOCK_RECORD
  5
1
100
AcDbSymbolTable
 70
0
  0
BLOCK_RECORD
  5
210
100
AcDbSymbolTableRecord
100
AcDbBlockTableRecord
  2
*Model_Space
  0
BLOCK_RECORD
  5
211
100
AcDbSymbolTableRecord
100
AcDbBlockTableRecord
  2
*Paper_Space
  0
BLOCK_RECORD
  5
212
100
AcDbSymbolTableRecord
100
AcDbBlockTableRecord
  2
_FILLED
  0
ENDTAB
  0
TABLE
  2
DIMSTYLE
  5
A
100
AcDbSymbolTable
 70
1
100
AcDbDimStyleTable
 71
0
  0
DIMSTYLE
105
213
100
AcDbSymbolTableRecord
100
AcDbDimStyleTableRecord
  2
STANDARD
 70
0
  3

  4

 40
1.0
 41
1.0086764441
 42
1.0
 43
0.38
 44
1.0
 45
0.0
 46
0.0
 47
0.01
 48
0.01
140
1.4121470218
141
0.09
142
0.0
143
25.4
144
1.0
145
0.0
146
1.0
147
0.625
 71
1
 72
0
 73
0
 74
0
 75
0
 76
0
 77
1
 78
8
 79
2
170
0
171
1
172
0
173
0
174
0
175
0
176
0
177
0
178
0
270
2
179
2
271
2
272
2
273
2
274
2
275
0
280
0
281
0
282
0
283
1
284
8
285
0
286
0
287
3
288
0
340
11
278
46
341
212
342
212
343
212
344
212
  0
ENDTAB
  0
ENDSEC
  0
SECTION
  2
BLOCKS
  0
BLOCK
  5
20
100
AcDbEntity
  8
0
100
AcDbBlockBegin
  2
*Model_Space
 70
0
 10
0.0
 20
0.0
 30
0.0
  3
*Model_Space
  1

  0
ENDBLK
  5
21
100
AcDbEntity
  8
0
100
AcDbBlockEnd
  0
BLOCK
  5
1C
100
AcDbEntity
  8
0
100
AcDbBlockBegin
  2
*Paper_Space
 70
0
 10
0.0
 20
0.0
 30
0.0
  3
*Paper_Space
  1

  0
ENDBLK
  5
1D
100
AcDbEntity
  8
0
100
AcDbBlockEnd
  0
BLOCK
  5
214
100
AcDbEntity
  8
0
100
AcDbBlockBegin
  2
_FILLED
 70
64
 10
0.0
 20
0.0
  3
_FILLED
  1

  0
SOLID
  5
215
100
AcDbEntity
  8
0
  6
BYBLOCK
 62
0
100
AcDbTrace
 10
0.0
 20
0.0
 11
-1.0
 21
0.25
 12
-1.0
 22
-0.25
 13
-1.0
 23
-0.25
  0
ENDBLK
  5
216
100
AcDbEntity
  8
0
  6
BYBLOCK
 62
0
100
AcDbBlockEnd
  0
ENDSEC
  0
SECTION
  2
ENTITIES
  0
LINE
  5
217
100
AcDbEntity
  8
0
100
AcDbLine
 62
7
  6
CONTINUOUS
 10
39.3202220212
 20
14.4433130921
 11
39.9040846417
 21
14.4152285893
  0
LINE
  5
218
100
AcDbEntity
  8
0
100
AcDbLine
 62
7
  6
CONTINUOUS
 10
40.5720748649
 20
9.2486829392
 11
28.1976546748
 21
16.3928961434
  0
LINE
  5
219
100
AcDbEntity
  8
0
100
AcDbLine
 62
7
  6
CONTINUOUS
 10
34.6715963731
 20
17.4773427956
 11
34.1069339365
 21
17.450207971
  0
LINE
  5
21A
100
AcDbEntity
  8
0
100
AcDbLine
 62
7
  6
CONTINUOUS
 10
33.3097855089
 20
17.9133600729
 11
33.89364795
 21
17.8852748091
  0
LINE
  5
21B
100
AcDbEntity
  8
0
100
AcDbLine
 62
7
  6
CONTINUOUS
 10
28.6611637093
 20
20.947389209
 11
28.0965012004
 21
20.9202553219
  0
LINE
  5
21C
100
AcDbEntity
  8
0
100
AcDbLine
 62
7
  6
CONTINUOUS
 10
23.4020950468
 20
27.3798690171
 11
23.2764438332
 21
27.4166837081
  0
LINE
  5
21D
100
AcDbEntity
  8
0
100
AcDbLine
 62
7
  6
CONTINUOUS
 10
11.5384196275
 20
34.1934754419
 11
23.276441065
 21
27.4166789169
  0
LINE
  5
21E
100
AcDbEntity
  8
0
100
AcDbLine
 62
7
  6
CONTINUOUS
 10
23.1300532236
 20
27.6248751026
 11
11.3920317862
 21
34.4016716276
  0
LINE
  5
21F
100
AcDbEntity
  8
0
100
AcDbLine
 62
7
  6
CONTINUOUS
 10
23.8600239171
 20
28.5266643543
 11
24.0829646043
 21
28.3979524005
  0
LINE
  5
220
100
AcDbEntity
  8
0
100
AcDbLine
 62
7
  6
CONTINUOUS
 10
28.5111837541
 20
25.876475534
 11
24.858892072
 21
27.9850794168
  0
LINE
  5
221
100
AcDbEntity
  8
0
100
AcDbLine
 62
7
  6
CONTINUOUS
 10
24.9938568308
 20
28.12657536
 11
28.3129606661
 21
26.2103332184
  0
LINE
  5
222
100
AcDbEntity
  8
0
100
AcDbLine
 62
7
  6
CONTINUOUS
 10
24.1580457592
 20
29.8880606222
 11
25.210463487
 21
29.2804607095
  0
LINE
  5
223
100
AcDbEntity
  8
0
100
AcDbLine
 62
7
  6
CONTINUOUS
 10
28.4027147876
 20
92.0377605325
 11
61.0291462748
 21
110.874527094
  0
LINE
  5
224
100
AcDbEntity
  8
0
100
AcDbLine
 62
7
  6
CONTINUOUS
 10
48.9158077035
 20
102.4112506012
 11
49.1147218326
 21
102.5260930417
  0
LINE
  5
225
100
AcDbEntity
  8
0
100
AcDbLine
 62
7
  6
CONTINUOUS
 10
23.9234994178
 20
28.4119016601
 11
24.0829646043
 21
28.3979524005
  0
LINE
  5
226
100
AcDbEntity
  8
0
100
AcDbLine
 62
7
  6
CONTINUOUS
 10
25.3678932475
 20
29.4986404091
 11
24.2918753764
 21
30.1198655626
  0
LINE
  5
227
100
AcDbEntity
  8
0
100
AcDbLine
 62
7
  6
CONTINUOUS
 10
12.0492551701
 20
37.2641966361
 11
23.7872766076
 21
30.4874001111
  0
LINE
  5
228
100
AcDbEntity
  8
0
100
AcDbLine
 62
7
  6
CONTINUOUS
 10
24.6755512643
 20
30.5715678745
 11
25.4436964963
 21
30.1280890508
  0
LINE
  5
229
100
AcDbEntity
  8
0
100
AcDbLine
 62
7
  6
CONTINUOUS
 10
24.9428050805
 20
30.5792014702
 11
24.9123239699
 21
30.5967993495
  0
LINE
  5
22A
100
AcDbEntity
  8
0
100
AcDbLine
 62
7
  6
CONTINUOUS
 10
24.1783113032
 20
31.1056744692
 11
12.4402898657
 21
37.8824709942
  0
LINE
  5
22B
100
AcDbEntity
  8
0
100
AcDbLine
 62
7
  6
CONTINUOUS
 10
13.3374880895
 20
38.6659007779
 11
25.0755095269
 21
31.8891042529
  0
LINE
  5
22C
100
AcDbEntity
  8
0
100
AcDbLine
 62
7
  6
CONTINUOUS
 10
24.3126202086
 20
32.5769819809
 11
25.0826897475
 21
32.1323921833
  0
LINE
  5
22D
100
AcDbEntity
  8
0
100
AcDbLine
 62
7
  6
CONTINUOUS
 10
54.0777581557
 20
16.8011955531
 11
53.8656270045
 21
16.923673032
  0
LINE
  5
22E
100
AcDbEntity
  8
0
100
AcDbLine
 62
7
  6
CONTINUOUS
 10
24.9428050805
 20
30.5792014702
 11
24.9138590665
 21
30.599458275
  0
LINE
  5
22F
100
AcDbEntity
  8
0
100
AcDbLine
 62
7
  6
CONTINUOUS
 10
25.4436964963
 20
30.1280890508
 11
24.9428050805
 21
30.5792014702
  0
LINE
  5
230
100
AcDbEntity
  8
0
100
AcDbLine
 62
7
  6
CONTINUOUS
 10
25.0755095269
 20
31.8891042529
 11
26.5121202793
 21
30.5952650458
  0
LINE
  5
231
100
AcDbEntity
  8
0
100
AcDbLine
 62
7
  6
CONTINUOUS
 10
52.9299140685
 20
100.3216966593
 11
52.661799881
 21
100.166901785
  0
LINE
  5
232
100
AcDbEntity
  8
0
100
AcDbLine
 62
7
  6
CONTINUOUS
 10
51.3200107974
 20
96.859159003
 11
51.5896353103
 21
97.0148258589
  0
LINE
  5
233
100
AcDbEntity
  8
0
100
AcDbLine
 62
7
  6
CONTINUOUS
 10
22.8721101273
 20
36.7368911469
 11
17.6215136295
 21
39.7682558697
  0
LINE
  5
234
100
AcDbEntity
  8
0
100
AcDbLine
 62
7
  6
CONTINUOUS
 10
16.9307453505
 20
41.1395266832
 11
22.9186777145
 21
37.68247053
  0
LINE
  5
235
100
AcDbEntity
  8
0
100
AcDbLine
 62
7
  6
CONTINUOUS
 10
22.9345239365
 20
37.9139666535
 11
16.8755644755
 21
41.4120293926
  0
LINE
  5
236
100
AcDbEntity
  8
0
100
AcDbLine
 62
7
  6
CONTINUOUS
 10
23.112414684
 20
38.895914386
 11
16.9948157295
 21
42.4278318865
  0
LINE
  5
237
100
AcDbEntity
  8
0
100
AcDbLine
 62
7
  6
CONTINUOUS
 10
55.4080278261
 20
94.8103257845
 11
55.2091136969
 21
94.695483344
  0
LINE
  5
238
100
AcDbEntity
  8
0
100
AcDbLine
 62
7
  6
CONTINUOUS
 10
24.3109807562
 20
42.9526457737
 11
17.2398835047
 21
47.0350533189
  0
LINE
  5
239
100
AcDbEntity
  8
0
100
AcDbLine
 62
7
  6
CONTINUOUS
 10
28.0446004404
 20
20.9531489761
 11
27.9539235154
 21
21.3144994866
  0
LINE
  5
23A
100
AcDbEntity
  8
0
100
AcDbLine
 62
7
  6
CONTINUOUS
 10
40.7771349777
 20
84.8935473284
 11
73.4035664649
 21
103.7303138899
  0
LINE
  5
23B
100
AcDbEntity
  8
0
100
AcDbLine
 62
7
  6
CONTINUOUS
 10
14.5861042341
 20
68.6288886425
 11
27.4905508376
 21
76.0792298902
  0
LINE
  5
23C
100
AcDbEntity
  8
0
100
AcDbLine
 62
7
  6
CONTINUOUS
 10
74.6526370756
 20
41.6854131583
 11
74.7251902023
 21
41.6968087474
  0
LINE
  5
23D
100
AcDbEntity
  8
0
100
AcDbLine
 62
7
  6
CONTINUOUS
 10
25.7572954835
 20
45.6789402891
 11
13.3828752934
 21
52.8231534932
  0
LINE
  5
23E
100
AcDbEntity
  8
0
100
AcDbLine
 62
7
  6
CONTINUOUS
 10
13.214304023
 20
53.2693190081
 11
25.5887242131
 21
46.125105804
  0
LINE
  5
23F
100
AcDbEntity
  8
0
100
AcDbLine
 62
7
  6
CONTINUOUS
 10
13.3143023263
 20
53.6058255519
 11
25.6887225164
 21
46.4616123478
  0
LINE
  5
240
100
AcDbEntity
  8
0
100
AcDbLine
 62
7
  6
CONTINUOUS
 10
25.7584385064
 20
46.5018626532
 11
13.3840183164
 21
53.6460758573
  0
LINE
  5
241
100
AcDbEntity
  8
0
100
AcDbLine
 62
7
  6
CONTINUOUS
 10
27.9539257994
 20
21.3145004024
 11
28.1096022445
 21
20.4536581416
  0
LINE
  5
242
100
AcDbEntity
  8
0
100
AcDbLine
 62
7
  6
CONTINUOUS
 10
28.1835147546
 20
20.185049139
 11
28.0446031631
 21
20.9531476119
  0
LINE
  5
243
100
AcDbEntity
  8
0
100
AcDbLine
 62
7
  6
CONTINUOUS
 10
34.0550331041
 20
17.4831025626
 11
33.9643555155
 21
17.8444556353
  0
LINE
  5
244
100
AcDbEntity
  8
0
100
AcDbLine
 62
7
  6
CONTINUOUS
 10
33.9643584632
 20
17.8444539889
 11
34.1200349083
 21
16.9836117282
  0
LINE
  5
245
100
AcDbEntity
  8
0
100
AcDbLine
 62
7
  6
CONTINUOUS
 10
34.1939474184
 20
16.7150027255
 11
34.0550358268
 21
17.4831011985
  0
LINE
  5
246
100
AcDbEntity
  8
0
100
AcDbLine
 62
7
  6
CONTINUOUS
 10
33.2680501176
 20
17.7027833175
 11
33.2585371865
 21
17.9397600631
  0
LINE
  5
247
100
AcDbEntity
  8
0
100
AcDbLine
 62
7
  6
CONTINUOUS
 10
12.4402898657
 20
37.8824709942
 11
12.0492551701
 21
37.2641966361
  0
LINE
  5
248
100
AcDbEntity
  8
0
100
AcDbLine
 62
7
  6
CONTINUOUS
 10
26.8911297025
 20
45.6722041938
 11
25.7572954835
 21
45.6789402891
  0
LINE
  5
249
100
AcDbEntity
  8
0
100
AcDbLine
 62
7
  6
CONTINUOUS
 10
74.5751956199
 20
41.6976757406
 11
74.6526370756
 21
41.6854131583
  0
LINE
  5
24A
100
AcDbEntity
  8
0
100
AcDbLine
 62
7
  6
CONTINUOUS
 10
33.3576808367
 20
82.5080998375
 11
33.3578030481
 21
82.4711449187
  0
LINE
  5
24B
100
AcDbEntity
  8
0
100
AcDbLine
 62
7
  6
CONTINUOUS
 10
33.3583984012
 20
82.2086064318
 11
33.3672642742
 21
82.4711762073
  0
LINE
  5
24C
100
AcDbEntity
  8
0
100
AcDbLine
 62
7
  6
CONTINUOUS
 10
17.6215136295
 20
39.7682558697
 11
15.8830831
 21
37.1962340617
  0
LINE
  5
24D
100
AcDbEntity
  8
0
100
AcDbLine
 62
7
  6
CONTINUOUS
 10
26.9605244242
 20
61.4846754384
 11
39.8649710277
 21
68.9350166861
  0
LINE
  5
24E
100
AcDbEntity
  8
0
100
AcDbLine
 62
7
  6
CONTINUOUS
 10
13.3143023263
 20
53.6058255519
 11
13.3840183164
 21
53.6460758573
  0
LINE
  5
24F
100
AcDbEntity
  8
0
100
AcDbLine
 62
7
  6
CONTINUOUS
 10
13.8813097547
 20
67.4714112198
 11
26.2557299447
 21
60.3271980157
  0
LINE
  5
250
100
AcDbEntity
  8
0
100
AcDbLine
 62
7
  6
CONTINUOUS
 10
39.2784827814
 20
14.2327369041
 11
39.2689698503
 21
14.4697136497
  0
LINE
  5
251
100
AcDbEntity
  8
0
100
AcDbLine
 62
7
  6
CONTINUOUS
 10
39.3695499911
 20
79.0591497444
 11
39.3696706328
 21
79.0228169963
  0
LINE
  5
252
100
AcDbEntity
  8
0
100
AcDbLine
 62
7
  6
CONTINUOUS
 10
39.3702713843
 20
78.759712651
 11
39.3791737013
 21
79.0228485509
  0
LINE
  5
253
100
AcDbEntity
  8
0
100
AcDbLine
 62
7
  6
CONTINUOUS
 10
71.4018021674
 20
83.0601938631
 11
70.8361190976
 21
82.73359854
  0
LINE
  5
254
100
AcDbEntity
  8
0
100
AcDbLine
 62
7
  6
CONTINUOUS
 10
73.3757177782
 20
82.0769214852
 11
72.6891127039
 21
81.6805122269
  0
LINE
  5
255
100
AcDbEntity
  8
0
100
AcDbLine
 62
7
  6
CONTINUOUS
 10
14.5861042341
 20
68.6288886425
 11
26.9605244242
 21
61.4846754384
  0
LINE
  5
256
100
AcDbEntity
  8
0
100
AcDbLine
 62
7
  6
CONTINUOUS
 10
28.1444853832
 20
85.2151703444
 11
28.0538796434
 21
85.5290323661
  0
LINE
  5
257
100
AcDbEntity
  8
0
100
AcDbLine
 62
7
  6
CONTINUOUS
 10
23.7872766075
 20
30.487400111
 11
24.1783113032
 21
31.1056744692
  0
LINE
  5
258
100
AcDbEntity
  8
0
100
AcDbLine
 62
7
  6
CONTINUOUS
 10
24.4323215817
 20
30.3412342023
 11
24.2872767764
 21
30.1119003737
  0
LINE
  5
259
100
AcDbEntity
  8
0
100
AcDbLine
 62
7
  6
CONTINUOUS
 10
22.5299145164
 20
33.3587709692
 11
23.3283343905
 21
34.5400395291
  0
LINE
  5
25A
100
AcDbEntity
  8
0
100
AcDbLine
 62
7
  6
CONTINUOUS
 10
24.7036966588
 20
33.1555827024
 11
24.1923227051
 21
32.3990008668
  0
LINE
  5
25B
100
AcDbEntity
  8
0
100
AcDbLine
 62
7
  6
CONTINUOUS
 10
74.7251902023
 20
94.5395241979
 11
74.6526370756
 21
94.4671431525
  0
LINE
  5
25C
100
AcDbEntity
  8
0
100
AcDbLine
 62
7
  6
CONTINUOUS
 10
74.5286586084
 20
41.7569905404
 11
74.6526370756
 21
41.6854131583
  0
LINE
  5
25D
100
AcDbEntity
  8
0
100
AcDbLine
 62
7
  6
CONTINUOUS
 10
74.7251902023
 20
41.6968087474
 11
74.5166140352
 21
41.8172275293
  0
LINE
  5
25E
100
AcDbEntity
  8
0
100
AcDbLine
 62
7
  6
CONTINUOUS
 10
34.1563573839
 20
81.7662692116
 11
34.0657482956
 21
82.0800820355
  0
LINE
  5
25F
100
AcDbEntity
  8
0
100
AcDbLine
 62
7
  6
CONTINUOUS
 10
25.210463487
 20
29.2804607095
 11
25.3678932475
 21
29.4986404091
  0
LINE
  5
260
100
AcDbEntity
  8
0
100
AcDbLine
 62
7
  6
CONTINUOUS
 10
26.0720254768
 20
29.4001591509
 11
25.6476014618
 21
28.8119558547
  0
LINE
  5
261
100
AcDbEntity
  8
0
100
AcDbLine
 62
7
  6
CONTINUOUS
 10
25.6887225164
 20
46.4616123478
 11
25.7584385064
 21
46.5018626532
  0
LINE
  5
262
100
AcDbEntity
  8
0
100
AcDbLine
 62
7
  6
CONTINUOUS
 10
25.7575867672
 20
46.1747699374
 11
25.6887225164
 21
46.1350113809
  0
LINE
  5
263
100
AcDbEntity
  8
0
100
AcDbLine
 62
7
  6
CONTINUOUS
 10
49.1090585779
 20
102.6562059014
 11
49.1147218326
 21
102.5260930417
  0
LINE
  5
264
100
AcDbEntity
  8
0
100
AcDbLine
 62
7
  6
CONTINUOUS
 10
48.9158077035
 20
102.4112506012
 11
48.915813696
 21
101.5802607103
  0
LINE
  5
265
100
AcDbEntity
  8
0
100
AcDbLine
 62
7
  6
CONTINUOUS
 10
49.1147218326
 20
101.465423642
 11
49.1147218326
 21
102.5260930417
  0
LINE
  5
266
100
AcDbEntity
  8
0
100
AcDbLine
 62
7
  6
CONTINUOUS
 10
51.3200107974
 20
96.859159003
 11
51.3200161907
 21
96.1112681012
  0
LINE
  5
267
100
AcDbEntity
  8
0
100
AcDbLine
 62
7
  6
CONTINUOUS
 10
39.8649710277
 20
68.9350166861
 11
27.4905508376
 21
76.0792298902
  0
LINE
  5
268
100
AcDbEntity
  8
0
100
AcDbLine
 62
7
  6
CONTINUOUS
 10
72.9574306093
 20
52.5229879422
 11
71.8967748535
 21
53.135343975
  0
LINE
  5
269
100
AcDbEntity
  8
0
100
AcDbLine
 62
7
  6
CONTINUOUS
 10
51.583971023
 20
97.1449387203
 11
51.5896353103
 21
97.0148258589
  0
LINE
  5
26A
100
AcDbEntity
  8
0
100
AcDbLine
 62
7
  6
CONTINUOUS
 10
51.5896353103
 20
95.9556069515
 11
51.5896353103
 21
97.0148258589
  0
LINE
  5
26B
100
AcDbEntity
  8
0
100
AcDbLine
 62
7
  6
CONTINUOUS
 10
71.8967748535
 20
53.9518777542
 11
70.8361190976
 21
54.564233787
  0
LINE
  5
26C
100
AcDbEntity
  8
0
100
AcDbLine
 62
7
  6
CONTINUOUS
 10
73.1444528363
 20
53.8557182564
 11
71.4827449822
 21
54.8150840295
  0
LINE
  5
26D
100
AcDbEntity
  8
0
100
AcDbLine
 62
7
  6
CONTINUOUS
 10
71.6492746738
 20
54.9112294179
 11
71.4017874476
 21
55.0541130021
  0
LINE
  5
26E
100
AcDbEntity
  8
0
100
AcDbLine
 62
7
  6
CONTINUOUS
 10
70.8361190976
 20
55.6256660207
 11
71.4017874476
 21
55.2990679089
  0
LINE
  5
26F
100
AcDbEntity
  8
0
100
AcDbLine
 62
7
  6
CONTINUOUS
 10
71.0128729772
 20
55.6868885512
 11
74.7251902023
 21
53.5435983268
  0
LINE
  5
270
100
AcDbEntity
  8
0
100
AcDbLine
 62
7
  6
CONTINUOUS
 10
70.8361190976
 20
57.4219399761
 11
71.8967513017
 21
56.8095661792
  0
LINE
  5
271
100
AcDbEntity
  8
0
100
AcDbLine
 62
7
  6
CONTINUOUS
 10
70.8714748433
 20
55.6052527878
 11
71.0128729772
 21
55.6868885512
  0
LINE
  5
272
100
AcDbEntity
  8
0
100
AcDbLine
 62
7
  6
CONTINUOUS
 10
71.6492746738
 20
54.9112294179
 11
71.4827449822
 21
54.8150840295
  0
LINE
  5
273
100
AcDbEntity
  8
0
100
AcDbLine
 62
7
  6
CONTINUOUS
 10
70.8361190976
 20
53.3395115234
 11
71.8967748535
 21
53.9518777542
  0
LINE
  5
274
100
AcDbEntity
  8
0
100
AcDbLine
 62
7
  6
CONTINUOUS
 10
73.1444528363
 20
53.8557182564
 11
73.6645344465
 21
54.1559857217
  0
LINE
  5
275
100
AcDbEntity
  8
0
100
AcDbLine
 62
7
  6
CONTINUOUS
 10
39.4215421808
 20
78.7264822917
 11
40.0054733433
 21
78.6508581165
  0
LINE
  5
276
100
AcDbEntity
  8
0
100
AcDbLine
 62
7
  6
CONTINUOUS
 10
28.4027147876
 20
92.0377605325
 11
40.7771349777
 21
84.8935473284
  0
LINE
  5
277
100
AcDbEntity
  8
0
100
AcDbLine
 62
7
  6
CONTINUOUS
 10
71.8967748535
 20
51.9106217114
 11
72.9574306093
 21
52.5229879422
  0
LINE
  5
278
100
AcDbEntity
  8
0
100
AcDbLine
 62
7
  6
CONTINUOUS
 10
39.5173975486
 20
31.9917374714
 11
29.0111752706
 21
25.9260034186
  0
LINE
  5
279
100
AcDbEntity
  8
0
100
AcDbLine
 62
7
  6
CONTINUOUS
 10
34.7729792674
 20
81.7129252532
 11
34.2082383878
 21
81.7401650261
  0
LINE
  5
27A
100
AcDbEntity
  8
0
100
AcDbLine
 62
7
  6
CONTINUOUS
 10
28.7611101266
 20
85.1618753311
 11
28.1963654148
 21
85.1890588264
  0
LINE
  5
27B
100
AcDbEntity
  8
0
100
AcDbLine
 62
7
  6
CONTINUOUS
 10
33.4096701717
 20
82.1753834243
 11
33.9936046813
 21
82.0998084468
  0
LINE
  5
27C
100
AcDbEntity
  8
0
100
AcDbLine
 62
7
  6
CONTINUOUS
 10
70.8361190976
 20
82.73359854
 11
70.8361190976
 21
53.3395115234
  0
LINE
  5
27D
100
AcDbEntity
  8
0
100
AcDbLine
 62
7
  6
CONTINUOUS
 10
71.4017874476
 20
54.2381763418
 11
71.4017874476
 21
55.2990679089
  0
LINE
  5
27E
100
AcDbEntity
  8
0
100
AcDbLine
 62
7
  6
CONTINUOUS
 10
74.7251902023
 20
91.6933335916
 11
73.3757177782
 21
82.0769214852
  0
LINE
  5
27F
100
AcDbEntity
  8
0
100
AcDbLine
 62
7
  6
CONTINUOUS
 10
74.6526370756
 20
91.9003118118
 11
74.7251902023
 21
91.9117074008
  0
LINE
  5
280
100
AcDbEntity
  8
0
100
AcDbLine
 62
7
  6
CONTINUOUS
 10
71.8967513017
 20
55.176592707
 11
71.8967513017
 21
56.8095661792
  0
LINE
  5
281
100
AcDbEntity
  8
0
100
AcDbLine
 62
7
  6
CONTINUOUS
 10
71.8967748535
 20
53.9518777542
 11
71.8967748535
 21
51.9106217114
  0
LINE
  5
282
100
AcDbEntity
  8
0
100
AcDbLine
 62
7
  6
CONTINUOUS
 10
74.5130590512
 20
94.1563798346
 11
74.5130590512
 21
92.0499052717
  0
LINE
  5
283
100
AcDbEntity
  8
0
100
AcDbLine
 62
7
  6
CONTINUOUS
 10
74.5130590512
 20
43.9414811812
 11
74.5130590512
 21
41.8350066183
  0
LINE
  5
284
100
AcDbEntity
  8
0
100
AcDbLine
 62
7
  6
CONTINUOUS
 10
74.7251902023
 20
95.8384235343
 11
74.7251902023
 21
94.5395241979
  0
LINE
  5
285
100
AcDbEntity
  8
0
100
AcDbLine
 62
7
  6
CONTINUOUS
 10
74.7251902023
 20
91.9117074008
 11
74.7251902023
 21
91.6933335916
  0
LINE
  5
286
100
AcDbEntity
  8
0
100
AcDbLine
 62
7
  6
CONTINUOUS
 10
74.7251902023
 20
53.5435983268
 11
74.7251902023
 21
44.3246255444
  0
LINE
  5
287
100
AcDbEntity
  8
0
100
AcDbLine
 62
7
  6
CONTINUOUS
 10
74.7251902023
 20
41.6968087474
 11
74.7251902023
 21
28.9668755712
  0
LINE
  5
288
100
AcDbEntity
  8
0
100
AcDbLine
 62
7
  6
CONTINUOUS
 10
71.4827449822
 20
54.8150840295
 11
71.4017194333
 21
54.2376916683
  0
LINE
  5
289
100
AcDbEntity
  8
0
100
AcDbLine
 62
7
  6
CONTINUOUS
 10
72.9574306093
 20
52.5229879422
 11
73.1444528363
 21
53.8557182564
  0
LINE
  5
28A
100
AcDbEntity
  8
0
100
AcDbLine
 62
7
  6
CONTINUOUS
 10
55.774807365
 20
18.0259322475
 11
55.5626762138
 21
17.6585082762
  0
LINE
  5
28B
100
AcDbEntity
  8
0
100
AcDbLine
 62
7
  6
CONTINUOUS
 10
74.7251902023
 20
44.3246255444
 11
74.6526370756
 21
44.252244499
  0
LINE
  5
28C
100
AcDbEntity
  8
0
100
AcDbLine
 62
7
  6
CONTINUOUS
 10
53.7722887813
 20
94.6954798903
 11
55.209113697
 21
94.695483344
  0
LINE
  5
28D
100
AcDbEntity
  8
0
100
AcDbLine
 62
7
  6
CONTINUOUS
 10
74.5751956199
 20
91.9125743941
 11
74.6526370756
 21
91.9003118118
  0
LINE
  5
28E
100
AcDbEntity
  8
0
100
AcDbLine
 62
7
  6
CONTINUOUS
 10
72.6891127039
 20
81.6805122269
 11
70.8433571877
 21
82.7461355634
  0
LINE
  5
28F
100
AcDbEntity
  8
0
100
AcDbLine
 62
7
  6
CONTINUOUS
 10
53.7722887813
 20
94.6954798903
 11
51.3200161907
 21
96.1112681012
  0
LINE
  5
290
100
AcDbEntity
  8
0
100
AcDbLine
 62
7
  6
CONTINUOUS
 10
72.6891127039
 20
81.6805122269
 11
71.4018021674
 21
83.0601938631
  0
LINE
  5
291
100
AcDbEntity
  8
0
100
AcDbLine
 62
7
  6
CONTINUOUS
 10
51.3638839491
 20
100.1668986652
 11
52.661799881
 21
100.166901785
  0
LINE
  5
292
100
AcDbEntity
  8
0
100
AcDbLine
 62
7
  6
CONTINUOUS
 10
51.3638839491
 20
100.1668986652
 11
48.915813696
 21
101.5802607103
  0
LINE
  5
293
100
AcDbEntity
  8
0
100
AcDbLine
 62
7
  6
CONTINUOUS
 10
73.4035664649
 20
103.7303138899
 11
74.7251902023
 21
95.8384235343
  0
LINE
  5
294
100
AcDbEntity
  8
0
100
AcDbLine
 62
7
  6
CONTINUOUS
 10
74.7251902023
 20
28.9668755712
 11
55.774807365
 21
18.0259322475
  0
LINE
  5
295
100
AcDbEntity
  8
0
100
AcDbLine
 62
7
  6
CONTINUOUS
 10
53.8656270045
 20
16.923673032
 11
40.5720748649
 21
9.2486829393
  0
LINE
  5
296
100
AcDbEntity
  8
0
100
AcDbLine
 62
7
  6
CONTINUOUS
 10
54.0777581557
 20
16.8011955531
 11
55.5626762138
 21
17.6585082762
  0
LINE
  5
297
100
AcDbEntity
  8
0
100
AcDbLine
 62
7
  6
CONTINUOUS
 10
74.5286586084
 20
91.9718891939
 11
74.6526370756
 21
91.9003118118
  0
LINE
  5
298
100
AcDbEntity
  8
0
100
AcDbLine
 62
7
  6
CONTINUOUS
 10
74.7251902023
 20
91.9117074008
 11
74.5166140353
 21
92.0321261828
  0
LINE
  5
299
100
AcDbEntity
  8
0
100
AcDbLine
 62
7
  6
CONTINUOUS
 10
73.4035664649
 20
103.7303138899
 11
61.0291462748
 21
110.874527094
  0
ARC
  5
29A
100
AcDbEntity
  8
0
100
AcDbCircle
 62
7
  6
CONTINUOUS
 10
22.9297649432
 20
43.4396919435
 40
8.3327308985
100
AcDbArc
 50
182.3296483707
 51
219.5214796344
  0
ARC
  5
29B
100
AcDbEntity
  8
0
100
AcDbCircle
 62
7
  6
CONTINUOUS
 10
38.4490243448
 20
17.8657901796
 40
4.3651466852
100
AcDbArc
 50
190.9412661217
 51
194.5959185008
  0
ARC
  5
29C
100
AcDbEntity
  8
0
100
AcDbCircle
 62
7
  6
CONTINUOUS
 10
32.4385916811
 20
21.335836593
 40
4.3651466852
100
AcDbArc
 50
190.9412661214
 51
194.5959185005
  0
ARC
  5
29D
100
AcDbEntity
  8
0
100
AcDbCircle
 62
7
  6
CONTINUOUS
 10
39.116177251
 20
16.8739754769
 40
4.3505750313
100
AcDbArc
 50
234.7825467789
 51
238.7217461315
  0
ARC
  5
29E
100
AcDbEntity
  8
0
100
AcDbCircle
 62
7
  6
CONTINUOUS
 10
33.1057445872
 20
20.3440218903
 40
4.3505750312
100
AcDbArc
 50
234.7825467828
 51
238.7217461315
  0
ARC
  5
29F
100
AcDbEntity
  8
0
100
AcDbCircle
 62
7
  6
CONTINUOUS
 10
35.8015169119
 20
14.1765806954
 40
3.5288143081
100
AcDbArc
 50
4.8741347592
 51
6.4632273118
  0
ARC
  5
2A0
100
AcDbEntity
  8
0
100
AcDbCircle
 62
7
  6
CONTINUOUS
 10
29.7910842484
 20
17.6466271089
 40
3.528814308
100
AcDbArc
 50
4.8741347593
 51
6.4632273119
  0
ARC
  5
2A1
100
AcDbEntity
  8
0
100
AcDbCircle
 62
7
  6
CONTINUOUS
 10
29.9775863353
 20
17.6632966722
 40
3.3415703804
100
AcDbArc
 50
4.2917085447
 51
4.8610566302
  0
ARC
  5
2A2
100
AcDbEntity
  8
0
100
AcDbCircle
 62
7
  6
CONTINUOUS
 10
35.9880189992
 20
14.1932502588
 40
3.3415703802
100
AcDbArc
 50
4.2917085447
 51
4.8610566301
  0
ARC
  5
2A3
100
AcDbEntity
  8
0
100
AcDbCircle
 62
7
  6
CONTINUOUS
 10
36.1783743766
 20
14.1929499526
 40
3.1518047972
100
AcDbArc
 50
0.1488183756
 51
4.5561116769
  0
ARC
  5
2A4
100
AcDbEntity
  8
0
100
AcDbCircle
 62
7
  6
CONTINUOUS
 10
30.167946447
 20
17.6629963642
 40
3.1518000781
100
AcDbArc
 50
0.1488184527
 51
4.5561185452
  0
ARC
  5
2A5
100
AcDbEntity
  8
0
100
AcDbCircle
 62
7
  6
CONTINUOUS
 10
19.8873483516
 20
40.9051678208
 40
2.9432628821
100
AcDbArc
 50
207.7955058052
 51
210.9466857964
  0
ARC
  5
2A6
100
AcDbEntity
  8
0
100
AcDbCircle
 62
7
  6
CONTINUOUS
 10
25.6123972273
 20
28.657468064
 40
1.7925997605
100
AcDbArc
 50
179.998680817
 51
180.7233589766
  0
ARC
  5
2A7
100
AcDbEntity
  8
0
100
AcDbCircle
 62
7
  6
CONTINUOUS
 10
34.9713366508
 20
78.991495352
 40
4.4595661546
100
AcDbArc
 50
0.5913011049
 51
3.8508171852
  0
ARC
  5
2A8
100
AcDbEntity
  8
0
100
AcDbCircle
 62
7
  6
CONTINUOUS
 10
28.959948378
 20
82.4397954805
 40
4.4590452597
100
AcDbArc
 50
0.5996243471
 51
3.852351168
  0
ARC
  5
2A9
100
AcDbEntity
  8
0
100
AcDbCircle
 62
7
  6
CONTINUOUS
 10
35.2632506679
 20
78.9974765898
 40
4.1676070135
100
AcDbArc
 50
0.0605848753
 51
0.5504922119
  0
ARC
  5
2AA
100
AcDbEntity
  8
0
100
AcDbCircle
 62
7
  6
CONTINUOUS
 10
29.2517685691
 20
82.4458028659
 40
4.167179227
100
AcDbArc
 50
0.0610251971
 51
0.559021414
  0
ARC
  5
2AB
100
AcDbEntity
  8
0
100
AcDbCircle
 62
7
  6
CONTINUOUS
 10
35.520112422
 20
78.9962559205
 40
3.9107469785
100
AcDbArc
 50
356.0444603632
 51
0.0824479857
  0
ARC
  5
2AC
100
AcDbEntity
  8
0
100
AcDbCircle
 62
7
  6
CONTINUOUS
 10
29.5086978772
 20
82.4445916652
 40
3.9102516366
100
AcDbArc
 50
356.052262715
 51
0.0827823162
  0
ARC
  5
2AD
100
AcDbEntity
  8
0
100
AcDbCircle
 62
7
  6
CONTINUOUS
 10
29.068562581
 20
83.5911950527
 40
3.8360559045
100
AcDbArc
 50
49.7186829197
 51
53.7473054188
  0
ARC
  5
2AE
100
AcDbEntity
  8
0
100
AcDbCircle
 62
7
  6
CONTINUOUS
 10
35.0810494886
 20
80.1429166543
 40
3.835661146
100
AcDbArc
 50
49.7103258888
 51
53.7458158101
  0
ARC
  5
2AF
100
AcDbEntity
  8
0
100
AcDbCircle
 62
7
  6
CONTINUOUS
 10
29.1797261294
 20
83.7408465067
 40
3.6496383446
100
AcDbArc
 50
53.7653299151
 51
54.1570211205
  0
ARC
  5
2B0
100
AcDbEntity
  8
0
100
AcDbCircle
 62
7
  6
CONTINUOUS
 10
35.192158617
 20
80.2924784463
 40
3.6493480436
100
AcDbArc
 50
53.7639091304
 51
54.1476673085
  0
ARC
  5
2B1
100
AcDbEntity
  8
0
100
AcDbCircle
 62
7
  6
CONTINUOUS
 10
36.1310976267
 20
79.3058153509
 40
3.2475588537
100
AcDbArc
 50
355.0412354468
 51
356.0201439499
  0
ARC
  5
2B2
100
AcDbEntity
  8
0
100
AcDbCircle
 62
7
  6
CONTINUOUS
 10
30.1200269127
 20
82.7542219324
 40
3.2467214913
100
AcDbArc
 50
355.0378466252
 51
356.0161905729
  0
ARC
  5
2B3
100
AcDbEntity
  8
0
100
AcDbCircle
 62
7
  6
CONTINUOUS
 10
35.9307316409
 20
80.7837232206
 40
2.7670500511
100
AcDbArc
 50
58.3824559238
 51
60.3420101593
  0
ARC
  5
2B4
100
AcDbEntity
  8
0
100
AcDbCircle
 62
7
  6
CONTINUOUS
 10
29.918440655
 20
84.2324288103
 40
2.767039702
100
AcDbArc
 50
58.3856997235
 51
60.3527435919
  0
ARC
  5
2B5
100
AcDbEntity
  8
0
100
AcDbCircle
 62
7
  6
CONTINUOUS
 10
263.7632863546
 20
30.3542645853
 40
224.2518672472
100
AcDbArc
 50
179.5816261406
 51
179.9997795209
  0
ARC
  5
2B6
100
AcDbEntity
  8
0
100
AcDbCircle
 62
7
  6
CONTINUOUS
 10
226.5792409403
 20
36.7634410112
 40
199.4270919078
100
AcDbArc
 50
182.9580695568
 51
184.7818475573
  0
ARC
  5
2B7
100
AcDbEntity
  8
0
100
AcDbCircle
 62
7
  6
CONTINUOUS
 10
217.6506145858
 20
36.0530237734
 40
190.4703248211
100
AcDbArc
 50
184.7927865328
 51
185.9245564924
  0
ARC
  5
2B8
100
AcDbEntity
  8
0
100
AcDbCircle
 62
7
  6
CONTINUOUS
 10
166.5183394942
 20
47.4266523693
 40
142.2777200206
100
AcDbArc
 50
181.8019965487
 51
182.1277275744
  0
ARC
  5
2B9
100
AcDbEntity
  8
0
100
AcDbCircle
 62
7
  6
CONTINUOUS
 10
168.8961971548
 20
45.9215134365
 40
142.0052863003
100
AcDbArc
 50
180.1005904436
 51
183.3548359678
  0
ARC
  5
2BA
100
AcDbEntity
  8
0
100
AcDbCircle
 62
7
  6
CONTINUOUS
 10
149.425806843
 20
46.2211082563
 40
125.1387337702
100
AcDbArc
 50
186.0826720266
 51
186.4643380311
  0
ARC
  5
2BB
100
AcDbEntity
  8
0
100
AcDbCircle
 62
7
  6
CONTINUOUS
 10
149.4934013178
 20
44.4322846682
 40
122.5428035878
100
AcDbArc
 50
184.7225330472
 51
188.5515198965
  0
ARC
  5
2BC
100
AcDbEntity
  8
0
100
AcDbCircle
 62
7
  6
CONTINUOUS
 10
208.8571801323
 20
66.8560222782
 40
169.0451238253
100
AcDbArc
 50
173.8747404348
 51
174.1392172312
  0
ARC
  5
2BD
100
AcDbEntity
  8
0
100
AcDbCircle
 62
7
  6
CONTINUOUS
 10
158.1942507515
 20
53.1129220387
 40
143.6776647291
100
AcDbArc
 50
180.3793965814
 51
183.3345947792
  0
ARC
  5
2BE
100
AcDbEntity
  8
0
100
AcDbCircle
 62
7
  6
CONTINUOUS
 10
159.2145858776
 20
51.5010782279
 40
142.0449277249
100
AcDbArc
 50
181.8017296336
 51
182.1279944895
  0
ARC
  5
2BF
100
AcDbEntity
  8
0
100
AcDbCircle
 62
7
  6
CONTINUOUS
 10
141.9983182433
 20
52.0805235359
 40
127.4470787273
100
AcDbArc
 50
184.9354240929
 51
186.5823663461
  0
SPLINE
  5
2C0
100
AcDbEntity
  8
0
100
AcDbSpline
 62
7
  6
CONTINUOUS
 70
0
 71
3
 72
11
 73
7
 74
0
 42
0.0000001
 43
0.0000001
 44
0.0000000001
 40
0.0
 40
0.0
 40
0.0
 40
0.0
 40
0.2349792353
 40
0.4951332951
 40
0.7579101508
 40
1.0
 40
1.0
 40
1.0
 40
1.0
 10
14.5861042341
 20
68.6288886425
 30
0.0
 10
14.4911926276
 20
68.574091728
 30
0.0
 10
14.3105222181
 20
68.4247790464
 30
0.0
 10
14.0953146713
 20
68.1413255346
 30
0.0
 10
13.9412283135
 20
67.8168356312
 30
0.0
 10
13.8889062777
 20
67.5840660968
 30
0.0
 10
13.8813097547
 20
67.4714112199
 30
0.0
  0
SPLINE
  5
2C1
100
AcDbEntity
  8
0
100
AcDbSpline
 62
7
  6
CONTINUOUS
 70
0
 71
3
 72
9
 73
5
 74
0
 42
0.0000001
 43
0.0000001
 44
0.0000000001
 40
0.0
 40
0.0
 40
0.0
 40
0.0
 40
0.2534461349
 40
1.0
 40
1.0
 40
1.0
 40
1.0
 10
13.8813097547
 20
67.4714112199
 30
0.0
 10
13.8026700695
 20
66.3052008399
 30
0.0
 10
13.5276933908
 20
61.701499966
 30
0.0
 10
13.3957369426
 20
57.089059853
 30
0.0
 10
13.3840183164
 20
53.6460758573
 30
0.0
  0
SPLINE
  5
2C2
100
AcDbEntity
  8
0
100
AcDbSpline
 62
7
  6
CONTINUOUS
 70
0
 71
3
 72
11
 73
7
 74
0
 42
0.0000001
 43
0.0000001
 44
0.0000000001
 40
0.0
 40
0.0
 40
0.0
 40
0.0
 40
0.2370444772
 40
0.4999965441
 40
0.76295129
 40
1.0
 40
1.0
 40
1.0
 40
1.0
 10
13.3143023263
 20
53.6058255519
 30
0.0
 10
13.2942425078
 20
53.5942440794
 30
0.0
 10
13.2563176383
 20
53.5622027117
 30
0.0
 10
13.211822275
 20
53.5016939296
 30
0.0
 10
13.1816680509
 20
53.432904909
 30
0.0
 10
13.1728815589
 20
53.3840397
 30
0.0
 10
13.1728815589
 20
53.3608762377
 30
0.0
  0
SPLINE
  5
2C3
100
AcDbEntity
  8
0
100
AcDbSpline
 62
7
  6
CONTINUOUS
 70
0
 71
3
 72
10
 73
6
 74
0
 42
0.0000001
 43
0.0000001
 44
0.0000000001
 40
0.0
 40
0.0
 40
0.0
 40
0.0
 40
0.5468996234
 40
0.781618085
 40
1.0
 40
1.0
 40
1.0
 40
1.0
 10
13.1728815589
 20
53.3608762377
 30
0.0
 10
13.1728815589
 20
53.34180725
 30
0.0
 10
13.1770817319
 20
53.3137374578
 30
0.0
 10
13.1953137922
 20
53.2834993214
 30
0.0
 10
13.2077004836
 20
53.2731101677
 30
0.0
 10
13.214294798
 20
53.2693030203
 30
0.0
  0
SPLINE
  5
2C4
100
AcDbEntity
  8
0
100
AcDbSpline
 62
7
  6
CONTINUOUS
 70
0
 71
3
 72
11
 73
7
 74
0
 42
0.0000001
 43
0.0000001
 44
0.0000000001
 40
0.0
 40
0.0
 40
0.0
 40
0.0
 40
0.2287802482
 40
0.4659355511
 40
0.721130773
 40
1.0
 40
1.0
 40
1.0
 40
1.0
 10
35.6114449984
 20
83.2960024438
 30
0.0
 10
35.728199389
 20
83.3634263944
 30
0.0
 10
35.9889523682
 20
83.4645768904
 30
0.0
 10
36.4186310156
 20
83.4930973316
 30
0.0
 10
36.8683656301
 20
83.4011616172
 30
0.0
 10
37.1571031307
 20
83.2695739044
 30
0.0
 10
37.2999278883
 20
83.1882746593
 30
0.0
  0
SPLINE
  5
2C5
100
AcDbEntity
  8
0
100
AcDbSpline
 62
7
  6
CONTINUOUS
 70
0
 71
3
 72
14
 73
10
 74
0
 42
0.0000001
 43
0.0000001
 44
0.0000000001
 40
0.0
 40
0.0
 40
0.0
 40
0.0
 40
0.1189361538
 40
0.2439161967
 40
0.3729996984
 40
0.5039659516
 40
0.7615730637
 40
0.8841597635
 40
1.0
 40
1.0
 40
1.0
 40
1.0
 10
39.3791921034
 20
79.0228419765
 30
0.0
 10
39.3792526457
 20
79.2140271447
 30
0.0
 10
39.3521215019
 20
79.6064289745
 30
0.0
 10
39.2403799639
 20
80.1966939002
 30
0.0
 10
39.0583160645
 20
80.7896473779
 30
0.0
 10
38.730575038
 20
81.5555489953
 30
0.0
 10
38.2889446883
 20
82.2583133713
 30
0.0
 10
37.7501008684
 20
82.8481775312
 30
0.0
 10
37.4554061752
 20
83.0956995896
 30
0.0
 10
37.3039100088
 20
83.2039703569
 30
0.0
  0
SPLINE
  5
2C6
100
AcDbEntity
  8
0
100
AcDbSpline
 62
7
  6
CONTINUOUS
 70
0
 71
3
 72
11
 73
7
 74
0
 42
0.0000001
 43
0.0000001
 44
0.0000000001
 40
0.0
 40
0.0
 40
0.0
 40
0.0
 40
0.2287725861
 40
0.4659266191
 40
0.7211249176
 40
1.0
 40
1.0
 40
1.0
 40
1.0
 10
29.5992700184
 20
86.7447759248
 30
0.0
 10
29.7159783392
 20
86.8121732637
 30
0.0
 10
29.9766302819
 20
86.9132870702
 30
0.0
 10
30.4061465416
 20
86.9418200704
 30
0.0
 10
30.8557314291
 20
86.8499670476
 30
0.0
 10
31.1443898142
 20
86.7184723899
 30
0.0
 10
31.2871813054
 20
86.6372277092
 30
0.0
  0
SPLINE
  5
2C7
100
AcDbEntity
  8
0
100
AcDbSpline
 62
7
  6
CONTINUOUS
 70
0
 71
3
 72
14
 73
10
 74
0
 42
0.0000001
 43
0.0000001
 44
0.0000000001
 40
0.0
 40
0.0
 40
0.0
 40
0.0
 40
0.1189273773
 40
0.2439040562
 40
0.3729882431
 40
0.503957864
 40
0.7615730383
 40
0.8841613908
 40
1.0
 40
1.0
 40
1.0
 40
1.0
 10
33.3672830928
 20
82.4711694278
 30
0.0
 10
33.3673436367
 20
82.6623796662
 30
0.0
 10
33.3401966867
 20
83.0548424294
 30
0.0
 10
33.2284001329
 20
83.6452039162
 30
0.0
 10
33.046251204
 20
84.2382658643
 30
0.0
 10
32.7183633822
 20
85.004311789
 30
0.0
 10
32.2765546007
 20
85.707191965
 30
0.0
 10
31.7375169897
 20
86.2971189476
 30
0.0
 10
31.4427257729
 20
86.5446496472
 30
0.0
 10
31.2911831704
 20
86.6529165666
 30
0.0
  0
SPLINE
  5
2C8
100
AcDbEntity
  8
0
100
AcDbSpline
 62
7
  6
CONTINUOUS
 70
0
 71
3
 72
9
 73
5
 74
0
 42
0.0000001
 43
0.0000001
 44
0.0000000001
 40
0.0
 40
0.0
 40
0.0
 40
0.0
 40
0.2554888702
 40
1.0
 40
1.0
 40
1.0
 40
1.0
 10
28.4027147876
 20
92.0377605325
 30
0.0
 10
28.257432009
 20
90.6839089955
 30
0.0
 10
27.7525555493
 20
85.3783175344
 30
0.0
 10
27.5075511871
 20
80.0470553063
 30
0.0
 10
27.4905508376
 20
76.0792298902
 30
0.0
  0
SPLINE
  5
2C9
100
AcDbEntity
  8
0
100
AcDbSpline
 62
7
  6
CONTINUOUS
 70
0
 71
3
 72
16
 73
12
 74
0
 42
0.0000001
 43
0.0000001
 44
0.0000000001
 40
0.0
 40
0.0
 40
0.0
 40
0.0
 40
0.1542075827
 40
0.3054153104
 40
0.4495560932
 40
0.5833962588
 40
0.7046822522
 40
0.8128492782
 40
0.9096514225
 40
0.9552760113
 40
1.0
 40
1.0
 40
1.0
 40
1.0
 10
55.4080278261
 20
94.8103257845
 30
0.0
 10
55.6816549485
 20
94.8015227193
 30
0.0
 10
56.2251389158
 20
94.8157953314
 30
0.0
 10
57.0168438516
 20
94.9304618907
 30
0.0
 10
57.7534129519
 20
95.1341219187
 30
0.0
 10
58.4056547315
 20
95.4186030829
 30
0.0
 10
58.9483377701
 20
95.7740722872
 30
0.0
 10
59.3602263839
 20
96.1884926258
 30
0.0
 10
59.5824733211
 20
96.5825244577
 30
0.0
 10
59.6689986283
 20
96.9047906758
 30
0.0
 10
59.68331747
 20
97.0655395179
 30
0.0
 10
59.683331746
 20
97.1449391649
 30
0.0
  0
SPLINE
  5
2CA
100
AcDbEntity
  8
0
100
AcDbSpline
 62
7
  6
CONTINUOUS
 70
0
 71
3
 72
16
 73
12
 74
0
 42
0.0000001
 43
0.0000001
 44
0.0000000001
 40
0.0
 40
0.0
 40
0.0
 40
0.0
 40
0.154193394
 40
0.3053998979
 40
0.4495477071
 40
0.5833980335
 40
0.7046925203
 40
0.8128625724
 40
0.9096605903
 40
0.9552809698
 40
1.0
 40
1.0
 40
1.0
 40
1.0
 10
52.9299140685
 20
100.3216966593
 30
0.0
 10
53.2036760286
 20
100.3127637723
 30
0.0
 10
53.7474658014
 20
100.3268139845
 30
0.0
 10
54.5396755708
 20
100.4412437786
 30
0.0
 10
55.2767873491
 20
100.6447700462
 30
0.0
 10
55.9295598695
 20
100.9292174725
 30
0.0
 10
56.4727175383
 20
101.2847441538
 30
0.0
 10
56.884988357
 20
101.6992993704
 30
0.0
 10
57.1074589556
 20
102.0935116055
 30
0.0
 10
57.194070619
 20
102.4159387055
 30
0.0
 10
57.2084040325
 20
102.5767678936
 30
0.0
 10
57.2084183395
 20
102.6562063474
 30
0.0
  0
SPLINE
  5
2CB
100
AcDbEntity
  8
0
100
AcDbSpline
 62
7
  6
CONTINUOUS
 70
0
 71
3
 72
11
 73
7
 74
0
 42
0.0000001
 43
0.0000001
 44
0.0000000001
 40
0.0
 40
0.0
 40
0.0
 40
0.0
 40
0.2225857439
 40
0.4588087178
 40
0.7164324367
 40
1.0
 40
1.0
 40
1.0
 40
1.0
 10
35.1990775215
 20
18.8808337352
 30
0.0
 10
35.2703157386
 20
18.9219728119
 30
0.0
 10
35.4295512333
 20
18.9866609156
 30
0.0
 10
35.6941807019
 20
19.0225768631
 30
0.0
 10
35.9823810412
 20
18.9996642661
 30
0.0
 10
36.1768503968
 20
18.948860664
 30
0.0
 10
36.2761556174
 20
18.9153672315
 30
0.0
  0
SPLINE
  5
2CC
100
AcDbEntity
  8
0
100
AcDbSpline
 62
7
  6
CONTINUOUS
 70
0
 71
3
 72
9
 73
5
 74
0
 42
0.0000001
 43
0.0000001
 44
0.0000000001
 40
0.0
 40
0.0
 40
0.0
 40
0.0
 40
0.2435919959
 40
1.0
 40
1.0
 40
1.0
 40
1.0
 10
36.2761556174
 20
18.9153672315
 30
0.0
 10
36.2962602667
 20
18.9085863824
 30
0.0
 10
36.3783968879
 20
18.8795776862
 30
0.0
 10
36.4589183322
 20
18.8460510027
 30
0.0
 10
36.5188000691
 20
18.8185742247
 30
0.0
  0
SPLINE
  5
2CD
100
AcDbEntity
  8
0
100
AcDbSpline
 62
7
  6
CONTINUOUS
 70
0
 71
3
 72
9
 73
5
 74
0
 42
0.0000001
 43
0.0000001
 44
0.0000000001
 40
0.0
 40
0.0
 40
0.0
 40
0.0
 40
0.2575712345
 40
1.0
 40
1.0
 40
1.0
 40
1.0
 10
39.2749737402
 20
14.4557364698
 30
0.0
 10
39.2738018836
 20
14.4344403119
 30
0.0
 10
39.2680766916
 20
14.3518325137
 30
0.0
 10
39.2575248357
 20
14.2695283855
 30
0.0
 10
39.2465313613
 20
14.2090419474
 30
0.0
  0
SPLINE
  5
2CE
100
AcDbEntity
  8
0
100
AcDbSpline
 62
7
  6
CONTINUOUS
 70
0
 71
3
 72
11
 73
7
 74
0
 42
0.0000001
 43
0.0000001
 44
0.0000000001
 40
0.0
 40
0.0
 40
0.0
 40
0.0
 40
0.2780026008
 40
0.5323357864
 40
0.7698905343
 40
1.0
 40
1.0
 40
1.0
 40
1.0
 10
39.2465313613
 20
14.2090419474
 30
0.0
 10
39.23086278
 20
14.1228329259
 30
0.0
 10
39.1884782797
 20
13.9595223831
 30
0.0
 10
39.0839136441
 20
13.7386623668
 30
0.0
 10
38.9418028916
 20
13.5582615204
 30
0.0
 10
38.8231560027
 20
13.4676536681
 30
0.0
 10
38.7603509377
 20
13.4313826292
 30
0.0
  0
SPLINE
  5
2CF
100
AcDbEntity
  8
0
100
AcDbSpline
 62
7
  6
CONTINUOUS
 70
0
 71
3
 72
11
 73
7
 74
0
 42
0.0000001
 43
0.0000001
 44
0.0000000001
 40
0.0
 40
0.0
 40
0.0
 40
0.0
 40
0.2407767745
 40
0.4985001024
 40
0.7569057723
 40
1.0
 40
1.0
 40
1.0
 40
1.0
 10
36.5872099324
 20
13.282408733
 30
0.0
 10
36.309222274
 20
13.4805392515
 30
0.0
 10
35.7762738856
 20
13.9517384364
 30
0.0
 10
35.0946518689
 20
14.7856791495
 30
0.0
 10
34.5451156302
 20
15.7159266749
 30
0.0
 10
34.2854585732
 20
16.3827387718
 30
0.0
 10
34.1939129947
 20
16.715013173
 30
0.0
  0
SPLINE
  5
2D0
100
AcDbEntity
  8
0
100
AcDbSpline
 62
7
  6
CONTINUOUS
 70
0
 71
3
 72
10
 73
6
 74
0
 42
0.0000001
 43
0.0000001
 44
0.0000000001
 40
0.0
 40
0.0
 40
0.0
 40
0.0
 40
0.5164045431
 40
0.770033293
 40
1.0
 40
1.0
 40
1.0
 40
1.0
 10
74.6526370756
 20
94.4671431525
 30
0.0
 10
74.6103023655
 20
94.4249088518
 30
0.0
 10
74.5591091634
 20
94.3487296386
 30
0.0
 10
74.5208569266
 20
94.2391025987
 30
0.0
 10
74.5130590512
 20
94.1830098533
 30
0.0
 10
74.5130590512
 20
94.1563798346
 30
0.0
  0
SPLINE
  5
2D1
100
AcDbEntity
  8
0
100
AcDbSpline
 62
7
  6
CONTINUOUS
 70
0
 71
3
 72
11
 73
7
 74
0
 42
0.0000001
 43
0.0000001
 44
0.0000000001
 40
0.0
 40
0.0
 40
0.0
 40
0.0
 40
0.2890626683
 40
0.5489980567
 40
0.7822658392
 40
1.0
 40
1.0
 40
1.0
 40
1.0
 10
74.5130590512
 20
92.0499052717
 30
0.0
 10
74.5130590512
 20
92.0347389115
 30
0.0
 10
74.5154245834
 20
92.0058450994
 30
0.0
 10
74.5270573248
 20
91.9661085547
 30
0.0
 10
74.5467672062
 20
91.9338342742
 30
0.0
 10
74.5652915289
 20
91.9182678635
 30
0.0
 10
74.575191784
 20
91.9125677439
 30
0.0
  0
SPLINE
  5
2D2
100
AcDbEntity
  8
0
100
AcDbSpline
 62
7
  6
CONTINUOUS
 70
0
 71
3
 72
10
 73
6
 74
0
 42
0.0000001
 43
0.0000001
 44
0.0000000001
 40
0.0
 40
0.0
 40
0.0
 40
0.0
 40
0.5164045431
 40
0.770033293
 40
1.0
 40
1.0
 40
1.0
 40
1.0
 10
74.6526370756
 20
44.252244499
 30
0.0
 10
74.6103023655
 20
44.2100101983
 30
0.0
 10
74.5591091634
 20
44.1338309851
 30
0.0
 10
74.5208569266
 20
44.0242039452
 30
0.0
 10
74.5130590512
 20
43.9681111998
 30
0.0
 10
74.5130590512
 20
43.9414811812
 30
0.0
  0
SPLINE
  5
2D3
100
AcDbEntity
  8
0
100
AcDbSpline
 62
7
  6
CONTINUOUS
 70
0
 71
3
 72
11
 73
7
 74
0
 42
0.0000001
 43
0.0000001
 44
0.0000000001
 40
0.0
 40
0.0
 40
0.0
 40
0.0
 40
0.2890626683
 40
0.5489980567
 40
0.7822658392
 40
1.0
 40
1.0
 40
1.0
 40
1.0
 10
74.5130590512
 20
41.8350066183
 30
0.0
 10
74.5130590512
 20
41.8198402581
 30
0.0
 10
74.5154245834
 20
41.7909464459
 30
0.0
 10
74.5270573248
 20
41.7512099013
 30
0.0
 10
74.5467672062
 20
41.7189356207
 30
0.0
 10
74.5652915289
 20
41.70336921
 30
0.0
 10
74.575191784
 20
41.6976690905
 30
0.0
  0
SPLINE
  5
2D4
100
AcDbEntity
  8
0
100
AcDbSpline
 62
7
  6
CONTINUOUS
 70
0
 71
3
 72
11
 73
7
 74
0
 42
0.0000001
 43
0.0000001
 44
0.0000000001
 40
0.0
 40
0.0
 40
0.0
 40
0.0
 40
0.2896544916
 40
0.5491141829
 40
0.7822293119
 40
1.0
 40
1.0
 40
1.0
 40
1.0
 10
29.0111752706
 20
25.9260034186
 30
0.0
 10
28.9673050724
 20
25.900675099
 30
0.0
 10
28.8800059928
 20
25.8591671069
 30
0.0
 10
28.7458530632
 20
25.826745037
 30
0.0
 10
28.619949242
 20
25.8299209449
 30
0.0
 10
28.5441919694
 20
25.8574768784
 30
0.0
 10
28.5111988765
 20
25.87650177
 30
0.0
  0
SPLINE
  5
2D5
100
AcDbEntity
  8
0
100
AcDbSpline
 62
7
  6
CONTINUOUS
 70
0
 71
3
 72
10
 73
6
 74
0
 42
0.0000001
 43
0.0000001
 44
0.0000000001
 40
0.0
 40
0.0
 40
0.0
 40
0.0
 40
0.5468975249
 40
0.7816166469
 40
1.0
 40
1.0
 40
1.0
 40
1.0
 10
25.6887225164
 20
46.1350113809
 30
0.0
 10
25.6722089809
 20
46.1254773437
 30
0.0
 10
25.6458008301
 20
46.115080431
 30
0.0
 10
25.6104992227
 20
46.1157506033
 30
0.0
 10
25.5953090809
 20
46.1212828055
 30
0.0
 10
25.5887149803
 20
46.1250898207
 30
0.0
  0
SPLINE
  5
2D6
100
AcDbEntity
  8
0
100
AcDbSpline
 62
7
  6
CONTINUOUS
 70
0
 71
3
 72
11
 73
7
 74
0
 42
0.0000001
 43
0.0000001
 44
0.0000000001
 40
0.0
 40
0.0
 40
0.0
 40
0.0
 40
0.2225857439
 40
0.4588087178
 40
0.7164324367
 40
1.0
 40
1.0
 40
1.0
 40
1.0
 10
29.1886448578
 20
22.3508801487
 30
0.0
 10
29.2598830749
 20
22.3920192253
 30
0.0
 10
29.4191185695
 20
22.456707329
 30
0.0
 10
29.6837480382
 20
22.4926232765
 30
0.0
 10
29.9719483774
 20
22.4697106795
 30
0.0
 10
30.166417733
 20
22.4189070774
 30
0.0
 10
30.2657229536
 20
22.3854136449
 30
0.0
  0
SPLINE
  5
2D7
100
AcDbEntity
  8
0
100
AcDbSpline
 62
7
  6
CONTINUOUS
 70
0
 71
3
 72
9
 73
5
 74
0
 42
0.0000001
 43
0.0000001
 44
0.0000000001
 40
0.0
 40
0.0
 40
0.0
 40
0.0
 40
0.2435919959
 40
1.0
 40
1.0
 40
1.0
 40
1.0
 10
30.2657229536
 20
22.3854136449
 30
0.0
 10
30.2858276029
 20
22.3786327958
 30
0.0
 10
30.3679642241
 20
22.3496240997
 30
0.0
 10
30.4484856683
 20
22.3160974162
 30
0.0
 10
30.5083674053
 20
22.2886206382
 30
0.0
  0
SPLINE
  5
2D8
100
AcDbEntity
  8
0
100
AcDbSpline
 62
7
  6
CONTINUOUS
 70
0
 71
3
 72
9
 73
5
 74
0
 42
0.0000001
 43
0.0000001
 44
0.0000000001
 40
0.0
 40
0.0
 40
0.0
 40
0.0
 40
0.2575712345
 40
1.0
 40
1.0
 40
1.0
 40
1.0
 10
33.2645410765
 20
17.9257828832
 30
0.0
 10
33.2633692198
 20
17.9044867253
 30
0.0
 10
33.2576440279
 20
17.8218789271
 30
0.0
 10
33.247092172
 20
17.7395747989
 30
0.0
 10
33.2360986975
 20
17.6790883608
 30
0.0
  0
SPLINE
  5
2D9
100
AcDbEntity
  8
0
100
AcDbSpline
 62
7
  6
CONTINUOUS
 70
0
 71
3
 72
11
 73
7
 74
0
 42
0.0000001
 43
0.0000001
 44
0.0000000001
 40
0.0
 40
0.0
 40
0.0
 40
0.0
 40
0.2780026008
 40
0.5323357864
 40
0.7698905343
 40
1.0
 40
1.0
 40
1.0
 40
1.0
 10
33.2360986975
 20
17.6790883608
 30
0.0
 10
33.2204301162
 20
17.5928793394
 30
0.0
 10
33.1780456159
 20
17.4295687965
 30
0.0
 10
33.0734809803
 20
17.2087087802
 30
0.0
 10
32.9313702279
 20
17.0283079338
 30
0.0
 10
32.8127233389
 20
16.9377000815
 30
0.0
 10
32.7499182739
 20
16.9014290426
 30
0.0
  0
SPLINE
  5
2DA
100
AcDbEntity
  8
0
100
AcDbSpline
 62
7
  6
CONTINUOUS
 70
0
 71
3
 72
11
 73
7
 74
0
 42
0.0000001
 43
0.0000001
 44
0.0000000001
 40
0.0
 40
0.0
 40
0.0
 40
0.0
 40
0.2407767745
 40
0.4985001024
 40
0.7569057723
 40
1.0
 40
1.0
 40
1.0
 40
1.0
 10
30.5767772686
 20
16.7524551464
 30
0.0
 10
30.2987896103
 20
16.9505856649
 30
0.0
 10
29.7658412218
 20
17.4217848499
 30
0.0
 10
29.0842192052
 20
18.2557255629
 30
0.0
 10
28.5346829665
 20
19.1859730884
 30
0.0
 10
28.2750259095
 20
19.8527851852
 30
0.0
 10
28.1834803309
 20
20.1850595864
 30
0.0
  0
SPLINE
  5
2DB
100
AcDbEntity
  8
0
100
AcDbSpline
 62
7
  6
CONTINUOUS
 70
0
 71
3
 72
13
 73
9
 74
0
 42
0.0000001
 43
0.0000001
 44
0.0000000001
 40
0.0
 40
0.0
 40
0.0
 40
0.0
 40
0.0919351446
 40
0.1898565433
 40
0.2978993981
 40
0.4180421113
 40
0.6929890223
 40
1.0
 40
1.0
 40
1.0
 40
1.0
 10
24.9141616097
 20
30.599983078
 30
0.0
 10
24.8983807318
 20
30.6090538418
 30
0.0
 10
24.8624510581
 20
30.6224594402
 30
0.0
 10
24.8027717231
 20
30.6252525191
 30
0.0
 10
24.7390707081
 20
30.6116401124
 30
0.0
 10
24.6474091387
 20
30.5713009866
 30
0.0
 10
24.5367035825
 20
30.4838595102
 30
0.0
 10
24.464810418
 20
30.3926076402
 30
0.0
 10
24.4323215817
 20
30.3412342023
 30
0.0
  0
SPLINE
  5
2DC
100
AcDbEntity
  8
0
100
AcDbSpline
 62
7
  6
CONTINUOUS
 70
0
 71
3
 72
9
 73
5
 74
0
 42
0.0000001
 43
0.0000001
 44
0.0000000001
 40
0.0
 40
0.0
 40
0.0
 40
0.0
 40
0.4824600188
 40
1.0
 40
1.0
 40
1.0
 40
1.0
 10
14.6039442558
 20
43.1009906747
 30
0.0
 10
14.59300714
 20
43.3685721388
 30
0.0
 10
14.6120872316
 20
43.925276312
 30
0.0
 10
14.6996620422
 20
44.4747495109
 30
0.0
 10
14.7598498532
 20
44.7556508959
 30
0.0
  0
SPLINE
  5
2DD
100
AcDbEntity
  8
0
100
AcDbSpline
 62
7
  6
CONTINUOUS
 70
0
 71
3
 72
11
 73
7
 74
0
 42
0.0000001
 43
0.0000001
 44
0.0000000001
 40
0.0
 40
0.0
 40
0.0
 40
0.0
 40
0.2849358839
 40
0.5440117369
 40
0.7796723951
 40
1.0
 40
1.0
 40
1.0
 40
1.0
 10
39.3665014054
 20
79.0251003757
 30
0.0
 10
39.3517802525
 20
78.8554527007
 30
0.0
 10
39.2983400304
 20
78.5327957062
 30
0.0
 10
39.1340016009
 20
78.0930184425
 30
0.0
 10
38.8913395366
 20
77.7355261039
 30
0.0
 10
38.6763770811
 20
77.5600034793
 30
0.0
 10
38.562349991
 20
77.4941570325
 30
0.0
  0
SPLINE
  5
2DE
100
AcDbEntity
  8
0
100
AcDbSpline
 62
7
  6
CONTINUOUS
 70
0
 71
3
 72
11
 73
7
 74
0
 42
0.0000001
 43
0.0000001
 44
0.0000000001
 40
0.0
 40
0.0
 40
0.0
 40
0.0
 40
0.2849371925
 40
0.5440091805
 40
0.7796682083
 40
1.0
 40
1.0
 40
1.0
 40
1.0
 10
33.3545798586
 20
82.4733880261
 30
0.0
 10
33.3398563043
 20
82.3038300177
 30
0.0
 10
33.2864288238
 20
81.9813477113
 30
0.0
 10
33.1221572155
 20
81.5418127923
 30
0.0
 10
32.8796081582
 20
81.1845207545
 30
0.0
 10
32.6647544408
 20
81.0090958402
 30
0.0
 10
32.5507853866
 20
80.9432829087
 30
0.0
  0
SPLINE
  5
2DF
100
AcDbEntity
  8
0
100
AcDbSpline
 62
7
  6
CONTINUOUS
 70
0
 71
3
 72
15
 73
11
 74
0
 42
0.0000001
 43
0.0000001
 44
0.0000000001
 40
0.0
 40
0.0
 40
0.0
 40
0.0
 40
0.1117934684
 40
0.2344761332
 40
0.3649197094
 40
0.4994915361
 40
0.634113539
 40
0.7647653789
 40
0.8877276372
 40
1.0
 40
1.0
 40
1.0
 40
1.0
 10
39.2689698503
 20
14.4697136497
 30
0.0
 10
39.2532638091
 20
14.675602611
 30
0.0
 10
39.1806420001
 20
15.1046678073
 30
0.0
 10
38.9792780387
 20
15.7495286097
 30
0.0
 10
38.6858477964
 20
16.4044878546
 30
0.0
 10
38.3118690916
 20
17.0425015973
 30
0.0
 10
37.8718558686
 20
17.6374279787
 30
0.0
 10
37.3829646422
 20
18.1642875737
 30
0.0
 10
36.8650785326
 20
18.6011471127
 30
0.0
 10
36.494676882
 20
18.8325014472
 30
0.0
 10
36.309385148
 20
18.925614235
 30
0.0
  0
SPLINE
  5
2E0
100
AcDbEntity
  8
0
100
AcDbSpline
 62
7
  6
CONTINUOUS
 70
0
 71
3
 72
15
 73
11
 74
0
 42
0.0000001
 43
0.0000001
 44
0.0000000001
 40
0.0
 40
0.0
 40
0.0
 40
0.0
 40
0.1117934684
 40
0.2344761332
 40
0.3649197094
 40
0.4994915361
 40
0.634113539
 40
0.7647653789
 40
0.8877276372
 40
1.0
 40
1.0
 40
1.0
 40
1.0
 10
33.2585371865
 20
17.9397600631
 30
0.0
 10
33.2428311454
 20
18.1456490244
 30
0.0
 10
33.1702093363
 20
18.5747142207
 30
0.0
 10
32.9688453749
 20
19.2195750231
 30
0.0
 10
32.6754151327
 20
19.8745342681
 30
0.0
 10
32.3014364279
 20
20.5125480107
 30
0.0
 10
31.8614232048
 20
21.1074743922
 30
0.0
 10
31.3725319784
 20
21.6343339871
 30
0.0
 10
30.8546458688
 20
22.0711935261
 30
0.0
 10
30.4842442182
 20
22.3025478607
 30
0.0
 10
30.2989524843
 20
22.3956606484
 30
0.0
  0
LINE
  5
2E1
100
AcDbEntity
  8
0
100
AcDbLine
 62
7
  6
CONTINUOUS
 10
13.3828348915
 20
52.9513655561
 11
13.3829137192
 21
53.1719589949
  0
LINE
  5
2E2
100
AcDbEntity
  8
0
100
AcDbLine
 62
7
  6
CONTINUOUS
 10
13.3828752934
 20
52.8231534932
 11
13.3828348915
 21
52.9513655561
  0
SPLINE
  5
2E3
100
AcDbEntity
  8
0
100
AcDbSpline
 62
7
  6
CONTINUOUS
 70
0
 71
3
 72
9
 73
5
 74
0
 42
0.0000001
 43
0.0000001
 44
0.0000000001
 40
0.0
 40
0.0
 40
0.0
 40
0.0
 40
0.2742553002
 40
1.0
 40
1.0
 40
1.0
 40
1.0
 10
16.8456016913
 20
41.5599962356
 30
0.0
 10
16.8456016913
 20
41.3694172813
 30
0.0
 10
16.8771458156
 20
40.6763831345
 30
0.0
 10
17.0484569996
 20
39.9787710802
 30
0.0
 10
17.2836863366
 20
39.5326735567
 30
0.0
  0
SPLINE
  5
2E4
100
AcDbEntity
  8
0
100
AcDbSpline
 62
7
  6
CONTINUOUS
 70
0
 71
3
 72
10
 73
6
 74
0
 42
0.0000001
 43
0.0000001
 44
0.0000000001
 40
0.0
 40
0.0
 40
0.0
 40
0.0
 40
0.5164183386
 40
0.7644855512
 40
1.0
 40
1.0
 40
1.0
 40
1.0
 10
18.3516523944
 20
46.3957386895
 30
0.0
 10
17.9674309753
 20
45.765100363
 30
0.0
 10
17.4854187816
 20
44.7731524551
 30
0.0
 10
17.0654587973
 20
43.4043658012
 30
0.0
 10
16.9374540033
 20
42.7226752838
 30
0.0
 10
16.8971441757
 20
42.3883166624
 30
0.0
  0
SPLINE
  5
2E5
100
AcDbEntity
  8
0
100
AcDbSpline
 62
7
  6
CONTINUOUS
 70
0
 71
3
 72
9
 73
5
 74
0
 42
0.0000001
 43
0.0000001
 44
0.0000000001
 40
0.0
 40
0.0
 40
0.0
 40
0.0
 40
0.2566101601
 40
1.0
 40
1.0
 40
1.0
 40
1.0
 10
16.8971441757
 20
42.3883166624
 30
0.0
 10
16.8886445765
 20
42.3178148907
 30
0.0
 10
16.8593463159
 20
42.0426353767
 30
0.0
 10
16.8456016913
 20
41.7657160819
 30
0.0
 10
16.8456016913
 20
41.5599962356
 30
0.0
  0
SPLINE
  5
2E6
100
AcDbEntity
  8
0
100
AcDbSpline
 62
7
  6
CONTINUOUS
 70
0
 71
3
 72
20
 73
16
 74
0
 42
0.0000001
 43
0.0000001
 44
0.0000000001
 40
0.0
 40
0.0
 40
0.0
 40
0.0
 40
0.0463098938
 40
0.0925878463
 40
0.139747088
 40
0.1886526881
 40
0.2940312824
 40
0.3515555052
 40
0.4125210628
 40
0.4768800286
 40
0.5444750089
 40
0.6151311207
 40
0.6884580307
 40
0.8415231779
 40
1.0
 40
1.0
 40
1.0
 40
1.0
 10
24.9915996236
 20
32.9609889778
 30
0.0
 10
24.8422189872
 20
33.0141312383
 30
0.0
 10
24.5520367947
 20
33.1464150798
 30
0.0
 10
24.156503131
 20
33.4198069707
 30
0.0
 10
23.8080234607
 20
33.7639394579
 30
0.0
 10
23.4015894359
 20
34.3243737402
 30
0.0
 10
23.1170444705
 20
35.0028033728
 30
0.0
 10
22.9464306732
 20
35.7507799559
 30
0.0
 10
22.8737123022
 20
36.373853753
 30
0.0
 10
22.8593765546
 20
37.0349919265
 30
0.0
 10
22.902645464
 20
37.7281181897
 30
0.0
 10
23.0055780522
 20
38.4458470385
 30
0.0
 10
23.2201902418
 20
39.4406882545
 30
0.0
 10
23.6300820737
 20
40.6970606045
 30
0.0
 10
24.0815611314
 20
41.6664917982
 30
0.0
 10
24.338713773
 20
42.1442623777
 30
0.0
  0
SPLINE
  5
2E7
100
AcDbEntity
  8
0
100
AcDbSpline
 62
7
  6
CONTINUOUS
 70
0
 71
3
 72
9
 73
5
 74
0
 42
0.0000001
 43
0.0000001
 44
0.0000000001
 40
0.0
 40
0.0
 40
0.0
 40
0.0
 40
0.5278724621
 40
1.0
 40
1.0
 40
1.0
 40
1.0
 10
11.3920317862
 20
34.4016716276
 30
0.0
 10
11.4038641976
 20
34.3575491911
 30
0.0
 10
11.4380720162
 20
34.2759041406
 30
0.0
 10
11.5030277626
 20
34.2138896335
 30
0.0
 10
11.538419688
 20
34.1934755414
 30
0.0
  0
SPLINE
  5
2E8
100
AcDbEntity
  8
0
100
AcDbSpline
 62
7
  6
CONTINUOUS
 70
0
 71
3
 72
9
 73
5
 74
0
 42
0.0000001
 43
0.0000001
 44
0.0000000001
 40
0.0
 40
0.0
 40
0.0
 40
0.0
 40
0.2638225386
 40
1.0
 40
1.0
 40
1.0
 40
1.0
 10
11.3196492291
 20
34.9942943747
 30
0.0
 10
11.3196492291
 20
34.9417104675
 30
0.0
 10
11.32519954
 20
34.7425072685
 30
0.0
 10
11.3540253799
 20
34.5433955065
 30
0.0
 10
11.3920317862
 20
34.4016716276
 30
0.0
  0
SPLINE
  5
2E9
100
AcDbEntity
  8
0
100
AcDbSpline
 62
7
  6
CONTINUOUS
 70
0
 71
3
 72
9
 73
5
 74
0
 42
0.0000001
 43
0.0000001
 44
0.0000000001
 40
0.0
 40
0.0
 40
0.0
 40
0.0
 40
0.2397073375
 40
1.0
 40
1.0
 40
1.0
 40
1.0
 10
17.0803509492
 20
42.3996893945
 30
0.0
 10
17.0740059309
 20
42.3655871499
 30
0.0
 10
17.0403115238
 20
42.224709213
 30
0.0
 10
16.9809614321
 20
42.0904035875
 30
0.0
 10
16.9252555421
 20
41.99552842
 30
0.0
  0
SPLINE
  5
2EA
100
AcDbEntity
  8
0
100
AcDbSpline
 62
7
  6
CONTINUOUS
 70
0
 71
3
 72
11
 73
7
 74
0
 42
0.0000001
 43
0.0000001
 44
0.0000000001
 40
0.0
 40
0.0
 40
0.0
 40
0.0
 40
0.2652598969
 40
0.5251323091
 40
0.7721108503
 40
1.0
 40
1.0
 40
1.0
 40
1.0
 10
12.0492551701
 20
37.2641966361
 30
0.0
 10
11.9352419355
 20
37.0839275699
 30
0.0
 10
11.7312592826
 20
36.7127784967
 30
0.0
 10
11.5009920098
 20
36.1344266963
 30
0.0
 10
11.3563490116
 20
35.5597687028
 30
0.0
 10
11.3196492291
 20
35.1775420352
 30
0.0
 10
11.3196492291
 20
34.9942943747
 30
0.0
  0
SPLINE
  5
2EB
100
AcDbEntity
  8
0
100
AcDbSpline
 62
7
  6
CONTINUOUS
 70
0
 71
3
 72
11
 73
7
 74
0
 42
0.0000001
 43
0.0000001
 44
0.0000000001
 40
0.0
 40
0.0
 40
0.0
 40
0.0
 40
0.2738395777
 40
0.5357918582
 40
0.7793156798
 40
1.0
 40
1.0
 40
1.0
 40
1.0
 10
13.3374880895
 20
38.6659007779
 30
0.0
 10
13.2757825049
 20
38.5746068743
 30
0.0
 10
13.1443295344
 20
38.4029359928
 30
0.0
 10
12.923324814
 20
38.1791570135
 30
0.0
 10
12.6897649854
 20
38.0018586734
 30
0.0
 10
12.5230476797
 20
37.9146727741
 30
0.0
 10
12.4402898657
 20
37.8824709942
 30
0.0
  0
SPLINE
  5
2EC
100
AcDbEntity
  8
0
100
AcDbSpline
 62
7
  6
CONTINUOUS
 70
0
 71
3
 72
11
 73
7
 74
0
 42
0.0000001
 43
0.0000001
 44
0.0000000001
 40
0.0
 40
0.0
 40
0.0
 40
0.0
 40
0.2886764847
 40
0.5480194858
 40
0.7815235269
 40
1.0
 40
1.0
 40
1.0
 40
1.0
 10
23.8199403266
 20
28.6348371007
 30
0.0
 10
23.8202524769
 20
28.6101589196
 30
0.0
 10
23.8246138758
 20
28.5632055126
 30
0.0
 10
23.8443556867
 20
28.4987595086
 30
0.0
 10
23.8769816311
 20
28.4464742735
 30
0.0
 10
23.9072907538
 20
28.421184355
 30
0.0
 10
23.9234672433
 20
28.4118459292
 30
0.0
  0
SPLINE
  5
2ED
100
AcDbEntity
  8
0
100
AcDbSpline
 62
7
  6
CONTINUOUS
 70
0
 71
3
 72
11
 73
7
 74
0
 42
0.0000001
 43
0.0000001
 44
0.0000000001
 40
0.0
 40
0.0
 40
0.0
 40
0.0
 40
0.2651693816
 40
0.5251364237
 40
0.7721754598
 40
1.0
 40
1.0
 40
1.0
 40
1.0
 10
24.2872767764
 20
30.1119003737
 30
0.0
 10
24.2142506169
 20
29.9964369573
 30
0.0
 10
24.0836247773
 20
29.7585978823
 30
0.0
 10
23.9359253067
 20
29.3880570206
 30
0.0
 10
23.8433932272
 20
29.0197744453
 30
0.0
 10
23.8197974672
 20
28.7748873379
 30
0.0
 10
23.8197974672
 20
28.6575093369
 30
0.0
  0
SPLINE
  5
2EE
100
AcDbEntity
  8
0
100
AcDbSpline
 62
7
  6
CONTINUOUS
 70
0
 71
3
 72
10
 73
6
 74
0
 42
0.0000001
 43
0.0000001
 44
0.0000000001
 40
0.0
 40
0.0
 40
0.0
 40
0.0
 40
0.5192842944
 40
0.7678439894
 40
1.0
 40
1.0
 40
1.0
 40
1.0
 10
26.5121202793
 20
30.5952650458
 30
0.0
 10
26.387520733
 20
30.4109190252
 30
0.0
 10
26.2341276135
 20
30.1150217333
 30
0.0
 10
26.1106279296
 20
29.7039155149
 30
0.0
 10
26.0788697313
 20
29.4993985749
 30
0.0
 10
26.0720254768
 20
29.4001591509
 30
0.0
  0
SPLINE
  5
2EF
100
AcDbEntity
  8
0
100
AcDbSpline
 62
7
  6
CONTINUOUS
 70
0
 71
3
 72
12
 73
8
 74
0
 42
0.0000001
 43
0.0000001
 44
0.0000000001
 40
0.0
 40
0.0
 40
0.0
 40
0.0
 40
0.2927829954
 40
0.5619260261
 40
0.6846540308
 40
0.7984881614
 40
1.0
 40
1.0
 40
1.0
 40
1.0
 10
25.6476014618
 20
28.8119558547
 30
0.0
 10
25.4899653292
 20
28.5934901471
 30
0.0
 10
25.1535265201
 20
28.1973152345
 30
0.0
 10
24.6628096933
 20
27.7949522748
 30
0.0
 10
24.2560978418
 20
27.5660101717
 30
0.0
 10
23.8818044353
 20
27.4156872296
 30
0.0
 10
23.5871464481
 20
27.3682111575
 30
0.0
 10
23.4020950468
 20
27.3798690171
 30
0.0
  0
SPLINE
  5
2F0
100
AcDbEntity
  8
0
100
AcDbSpline
 62
7
  6
CONTINUOUS
 70
0
 71
3
 72
11
 73
7
 74
0
 42
0.0000001
 43
0.0000001
 44
0.0000000001
 40
0.0
 40
0.0
 40
0.0
 40
0.0
 40
0.2815917265
 40
0.5396977527
 40
0.7767768517
 40
1.0
 40
1.0
 40
1.0
 40
1.0
 10
28.7611976677
 20
85.1617341991
 30
0.0
 10
28.774432013
 20
85.3357247344
 30
0.0
 10
28.8272662317
 20
85.6682000066
 30
0.0
 10
28.9984458721
 20
86.1222595844
 30
0.0
 10
29.2539499438
 20
86.492844294
 30
0.0
 10
29.4794848845
 20
86.6756017716
 30
0.0
 10
29.5992700184
 20
86.7447759248
 30
0.0
  0
SPLINE
  5
2F1
100
AcDbEntity
  8
0
100
AcDbSpline
 62
7
  6
CONTINUOUS
 70
0
 71
3
 72
23
 73
19
 74
0
 42
0.0000001
 43
0.0000001
 44
0.0000000001
 40
0.0
 40
0.0
 40
0.0
 40
0.0
 40
0.0672648263
 40
0.1389290567
 40
0.213623518
 40
0.2898105048
 40
0.3657007544
 40
0.4395258364
 40
0.5096481446
 40
0.5747646064
 40
0.6341215823
 40
0.6877729687
 40
0.736844547
 40
0.7836124099
 40
0.8310688523
 40
0.8819594925
 40
0.9380832191
 40
1.0
 40
1.0
 40
1.0
 40
1.0
 10
28.0538824865
 20
85.5290330744
 30
0.0
 10
28.0369338265
 20
85.2873379081
 30
0.0
 10
28.0482371271
 20
84.7843956804
 30
0.0
 10
28.1781845253
 20
84.0237123407
 30
0.0
 10
28.4174708545
 20
83.2562647019
 30
0.0
 10
28.7564325571
 20
82.5108627211
 30
0.0
 10
29.1813946644
 20
81.814575078
 30
0.0
 10
29.6756706289
 20
81.1931720892
 30
0.0
 10
30.2201899126
 20
80.6694323869
 30
0.0
 10
30.7946945187
 20
80.2625702039
 30
0.0
 10
31.3790107615
 20
79.9879196082
 30
0.0
 10
31.9538655862
 20
79.8576379434
 30
0.0
 10
32.4995599557
 20
79.8821979634
 30
0.0
 10
32.9910867187
 20
80.0678956052
 30
0.0
 10
33.400850334
 20
80.4063830247
 30
0.0
 10
33.7112396201
 20
80.876324458
 30
0.0
 10
33.9164444252
 20
81.4540089627
 30
0.0
 10
33.9789544911
 20
81.8772663984
 30
0.0
 10
33.9936061912
 20
82.099809574
 30
0.0
  0
SPLINE
  5
2F2
100
AcDbEntity
  8
0
100
AcDbSpline
 62
7
  6
CONTINUOUS
 70
0
 71
3
 72
20
 73
16
 74
0
 42
0.0000001
 43
0.0000001
 44
0.0000000001
 40
0.0
 40
0.0
 40
0.0
 40
0.0
 40
0.0391548195
 40
0.0810972448
 40
0.1274154184
 40
0.1789496026
 40
0.2359282481
 40
0.2980955834
 40
0.4351660436
 40
0.5829035722
 40
0.7321178871
 40
0.8044107886
 40
0.8737328093
 40
0.9392196291
 40
1.0
 40
1.0
 40
1.0
 40
1.0
 10
38.7603509377
 20
13.4313826292
 30
0.0
 10
38.6882266144
 20
13.3897295534
 30
0.0
 10
38.5252863274
 20
13.3254172589
 30
0.0
 10
38.2534014595
 20
13.2953228922
 30
0.0
 10
37.9558771111
 20
13.3280307532
 30
0.0
 10
37.6386159794
 20
13.4213290162
 30
0.0
 10
37.3074843434
 20
13.5726991382
 30
0.0
 10
36.8412691115
 20
13.8569024004
 30
0.0
 10
36.2740363645
 20
14.3361582096
 30
0.0
 10
35.6700368967
 20
15.0385398767
 30
0.0
 10
35.2501574975
 20
15.7064146746
 30
0.0
 10
34.985236374
 20
16.2660910727
 30
0.0
 10
34.8312390885
 20
16.6795218974
 30
0.0
 10
34.7240931178
 20
17.0822071686
 30
0.0
 10
34.6830316927
 20
17.3483722385
 30
0.0
 10
34.6716858691
 20
17.4771621953
 30
0.0
  0
SPLINE
  5
2F3
100
AcDbEntity
  8
0
100
AcDbSpline
 62
7
  6
CONTINUOUS
 70
0
 71
3
 72
21
 73
17
 74
0
 42
0.0000001
 43
0.0000001
 44
0.0000000001
 40
0.0
 40
0.0
 40
0.0
 40
0.0
 40
0.0649980849
 40
0.1336220725
 40
0.2781233544
 40
0.4261652603
 40
0.5689732705
 40
0.6359770776
 40
0.6989377084
 40
0.757425069
 40
0.7849851235
 40
0.8114565004
 40
0.8613955984
 40
0.9083577977
 40
0.9539340936
 40
1.0
 40
1.0
 40
1.0
 40
1.0
 10
28.1962345245
 20
85.1889158621
 30
0.0
 10
28.1847555803
 20
85.0222199339
 30
0.0
 10
28.1858870738
 20
84.6775331006
 30
0.0
 10
28.2742055057
 20
83.9667619195
 30
0.0
 10
28.5415843082
 20
83.0698765636
 30
0.0
 10
29.064380905
 20
82.0733759756
 30
0.0
 10
29.6448918425
 20
81.3502212139
 30
0.0
 10
30.170613481
 20
80.8839779797
 30
0.0
 10
30.5712944902
 20
80.6092395956
 30
0.0
 10
30.9162266319
 20
80.4387768083
 30
0.0
 10
31.1901367411
 20
80.3446848392
 30
0.0
 10
31.450006296
 20
80.2809950188
 30
0.0
 10
31.768255508
 20
80.2506778242
 30
0.0
 10
32.1348187444
 20
80.3002559147
 30
0.0
 10
32.4680539449
 20
80.43697147
 30
0.0
 10
32.6581029632
 20
80.5810513994
 30
0.0
 10
32.7433799634
 20
80.6632191154
 30
0.0
  0
SPLINE
  5
2F4
100
AcDbEntity
  8
0
100
AcDbSpline
 62
7
  6
CONTINUOUS
 70
0
 71
3
 72
11
 73
7
 74
0
 42
0.0000001
 43
0.0000001
 44
0.0000000001
 40
0.0
 40
0.0
 40
0.0
 40
0.0
 40
0.2222550984
 40
0.4611549637
 40
0.7202804455
 40
1.0
 40
1.0
 40
1.0
 40
1.0
 10
32.7433799634
 20
80.6632191154
 30
0.0
 10
32.8339801005
 20
80.7505158814
 30
0.0
 10
32.9996895634
 20
80.9557694106
 30
0.0
 10
33.1832383392
 20
81.322619077
 30
0.0
 10
33.3072944094
 20
81.7470890211
 30
0.0
 10
33.3476544782
 20
82.0506281772
 30
0.0
 10
33.3583984012
 20
82.2086064318
 30
0.0
  0
SPLINE
  5
2F5
100
AcDbEntity
  8
0
100
AcDbSpline
 62
7
  6
CONTINUOUS
 70
0
 71
3
 72
11
 73
7
 74
0
 42
0.0000001
 43
0.0000001
 44
0.0000000001
 40
0.0
 40
0.0
 40
0.0
 40
0.0
 40
0.279639401
 40
0.5386963856
 40
0.7776563652
 40
1.0
 40
1.0
 40
1.0
 40
1.0
 10
33.4096715192
 20
82.1753844854
 30
0.0
 10
33.3991211907
 20
82.0151969983
 30
0.0
 10
33.3583894066
 20
81.7073995429
 30
0.0
 10
33.233002807
 20
81.2769129792
 30
0.0
 10
33.0481396747
 20
80.9042563831
 30
0.0
 10
32.8811565781
 20
80.6951892262
 30
0.0
 10
32.7897953957
 20
80.6060505271
 30
0.0
  0
SPLINE
  5
2F6
100
AcDbEntity
  8
0
100
AcDbSpline
 62
7
  6
CONTINUOUS
 70
0
 71
3
 72
21
 73
17
 74
0
 42
0.0000001
 43
0.0000001
 44
0.0000000001
 40
0.0
 40
0.0
 40
0.0
 40
0.0
 40
0.0461060015
 40
0.0916786903
 40
0.1386048546
 40
0.1884872284
 40
0.2149280342
 40
0.2424581889
 40
0.300893444
 40
0.363817383
 40
0.4308025482
 40
0.5736243184
 40
0.7217362674
 40
0.8663215034
 40
0.9349860763
 40
1.0
 40
1.0
 40
1.0
 40
1.0
 10
32.7897953957
 20
80.6060505271
 30
0.0
 10
32.7031699884
 20
80.5215323989
 30
0.0
 10
32.5099321647
 20
80.3731535838
 30
0.0
 10
32.1704183052
 20
80.2316804743
 30
0.0
 10
31.7966105285
 20
80.1792307766
 30
0.0
 10
31.4718230138
 20
80.2088046719
 30
0.0
 10
31.2065373432
 20
80.2728246334
 30
0.0
 10
30.9268211241
 20
80.3679215165
 30
0.0
 10
30.5744266778
 20
80.5409330707
 30
0.0
 10
30.164930183
 20
80.8204564154
 30
0.0
 10
29.6273622836
 20
81.295537452
 30
0.0
 10
29.0334546483
 20
82.0332710748
 30
0.0
 10
28.4981248735
 20
83.0505475557
 30
0.0
 10
28.2243951194
 20
83.966716603
 30
0.0
 10
28.1337349425
 20
84.6927926378
 30
0.0
 10
28.1325540212
 20
85.0449304563
 30
0.0
 10
28.1444877829
 20
85.2151709637
 30
0.0
  0
SPLINE
  5
2F7
100
AcDbEntity
  8
0
100
AcDbSpline
 62
7
  6
CONTINUOUS
 70
0
 71
3
 72
23
 73
19
 74
0
 42
0.0000001
 43
0.0000001
 44
0.0000000001
 40
0.0
 40
0.0
 40
0.0
 40
0.0
 40
0.0669137382
 40
0.1383160913
 40
0.2126746382
 40
0.2883592217
 40
0.3635656133
 40
0.4365868179
 40
0.5059092113
 40
0.5704053253
 40
0.6295210533
 40
0.6834784801
 40
0.733442581
 40
0.7814909129
 40
0.8302086837
 40
0.8819524111
 40
0.9383466747
 40
1.0
 40
1.0
 40
1.0
 40
1.0
 10
40.005474855
 20
78.6508592422
 30
0.0
 10
40.0225503668
 20
78.8932951684
 30
0.0
 10
40.013469023
 20
79.3979734037
 30
0.0
 10
39.8930876637
 20
80.1629959774
 30
0.0
 10
39.6681659277
 20
80.9374103054
 30
0.0
 10
39.3460715395
 20
81.6915912075
 30
0.0
 10
38.9378041656
 20
82.3973436616
 30
0.0
 10
38.4572994321
 20
83.0275197796
 30
0.0
 10
37.9213122072
 20
83.5578367978
 30
0.0
 10
37.3487228891
 20
83.9677416615
 30
0.0
 10
36.7595491075
 20
84.2409612528
 30
0.0
 10
36.1743881259
 20
84.3650844128
 30
0.0
 10
35.6156575638
 20
84.3310168942
 30
0.0
 10
35.1101976584
 20
84.135914566
 30
0.0
 10
34.6855164505
 20
83.7898799402
 30
0.0
 10
34.3609473302
 20
83.3133737401
 30
0.0
 10
34.1456481943
 20
82.7303054353
 30
0.0
 10
34.0804635229
 20
82.3035291599
 30
0.0
 10
34.0657511471
 20
82.0800827444
 30
0.0
  0
SPLINE
  5
2F8
100
AcDbEntity
  8
0
100
AcDbSpline
 62
7
  6
CONTINUOUS
 70
0
 71
3
 72
10
 73
6
 74
0
 42
0.0000001
 43
0.0000001
 44
0.0000000001
 40
0.0
 40
0.0
 40
0.0
 40
0.0
 40
0.2786768134
 40
0.5379336619
 40
1.0
 40
1.0
 40
1.0
 40
1.0
 10
36.309385148
 20
18.925614235
 30
0.0
 10
36.2154670185
 20
18.9728099661
 30
0.0
 10
36.0294855753
 20
19.0553369378
 30
0.0
 10
35.6696119274
 20
19.1687555016
 30
0.0
 10
35.3938482771
 20
19.2008681592
 30
0.0
 10
35.2199987476
 20
19.188633303
 30
0.0
  0
SPLINE
  5
2F9
100
AcDbEntity
  8
0
100
AcDbSpline
 62
7
  6
CONTINUOUS
 70
0
 71
3
 72
15
 73
11
 74
0
 42
0.0000001
 43
0.0000001
 44
0.0000000001
 40
0.0
 40
0.0
 40
0.0
 40
0.0
 40
0.1169198108
 40
0.2281775822
 40
0.3381522038
 40
0.4514047422
 40
0.5719232612
 40
0.7026395139
 40
0.8452344508
 40
1.0
 40
1.0
 40
1.0
 40
1.0
 10
35.2199987476
 20
19.188633303
 30
0.0
 10
35.1297392689
 20
19.1822811907
 30
0.0
 10
34.9540354809
 20
19.1523641684
 30
0.0
 10
34.7109135208
 20
19.0489659215
 30
0.0
 10
34.5028952695
 20
18.8904263874
 30
0.0
 10
34.3349135898
 20
18.6810417373
 30
0.0
 10
34.2100148436
 20
18.4259388089
 30
0.0
 10
34.1290693632
 20
18.1305500834
 30
0.0
 10
34.0925441937
 20
17.8001795979
 30
0.0
 10
34.0975865542
 20
17.5694422674
 30
0.0
 10
34.1068005944
 20
17.4500261677
 30
0.0
  0
SPLINE
  5
2FA
100
AcDbEntity
  8
0
100
AcDbSpline
 62
7
  6
CONTINUOUS
 70
0
 71
3
 72
23
 73
19
 74
0
 42
0.0000001
 43
0.0000001
 44
0.0000000001
 40
0.0
 40
0.0
 40
0.0
 40
0.0
 40
0.0672657813
 40
0.1389292687
 40
0.213621534
 40
0.2898052097
 40
0.3656914235
 40
0.439512166
 40
0.5096302953
 40
0.5747432589
 40
0.6340979952
 40
0.6877489937
 40
0.7368224656
 40
0.7835944082
 40
0.831056251
 40
0.8819523271
 40
0.9380804581
 40
1.0
 40
1.0
 40
1.0
 40
1.0
 10
34.0657511471
 20
82.0800827444
 30
0.0
 10
34.0487692237
 20
81.8383735819
 30
0.0
 10
34.060004242
 20
81.3354024061
 30
0.0
 10
34.1898565833
 20
80.5746682701
 30
0.0
 10
34.4290552341
 20
79.807171838
 30
0.0
 10
34.7679408132
 20
79.0617247798
 30
0.0
 10
35.1928416726
 20
78.3653977453
 30
0.0
 10
35.6870739668
 20
77.7439631579
 30
0.0
 10
36.2315689276
 20
77.2202016692
 30
0.0
 10
36.8060695063
 20
76.8133293406
 30
0.0
 10
37.3904019612
 20
76.5386819629
 30
0.0
 10
37.9652914293
 20
76.4084186117
 30
0.0
 10
38.5110336537
 20
76.4330118447
 30
0.0
 10
39.002616792
 20
76.6187505523
 30
0.0
 10
39.4124488889
 20
76.9572797827
 30
0.0
 10
39.7229212831
 20
77.4272658196
 30
0.0
 10
39.9282188856
 20
78.0049992586
 30
0.0
 10
39.990792143
 20
78.4282962884
 30
0.0
 10
40.005474855
 20
78.6508592422
 30
0.0
  0
SPLINE
  5
2FB
100
AcDbEntity
  8
0
100
AcDbSpline
 62
7
  6
CONTINUOUS
 70
0
 71
3
 72
18
 73
14
 74
0
 42
0.0000001
 43
0.0000001
 44
0.0000000001
 40
0.0
 40
0.0
 40
0.0
 40
0.0
 40
0.1413974488
 40
0.2698470869
 40
0.3298305116
 40
0.3875357418
 40
0.4436160614
 40
0.4988544036
 40
0.5541211136
 40
0.6102949183
 40
0.7281200942
 40
0.8573814796
 40
1.0
 40
1.0
 40
1.0
 40
1.0
 10
28.1444877829
 20
85.2151709637
 30
0.0
 10
28.1583998733
 20
85.4268271819
 30
0.0
 10
28.2217974468
 20
85.8296652672
 30
0.0
 10
28.4045296294
 20
86.2951635118
 30
0.0
 10
28.6070173438
 20
86.6053063226
 30
0.0
 10
28.7805710202
 20
86.801157528
 30
0.0
 10
28.9770745842
 20
86.9631270088
 30
0.0
 10
29.1943823225
 20
87.0888371386
 30
0.0
 10
29.4297014546
 20
87.1767798624
 30
0.0
 10
29.7686233698
 20
87.2428968765
 30
0.0
 10
30.2303727486
 20
87.220595022
 30
0.0
 10
30.7905810487
 20
87.0354797263
 30
0.0
 10
31.1434004264
 20
86.8246117281
 30
0.0
 10
31.3168299203
 20
86.6993338623
 30
0.0
  0
SPLINE
  5
2FC
100
AcDbEntity
  8
0
100
AcDbSpline
 62
7
  6
CONTINUOUS
 70
0
 71
3
 72
11
 73
7
 74
0
 42
0.0000001
 43
0.0000001
 44
0.0000000001
 40
0.0
 40
0.0
 40
0.0
 40
0.0
 40
0.2410024457
 40
0.4969768372
 40
0.7545629974
 40
1.0
 40
1.0
 40
1.0
 40
1.0
 10
31.5487302141
 20
86.5176422868
 30
0.0
 10
31.8130147587
 20
86.2940713338
 30
0.0
 10
32.3008282201
 20
85.7635382665
 30
0.0
 10
32.8660426013
 20
84.8318857918
 30
0.0
 10
33.2564426761
 20
83.8078910992
 30
0.0
 10
33.3853118881
 20
83.091122411
 30
0.0
 10
33.408918413
 20
82.7393789514
 30
0.0
  0
SPLINE
  5
2FD
100
AcDbEntity
  8
0
100
AcDbSpline
 62
7
  6
CONTINUOUS
 70
0
 71
3
 72
17
 73
13
 74
0
 42
0.0000001
 43
0.0000001
 44
0.0000000001
 40
0.0
 40
0.0
 40
0.0
 40
0.0
 40
0.0450624841
 40
0.0911895047
 40
0.1398106383
 40
0.1919258268
 40
0.3080719862
 40
0.4396146876
 40
0.581695046
 40
0.7272772796
 40
0.8688539919
 40
1.0
 40
1.0
 40
1.0
 40
1.0
 10
38.562349991
 20
77.4941570325
 30
0.0
 10
38.4770292462
 20
77.4448874433
 30
0.0
 10
38.2915660415
 20
77.3657319316
 30
0.0
 10
37.9875058707
 20
77.3150783427
 30
0.0
 10
37.6645609957
 20
77.3324968282
 30
0.0
 10
37.202275759
 20
77.4483282421
 30
0.0
 10
36.6174570706
 20
77.7661460906
 30
0.0
 10
35.9836012536
 20
78.3445861447
 30
0.0
 10
35.4378773214
 20
79.087896428
 30
0.0
 10
35.0272140723
 20
79.9376096309
 30
0.0
 10
34.7854269727
 20
80.8251339002
 30
0.0
 10
34.7515047452
 20
81.4268585052
 30
0.0
 10
34.7730675124
 20
81.7127845513
 30
0.0
  0
SPLINE
  5
2FE
100
AcDbEntity
  8
0
100
AcDbSpline
 62
7
  6
CONTINUOUS
 70
0
 71
3
 72
9
 73
5
 74
0
 42
0.0000001
 43
0.0000001
 44
0.0000000001
 40
0.0
 40
0.0
 40
0.0
 40
0.0
 40
0.2444682452
 40
1.0
 40
1.0
 40
1.0
 40
1.0
 10
40.5720748649
 20
9.2486829393
 30
0.0
 10
40.3941294513
 20
10.9620274115
 30
0.0
 10
39.7632367648
 20
17.9803688793
 30
0.0
 10
39.5114191091
 20
25.0315364188
 30
0.0
 10
39.5114191091
 20
30.3551275257
 30
0.0
  0
SPLINE
  5
2FF
100
AcDbEntity
  8
0
100
AcDbSpline
 62
7
  6
CONTINUOUS
 70
0
 71
3
 72
11
 73
7
 74
0
 42
0.0000001
 43
0.0000001
 44
0.0000000001
 40
0.0
 40
0.0
 40
0.0
 40
0.0
 40
0.2266593949
 40
0.4639078978
 40
0.7203032298
 40
1.0
 40
1.0
 40
1.0
 40
1.0
 10
28.5111988765
 20
25.87650177
 30
0.0
 10
28.4849540208
 20
25.8916354083
 30
0.0
 10
28.4353319917
 20
25.9302886802
 30
0.0
 10
28.3768077707
 20
26.0079164265
 30
0.0
 10
28.3347075672
 20
26.1031358959
 30
0.0
 10
28.318531276
 20
26.1733660144
 30
0.0
 10
28.3129606662
 20
26.2103332182
 30
0.0
  0
SPLINE
  5
300
100
AcDbEntity
  8
0
100
AcDbSpline
 62
7
  6
CONTINUOUS
 70
0
 71
3
 72
18
 73
14
 74
0
 42
0.0000001
 43
0.0000001
 44
0.0000000001
 40
0.0
 40
0.0
 40
0.0
 40
0.0
 40
0.1423842559
 40
0.2714640595
 40
0.3891953054
 40
0.4453561962
 40
0.5006369843
 40
0.5559131147
 40
0.6120469009
 40
0.6698145459
 40
0.7298712817
 40
0.8584879967
 40
1.0
 40
1.0
 40
1.0
 40
1.0
 10
31.2911831704
 20
86.6529165666
 30
0.0
 10
31.1215379205
 20
86.7741166007
 30
0.0
 10
30.7766218726
 20
86.9778644659
 30
0.0
 10
30.2296013347
 20
87.1555267525
 30
0.0
 10
29.7792164791
 20
87.1750932943
 30
0.0
 10
29.4488360604
 20
87.1090012101
 30
0.0
 10
29.219481581
 20
87.0220941784
 30
0.0
 10
29.0077360783
 20
86.898456026
 30
0.0
 10
28.8162688711
 20
86.739603576
 30
0.0
 10
28.6471413427
 20
86.547821044
 30
0.0
 10
28.449813284
 20
86.2443559407
 30
0.0
 10
28.2718545362
 20
85.7892430533
 30
0.0
 10
28.2102902717
 20
85.3956534751
 30
0.0
 10
28.1962345245
 20
85.1889158621
 30
0.0
  0
SPLINE
  5
301
100
AcDbEntity
  8
0
100
AcDbSpline
 62
7
  6
CONTINUOUS
 70
0
 71
3
 72
20
 73
16
 74
0
 42
0.0000001
 43
0.0000001
 44
0.0000000001
 40
0.0
 40
0.0
 40
0.0
 40
0.0
 40
0.1600523981
 40
0.300728069
 40
0.3637392567
 40
0.4222026083
 40
0.4768231968
 40
0.5286389148
 40
0.5790131944
 40
0.6294748026
 40
0.6815281107
 40
0.736477104
 40
0.7953280418
 40
0.8587368794
 40
1.0
 40
1.0
 40
1.0
 40
1.0
 10
36.8214292055
 20
13.115492228
 30
0.0
 10
37.0222598434
 20
12.9723544294
 30
0.0
 10
37.4185006773
 20
12.7283320533
 30
0.0
 10
37.9443584995
 20
12.5216347677
 30
0.0
 10
38.3421142245
 20
12.4451574799
 30
0.0
 10
38.6141585369
 20
12.4317841409
 30
0.0
 10
38.8679026033
 20
12.4605682108
 30
0.0
 10
39.1002857013
 20
12.5321030371
 30
0.0
 10
39.3082119804
 20
12.6455960318
 30
0.0
 10
39.4884602067
 20
12.7998463994
 30
0.0
 10
39.6388360909
 20
12.9921476736
 30
0.0
 10
39.7576921829
 20
13.2197875755
 30
0.0
 10
39.8443733383
 20
13.4797855505
 30
0.0
 10
39.9195044552
 20
13.8797518476
 30
0.0
 10
39.9212837371
 20
14.1982432173
 30
0.0
 10
39.9040821025
 20
14.4152305262
 30
0.0
  0
SPLINE
  5
302
100
AcDbEntity
  8
0
100
AcDbSpline
 62
7
  6
CONTINUOUS
 70
0
 71
3
 72
11
 73
7
 74
0
 42
0.0000001
 43
0.0000001
 44
0.0000000001
 40
0.0
 40
0.0
 40
0.0
 40
0.0
 40
0.2287697663
 40
0.4747691557
 40
0.7336532359
 40
1.0
 40
1.0
 40
1.0
 40
1.0
 10
58.4971306426
 20
98.7983279121
 30
0.0
 10
58.3155451544
 20
98.9031639709
 30
0.0
 10
57.9205590543
 20
99.0900352152
 30
0.0
 10
57.2786721008
 20
99.2956153922
 30
0.0
 10
56.5834118673
 20
99.4310200081
 30
0.0
 10
56.1026824807
 20
99.4717028032
 30
0.0
 10
55.8586923776
 20
99.4795523935
 30
0.0
  0
LINE
  5
303
100
AcDbEntity
  8
0
100
AcDbLine
 62
7
  6
CONTINUOUS
 10
25.7572954835
 20
45.6789402891
 11
25.7572550816
 21
45.807152352
  0
LINE
  5
304
100
AcDbEntity
  8
0
100
AcDbLine
 62
7
  6
CONTINUOUS
 10
25.7572550816
 20
45.807152352
 11
25.7575867672
 21
46.1747699374
  0
SPLINE
  5
305
100
AcDbEntity
  8
0
100
AcDbSpline
 62
7
  6
CONTINUOUS
 70
0
 71
3
 72
16
 73
12
 74
0
 42
0.0000001
 43
0.0000001
 44
0.0000000001
 40
0.0
 40
0.0
 40
0.0
 40
0.0
 40
0.1541987958
 40
0.3053952573
 40
0.4495283378
 40
0.5833619535
 40
0.7046456326
 40
0.8128101134
 40
0.9096108821
 40
0.9552686683
 40
1.0
 40
1.0
 40
1.0
 40
1.0
 10
55.8586923776
 20
99.4795523935
 30
0.0
 10
55.5850808106
 20
99.4883549582
 30
0.0
 10
55.0416325877
 20
99.4740856875
 30
0.0
 10
54.2499753123
 20
99.359434131
 30
0.0
 10
53.5134474068
 20
99.1557980984
 30
0.0
 10
52.8612191169
 20
98.8713624913
 30
0.0
 10
52.3185401445
 20
98.5159169146
 30
0.0
 10
51.9066359389
 20
98.1015520161
 30
0.0
 10
51.6842324712
 20
97.7075273716
 30
0.0
 10
51.5977921906
 20
97.3851635081
 30
0.0
 10
51.583432307
 20
97.2243514897
 30
0.0
 10
51.5833983785
 20
97.1449388018
 30
0.0
  0
SPLINE
  5
306
100
AcDbEntity
  8
0
100
AcDbSpline
 62
7
  6
CONTINUOUS
 70
0
 71
3
 72
11
 73
7
 74
0
 42
0.0000001
 43
0.0000001
 44
0.0000000001
 40
0.0
 40
0.0
 40
0.0
 40
0.0
 40
0.2420900496
 40
0.5048669739
 40
0.765020961
 40
1.0
 40
1.0
 40
1.0
 40
1.0
 10
26.2557299447
 20
60.3271980157
 30
0.0
 10
26.2633264741
 20
60.439852986
 30
0.0
 10
26.3156485663
 20
60.6726226427
 30
0.0
 10
26.4697350249
 20
60.9971125999
 30
0.0
 10
26.6849425702
 20
61.2805659956
 30
0.0
 10
26.8656128969
 20
61.4298785697
 30
0.0
 10
26.9605244242
 20
61.4846754384
 30
0.0
  0
SPLINE
  5
307
100
AcDbEntity
  8
0
100
AcDbSpline
 62
7
  6
CONTINUOUS
 70
0
 71
3
 72
9
 73
5
 74
0
 42
0.0000001
 43
0.0000001
 44
0.0000000001
 40
0.0
 40
0.0
 40
0.0
 40
0.0
 40
0.477250758
 40
1.0
 40
1.0
 40
1.0
 40
1.0
 10
25.5473017489
 20
46.2166630336
 30
0.0
 10
25.5473017489
 20
46.2481027975
 30
0.0
 10
25.5628337574
 20
46.3138531065
 30
0.0
 10
25.5961852379
 20
46.3717489437
 30
0.0
 10
25.6177616046
 20
46.3985886803
 30
0.0
  0
SPLINE
  5
308
100
AcDbEntity
  8
0
100
AcDbSpline
 62
7
  6
CONTINUOUS
 70
0
 71
3
 72
9
 73
5
 74
0
 42
0.0000001
 43
0.0000001
 44
0.0000000001
 40
0.0
 40
0.0
 40
0.0
 40
0.0
 40
0.2669305169
 40
1.0
 40
1.0
 40
1.0
 40
1.0
 10
25.6177616046
 20
46.3985886803
 30
0.0
 10
25.6230680024
 20
46.4051895285
 30
0.0
 10
25.6439235355
 20
46.4290717852
 30
0.0
 10
25.6685794426
 20
46.4499828082
 30
0.0
 10
25.6887225164
 20
46.4616123478
 30
0.0
  0
SPLINE
  5
309
100
AcDbEntity
  8
0
100
AcDbSpline
 62
7
  6
CONTINUOUS
 70
0
 71
3
 72
9
 73
5
 74
0
 42
0.0000001
 43
0.0000001
 44
0.0000000001
 40
0.0
 40
0.0
 40
0.0
 40
0.0
 40
0.2465558065
 40
1.0
 40
1.0
 40
1.0
 40
1.0
 10
25.7584385064
 20
46.5018626532
 30
0.0
 10
25.7623086899
 20
47.6389395996
 30
0.0
 10
25.8164333309
 20
52.2505966418
 30
0.0
 10
26.0219496254
 20
56.8602838919
 30
0.0
 10
26.2557299447
 20
60.3271980157
 30
0.0
  0
SPLINE
  5
30A
100
AcDbEntity
  8
0
100
AcDbSpline
 62
7
  6
CONTINUOUS
 70
0
 71
3
 72
10
 73
6
 74
0
 42
0.0000001
 43
0.0000001
 44
0.0000000001
 40
0.0
 40
0.0
 40
0.0
 40
0.0
 40
0.2786768135
 40
0.5379336621
 40
1.0
 40
1.0
 40
1.0
 40
1.0
 10
30.2989524843
 20
22.3956606484
 30
0.0
 10
30.2050343547
 20
22.4428563795
 30
0.0
 10
30.0190529116
 20
22.5253833513
 30
0.0
 10
29.6591792637
 20
22.638801915
 30
0.0
 10
29.3834156134
 20
22.6709145725
 30
0.0
 10
29.209566084
 20
22.6586797164
 30
0.0
  0
SPLINE
  5
30B
100
AcDbEntity
  8
0
100
AcDbSpline
 62
7
  6
CONTINUOUS
 70
0
 71
3
 72
15
 73
11
 74
0
 42
0.0000001
 43
0.0000001
 44
0.0000000001
 40
0.0
 40
0.0
 40
0.0
 40
0.0
 40
0.1169198112
 40
0.2281775827
 40
0.338152204
 40
0.4514047426
 40
0.5719232614
 40
0.7026395147
 40
0.8452344587
 40
1.0
 40
1.0
 40
1.0
 40
1.0
 10
29.209566084
 20
22.6586797164
 30
0.0
 10
29.1193066052
 20
22.6523276041
 30
0.0
 10
28.943602817
 20
22.6224105819
 30
0.0
 10
28.7004808564
 20
22.5190123361
 30
0.0
 10
28.492462607
 20
22.3604727993
 30
0.0
 10
28.3244809304
 20
22.1510881486
 30
0.0
 10
28.1995821698
 20
21.895985228
 30
0.0
 10
28.1186366852
 20
21.6005964947
 30
0.0
 10
28.082111576
 20
21.2702260023
 30
0.0
 10
28.0871539251
 20
21.0394886772
 30
0.0
 10
28.0963679306
 20
20.9200725811
 30
0.0
  0
SPLINE
  5
30C
100
AcDbEntity
  8
0
100
AcDbSpline
 62
7
  6
CONTINUOUS
 70
0
 71
3
 72
20
 73
16
 74
0
 42
0.0000001
 43
0.0000001
 44
0.0000000001
 40
0.0
 40
0.0
 40
0.0
 40
0.0
 40
0.0391548195
 40
0.0810972448
 40
0.1274154185
 40
0.1789496027
 40
0.2359282482
 40
0.2980955835
 40
0.4351660438
 40
0.5829035725
 40
0.7321178875
 40
0.8044107887
 40
0.8737328096
 40
0.9392196323
 40
1.0
 40
1.0
 40
1.0
 40
1.0
 10
32.7499182739
 20
16.9014290426
 30
0.0
 10
32.6777939506
 20
16.8597759668
 30
0.0
 10
32.5148536636
 20
16.7954636724
 30
0.0
 10
32.2429687958
 20
16.7653693056
 30
0.0
 10
31.9454444473
 20
16.7980771667
 30
0.0
 10
31.6281833157
 20
16.8913754296
 30
0.0
 10
31.2970516796
 20
17.0427455516
 30
0.0
 10
30.8308364476
 20
17.3269488136
 30
0.0
 10
30.2636037022
 20
17.8062046241
 30
0.0
 10
29.6596042281
 20
18.5085862871
 30
0.0
 10
29.2397248441
 20
19.1764610931
 30
0.0
 10
28.9748037018
 20
19.7361374806
 30
0.0
 10
28.8208064012
 20
20.1495683077
 30
0.0
 10
28.7136605059
 20
20.5522536007
 30
0.0
 10
28.6725990802
 20
20.8184186632
 30
0.0
 10
28.6612532054
 20
20.9472086087
 30
0.0
  0
SPLINE
  5
30D
100
AcDbEntity
  8
0
100
AcDbSpline
 62
7
  6
CONTINUOUS
 70
0
 71
3
 72
9
 73
5
 74
0
 42
0.0000001
 43
0.0000001
 44
0.0000000001
 40
0.0
 40
0.0
 40
0.0
 40
0.0
 40
0.2447456881
 40
1.0
 40
1.0
 40
1.0
 40
1.0
 10
39.8649710277
 20
68.9350166861
 30
0.0
 10
39.8702870406
 20
70.1757565337
 30
0.0
 10
39.9582410302
 20
75.2448551383
 30
0.0
 10
40.3047050727
 20
80.3087130034
 30
0.0
 10
40.6956648909
 20
84.1175019603
 30
0.0
  0
SPLINE
  5
30E
100
AcDbEntity
  8
0
100
AcDbSpline
 62
7
  6
CONTINUOUS
 70
0
 71
3
 72
18
 73
14
 74
0
 42
0.0000001
 43
0.0000001
 44
0.0000000001
 40
0.0
 40
0.0
 40
0.0
 40
0.0
 40
0.1423789485
 40
0.2714563503
 40
0.3891879766
 40
0.4453499837
 40
0.500632326
 40
0.5559102791
 40
0.612045934
 40
0.6698152704
 40
0.7298732867
 40
0.8584906505
 40
1.0
 40
1.0
 40
1.0
 40
1.0
 10
37.3039100088
 20
83.2039703569
 30
0.0
 10
37.1342546549
 20
83.3252190708
 30
0.0
 10
36.7893046418
 20
83.5290559121
 30
0.0
 10
36.2421994557
 20
83.7068213171
 30
0.0
 10
35.7917219444
 20
83.7264404094
 30
0.0
 10
35.4612598791
 20
83.660368951
 30
0.0
 10
35.2318409981
 20
83.5734663078
 30
0.0
 10
35.0200295552
 20
83.449822685
 30
0.0
 10
34.8284958723
 20
83.2909553472
 30
0.0
 10
34.6593024213
 20
83.0991491552
 30
0.0
 10
34.4618874348
 20
82.7956426153
 30
0.0
 10
34.2838256263
 20
82.3404598108
 30
0.0
 10
34.2221934572
 20
81.9467978767
 30
0.0
 10
34.2081074927
 20
81.7400220898
 30
0.0
  0
SPLINE
  5
30F
100
AcDbEntity
  8
0
100
AcDbSpline
 62
7
  6
CONTINUOUS
 70
0
 71
3
 72
20
 73
16
 74
0
 42
0.0000001
 43
0.0000001
 44
0.0000000001
 40
0.0
 40
0.0
 40
0.0
 40
0.0
 40
0.1600523981
 40
0.300728069
 40
0.3637392567
 40
0.4222026083
 40
0.4768231968
 40
0.5286389148
 40
0.5790131944
 40
0.6294748025
 40
0.6815281106
 40
0.7364771039
 40
0.7953280415
 40
0.8587368798
 40
1.0
 40
1.0
 40
1.0
 40
1.0
 10
30.8109965417
 20
16.5855386414
 30
0.0
 10
31.0118271797
 20
16.4424008428
 30
0.0
 10
31.4080680136
 20
16.1983784668
 30
0.0
 10
31.9339258358
 20
15.9916811811
 30
0.0
 10
32.3316815607
 20
15.9152038933
 30
0.0
 10
32.6037258731
 20
15.9018305544
 30
0.0
 10
32.8574699396
 20
15.9306146243
 30
0.0
 10
33.0898530378
 20
16.0021494502
 30
0.0
 10
33.2977793169
 20
16.115642445
 30
0.0
 10
33.4780275421
 20
16.2698928135
 30
0.0
 10
33.6284034256
 20
16.4621940879
 30
0.0
 10
33.7472595211
 20
16.6898339874
 30
0.0
 10
33.8339406814
 20
16.9498319619
 30
0.0
 10
33.9090717846
 20
17.3497982632
 30
0.0
 10
33.9108510495
 20
17.6682896294
 30
0.0
 10
33.8936494388
 20
17.8852769397
 30
0.0
  0
SPLINE
  5
310
100
AcDbEntity
  8
0
100
AcDbSpline
 62
7
  6
CONTINUOUS
 70
0
 71
3
 72
12
 73
8
 74
0
 42
0.0000001
 43
0.0000001
 44
0.0000000001
 40
0.0
 40
0.0
 40
0.0
 40
0.0
 40
0.2957148276
 40
0.5553847319
 40
0.7850052861
 40
0.8932423526
 40
1.0
 40
1.0
 40
1.0
 40
1.0
 10
34.6716866611
 20
17.4771626525
 30
0.0
 10
34.658175711
 20
17.6322871869
 30
0.0
 10
34.6557461913
 20
17.9267610711
 30
0.0
 10
34.7415944111
 20
18.3351156343
 30
0.0
 10
34.8940858044
 20
18.6173800987
 30
0.0
 10
35.0574598386
 20
18.7867054773
 30
0.0
 10
35.1503973013
 20
18.8527215871
 30
0.0
 10
35.1990775215
 20
18.8808337352
 30
0.0
  0
SPLINE
  5
311
100
AcDbEntity
  8
0
100
AcDbSpline
 62
7
  6
CONTINUOUS
 70
0
 71
3
 72
17
 73
13
 74
0
 42
0.0000001
 43
0.0000001
 44
0.0000000001
 40
0.0
 40
0.0
 40
0.0
 40
0.0
 40
0.0450567379
 40
0.0911795867
 40
0.1397983282
 40
0.1919127958
 40
0.3080613987
 40
0.4396092869
 40
0.5816951608
 40
0.7272812406
 40
0.8688583784
 40
1.0
 40
1.0
 40
1.0
 40
1.0
 10
32.5507853866
 20
80.9432829087
 30
0.0
 10
32.465478326
 20
80.8940212231
 30
0.0
 10
32.2800389211
 20
80.8148809655
 30
0.0
 10
31.9760126847
 20
80.7642486728
 30
0.0
 10
31.6530955128
 20
80.7816828919
 30
0.0
 10
31.1908320458
 20
80.8975286549
 30
0.0
 10
30.6060241945
 20
81.2153457778
 30
0.0
 10
29.9721442473
 20
81.7937562564
 30
0.0
 10
29.4263572515
 20
82.537019718
 30
0.0
 10
29.0155985021
 20
83.3866743779
 30
0.0
 10
28.7736932891
 20
84.2741335519
 30
0.0
 10
28.7396793106
 20
84.8758243323
 30
0.0
 10
28.7611983619
 20
85.1617345999
 30
0.0
  0
SPLINE
  5
312
100
AcDbEntity
  8
0
100
AcDbSpline
 62
7
  6
CONTINUOUS
 70
0
 71
3
 72
10
 73
6
 74
0
 42
0.0000001
 43
0.0000001
 44
0.0000000001
 40
0.0
 40
0.0
 40
0.0
 40
0.0
 40
0.2183812606
 40
0.4531011546
 40
1.0
 40
1.0
 40
1.0
 40
1.0
 10
25.5887149803
 20
46.1250898207
 30
0.0
 10
25.5821206873
 20
46.1288969469
 30
0.0
 10
25.569733974
 20
46.139286126
 30
0.0
 10
25.5515022342
 20
46.169524405
 30
0.0
 10
25.5473017489
 20
46.1975940888
 30
0.0
 10
25.5473017489
 20
46.2166630336
 30
0.0
  0
SPLINE
  5
313
100
AcDbEntity
  8
0
100
AcDbSpline
 62
7
  6
CONTINUOUS
 70
0
 71
3
 72
9
 73
5
 74
0
 42
0.0000001
 43
0.0000001
 44
0.0000000001
 40
0.0
 40
0.0
 40
0.0
 40
0.0
 40
0.2425407198
 40
1.0
 40
1.0
 40
1.0
 40
1.0
 10
34.1068005944
 20
17.4500261677
 30
0.0
 10
34.1093622911
 20
17.4164330319
 30
0.0
 10
34.1221290851
 20
17.2780995561
 30
0.0
 10
34.143292196
 20
17.1405848941
 30
0.0
 10
34.1632261355
 20
17.0372738597
 30
0.0
  0
SPLINE
  5
314
100
AcDbEntity
  8
0
100
AcDbSpline
 62
7
  6
CONTINUOUS
 70
0
 71
3
 72
12
 73
8
 74
0
 42
0.0000001
 43
0.0000001
 44
0.0000000001
 40
0.0
 40
0.0
 40
0.0
 40
0.0
 40
0.242104722
 40
0.5006357302
 40
0.7588774315
 40
0.882600194
 40
1.0
 40
1.0
 40
1.0
 40
1.0
 10
34.2247534958
 20
16.7657713717
 30
0.0
 10
34.3111278603
 20
16.4327442112
 30
0.0
 10
34.5641803252
 20
15.7625000212
 30
0.0
 10
35.1094303099
 20
14.8275771708
 30
0.0
 10
35.6866826746
 20
14.118058715
 30
0.0
 10
36.2014393129
 20
13.6285461913
 30
0.0
 10
36.4709494593
 20
13.4158475846
 30
0.0
 10
36.6072823996
 20
13.3196893703
 30
0.0
  0
SPLINE
  5
315
100
AcDbEntity
  8
0
100
AcDbSpline
 62
7
  6
CONTINUOUS
 70
0
 71
3
 72
19
 73
15
 74
0
 42
0.0000001
 43
0.0000001
 44
0.0000000001
 40
0.0
 40
0.0
 40
0.0
 40
0.0
 40
0.1568471738
 40
0.2285259848
 40
0.2956456498
 40
0.4169556813
 40
0.4725278709
 40
0.5257749529
 40
0.5778400813
 40
0.6299669018
 40
0.6833823757
 40
0.7391815363
 40
0.8610151892
 40
1.0
 40
1.0
 40
1.0
 40
1.0
 10
36.8573814404
 20
13.1557306505
 30
0.0
 10
37.0121996048
 20
13.0619363508
 30
0.0
 10
37.2476510067
 20
12.9398132777
 30
0.0
 10
37.5697306809
 20
12.8255827056
 30
0.0
 10
37.8615811166
 20
12.7543199215
 30
0.0
 10
38.146523997
 20
12.7342172322
 30
0.0
 10
38.4096748396
 20
12.7772434657
 30
0.0
 10
38.5862019656
 20
12.8378093993
 30
0.0
 10
38.7457027595
 20
12.9269151027
 30
0.0
 10
38.8863692984
 20
13.0438058166
 30
0.0
 10
39.00689287
 20
13.1869485937
 30
0.0
 10
39.1432007926
 20
13.4173720468
 30
0.0
 10
39.2544308177
 20
13.7703190454
 30
0.0
 10
39.2785544452
 20
14.0723843542
 30
0.0
 10
39.2784156873
 20
14.2327836375
 30
0.0
  0
SPLINE
  5
316
100
AcDbEntity
  8
0
100
AcDbSpline
 62
7
  6
CONTINUOUS
 70
0
 71
3
 72
19
 73
15
 74
0
 42
0.0000001
 43
0.0000001
 44
0.0000000001
 40
0.0
 40
0.0
 40
0.0
 40
0.0
 40
0.1352311678
 40
0.1961337167
 40
0.2530584408
 40
0.3067891006
 40
0.3583987923
 40
0.409169723
 40
0.4605021782
 40
0.5137388221
 40
0.5700290808
 40
0.6946148502
 40
0.838050199
 40
1.0
 40
1.0
 40
1.0
 40
1.0
 10
39.3301685422
 20
14.2011363486
 30
0.0
 10
39.3303907719
 20
14.0271858278
 30
0.0
 10
39.3085098842
 20
13.7731179606
 30
0.0
 10
39.2198482619
 20
13.4590690822
 30
0.0
 10
39.1299299376
 20
13.2565626819
 30
0.0
 10
39.0145293752
 20
13.0813930697
 30
0.0
 10
38.874765774
 20
12.935542179
 30
0.0
 10
38.7119086795
 20
12.8211830721
 30
0.0
 10
38.5280789066
 20
12.7397990854
 30
0.0
 10
38.3255772823
 20
12.6922017829
 30
0.0
 10
38.0237814012
 20
12.6736081072
 30
0.0
 10
37.6071788018
 20
12.7438609687
 30
0.0
 10
37.0923482689
 20
12.9537618904
 30
0.0
 10
36.7568510234
 20
13.1615002094
 30
0.0
 10
36.5872099324
 20
13.282408733
 30
0.0
  0
SPLINE
  5
317
100
AcDbEntity
  8
0
100
AcDbSpline
 62
7
  6
CONTINUOUS
 70
0
 71
3
 72
15
 73
11
 74
0
 42
0.0000001
 43
0.0000001
 44
0.0000000001
 40
0.0
 40
0.0
 40
0.0
 40
0.0
 40
0.1548030197
 40
0.2971624524
 40
0.4275398571
 40
0.5476966483
 40
0.6606915136
 40
0.7706494503
 40
0.8822727038
 40
1.0
 40
1.0
 40
1.0
 40
1.0
 10
34.0550358268
 20
17.4831011985
 30
0.0
 10
34.0452560441
 20
17.6064741463
 30
0.0
 10
34.0400558357
 20
17.8447304656
 30
0.0
 10
34.0789342525
 20
18.185492415
 30
0.0
 10
34.1639847268
 20
18.4895189458
 30
0.0
 10
34.2950719612
 20
18.7512621076
 30
0.0
 10
34.4711820788
 20
18.9649425097
 30
0.0
 10
34.6891141304
 20
19.1249316829
 30
0.0
 10
34.9433360677
 20
19.2268812776
 30
0.0
 10
35.1264043338
 20
19.2539934191
 30
0.0
 10
35.2204079208
 20
19.2586556708
 30
0.0
  0
SPLINE
  5
318
100
AcDbEntity
  8
0
100
AcDbSpline
 62
7
  6
CONTINUOUS
 70
0
 71
3
 72
9
 73
5
 74
0
 42
0.0000001
 43
0.0000001
 44
0.0000000001
 40
0.0
 40
0.0
 40
0.0
 40
0.0
 40
0.4628914054
 40
1.0
 40
1.0
 40
1.0
 40
1.0
 10
35.2204079208
 20
19.2586556708
 30
0.0
 10
35.3978489438
 20
19.2674561296
 30
0.0
 10
35.7850283334
 20
19.2160005355
 30
0.0
 10
36.1433262667
 20
19.0702291543
 30
0.0
 10
36.3267602032
 20
18.9761690594
 30
0.0
  0
SPLINE
  5
319
100
AcDbEntity
  8
0
100
AcDbSpline
 62
7
  6
CONTINUOUS
 70
0
 71
3
 72
9
 73
5
 74
0
 42
0.0000001
 43
0.0000001
 44
0.0000000001
 40
0.0
 40
0.0
 40
0.0
 40
0.0
 40
0.2444063767
 40
1.0
 40
1.0
 40
1.0
 40
1.0
 10
36.3267602032
 20
18.9761690594
 30
0.0
 10
36.3511749986
 20
18.9636497949
 30
0.0
 10
36.45044943
 20
18.9112228219
 30
0.0
 10
36.5472508212
 20
18.8541448767
 30
0.0
 10
36.6189463929
 20
18.8088140248
 30
0.0
  0
SPLINE
  5
31A
100
AcDbEntity
  8
0
100
AcDbSpline
 62
7
  6
CONTINUOUS
 70
0
 71
3
 72
15
 73
11
 74
0
 42
0.0000001
 43
0.0000001
 44
0.0000000001
 40
0.0
 40
0.0
 40
0.0
 40
0.0
 40
0.1166794567
 40
0.241652201
 40
0.372234471
 40
0.5053408822
 40
0.637735851
 40
0.7661618953
 40
0.887743555
 40
1.0
 40
1.0
 40
1.0
 40
1.0
 10
36.6189463929
 20
18.8088140248
 30
0.0
 10
36.7884947707
 20
18.7016139254
 30
0.0
 10
37.1236270763
 20
18.4537294329
 30
0.0
 10
37.590483911
 20
18.0142870137
 30
0.0
 10
38.0268832648
 20
17.5067371572
 30
0.0
 10
38.4184960228
 20
16.9483706211
 30
0.0
 10
38.7528560834
 20
16.3582164542
 30
0.0
 10
39.019408232
 20
15.7559506481
 30
0.0
 10
39.2097562555
 20
15.1617304196
 30
0.0
 10
39.286194472
 20
14.7655699968
 30
0.0
 10
39.3079031539
 20
14.5738034835
 30
0.0
  0
SPLINE
  5
31B
100
AcDbEntity
  8
0
100
AcDbSpline
 62
7
  6
CONTINUOUS
 70
0
 71
3
 72
11
 73
7
 74
0
 42
0.0000001
 43
0.0000001
 44
0.0000000001
 40
0.0
 40
0.0
 40
0.0
 40
0.0
 40
0.2287782243
 40
0.4747727447
 40
0.7336495858
 40
1.0
 40
1.0
 40
1.0
 40
1.0
 10
56.0222171649
 20
104.3095950949
 30
0.0
 10
55.8408360827
 20
104.4143131425
 30
0.0
 10
55.44632638
 20
104.6010027013
 30
0.0
 10
54.8052342452
 20
104.8064757934
 30
0.0
 10
54.1108341677
 20
104.9419353654
 30
0.0
 10
53.6306853435
 20
104.9827637216
 30
0.0
 10
53.3869791798
 20
104.9907158842
 30
0.0
  0
SPLINE
  5
31C
100
AcDbEntity
  8
0
100
AcDbSpline
 62
7
  6
CONTINUOUS
 70
0
 71
3
 72
12
 73
8
 74
0
 42
0.0000001
 43
0.0000001
 44
0.0000000001
 40
0.0
 40
0.0
 40
0.0
 40
0.0
 40
0.2957148276
 40
0.5553847319
 40
0.7850052861
 40
0.8932423526
 40
1.0
 40
1.0
 40
1.0
 40
1.0
 10
28.6612539973
 20
20.9472090659
 30
0.0
 10
28.6477430472
 20
21.1023336003
 30
0.0
 10
28.6453135275
 20
21.3968074846
 30
0.0
 10
28.7311617473
 20
21.8051620477
 30
0.0
 10
28.8836531406
 20
22.0874265121
 30
0.0
 10
29.0470271749
 20
22.2567518908
 30
0.0
 10
29.1399646375
 20
22.3227680005
 30
0.0
 10
29.1886448578
 20
22.3508801487
 30
0.0
  0
SPLINE
  5
31D
100
AcDbEntity
  8
0
100
AcDbSpline
 62
7
  6
CONTINUOUS
 70
0
 71
3
 72
16
 73
12
 74
0
 42
0.0000001
 43
0.0000001
 44
0.0000000001
 40
0.0
 40
0.0
 40
0.0
 40
0.0
 40
0.1541845741
 40
0.3053798452
 40
0.4495199236
 40
0.5833637004
 40
0.7046558758
 40
0.8128233831
 40
0.9096200291
 40
0.9552736391
 40
1.0
 40
1.0
 40
1.0
 40
1.0
 10
53.3869791798
 20
104.9907158842
 30
0.0
 10
53.1132328437
 20
104.9996482613
 30
0.0
 10
52.569478844
 20
104.9856013279
 30
0.0
 10
51.7773168049
 20
104.8711866247
 30
0.0
 10
51.0402462681
 20
104.6676842904
 30
0.0
 10
50.3874872581
 20
104.383282559
 30
0.0
 10
49.8443336703
 20
104.0277795303
 30
0.0
 10
49.4320471252
 20
103.6132798713
 30
0.0
 10
49.2094200851
 20
103.2190747238
 30
0.0
 10
49.1228932245
 20
102.8965499177
 30
0.0
 10
49.1085189416
 20
102.7356574636
 30
0.0
 10
49.1084849475
 20
102.6562059832
 30
0.0
  0
SPLINE
  5
31E
100
AcDbEntity
  8
0
100
AcDbSpline
 62
7
  6
CONTINUOUS
 70
0
 71
3
 72
9
 73
5
 74
0
 42
0.0000001
 43
0.0000001
 44
0.0000000001
 40
0.0
 40
0.0
 40
0.0
 40
0.0
 40
0.2425407198
 40
1.0
 40
1.0
 40
1.0
 40
1.0
 10
28.0963679306
 20
20.9200725811
 30
0.0
 10
28.0989296273
 20
20.8864794453
 30
0.0
 10
28.1116964213
 20
20.7481459696
 30
0.0
 10
28.1328595323
 20
20.6106313076
 30
0.0
 10
28.1527934718
 20
20.5073202731
 30
0.0
  0
SPLINE
  5
31F
100
AcDbEntity
  8
0
100
AcDbSpline
 62
7
  6
CONTINUOUS
 70
0
 71
3
 72
12
 73
8
 74
0
 42
0.0000001
 43
0.0000001
 44
0.0000000001
 40
0.0
 40
0.0
 40
0.0
 40
0.0
 40
0.242104722
 40
0.5006357302
 40
0.7588774315
 40
0.882600194
 40
1.0
 40
1.0
 40
1.0
 40
1.0
 10
28.2143208321
 20
20.2358177851
 30
0.0
 10
28.3006951966
 20
19.9027906246
 30
0.0
 10
28.5537476615
 20
19.2325464346
 30
0.0
 10
29.0989976462
 20
18.2976235841
 30
0.0
 10
29.676250011
 20
17.5881051283
 30
0.0
 10
30.1910066494
 20
17.0985926046
 30
0.0
 10
30.4605167958
 20
16.8858939978
 30
0.0
 10
30.5968497361
 20
16.7897357835
 30
0.0
  0
SPLINE
  5
320
100
AcDbEntity
  8
0
100
AcDbSpline
 62
7
  6
CONTINUOUS
 70
0
 71
3
 72
19
 73
15
 74
0
 42
0.0000001
 43
0.0000001
 44
0.0000000001
 40
0.0
 40
0.0
 40
0.0
 40
0.0
 40
0.1568471747
 40
0.228525986
 40
0.2956456515
 40
0.4169556837
 40
0.4725278736
 40
0.5257749558
 40
0.5778400846
 40
0.6299669056
 40
0.6833823798
 40
0.7391815407
 40
0.8610151944
 40
1.0
 40
1.0
 40
1.0
 40
1.0
 10
30.8469487766
 20
16.6257770639
 30
0.0
 10
31.0017669409
 20
16.5319827643
 30
0.0
 10
31.2372183426
 20
16.4098596913
 30
0.0
 10
31.5592980166
 20
16.2956291192
 30
0.0
 10
31.8511484521
 20
16.2243663351
 30
0.0
 10
32.1360913323
 20
16.2042636454
 30
0.0
 10
32.3992421747
 20
16.247289879
 30
0.0
 10
32.5757693002
 20
16.3078558129
 30
0.0
 10
32.7352700944
 20
16.3969615159
 30
0.0
 10
32.8759366353
 20
16.5138522276
 30
0.0
 10
32.9964602087
 20
16.6569950034
 30
0.0
 10
33.1327681251
 20
16.8874184616
 30
0.0
 10
33.2439981256
 20
17.2403654542
 30
0.0
 10
33.268121821
 20
17.5424307502
 30
0.0
 10
33.2679830602
 20
17.7028300265
 30
0.0
  0
SPLINE
  5
321
100
AcDbEntity
  8
0
100
AcDbSpline
 62
7
  6
CONTINUOUS
 70
0
 71
3
 72
19
 73
15
 74
0
 42
0.0000001
 43
0.0000001
 44
0.0000000001
 40
0.0
 40
0.0
 40
0.0
 40
0.0
 40
0.1352311658
 40
0.1961337148
 40
0.2530584392
 40
0.306789099
 40
0.3583987909
 40
0.4091697217
 40
0.4605021771
 40
0.513738821
 40
0.5700290799
 40
0.6946148495
 40
0.8380501987
 40
1.0
 40
1.0
 40
1.0
 40
1.0
 10
33.3197358936
 20
17.6711827523
 30
0.0
 10
33.3199581242
 20
17.4972322344
 30
0.0
 10
33.298077213
 20
17.2431643723
 30
0.0
 10
33.2094155941
 20
16.9291154971
 30
0.0
 10
33.1194972744
 20
16.7266090945
 30
0.0
 10
33.0040967124
 20
16.5514394817
 30
0.0
 10
32.8643331101
 20
16.405588592
 30
0.0
 10
32.7014760151
 20
16.2912294856
 30
0.0
 10
32.5176462423
 20
16.2098454988
 30
0.0
 10
32.3151446182
 20
16.1622481962
 30
0.0
 10
32.0133487372
 20
16.1436545206
 30
0.0
 10
31.5967461379
 20
16.2139073822
 30
0.0
 10
31.0819156051
 20
16.4238083039
 30
0.0
 10
30.7464183596
 20
16.6315466229
 30
0.0
 10
30.5767772686
 20
16.7524551464
 30
0.0
  0
SPLINE
  5
322
100
AcDbEntity
  8
0
100
AcDbSpline
 62
7
  6
CONTINUOUS
 70
0
 71
3
 72
15
 73
11
 74
0
 42
0.0000001
 43
0.0000001
 44
0.0000000001
 40
0.0
 40
0.0
 40
0.0
 40
0.0
 40
0.1548030197
 40
0.2971624524
 40
0.4275398571
 40
0.5476966483
 40
0.6606915136
 40
0.7706494503
 40
0.8822727038
 40
1.0
 40
1.0
 40
1.0
 40
1.0
 10
28.0446031631
 20
20.9531476119
 30
0.0
 10
28.0348233803
 20
21.0765205597
 30
0.0
 10
28.029623172
 20
21.314776879
 30
0.0
 10
28.0685015887
 20
21.6555388285
 30
0.0
 10
28.153552063
 20
21.9595653592
 30
0.0
 10
28.2846392974
 20
22.221308521
 30
0.0
 10
28.4607494151
 20
22.4349889231
 30
0.0
 10
28.6786814666
 20
22.5949780963
 30
0.0
 10
28.9329034039
 20
22.696927691
 30
0.0
 10
29.11597167
 20
22.7240398326
 30
0.0
 10
29.209975257
 20
22.7287020842
 30
0.0
  0
SPLINE
  5
323
100
AcDbEntity
  8
0
100
AcDbSpline
 62
7
  6
CONTINUOUS
 70
0
 71
3
 72
9
 73
5
 74
0
 42
0.0000001
 43
0.0000001
 44
0.0000000001
 40
0.0
 40
0.0
 40
0.0
 40
0.0
 40
0.4628914054
 40
1.0
 40
1.0
 40
1.0
 40
1.0
 10
29.209975257
 20
22.7287020842
 30
0.0
 10
29.38741628
 20
22.7375025431
 30
0.0
 10
29.7745956697
 20
22.686046949
 30
0.0
 10
30.132893603
 20
22.5402755677
 30
0.0
 10
30.3163275394
 20
22.4462154729
 30
0.0
  0
SPLINE
  5
324
100
AcDbEntity
  8
0
100
AcDbSpline
 62
7
  6
CONTINUOUS
 70
0
 71
3
 72
9
 73
5
 74
0
 42
0.0000001
 43
0.0000001
 44
0.0000000001
 40
0.0
 40
0.0
 40
0.0
 40
0.0
 40
0.2444063767
 40
1.0
 40
1.0
 40
1.0
 40
1.0
 10
30.3163275394
 20
22.4462154729
 30
0.0
 10
30.3407423349
 20
22.4336962083
 30
0.0
 10
30.4400167662
 20
22.3812692353
 30
0.0
 10
30.5368181574
 20
22.3241912901
 30
0.0
 10
30.6085137291
 20
22.2788604382
 30
0.0
  0
SPLINE
  5
325
100
AcDbEntity
  8
0
100
AcDbSpline
 62
7
  6
CONTINUOUS
 70
0
 71
3
 72
15
 73
11
 74
0
 42
0.0000001
 43
0.0000001
 44
0.0000000001
 40
0.0
 40
0.0
 40
0.0
 40
0.0
 40
0.1166794567
 40
0.241652201
 40
0.372234471
 40
0.5053408822
 40
0.637735851
 40
0.7661618953
 40
0.887743555
 40
1.0
 40
1.0
 40
1.0
 40
1.0
 10
30.6085137291
 20
22.2788604382
 30
0.0
 10
30.778062107
 20
22.1716603389
 30
0.0
 10
31.1131944126
 20
21.9237758464
 30
0.0
 10
31.5800512472
 20
21.4843334272
 30
0.0
 10
32.0164506011
 20
20.9767835706
 30
0.0
 10
32.408063359
 20
20.4184170345
 30
0.0
 10
32.7424234196
 20
19.8282628676
 30
0.0
 10
33.0089755683
 20
19.2259970615
 30
0.0
 10
33.1993235918
 20
18.631776833
 30
0.0
 10
33.2757618082
 20
18.2356164102
 30
0.0
 10
33.2974704902
 20
18.0438498969
 30
0.0
  0
SPLINE
  5
326
100
AcDbEntity
  8
0
100
AcDbSpline
 62
7
  6
CONTINUOUS
 70
0
 71
3
 72
9
 73
5
 74
0
 42
0.0000001
 43
0.0000001
 44
0.0000000001
 40
0.0
 40
0.0
 40
0.0
 40
0.0
 40
0.4721275379
 40
1.0
 40
1.0
 40
1.0
 40
1.0
 10
23.2764411254
 20
27.4166790164
 30
0.0
 10
23.2410492001
 20
27.4370931085
 30
0.0
 10
23.1760934537
 20
27.4991076155
 30
0.0
 10
23.1418856351
 20
27.5807526661
 30
0.0
 10
23.1300532236
 20
27.6248751026
 30
0.0
  0
SPLINE
  5
327
100
AcDbEntity
  8
0
100
AcDbSpline
 62
7
  6
CONTINUOUS
 70
0
 71
3
 72
27
 73
23
 74
0
 42
0.0000001
 43
0.0000001
 44
0.0000000001
 40
0.0
 40
0.0
 40
0.0
 40
0.0
 40
0.0657939936
 40
0.1378480443
 40
0.2144376876
 40
0.2936321389
 40
0.3732220422
 40
0.4510214792
 40
0.524972516
 40
0.5933394805
 40
0.6549090157
 40
0.7092519031
 40
0.7570750274
 40
0.7792443188
 40
0.8007387605
 40
0.8220404092
 40
0.8436511904
 40
0.866035116
 40
0.8895908001
 40
0.9146212438
 40
0.9413290752
 40
1.0
 40
1.0
 40
1.0
 40
1.0
 10
33.8936494388
 20
17.8852769397
 30
0.0
 10
33.8766781833
 20
18.1115303504
 30
0.0
 10
33.7987431931
 20
18.5826439832
 30
0.0
 10
33.583786845
 20
19.2918369135
 30
0.0
 10
33.2708662045
 20
20.0143089097
 30
0.0
 10
32.8710501069
 20
20.7223211462
 30
0.0
 10
32.3986320469
 20
21.3892619458
 30
0.0
 10
31.8706631521
 20
21.9894296376
 30
0.0
 10
31.3064239688
 20
22.4999475217
 30
0.0
 10
30.7265150883
 20
22.9015826764
 30
0.0
 10
30.151315967
 20
23.1792709658
 30
0.0
 10
29.6006209349
 20
23.3223919945
 30
0.0
 10
29.1649070105
 20
23.321078814
 30
0.0
 10
28.8581870824
 20
23.2411452066
 30
0.0
 10
28.6536046596
 20
23.1468217708
 30
0.0
 10
28.4714361822
 20
23.0175317015
 30
0.0
 10
28.3139561304
 20
22.8548946096
 30
0.0
 10
28.1826976914
 20
22.6611309737
 30
0.0
 10
28.0791357905
 20
22.4383660867
 30
0.0
 10
28.0036251949
 20
22.1891300856
 30
0.0
 10
27.938920865
 20
21.813204913
 30
0.0
 10
27.9379348142
 20
21.5161927715
 30
0.0
 10
27.9539257994
 20
21.3145004024
 30
0.0
  0
SPLINE
  5
328
100
AcDbEntity
  8
0
100
AcDbSpline
 62
7
  6
CONTINUOUS
 70
0
 71
3
 72
27
 73
23
 74
0
 42
0.0000001
 43
0.0000001
 44
0.0000000001
 40
0.0
 40
0.0
 40
0.0
 40
0.0
 40
0.0657939935
 40
0.1378480444
 40
0.2144376876
 40
0.2936321389
 40
0.3732220422
 40
0.4510214792
 40
0.524972516
 40
0.5933394805
 40
0.6549090157
 40
0.7092519031
 40
0.7570750274
 40
0.7792443188
 40
0.8007387605
 40
0.8220404092
 40
0.8436511904
 40
0.866035116
 40
0.8895908002
 40
0.9146212438
 40
0.9413290751
 40
1.0
 40
1.0
 40
1.0
 40
1.0
 10
39.9040821025
 20
14.4152305262
 30
0.0
 10
39.8871108548
 20
14.6414839372
 30
0.0
 10
39.8091758558
 20
15.11259757
 30
0.0
 10
39.594219508
 20
15.8217904992
 30
0.0
 10
39.2812988687
 20
16.5442624968
 30
0.0
 10
38.8814827705
 20
17.2522747326
 30
0.0
 10
38.4090647107
 20
17.9192155324
 30
0.0
 10
37.8810958159
 20
18.5193832242
 30
0.0
 10
37.3168566326
 20
19.0299011083
 30
0.0
 10
36.736947752
 20
19.431536263
 30
0.0
 10
36.1617486308
 20
19.7092245524
 30
0.0
 10
35.6110535986
 20
19.852345581
 30
0.0
 10
35.1753396743
 20
19.8510324006
 30
0.0
 10
34.8686197462
 20
19.7710987931
 30
0.0
 10
34.6640373234
 20
19.6767753573
 30
0.0
 10
34.4818688459
 20
19.5474852881
 30
0.0
 10
34.3243887938
 20
19.3848481965
 30
0.0
 10
34.1931303549
 20
19.1910845604
 30
0.0
 10
34.0895684554
 20
18.9683196726
 30
0.0
 10
34.0140578605
 20
18.7190836717
 30
0.0
 10
33.9493535253
 20
18.3431585004
 30
0.0
 10
33.9483674711
 20
18.0461463578
 30
0.0
 10
33.9643584632
 20
17.8444539889
 30
0.0
  0
SPLINE
  5
329
100
AcDbEntity
  8
0
100
AcDbSpline
 62
7
  6
CONTINUOUS
 70
0
 71
3
 72
15
 73
11
 74
0
 42
0.0000001
 43
0.0000001
 44
0.0000000001
 40
0.0
 40
0.0
 40
0.0
 40
0.0
 40
0.1403779917
 40
0.2701250782
 40
0.3914630394
 40
0.5077720433
 40
0.6230110592
 40
0.7412292297
 40
0.8660449265
 40
1.0
 40
1.0
 40
1.0
 40
1.0
 10
24.9915996236
 20
32.9609889778
 30
0.0
 10
25.1323562898
 20
32.9322582862
 30
0.0
 10
25.4073788826
 20
32.8945439496
 30
0.0
 10
25.8098148007
 20
32.9039852191
 30
0.0
 10
26.1799659927
 20
32.9829306404
 30
0.0
 10
26.5123481564
 20
33.1312046585
 30
0.0
 10
26.8018252068
 20
33.3465922468
 30
0.0
 10
27.0441809411
 20
33.6252094637
 30
0.0
 10
27.2369988525
 20
33.9617611866
 30
0.0
 10
27.3285008618
 20
34.2116003842
 30
0.0
 10
27.3666200942
 20
34.3432798047
 30
0.0
  0
SPLINE
  5
32A
100
AcDbEntity
  8
0
100
AcDbSpline
 62
7
  6
CONTINUOUS
 70
0
 71
3
 72
18
 73
14
 74
0
 42
0.0000001
 43
0.0000001
 44
0.0000000001
 40
0.0
 40
0.0
 40
0.0
 40
0.0
 40
0.1476796513
 40
0.2921915817
 40
0.43134839
 40
0.4983497983
 40
0.5633572076
 40
0.6865849364
 40
0.7447252551
 40
0.8003915839
 40
0.8536357736
 40
0.9045626127
 40
1.0
 40
1.0
 40
1.0
 40
1.0
 10
17.2676165215
 20
46.2266699229
 30
0.0
 10
17.0701972415
 20
45.859879509
 30
0.0
 10
16.7117653887
 20
45.1162659607
 30
0.0
 10
16.2851803023
 20
43.9750786979
 30
0.0
 10
16.0304033059
 20
43.0173672547
 30
0.0
 10
15.8941574407
 20
42.2643823584
 30
0.0
 10
15.8054562166
 20
41.5496767059
 30
0.0
 10
15.7829793879
 20
40.8527897004
 30
0.0
 10
15.8305302183
 20
40.1853913433
 30
0.0
 10
15.900889356
 20
39.71897233
 30
0.0
 10
16.0052397859
 20
39.2797064529
 30
0.0
 10
16.1842852664
 20
38.7455155183
 30
0.0
 10
16.3731528805
 20
38.3736623989
 30
0.0
 10
16.523268662
 20
38.1502150036
 30
0.0
  0
SPLINE
  5
32B
100
AcDbEntity
  8
0
100
AcDbSpline
 62
7
  6
CONTINUOUS
 70
0
 71
3
 72
15
 73
11
 74
0
 42
0.0000001
 43
0.0000001
 44
0.0000000001
 40
0.0
 40
0.0
 40
0.0
 40
0.0
 40
0.1378382815
 40
0.2668534431
 40
0.3889676261
 40
0.5069749881
 40
0.624040201
 40
0.7433892066
 40
0.8679863242
 40
1.0
 40
1.0
 40
1.0
 40
1.0
 10
17.2676165215
 20
46.2266699228
 30
0.0
 10
17.1222301916
 20
46.2530186576
 30
0.0
 10
16.8366980802
 20
46.2849301777
 30
0.0
 10
16.418286573
 20
46.2641698598
 30
0.0
 10
16.0307948454
 20
46.1727881585
 30
0.0
 10
15.6804113186
 20
46.0119671857
 30
0.0
 10
15.3726951141
 20
45.7846062796
 30
0.0
 10
15.1124643508
 20
45.4947940366
 30
0.0
 10
14.9031772228
 20
45.1479636494
 30
0.0
 10
14.8020611497
 20
44.8907196793
 30
0.0
 10
14.7598498532
 20
44.7556508958
 30
0.0
  0
SPLINE
  5
32C
100
AcDbEntity
  8
0
100
AcDbSpline
 62
7
  6
CONTINUOUS
 70
0
 71
3
 72
11
 73
7
 74
0
 42
0.0000001
 43
0.0000001
 44
0.0000000001
 40
0.0
 40
0.0
 40
0.0
 40
0.0
 40
0.2815807995
 40
0.5396857482
 40
0.776770384
 40
1.0
 40
1.0
 40
1.0
 40
1.0
 10
34.7730668152
 20
81.7127841488
 30
0.0
 10
34.7863284232
 20
81.8867929549
 30
0.0
 10
34.8392184898
 20
82.2193043563
 30
0.0
 10
35.0104803839
 20
82.6734079001
 30
0.0
 10
35.2660587037
 20
83.0440321353
 30
0.0
 10
35.4916378205
 20
83.2268155531
 30
0.0
 10
35.6114449984
 20
83.2960024438
 30
0.0
  0
SPLINE
  5
32D
100
AcDbEntity
  8
0
100
AcDbSpline
 62
7
  6
CONTINUOUS
 70
0
 71
3
 72
10
 73
6
 74
0
 42
0.0000001
 43
0.0000001
 44
0.0000000001
 40
0.0
 40
0.0
 40
0.0
 40
0.0
 40
0.2843857812
 40
0.5471771561
 40
1.0
 40
1.0
 40
1.0
 40
1.0
 10
27.1342700433
 20
37.6114376918
 30
0.0
 10
27.068189915
 20
37.3030363849
 30
0.0
 10
26.9755947962
 20
36.7004927614
 30
0.0
 10
26.9582425616
 20
35.5919833659
 30
0.0
 10
27.1349612542
 20
34.7888663058
 30
0.0
 10
27.3666200942
 20
34.3432798046
 30
0.0
  0
SPLINE
  5
32E
100
AcDbEntity
  8
0
100
AcDbSpline
 62
7
  6
CONTINUOUS
 70
0
 71
3
 72
11
 73
7
 74
0
 42
0.0000001
 43
0.0000001
 44
0.0000000001
 40
0.0
 40
0.0
 40
0.0
 40
0.0
 40
0.2472403433
 40
0.5023363804
 40
0.7562136054
 40
1.0
 40
1.0
 40
1.0
 40
1.0
 10
24.338713773
 20
42.1442623776
 30
0.0
 10
24.6579385818
 20
41.837208483
 30
0.0
 10
25.2618914918
 20
41.1658018268
 30
0.0
 10
26.0382282777
 20
40.0518451185
 30
0.0
 10
26.6764653363
 20
38.8605584981
 30
0.0
 10
27.0026526425
 20
38.0278752811
 30
0.0
 10
27.1342700433
 20
37.6114376917
 30
0.0
  0
SPLINE
  5
32F
100
AcDbEntity
  8
0
100
AcDbSpline
 62
7
  6
CONTINUOUS
 70
0
 71
3
 72
12
 73
8
 74
0
 42
0.0000001
 43
0.0000001
 44
0.0000000001
 40
0.0
 40
0.0
 40
0.0
 40
0.0
 40
0.1081620128
 40
0.2183697362
 40
0.4513318691
 40
0.7104695039
 40
1.0
 40
1.0
 40
1.0
 40
1.0
 10
57.2084183395
 20
102.6562063474
 30
0.0
 10
57.2084321481
 20
102.7328775215
 30
0.0
 10
57.1950895054
 20
102.8879943391
 30
0.0
 10
57.1144613038
 20
103.1989097971
 30
0.0
 10
56.9077150779
 20
103.5802840808
 30
0.0
 10
56.5223864695
 20
103.9848374587
 30
0.0
 10
56.1999569957
 20
104.2069792772
 30
0.0
 10
56.0222171649
 20
104.3095950949
 30
0.0
  0
SPLINE
  5
330
100
AcDbEntity
  8
0
100
AcDbSpline
 62
7
  6
CONTINUOUS
 70
0
 71
3
 72
21
 73
17
 74
0
 42
0.0000001
 43
0.0000001
 44
0.0000000001
 40
0.0
 40
0.0
 40
0.0
 40
0.0
 40
0.0649999344
 40
0.1336244193
 40
0.2781232654
 40
0.4261598098
 40
0.5689617696
 40
0.6359630684
 40
0.6989219344
 40
0.7574085839
 40
0.7849687705
 40
0.811440642
 40
0.8613818843
 40
0.9083477264
 40
0.9539288115
 40
1.0
 40
1.0
 40
1.0
 40
1.0
 10
34.2081074927
 20
81.7400220898
 30
0.0
 10
34.1966057976
 20
81.5733193542
 30
0.0
 10
34.197689972
 20
81.228618947
 30
0.0
 10
34.2859125368
 20
80.5178205081
 30
0.0
 10
34.5531741512
 20
79.6208978434
 30
0.0
 10
35.0758570167
 20
78.6243486231
 30
0.0
 10
35.656300825
 20
77.9011577293
 30
0.0
 10
36.1819887355
 20
77.4348930541
 30
0.0
 10
36.5826579156
 20
77.1601409499
 30
0.0
 10
36.9275889778
 20
76.989670175
 30
0.0
 10
37.2015038533
 20
76.8955734372
 30
0.0
 10
37.4613856118
 20
76.8318790215
 30
0.0
 10
37.7796578114
 20
76.8015591767
 30
0.0
 10
38.1462561519
 20
76.8511371764
 30
0.0
 10
38.4795365487
 20
76.9878537152
 30
0.0
 10
38.6696228915
 20
77.1319345644
 30
0.0
 10
38.7549206863
 20
77.2141039469
 30
0.0
  0
SPLINE
  5
331
100
AcDbEntity
  8
0
100
AcDbSpline
 62
7
  6
CONTINUOUS
 70
0
 71
3
 72
11
 73
7
 74
0
 42
0.0000001
 43
0.0000001
 44
0.0000000001
 40
0.0
 40
0.0
 40
0.0
 40
0.0
 40
0.2222615055
 40
0.461164455
 40
0.7202881182
 40
1.0
 40
1.0
 40
1.0
 40
1.0
 10
38.7549206863
 20
77.2141039469
 30
0.0
 10
38.8455509883
 20
77.3014102597
 30
0.0
 10
39.0113212742
 20
77.5066877787
 30
0.0
 10
39.1949573962
 20
77.8735885397
 30
0.0
 10
39.3190957638
 20
78.2981211241
 30
0.0
 10
39.3595046288
 20
78.6017091222
 30
0.0
 10
39.3702713843
 20
78.759712651
 30
0.0
  0
SPLINE
  5
332
100
AcDbEntity
  8
0
100
AcDbSpline
 62
7
  6
CONTINUOUS
 70
0
 71
3
 72
11
 73
7
 74
0
 42
0.0000001
 43
0.0000001
 44
0.0000000001
 40
0.0
 40
0.0
 40
0.0
 40
0.0
 40
0.279631551
 40
0.5386867193
 40
0.7776498605
 40
1.0
 40
1.0
 40
1.0
 40
1.0
 10
39.42154353
 20
78.7264833515
 30
0.0
 10
39.4109701675
 20
78.5662708271
 30
0.0
 10
39.3701891855
 20
78.2584249508
 30
0.0
 10
39.2447204137
 20
77.8278760983
 30
0.0
 10
39.0597706093
 20
77.4551679988
 30
0.0
 10
38.8927274106
 20
77.246076071
 30
0.0
 10
38.801336413
 20
77.1569272815
 30
0.0
  0
SPLINE
  5
333
100
AcDbEntity
  8
0
100
AcDbSpline
 62
7
  6
CONTINUOUS
 70
0
 71
3
 72
21
 73
17
 74
0
 42
0.0000001
 43
0.0000001
 44
0.0000000001
 40
0.0
 40
0.0
 40
0.0
 40
0.0
 40
0.0461113366
 40
0.091688837
 40
0.1386186374
 40
0.188503131
 40
0.2149444162
 40
0.2424746875
 40
0.3009092013
 40
0.3638313537
 40
0.4308139996
 40
0.5736297228
 40
0.721736325
 40
0.8663191364
 40
0.934984211
 40
1.0
 40
1.0
 40
1.0
 40
1.0
 10
38.801336413
 20
77.1569272815
 30
0.0
 10
38.7146899657
 20
77.0724066383
 30
0.0
 10
38.5214143372
 20
76.9240252602
 30
0.0
 10
38.1818543437
 20
76.7825487782
 30
0.0
 10
37.8080103637
 20
76.73009705
 30
0.0
 10
37.4831988041
 20
76.7596722723
 30
0.0
 10
37.2179001362
 20
76.8236960489
 30
0.0
 10
36.938178434
 20
76.9187970531
 30
0.0
 10
36.5857842007
 20
77.0918161111
 30
0.0
 10
36.1762986841
 20
77.3713531173
 30
0.0
 10
35.6387637084
 20
77.8464561517
 30
0.0
 10
35.0449229464
 20
78.5842275919
 30
0.0
 10
34.5097080882
 20
79.6015555925
 30
0.0
 10
34.2360976211
 20
80.5177644892
 30
0.0
 10
34.1455353065
 20
81.2438697461
 30
0.0
 10
34.1444027811
 20
81.5960220722
 30
0.0
 10
34.1563597908
 20
81.7662698315
 30
0.0
  0
SPLINE
  5
334
100
AcDbEntity
  8
0
100
AcDbSpline
 62
7
  6
CONTINUOUS
 70
0
 71
3
 72
18
 73
14
 74
0
 42
0.0000001
 43
0.0000001
 44
0.0000000001
 40
0.0
 40
0.0
 40
0.0
 40
0.0
 40
0.1413947819
 40
0.2698451666
 40
0.3298299272
 40
0.3875368891
 40
0.4436191065
 40
0.4988592823
 40
0.5541275355
 40
0.6103024271
 40
0.7281278979
 40
0.8573868147
 40
1.0
 40
1.0
 40
1.0
 40
1.0
 10
34.1563597908
 20
81.7662698315
 30
0.0
 10
34.1703015223
 20
81.9779654899
 30
0.0
 10
34.2337705274
 20
82.3808780527
 30
0.0
 10
34.416607661
 20
82.8464484604
 30
0.0
 10
34.6191838266
 20
83.1566347643
 30
0.0
 10
34.7928049847
 20
83.3525107262
 30
0.0
 10
34.989376683
 20
83.5144958115
 30
0.0
 10
35.2067518968
 20
83.6402120164
 30
0.0
 10
35.4421369575
 20
83.7281506564
 30
0.0
 10
35.7811424443
 20
83.7942471924
 30
0.0
 10
36.2429869532
 20
83.771891701
 30
0.0
 10
36.8032819453
 20
83.5866699174
 30
0.0
 10
37.1561357756
 20
83.3757098586
 30
0.0
 10
37.329575338
 20
83.2503815726
 30
0.0
  0
SPLINE
  5
335
100
AcDbEntity
  8
0
100
AcDbSpline
 62
7
  6
CONTINUOUS
 70
0
 71
3
 72
11
 73
7
 74
0
 42
0.0000001
 43
0.0000001
 44
0.0000000001
 40
0.0
 40
0.0
 40
0.0
 40
0.0
 40
0.2410016681
 40
0.4969698412
 40
0.7545533202
 40
1.0
 40
1.0
 40
1.0
 40
1.0
 10
37.5613886688
 20
83.06870099
 30
0.0
 10
37.825587103
 20
82.8451380133
 30
0.0
 10
38.3132290266
 20
82.3146604352
 30
0.0
 10
38.8782207187
 20
81.3831471214
 30
0.0
 10
39.2684467899
 20
80.3593221041
 30
0.0
 10
39.3972414824
 20
79.6426817754
 30
0.0
 10
39.4208344238
 20
79.290994693
 30
0.0
  0
SPLINE
  5
336
100
AcDbEntity
  8
0
100
AcDbSpline
 62
7
  6
CONTINUOUS
 70
0
 71
3
 72
12
 73
8
 74
0
 42
0.0000001
 43
0.0000001
 44
0.0000000001
 40
0.0
 40
0.0
 40
0.0
 40
0.0
 40
0.1081619994
 40
0.2183697317
 40
0.4513319319
 40
0.7104693611
 40
1.0
 40
1.0
 40
1.0
 40
1.0
 10
59.683331746
 20
97.1449391649
 30
0.0
 10
59.6833455315
 20
97.2216103314
 30
0.0
 10
59.6700033054
 20
97.3767271881
 30
0.0
 10
59.5893746623
 20
97.6876426265
 30
0.0
 10
59.3826286155
 20
98.0690168201
 30
0.0
 10
58.9973000997
 20
98.4735703676
 30
0.0
 10
58.6748705657
 20
98.6957120412
 30
0.0
 10
58.4971306426
 20
98.7983279121
 30
0.0
  0
SPLINE
  5
337
100
AcDbEntity
  8
0
100
AcDbSpline
 62
7
  6
CONTINUOUS
 70
0
 71
3
 72
23
 73
19
 74
0
 42
0.0000001
 43
0.0000001
 44
0.0000000001
 40
0.0
 40
0.0
 40
0.0
 40
0.0
 40
0.0669127656
 40
0.1383158164
 40
0.2126765756
 40
0.2883644356
 40
0.3635748126
 40
0.4366002653
 40
0.5059267286
 40
0.5704262393
 40
0.6295441296
 40
0.6835019089
 40
0.7334641513
 40
0.7815085346
 40
0.830221084
 40
0.8819595144
 40
0.9383494393
 40
1.0
 40
1.0
 40
1.0
 40
1.0
 10
33.9936061912
 20
82.099809574
 30
0.0
 10
34.0106463263
 20
82.3422313059
 30
0.0
 10
34.0014996006
 20
82.846879847
 30
0.0
 10
33.8810225171
 20
83.6118522404
 30
0.0
 10
33.6560118185
 20
84.3862183625
 30
0.0
 10
33.3338405155
 20
85.1403552684
 30
0.0
 10
32.9255102982
 20
85.8460682541
 30
0.0
 10
32.4449609294
 20
86.4762119134
 30
0.0
 10
31.9089493361
 20
87.0065057608
 30
0.0
 10
31.3363569679
 20
87.4163993711
 30
0.0
 10
30.7472008924
 20
87.6896220072
 30
0.0
 10
30.1620756533
 20
87.8137643549
 30
0.0
 10
29.6033932386
 20
87.7797309153
 30
0.0
 10
29.0979898922
 20
87.5846700041
 30
0.0
 10
28.673377555
 20
87.2386771394
 30
0.0
 10
28.3488904185
 20
86.7622159406
 30
0.0
 10
28.1336842976
 20
86.179195817
 30
0.0
 10
28.0685649846
 20
85.7524592878
 30
0.0
 10
28.0538824865
 20
85.5290330744
 30
0.0
  0
SPLINE
  5
338
100
AcDbEntity
  8
0
100
AcDbSpline
 62
7
  6
CONTINUOUS
 70
0
 71
3
 72
11
 73
7
 74
0
 42
0.0000001
 43
0.0000001
 44
0.0000000001
 40
0.0
 40
0.0
 40
0.0
 40
0.0
 40
0.2158560742
 40
0.4575290836
 40
0.7211911971
 40
1.0
 40
1.0
 40
1.0
 40
1.0
 10
24.0829646043
 20
28.3979524005
 30
0.0
 10
24.1840659019
 20
28.4254110916
 30
0.0
 10
24.390909498
 20
28.5119845717
 30
0.0
 10
24.6833354781
 20
28.7071530474
 30
0.0
 10
24.9636152217
 20
28.9666126486
 30
0.0
 10
25.1312842285
 20
29.1707272845
 30
0.0
 10
25.210463487
 20
29.2804607095
 30
0.0
  0
SPLINE
  5
339
100
AcDbEntity
  8
0
100
AcDbSpline
 62
7
  6
CONTINUOUS
 70
0
 71
3
 72
9
 73
5
 74
0
 42
0.0000001
 43
0.0000001
 44
0.0000000001
 40
0.0
 40
0.0
 40
0.0
 40
0.0
 40
0.236688529
 40
1.0
 40
1.0
 40
1.0
 40
1.0
 10
23.1300532236
 20
27.6248751026
 30
0.0
 10
23.1178323617
 20
27.6704460504
 30
0.0
 10
23.0736279989
 20
27.8649633801
 30
0.0
 10
23.0576706665
 20
28.0653404476
 30
0.0
 10
23.0576706665
 20
28.2174978497
 30
0.0
  0
SPLINE
  5
33A
100
AcDbEntity
  8
0
100
AcDbSpline
 62
7
  6
CONTINUOUS
 70
0
 71
3
 72
11
 73
7
 74
0
 42
0.0000001
 43
0.0000001
 44
0.0000000001
 40
0.0
 40
0.0
 40
0.0
 40
0.0
 40
0.2278891497
 40
0.4748676909
 40
0.7347401031
 40
1.0
 40
1.0
 40
1.0
 40
1.0
 10
23.0576706665
 20
28.2174978497
 30
0.0
 10
23.0576706665
 20
28.4007455102
 30
0.0
 10
23.0943704491
 20
28.7829721777
 30
0.0
 10
23.2390134472
 20
29.3576301713
 30
0.0
 10
23.4692807201
 20
29.9359819716
 30
0.0
 10
23.673263373
 20
30.3071310449
 30
0.0
 10
23.7872766075
 20
30.487400111
 30
0.0
  0
SPLINE
  5
33B
100
AcDbEntity
  8
0
100
AcDbSpline
 62
7
  6
CONTINUOUS
 70
0
 71
3
 72
11
 73
7
 74
0
 42
0.0000001
 43
0.0000001
 44
0.0000000001
 40
0.0
 40
0.0
 40
0.0
 40
0.0
 40
0.2206843202
 40
0.4642081418
 40
0.7261604223
 40
1.0
 40
1.0
 40
1.0
 40
1.0
 10
24.1783113032
 20
31.1056744692
 30
0.0
 10
24.2610691171
 20
31.1378762491
 30
0.0
 10
24.4277864228
 20
31.2250621484
 30
0.0
 10
24.6613462514
 20
31.4023604884
 30
0.0
 10
24.8823509719
 20
31.6261394678
 30
0.0
 10
25.0138039423
 20
31.7978103492
 30
0.0
 10
25.0755095269
 20
31.8891042529
 30
0.0
  0
SPLINE
  5
33C
100
AcDbEntity
  8
0
100
AcDbSpline
 62
7
  6
CONTINUOUS
 70
0
 71
3
 72
13
 73
9
 74
0
 42
0.0000001
 43
0.0000001
 44
0.0000000001
 40
0.0
 40
0.0
 40
0.0
 40
0.0
 40
0.2961161094
 40
0.5742353107
 40
0.6984902512
 40
0.8103782919
 40
0.910102099
 40
1.0
 40
1.0
 40
1.0
 40
1.0
 10
25.3678932475
 20
29.4986404091
 30
0.0
 10
25.4071865545
 20
29.5530917739
 30
0.0
 10
25.4711436719
 20
29.66793518
 30
0.0
 10
25.5150699173
 20
29.8222199832
 30
0.0
 10
25.5206800985
 20
29.9391893222
 30
0.0
 10
25.5104205191
 20
30.0152205084
 30
0.0
 10
25.4856271458
 20
30.0796946888
 30
0.0
 10
25.4588459182
 20
30.1144483839
 30
0.0
 10
25.4436964963
 20
30.1280890508
 30
0.0
  0
ENDSEC
  0
SECTION
  2
OBJECTS
  0
DICTIONARY
  5
C
100
AcDbDictionary
280
0
281
1
  3
ACAD_GROUP
350
D
  3
ACAD_MLINESTYLE
350
17
  3
ACAD_LAYOUT
350
1A
  3
ACAD_PLOTSETTINGS
350
19
  3
ACAD_PLOTSTYLENAME
350
E
  0
DICTIONARY
  5
D
102
{ACAD_REACTORS
330
C
102
}
100
AcDbDictionary
280
0
281
1
  0
ACDBDICTIONARYWDFLT
  5
E
102
{ACAD_REACTORS
330
C
102
}
100
AcDbDictionary
281
1
  3
Normal
350
F
100
AcDbDictionaryWithDefault
340
F
  0
DICTIONARY
  5
17
102
{ACAD_REACTORS
330
C
102
}
100
AcDbDictionary
280
0
281
1
  3
Standard
350
18
  0
DICTIONARY
  5
19
102
{ACAD_REACTORS
330
C
102
}
100
AcDbDictionary
281
1
  0
DICTIONARY
  5
1A
102
{ACAD_REACTORS
330
C
102
}
100
AcDbDictionary
281
1
  3
Model
350
33D
  3
Layout1
350
33E
  0
ACDBPLACEHOLDER
  5
F
102
{ACAD_REACTORS
330
E
102
}
  0
MLINESTYLE
  5
18
102
{ACAD_REACTORS
330
17
102
}
100
AcDbMlineStyle
  2
STANDARD
 70
0
  3

 62
256
 51
90.0
 52
90.0
 71
2
 49
0.5
 62
256
  6
BYLAYER
 49
-0.5
 62
256
  6
BYLAYER
  0
LAYOUT
  5
33D
102
{ACAD_REACTORS
330
1A
102
}
100
AcDbPlotSettings
  1

  2
none_device
  4

  6

 40
0.0
 41
0.0
 42
0.0
 43
0.0
 44
210.0
 45
297.0
 46
0.0
 47
0.0
 48
0.0
 49
0.0
140
0.0
141
0.0
142
1.0
143
1.0
 70
1024
 72
1
 73
0
 74
0
  7

 75
0
147
1.0
148
0.0
149
0.0
100
AcDbLayout
  1
Model
 70
0
 71
0
 10
0.0
 20
0.0
 11
210.0
 21
297.0
 12
0.0
 22
0.0
 32
0.0
 14
0.0
 24
0.0
 34
0.0
 15
0.0
 25
0.0
 35
0.0
146
0.0
 13
0.0
 23
0.0
 33
0.0
 16
1.0
 26
0.0
 36
0.0
 17
0.0
 27
1.0
 37
0.0
 76
0
330
210
345
0
346
0
  0
LAYOUT
  5
33E
102
{ACAD_REACTORS
330
1A
102
}
100
AcDbPlotSettings
  1

  2
none_device
  4

  6

 40
0.0
 41
0.0
 42
0.0
 43
0.0
 44
210.0
 45
297.0
 46
0.0
 47
0.0
 48
0.0
 49
0.0
140
0.0
141
0.0
142
1.0
143
1.0
 70
0
 72
1
 73
0
 74
0
  7

 75
0
147
1.0
148
0.0
149
0.0
100
AcDbLayout
  1
Layout1
 70
0
 71
1
 10
0.0
 20
0.0
 11
210.0
 21
297.0
 12
0.0
 22
0.0
 32
0.0
 14
0.0
 24
0.0
 34
0.0
 15
0.0
 25
0.0
 35
0.0
146
0.0
 13
0.0
 23
0.0
 33
0.0
 16
1.0
 26
0.0
 36
0.0
 17
0.0
 27
1.0
 37
0.0
 76
0
330
211
345
0
346
0
  0
ENDSEC
  0
EOF
