999
DXF file: C:\Users\sesa63760\Dev\_Creo\CAD\MCADFD0002077_3D-CAD\drw0001_1.dxf
999
Pro/ENGINEER 2019471 by Parametric Technology Corporation
  0
SECTION
  2
HEADER
  9
$ACADVER
  1
AC1024
  9
$DWGCODEPAGE
  3
ANSI_1252
  9
$EXTMAX
 10
92.5048024438
 20
130.8282205991
 30
0.0
  9
$EXTMIN
 10
0.0
 20
0.0
 30
0.0
  9
$LIMMIN
 10
0.0
 20
0.0
  9
$LIMMAX
 10
92.5048024438
 20
130.8282205991
  9
$VIEWCTR
 10
46.2524012219
 20
65.4141102995
  9
$VIEWSIZE
 40
130.8282205991
  9
$CLAYER
  8
0
  9
$LTSCALE
 40
8.5280617872
  9
$CELTYPE
  6
BYLAYER
  9
$DIMSCALE
 40
1.0
  9
$DIMASZ
 40
1.1012476481
  9
$DIMEXO
 40
1.0
  9
$DIMDLI
 40
5.8921154166
  9
$DIMEXE
 40
1.0
  9
$DIMCEN
 40
1.3955010197
  9
$DIMLFAC
 40
1.0
  9
$DIMBLK
  1
_FILLED
  9
$DIMALT
 70
0
  9
$DIMALTF
 40
0.0393700787
  9
$DIMTXT
 40
1.5417467074
  9
$DIMTOL
 70
1
  9
$DIMLIM
 70
0
  9
$DIMTFAC
 40
1.0
  9
$DIMTP
 40
0.01
  9
$DIMTM
 40
0.01
  9
$DIMGAP
 40
0.625
  9
$DIMDSEP
 70
46
  9
$AUNITS
 70
0
  9
$PDMODE
 70
3
  9
$PDSIZE
 40
0.3125
  9
$HANDSEED
  5
2DD
  9
$TILEMODE
 70
1
  9
$MEASUREMENT
 70
1
  9
$INSUNITS
 70
4
  0
ENDSEC
  0
SECTION
  2
CLASSES
  0
CLASS
  1
ACDBDICTIONARYWDFLT
  2
AcDbDictionaryWithDefault
  3
AutoCAD 2000
 90
0
 91
1
280
0
281
0
  0
CLASS
  1
ACDBPLACEHOLDER
  2
AcDbPlaceHolder
  3
AutoCAD 2000
 90
0
 91
1
280
0
281
0
  0
CLASS
  1
LAYOUT
  2
AcDbLayout
  3
AutoCAD 2000
 90
0
 91
0
280
0
281
0
  0
ENDSEC
  0
SECTION
  2
TABLES
  0
TABLE
  2
VPORT
  5
8
100
AcDbSymbolTable
 70
2
  0
VPORT
  5
1F4
100
AcDbSymbolTableRecord
100
AcDbViewportTableRecord
  2
*ACTIVE
 70
0
 10
0.0
 20
0.0
 11
1.0
 21
1.0
 12
46.2524012219
 22
65.4141102995
 13
0.0
 23
0.0
 14
1.0
 24
1.0
 15
0.0
 25
0.0
 16
0.0
 26
0.0
 36
1.0
 17
0.0
 27
0.0
 37
0.0
 40
130.8282205991
 41
0.7070707071
 42
50.0
 43
0.0
 44
0.0
 50
0.0
 51
0.0
 71
0
 72
100
 73
1
 74
1
 75
0
 76
0
 77
0
 78
0
  0
ENDTAB
  0
TABLE
  2
LTYPE
  5
5
100
AcDbSymbolTable
 70
6
  0
LTYPE
  5
14
100
AcDbSymbolTableRecord
100
AcDbLinetypeTableRecord
  2
BYBLOCK
 70
0
  3

 72
65
 73
0
 40
0.0
  0
LTYPE
  5
15
100
AcDbSymbolTableRecord
100
AcDbLinetypeTableRecord
  2
BYLAYER
 70
0
  3

 72
65
 73
0
 40
0.0
  0
LTYPE
  5
16
100
AcDbSymbolTableRecord
100
AcDbLinetypeTableRecord
  2
CONTINUOUS
 70
64
  3
Solid line
 72
65
 73
0
 40
0.0
  0
LTYPE
  5
1F5
100
AcDbSymbolTableRecord
100
AcDbLinetypeTableRecord
  2
CENTER
 70
64
  3
____ _ ____ _ ____ _ ____ _ ____ _ ____ _ ____
 72
65
 73
4
 40
0.6
 49
0.375
 74
0
 49
-0.075
 74
0
 49
0.075
 74
0
 49
-0.075
 74
0
  0
LTYPE
  5
1F6
100
AcDbSymbolTableRecord
100
AcDbLinetypeTableRecord
  2
HIDDEN
 70
64
  3
- - - - - - - - - - - - - - - - - - - -
 72
65
 73
2
 40
0.2
 49
0.1
 74
0
 49
-0.1
 74
0
  0
LTYPE
  5
1F7
100
AcDbSymbolTableRecord
100
AcDbLinetypeTableRecord
  2
PHANTOM
 70
64
  3
_____ _ _ _____ _ _ _____ _ _ _____
 72
65
 73
6
 40
0.8
 49
0.45
 74
0
 49
-0.05
 74
0
 49
0.1
 74
0
 49
-0.05
 74
0
 49
0.1
 74
0
 49
-0.05
 74
0
  0
LTYPE
  5
1F8
100
AcDbSymbolTableRecord
100
AcDbLinetypeTableRecord
  2
DOT
 70
64
  3
. . . . . . . . . . . . . . . . . . . .
 72
65
 73
2
 40
0.2
 49
0.1
 74
0
 49
-0.1
 74
0
  0
LTYPE
  5
1F9
100
AcDbSymbolTableRecord
100
AcDbLinetypeTableRecord
  2
DASHED
 70
64
  3
- - - - - - - - - - - - - - - - - - - -
 72
65
 73
2
 40
0.2
 49
0.1
 74
0
 49
-0.1
 74
0
  0
ENDTAB
  0
TABLE
  2
LAYER
  5
2
100
AcDbSymbolTable
 70
36
  0
LAYER
  5
10
100
AcDbSymbolTableRecord
100
AcDbLayerTableRecord
  2
0
 70
0
 62
7
  6
CONTINUOUS
370
-3
390
F
  0
LAYER
  5
1FA
100
AcDbSymbolTableRecord
100
AcDbLayerTableRecord
  2
DEFAULT_1
 70
0
 62
7
  6
CENTER
370
-3
390
F
  0
LAYER
  5
1FB
100
AcDbSymbolTableRecord
100
AcDbLayerTableRecord
  2
DEFAULT_2
 70
0
 62
8
  6
HIDDEN
370
-3
390
F
  0
LAYER
  5
1FC
100
AcDbSymbolTableRecord
100
AcDbLayerTableRecord
  2
DEFAULT_3
 70
0
 62
7
  6
PHANTOM
370
-3
390
F
  0
LAYER
  5
1FD
100
AcDbSymbolTableRecord
100
AcDbLayerTableRecord
  2
00_COMPONENTS
 70
0
 62
7
  6
CONTINUOUS
370
-3
390
F
  0
LAYER
  5
1FE
100
AcDbSymbolTableRecord
100
AcDbLayerTableRecord
  2
01_1_DEFAULT_DATUMS
 70
0
 62
7
  6
CONTINUOUS
370
-3
390
F
  0
LAYER
  5
1FF
100
AcDbSymbolTableRecord
100
AcDbLayerTableRecord
  2
01_PLANES
 70
0
 62
7
  6
CONTINUOUS
370
-3
390
F
  0
LAYER
  5
200
100
AcDbSymbolTableRecord
100
AcDbLayerTableRecord
  2
02_COORD_SYS
 70
0
 62
7
  6
CONTINUOUS
370
-3
390
F
  0
LAYER
  5
201
100
AcDbSymbolTableRecord
100
AcDbLayerTableRecord
  2
03_AXES
 70
0
 62
7
  6
CONTINUOUS
370
-3
390
F
  0
LAYER
  5
202
100
AcDbSymbolTableRecord
100
AcDbLayerTableRecord
  2
04_POINTS
 70
0
 62
7
  6
CONTINUOUS
370
-3
390
F
  0
LAYER
  5
203
100
AcDbSymbolTableRecord
100
AcDbLayerTableRecord
  2
05_CURVES
 70
0
 62
7
  6
CONTINUOUS
370
-3
390
F
  0
LAYER
  5
204
100
AcDbSymbolTableRecord
100
AcDbLayerTableRecord
  2
06_SURFS
 70
0
 62
7
  6
CONTINUOUS
370
-3
390
F
  0
LAYER
  5
205
100
AcDbSymbolTableRecord
100
AcDbLayerTableRecord
  2
07_COSMETICS
 70
0
 62
7
  6
CONTINUOUS
370
-3
390
F
  0
LAYER
  5
206
100
AcDbSymbolTableRecord
100
AcDbLayerTableRecord
  2
10_NOTES
 70
0
 62
7
  6
CONTINUOUS
370
-3
390
F
  0
LAYER
  5
207
100
AcDbSymbolTableRecord
100
AcDbLayerTableRecord
  2
11_NOTES_PUB
 70
0
 62
7
  6
CONTINUOUS
370
-3
390
F
  0
LAYER
  5
208
100
AcDbSymbolTableRecord
100
AcDbLayerTableRecord
  2
13_REF_GTOL
 70
0
 62
7
  6
CONTINUOUS
370
-3
390
F
  0
LAYER
  5
209
100
AcDbSymbolTableRecord
100
AcDbLayerTableRecord
  2
16_MISC
 70
0
 62
7
  6
CONTINUOUS
370
-3
390
F
  0
LAYER
  5
20A
100
AcDbSymbolTableRecord
100
AcDbLayerTableRecord
  2
17_NO_PRINT
 70
0
 62
7
  6
CONTINUOUS
370
-3
390
F
  0
LAYER
  5
20B
100
AcDbSymbolTableRecord
100
AcDbLayerTableRecord
  2
18_DATUM_CAMS_JOINTS
 70
0
 62
7
  6
CONTINUOUS
370
-3
390
F
  0
LAYER
  5
20C
100
AcDbSymbolTableRecord
100
AcDbLayerTableRecord
  2
19_DATUM_FUNCTIONAL
 70
0
 62
7
  6
CONTINUOUS
370
-3
390
F
  0
LAYER
  5
20D
100
AcDbSymbolTableRecord
100
AcDbLayerTableRecord
  2
20_DATUM_KINEMATIC_SCHEME
 70
0
 62
7
  6
CONTINUOUS
370
-3
390
F
  0
ENDTAB
  0
TABLE
  2
STYLE
  5
3
100
AcDbSymbolTable
 70
1
  0
STYLE
  5
11
100
AcDbSymbolTableRecord
100
AcDbTextStyleTableRecord
  2
STANDARD
 70
0
 40
0.0
 41
0.8
 50
0.0
 71
0
 42
0.2
  3
txt
  4

  0
STYLE
  5
20E
100
AcDbSymbolTableRecord
100
AcDbTextStyleTableRecord
  2
TEXTSTYLE_1
 70
0
 40
0.0
 41
0.8
 50
0.0
 71
0
 42
0.2
  3
gdt
  4

  0
ENDTAB
  0
TABLE
  2
VIEW
  5
6
100
AcDbSymbolTable
 70
0
  0
ENDTAB
  0
TABLE
  2
UCS
  5
7
100
AcDbSymbolTable
 70
0
  0
ENDTAB
  0
TABLE
  2
APPID
  5
9
100
AcDbSymbolTable
 70
1
  0
APPID
  5
20F
100
AcDbSymbolTableRecord
100
AcDbRegAppTableRecord
  2
ACAD
 70
0
  0
ENDTAB
  0
TABLE
  2
BLOCK_RECORD
  5
1
100
AcDbSymbolTable
 70
0
  0
BLOCK_RECORD
  5
210
100
AcDbSymbolTableRecord
100
AcDbBlockTableRecord
  2
*Model_Space
  0
BLOCK_RECORD
  5
211
100
AcDbSymbolTableRecord
100
AcDbBlockTableRecord
  2
*Paper_Space
  0
BLOCK_RECORD
  5
212
100
AcDbSymbolTableRecord
100
AcDbBlockTableRecord
  2
_FILLED
  0
ENDTAB
  0
TABLE
  2
DIMSTYLE
  5
A
100
AcDbSymbolTable
 70
1
100
AcDbDimStyleTable
 71
0
  0
DIMSTYLE
105
213
100
AcDbSymbolTableRecord
100
AcDbDimStyleTableRecord
  2
STANDARD
 70
0
  3

  4

 40
1.0
 41
1.1012476481
 42
1.0
 43
0.38
 44
1.0
 45
0.0
 46
0.0
 47
0.01
 48
0.01
140
1.5417467074
141
0.09
142
0.0
143
25.4
144
1.0
145
0.0
146
1.0
147
0.625
 71
1
 72
0
 73
0
 74
0
 75
0
 76
0
 77
1
 78
8
 79
2
170
0
171
1
172
0
173
0
174
0
175
0
176
0
177
0
178
0
270
2
179
2
271
2
272
2
273
2
274
2
275
0
280
0
281
0
282
0
283
1
284
8
285
0
286
0
287
3
288
0
340
11
278
46
341
212
342
212
343
212
344
212
  0
ENDTAB
  0
ENDSEC
  0
SECTION
  2
BLOCKS
  0
BLOCK
  5
20
100
AcDbEntity
  8
0
100
AcDbBlockBegin
  2
*Model_Space
 70
0
 10
0.0
 20
0.0
 30
0.0
  3
*Model_Space
  1

  0
ENDBLK
  5
21
100
AcDbEntity
  8
0
100
AcDbBlockEnd
  0
BLOCK
  5
1C
100
AcDbEntity
  8
0
100
AcDbBlockBegin
  2
*Paper_Space
 70
0
 10
0.0
 20
0.0
 30
0.0
  3
*Paper_Space
  1

  0
ENDBLK
  5
1D
100
AcDbEntity
  8
0
100
AcDbBlockEnd
  0
BLOCK
  5
214
100
AcDbEntity
  8
0
100
AcDbBlockBegin
  2
_FILLED
 70
64
 10
0.0
 20
0.0
  3
_FILLED
  1

  0
SOLID
  5
215
100
AcDbEntity
  8
0
  6
BYBLOCK
 62
0
100
AcDbTrace
 10
0.0
 20
0.0
 11
-1.0
 21
0.25
 12
-1.0
 22
-0.25
 13
-1.0
 23
-0.25
  0
ENDBLK
  5
216
100
AcDbEntity
  8
0
  6
BYBLOCK
 62
0
100
AcDbBlockEnd
  0
ENDSEC
  0
SECTION
  2
ENTITIES
  0
LINE
  5
217
100
AcDbEntity
  8
0
100
AcDbLine
 62
7
  6
CONTINUOUS
 10
24.2541614739
 20
28.1838000748
 11
26.6583345394
 21
26.7957815095
  0
LINE
  5
218
100
AcDbEntity
  8
0
100
AcDbLine
 62
7
  6
CONTINUOUS
 10
22.9968693668
 20
29.5313093062
 11
25.4010424323
 21
28.1432907409
  0
LINE
  5
219
100
AcDbEntity
  8
0
100
AcDbLine
 62
7
  6
CONTINUOUS
 10
48.3497574819
 20
15.4429790122
 11
28.7592628483
 21
26.7533004888
  0
LINE
  5
21A
100
AcDbEntity
  8
0
100
AcDbLine
 62
7
  6
CONTINUOUS
 10
36.1875714818
 20
23.1182230739
 11
29.4439389288
 21
27.0115730644
  0
LINE
  5
21B
100
AcDbEntity
  8
0
100
AcDbLine
 62
7
  6
CONTINUOUS
 10
22.0847383368
 20
31.2603133879
 11
10.7316213765
 21
37.8148902367
  0
LINE
  5
21C
100
AcDbEntity
  8
0
100
AcDbLine
 62
7
  6
CONTINUOUS
 10
27.3689106021
 20
28.3717460786
 11
22.4191425261
 21
31.2294313603
  0
LINE
  5
21D
100
AcDbEntity
  8
0
100
AcDbLine
 62
7
  6
CONTINUOUS
 10
23.7983935933
 20
28.5454306711
 11
24.2541614739
 21
28.1838000748
  0
LINE
  5
21E
100
AcDbEntity
  8
0
100
AcDbLine
 62
7
  6
CONTINUOUS
 10
22.9968693668
 20
29.5313093063
 11
22.5411012615
 21
29.8929396924
  0
LINE
  5
21F
100
AcDbEntity
  8
0
100
AcDbLine
 62
7
  6
CONTINUOUS
 10
23.7983612299
 20
28.5454004364
 11
22.5410691228
 21
29.8929096677
  0
LINE
  5
220
100
AcDbEntity
  8
0
100
AcDbLine
 62
7
  6
CONTINUOUS
 10
22.9968693668
 20
29.5313093062
 11
24.2541614739
 21
28.1838000749
  0
LINE
  5
221
100
AcDbEntity
  8
0
100
AcDbLine
 62
7
  6
CONTINUOUS
 10
26.6583345394
 20
26.7957815095
 11
25.4010424323
 21
28.1432907409
  0
LINE
  5
222
100
AcDbEntity
  8
0
100
AcDbLine
 62
7
  6
CONTINUOUS
 10
56.54461615
 20
115.7045294956
 11
22.8938073766
 21
96.2763419624
  0
LINE
  5
223
100
AcDbEntity
  8
0
100
AcDbLine
 62
7
  6
CONTINUOUS
 10
36.5338568238
 20
102.2816300048
 11
52.6558243122
 21
111.589596713
  0
LINE
  5
224
100
AcDbEntity
  8
0
100
AcDbLine
 62
7
  6
CONTINUOUS
 10
33.3838814216
 20
28.8911284929
 11
31.8247863732
 21
29.7912520753
  0
LINE
  5
225
100
AcDbEntity
  8
0
100
AcDbLine
 62
7
  6
CONTINUOUS
 10
36.1875714818
 20
27.9519177699
 11
33.3838814216
 21
29.5705929901
  0
LINE
  5
226
100
AcDbEntity
  8
0
100
AcDbLine
 62
7
  6
CONTINUOUS
 10
30.1628976312
 20
32.2438935578
 11
25.720848394
 21
34.8084538625
  0
LINE
  5
227
100
AcDbEntity
  8
0
100
AcDbLine
 62
7
  6
CONTINUOUS
 10
25.315270295
 20
35.2431342598
 11
30.265038371
 21
32.3854489781
  0
LINE
  5
228
100
AcDbEntity
  8
0
100
AcDbLine
 62
7
  6
CONTINUOUS
 10
23.5091164841
 20
36.7268416015
 11
23.6257895887
 21
36.659481877
  0
LINE
  5
229
100
AcDbEntity
  8
0
100
AcDbLine
 62
7
  6
CONTINUOUS
 10
30.6968868402
 20
32.5770743318
 11
30.8135599448
 21
32.5097146073
  0
LINE
  5
22A
100
AcDbEntity
  8
0
100
AcDbLine
 62
7
  6
CONTINUOUS
 10
23.9503695535
 20
35.0173945037
 11
23.5090937538
 21
35.2722498688
  0
LINE
  5
22B
100
AcDbEntity
  8
0
100
AcDbLine
 62
7
  6
CONTINUOUS
 10
30.5173403762
 20
27.9792809856
 11
29.2600482691
 21
29.326790217
  0
LINE
  5
22C
100
AcDbEntity
  8
0
100
AcDbLine
 62
7
  6
CONTINUOUS
 10
10.7316213765
 20
74.5574990075
 11
10.7316213765
 21
37.8148902367
  0
LINE
  5
22D
100
AcDbEntity
  8
0
100
AcDbLine
 62
7
  6
CONTINUOUS
 10
52.6558290226
 20
110.9364087863
 11
37.6652276737
 21
102.2816327242
  0
LINE
  5
22E
100
AcDbEntity
  8
0
100
AcDbLine
 62
7
  6
CONTINUOUS
 10
52.6558290226
 20
110.5281575778
 11
38.0187886459
 21
102.0775088197
  0
LINE
  5
22F
100
AcDbEntity
  8
0
100
AcDbLine
 62
7
  6
CONTINUOUS
 10
42.3321223022
 20
103.277746776
 11
47.9889529999
 21
106.5437000069
  0
LINE
  5
230
100
AcDbEntity
  8
0
100
AcDbLine
 62
7
  6
CONTINUOUS
 10
43.0392355601
 20
102.3796150764
 11
43.4634978624
 21
102.6245615687
  0
LINE
  5
231
100
AcDbEntity
  8
0
100
AcDbLine
 62
7
  6
CONTINUOUS
 10
30.6968868402
 20
36.2298633469
 11
26.5519506184
 21
38.6228892528
  0
LINE
  5
232
100
AcDbEntity
  8
0
100
AcDbLine
 62
7
  6
CONTINUOUS
 10
30.8135599448
 20
36.4697513303
 11
30.6968868402
 21
36.5371110548
  0
LINE
  5
233
100
AcDbEntity
  8
0
100
AcDbLine
 62
7
  6
CONTINUOUS
 10
23.6257895887
 20
40.6195186
 11
23.5091164841
 21
40.6868783245
  0
LINE
  5
234
100
AcDbEntity
  8
0
100
AcDbLine
 62
7
  6
CONTINUOUS
 10
25.720848394
 20
34.8084538625
 11
25.315270295
 21
35.2431342598
  0
LINE
  5
235
100
AcDbEntity
  8
0
100
AcDbLine
 62
7
  6
CONTINUOUS
 10
14.8823731269
 20
63.1959817646
 11
14.8823731269
 21
63.547077804
  0
LINE
  5
236
100
AcDbEntity
  8
0
100
AcDbLine
 62
7
  6
CONTINUOUS
 10
15.476345296
 20
61.048589189
 11
15.476345296
 21
62.8530595308
  0
LINE
  5
237
100
AcDbEntity
  8
0
100
AcDbLine
 62
7
  6
CONTINUOUS
 10
15.8298972146
 20
61.2527112659
 11
15.8298972146
 21
63.0000368926
  0
LINE
  5
238
100
AcDbEntity
  8
0
100
AcDbLine
 62
7
  6
CONTINUOUS
 10
15.8440423531
 20
62.6407743385
 11
15.8440423531
 21
60.8363039966
  0
LINE
  5
239
100
AcDbEntity
  8
0
100
AcDbLine
 62
7
  6
CONTINUOUS
 10
16.4380145222
 20
62.648948144
 11
16.4380145222
 21
62.2978521047
  0
LINE
  5
23A
100
AcDbEntity
  8
0
100
AcDbLine
 62
7
  6
CONTINUOUS
 10
46.5747806531
 20
100.8283022489
 11
46.1505183508
 21
100.5833557565
  0
LINE
  5
23B
100
AcDbEntity
  8
0
100
AcDbLine
 62
7
  6
CONTINUOUS
 10
53.362986911
 20
103.4410702726
 11
47.7061562133
 21
100.1751170416
  0
LINE
  5
23C
100
AcDbEntity
  8
0
100
AcDbLine
 62
7
  6
CONTINUOUS
 10
45.266657219
 20
97.8930446132
 11
60.2572585679
 21
106.5478206752
  0
LINE
  5
23D
100
AcDbEntity
  8
0
100
AcDbLine
 62
7
  6
CONTINUOUS
 10
22.3961110655
 20
37.8048304309
 11
22.3961110655
 21
42.7115450645
  0
LINE
  5
23E
100
AcDbEntity
  8
0
100
AcDbLine
 62
7
  6
CONTINUOUS
 10
61.3886294178
 20
106.5478233947
 11
45.2666619293
 21
97.2398566864
  0
LINE
  5
23F
100
AcDbEntity
  8
0
100
AcDbLine
 62
7
  6
CONTINUOUS
 10
61.3886294178
 20
106.1395721861
 11
45.2666619293
 21
96.8316054779
  0
LINE
  5
240
100
AcDbEntity
  8
0
100
AcDbLine
 62
7
  6
CONTINUOUS
 10
22.8938073766
 20
81.5792984541
 11
10.7316213765
 21
74.5574990075
  0
LINE
  5
241
100
AcDbEntity
  8
0
100
AcDbLine
 62
7
  6
CONTINUOUS
 10
49.3113295572
 20
94.9047195706
 11
65.4332970457
 21
104.2126862789
  0
LINE
  5
242
100
AcDbEntity
  8
0
100
AcDbLine
 62
7
  6
CONTINUOUS
 10
26.3127841701
 20
46.7286555151
 11
23.5090935759
 21
48.3467558749
  0
LINE
  5
243
100
AcDbEntity
  8
0
100
AcDbLine
 62
7
  6
CONTINUOUS
 10
26.6946202422
 20
45.0847293553
 11
33.1766756378
 21
41.3423975906
  0
LINE
  5
244
100
AcDbEntity
  8
0
100
AcDbLine
 62
7
  6
CONTINUOUS
 10
36.1875714818
 20
41.0275740027
 11
33.3838814216
 21
42.6462479699
  0
LINE
  5
245
100
AcDbEntity
  8
0
100
AcDbLine
 62
7
  6
CONTINUOUS
 10
33.3838814216
 20
43.2646608465
 11
26.3127841701
 21
47.3470683917
  0
LINE
  5
246
100
AcDbEntity
  8
0
100
AcDbLine
 62
7
  6
CONTINUOUS
 10
22.8938073766
 20
96.2763419624
 11
22.8938073766
 21
81.5792984541
  0
LINE
  5
247
100
AcDbEntity
  8
0
100
AcDbLine
 62
7
  6
CONTINUOUS
 10
23.5091164841
 20
40.6868783245
 11
23.5091164841
 21
36.7268416015
  0
LINE
  5
248
100
AcDbEntity
  8
0
100
AcDbLine
 62
7
  6
CONTINUOUS
 10
23.6257895887
 20
36.659481877
 11
23.6257895887
 21
40.6195186
  0
LINE
  5
249
100
AcDbEntity
  8
0
100
AcDbLine
 62
7
  6
CONTINUOUS
 10
26.312784258
 20
46.7286535396
 11
26.3127841701
 21
47.3470683917
  0
LINE
  5
24A
100
AcDbEntity
  8
0
100
AcDbLine
 62
7
  6
CONTINUOUS
 10
65.433301756
 20
103.5594983521
 11
50.4427004071
 21
94.9047222901
  0
LINE
  5
24B
100
AcDbEntity
  8
0
100
AcDbLine
 62
7
  6
CONTINUOUS
 10
65.433301756
 20
103.1512471436
 11
50.7962613793
 21
94.7005983855
  0
LINE
  5
24C
100
AcDbEntity
  8
0
100
AcDbLine
 62
7
  6
CONTINUOUS
 10
55.1025239384
 20
95.9049187493
 11
60.7593546361
 21
99.1708719803
  0
LINE
  5
24D
100
AcDbEntity
  8
0
100
AcDbLine
 62
7
  6
CONTINUOUS
 10
55.8096371963
 20
95.0067870498
 11
56.2338994986
 21
95.2517335421
  0
LINE
  5
24E
100
AcDbEntity
  8
0
100
AcDbLine
 62
7
  6
CONTINUOUS
 10
18.0007270148
 20
58.6276968431
 11
13.3267317316
 21
61.3261682305
  0
LINE
  5
24F
100
AcDbEntity
  8
0
100
AcDbLine
 62
7
  6
CONTINUOUS
 10
26.3127841701
 20
47.3470683917
 11
26.6946202422
 21
45.0847293553
  0
LINE
  5
250
100
AcDbEntity
  8
0
100
AcDbLine
 62
7
  6
CONTINUOUS
 10
30.6968868402
 20
32.5770743318
 11
30.6968868402
 21
36.5371110548
  0
LINE
  5
251
100
AcDbEntity
  8
0
100
AcDbLine
 62
7
  6
CONTINUOUS
 10
30.8135599448
 20
32.5097146073
 11
30.8135599448
 21
36.4697513303
  0
LINE
  5
252
100
AcDbEntity
  8
0
100
AcDbLine
 62
7
  6
CONTINUOUS
 10
59.3451822892
 20
93.4554742222
 11
58.9209199869
 21
93.2105277299
  0
LINE
  5
253
100
AcDbEntity
  8
0
100
AcDbLine
 62
7
  6
CONTINUOUS
 10
14.1980488393
 20
66.7572234753
 11
12.0767373277
 21
65.5324910137
  0
LINE
  5
254
100
AcDbEntity
  8
0
100
AcDbLine
 62
7
  6
CONTINUOUS
 10
66.1333885472
 20
96.068242246
 11
60.4765578495
 21
92.802289015
  0
LINE
  5
255
100
AcDbEntity
  8
0
100
AcDbLine
 62
7
  6
CONTINUOUS
 10
15.4480432432
 20
66.6334127777
 11
13.3267317316
 21
65.4086803161
  0
LINE
  5
256
100
AcDbEntity
  8
0
100
AcDbLine
 62
7
  6
CONTINUOUS
 10
58.0441299524
 20
90.516134179
 11
73.0347313013
 21
99.170910241
  0
LINE
  5
257
100
AcDbEntity
  8
0
100
AcDbLine
 62
7
  6
CONTINUOUS
 10
15.8440423531
 20
60.8363039966
 11
15.476345296
 21
61.048589189
  0
LINE
  5
258
100
AcDbEntity
  8
0
100
AcDbLine
 62
7
  6
CONTINUOUS
 10
15.8440423531
 20
61.2445447511
 11
15.8298972146
 21
61.2527112659
  0
LINE
  5
259
100
AcDbEntity
  8
0
100
AcDbLine
 62
7
  6
CONTINUOUS
 10
16.4380145222
 20
62.2978521047
 11
15.8440423531
 21
62.6407743385
  0
LINE
  5
25A
100
AcDbEntity
  8
0
100
AcDbLine
 62
7
  6
CONTINUOUS
 10
15.476345296
 20
62.8530595308
 11
14.8823731269
 21
63.1959817646
  0
LINE
  5
25B
100
AcDbEntity
  8
0
100
AcDbLine
 62
7
  6
CONTINUOUS
 10
14.8823731269
 20
63.547077804
 11
16.4380145222
 21
62.648948144
  0
LINE
  5
25C
100
AcDbEntity
  8
0
100
AcDbLine
 62
7
  6
CONTINUOUS
 10
13.3267317316
 20
65.4086803161
 11
18.0007270148
 21
62.7102089288
  0
LINE
  5
25D
100
AcDbEntity
  8
0
100
AcDbLine
 62
7
  6
CONTINUOUS
 10
33.3838814216
 20
43.2646608465
 11
33.3838815094
 21
42.6462459943
  0
LINE
  5
25E
100
AcDbEntity
  8
0
100
AcDbLine
 62
7
  6
CONTINUOUS
 10
33.3838815094
 20
29.5705970972
 11
33.3838814216
 21
28.8911284929
  0
LINE
  5
25F
100
AcDbEntity
  8
0
100
AcDbLine
 62
7
  6
CONTINUOUS
 10
74.1661021512
 20
99.1709129605
 11
58.0441346627
 21
89.8629462523
  0
LINE
  5
260
100
AcDbEntity
  8
0
100
AcDbLine
 62
7
  6
CONTINUOUS
 10
74.1661021512
 20
98.762661752
 11
58.0441346627
 21
89.4546950437
  0
LINE
  5
261
100
AcDbEntity
  8
0
100
AcDbLine
 62
7
  6
CONTINUOUS
 10
15.186435563
 20
63.371531246
 11
14.8823731269
 21
63.1959817646
  0
LINE
  5
262
100
AcDbEntity
  8
0
100
AcDbLine
 62
7
  6
CONTINUOUS
 10
15.7804077321
 20
63.0286090122
 11
15.476345296
 21
62.8530595308
  0
LINE
  5
263
100
AcDbEntity
  8
0
100
AcDbLine
 62
7
  6
CONTINUOUS
 10
82.0005662553
 20
101.0078623328
 11
48.3497574819
 21
81.5796747997
  0
LINE
  5
264
100
AcDbEntity
  8
0
100
AcDbLine
 62
7
  6
CONTINUOUS
 10
16.1481047892
 20
62.8163238199
 11
15.8440423531
 21
62.6407743385
  0
LINE
  5
265
100
AcDbEntity
  8
0
100
AcDbLine
 62
7
  6
CONTINUOUS
 10
18.0007270148
 20
62.7102089288
 11
20.1220385265
 21
63.9349413904
  0
LINE
  5
266
100
AcDbEntity
  8
0
100
AcDbLine
 62
7
  6
CONTINUOUS
 10
15.8298972146
 20
61.2527112659
 11
15.476345296
 21
61.048589189
  0
LINE
  5
267
100
AcDbEntity
  8
0
100
AcDbLine
 62
7
  6
CONTINUOUS
 10
81.9371897495
 20
51.9321369358
 11
83.2099766565
 21
51.9319655516
  0
LINE
  5
268
100
AcDbEntity
  8
0
100
AcDbLine
 62
7
  6
CONTINUOUS
 10
80.2817540893
 20
53.6225373931
 11
79.3209055518
 21
53.622666774
  0
LINE
  5
269
100
AcDbEntity
  8
0
100
AcDbLine
 62
7
  6
CONTINUOUS
 10
75.7145836355
 20
31.241974451
 11
76.9733012644
 21
30.5152699294
  0
LINE
  5
26A
100
AcDbEntity
  8
0
100
AcDbLine
 62
7
  6
CONTINUOUS
 10
15.4480432432
 20
66.6334127777
 11
20.1220385265
 21
63.9349413904
  0
LINE
  5
26B
100
AcDbEntity
  8
0
100
AcDbLine
 62
7
  6
CONTINUOUS
 10
36.1875714818
 20
59.8608318448
 11
36.1875714818
 21
23.1182230739
  0
LINE
  5
26C
100
AcDbEntity
  8
0
100
AcDbLine
 62
7
  6
CONTINUOUS
 10
36.5338568238
 20
102.2816300048
 11
36.5338568238
 21
101.8733787962
  0
LINE
  5
26D
100
AcDbEntity
  8
0
100
AcDbLine
 62
7
  6
CONTINUOUS
 10
21.3720329304
 20
59.7286186072
 11
19.2507214187
 21
58.5038861456
  0
LINE
  5
26E
100
AcDbEntity
  8
0
100
AcDbLine
 62
7
  6
CONTINUOUS
 10
36.1875714818
 20
59.8608318448
 11
10.7316213765
 21
74.5574990075
  0
LINE
  5
26F
100
AcDbEntity
  8
0
100
AcDbLine
 62
7
  6
CONTINUOUS
 10
43.4634978624
 20
102.1346726633
 11
43.4634978624
 21
102.6245615687
  0
LINE
  5
270
100
AcDbEntity
  8
0
100
AcDbLine
 62
7
  6
CONTINUOUS
 10
45.2666619293
 20
97.2398566864
 11
45.2666619293
 21
96.8316054779
  0
LINE
  5
271
100
AcDbEntity
  8
0
100
AcDbLine
 62
7
  6
CONTINUOUS
 10
26.5519506184
 20
38.6228892528
 11
22.6132168527
 21
33.1642533095
  0
LINE
  5
272
100
AcDbEntity
  8
0
100
AcDbLine
 62
7
  6
CONTINUOUS
 10
22.4191425261
 20
31.2294313603
 11
25.315270295
 21
35.2431342598
  0
LINE
  5
273
100
AcDbEntity
  8
0
100
AcDbLine
 62
7
  6
CONTINUOUS
 10
48.3497574819
 20
66.8826312914
 11
36.1875714818
 21
59.8608318448
  0
LINE
  5
274
100
AcDbEntity
  8
0
100
AcDbLine
 62
7
  6
CONTINUOUS
 10
47.9889529999
 20
100.3383888679
 11
47.9889529999
 21
106.5437000069
  0
LINE
  5
275
100
AcDbEntity
  8
0
100
AcDbLine
 62
7
  6
CONTINUOUS
 10
48.3497574819
 20
81.5796747997
 11
48.3497574819
 21
66.8826312914
  0
LINE
  5
276
100
AcDbEntity
  8
0
100
AcDbLine
 62
7
  6
CONTINUOUS
 10
48.3497574819
 20
30.1400225205
 11
48.3497574819
 21
15.4429790122
  0
LINE
  5
277
100
AcDbEntity
  8
0
100
AcDbLine
 62
7
  6
CONTINUOUS
 10
49.3113295572
 20
94.9047195706
 11
49.3113295572
 21
94.496468362
  0
LINE
  5
278
100
AcDbEntity
  8
0
100
AcDbLine
 62
7
  6
CONTINUOUS
 10
25.720848394
 20
34.8084538625
 11
22.9268613649
 21
30.9363063833
  0
LINE
  5
279
100
AcDbEntity
  8
0
100
AcDbLine
 62
7
  6
CONTINUOUS
 10
79.8865886216
 20
81.0078084684
 11
79.3209055518
 21
80.6812131453
  0
LINE
  5
27A
100
AcDbEntity
  8
0
100
AcDbLine
 62
7
  6
CONTINUOUS
 10
48.3497574819
 20
66.8826312914
 11
22.8938073766
 21
81.5792984541
  0
LINE
  5
27B
100
AcDbEntity
  8
0
100
AcDbLine
 62
7
  6
CONTINUOUS
 10
81.9371897495
 20
50.7563734551
 11
80.3815613077
 21
51.6544956366
  0
LINE
  5
27C
100
AcDbEntity
  8
0
100
AcDbLine
 62
7
  6
CONTINUOUS
 10
52.6558290226
 20
110.9364087863
 11
52.6558290226
 21
110.5281575778
  0
LINE
  5
27D
100
AcDbEntity
  8
0
100
AcDbLine
 62
7
  6
CONTINUOUS
 10
30.265038371
 20
32.3854489781
 11
27.3689106021
 21
28.3717460786
  0
LINE
  5
27E
100
AcDbEntity
  8
0
100
AcDbLine
 62
7
  6
CONTINUOUS
 10
29.2600482691
 20
29.326790217
 11
31.3726948346
 21
32.2546774936
  0
LINE
  5
27F
100
AcDbEntity
  8
0
100
AcDbLine
 62
7
  6
CONTINUOUS
 10
32.9678037815
 20
31.3753438875
 11
30.5173403762
 21
27.9792809856
  0
LINE
  5
280
100
AcDbEntity
  8
0
100
AcDbLine
 62
7
  6
CONTINUOUS
 10
81.9163141619
 20
80.301708501
 11
81.025363327
 21
79.7873208671
  0
LINE
  5
281
100
AcDbEntity
  8
0
100
AcDbLine
 62
7
  6
CONTINUOUS
 10
80.3815613077
 20
51.8994923594
 11
79.3209055518
 21
52.5118483922
  0
LINE
  5
282
100
AcDbEntity
  8
0
100
AcDbLine
 62
7
  6
CONTINUOUS
 10
81.9371897495
 20
51.9321369358
 11
79.3209055518
 21
53.44261515
  0
LINE
  5
283
100
AcDbEntity
  8
0
100
AcDbLine
 62
7
  6
CONTINUOUS
 10
79.3209055518
 20
54.0631440233
 11
80.08399068
 21
53.6225640225
  0
LINE
  5
284
100
AcDbEntity
  8
0
100
AcDbLine
 62
7
  6
CONTINUOUS
 10
80.2817540893
 20
53.6225373931
 11
83.2099766565
 21
51.9319655516
  0
LINE
  5
285
100
AcDbEntity
  8
0
100
AcDbLine
 62
7
  6
CONTINUOUS
 10
56.2338994986
 20
94.7618446367
 11
56.2338994986
 21
95.2517335421
  0
LINE
  5
286
100
AcDbEntity
  8
0
100
AcDbLine
 62
7
  6
CONTINUOUS
 10
58.0441346627
 20
89.8629462523
 11
58.0441346627
 21
89.4546950437
  0
LINE
  5
287
100
AcDbEntity
  8
0
100
AcDbLine
 62
7
  6
CONTINUOUS
 10
60.7593546361
 20
92.9655608412
 11
60.7593546361
 21
99.1708719803
  0
LINE
  5
288
100
AcDbEntity
  8
0
100
AcDbLine
 62
7
  6
CONTINUOUS
 10
61.3886294178
 20
106.5478233947
 11
61.3886294178
 21
106.1395721861
  0
LINE
  5
289
100
AcDbEntity
  8
0
100
AcDbLine
 62
7
  6
CONTINUOUS
 10
48.3497574819
 20
81.5796747997
 11
22.8938073766
 21
96.2763419624
  0
LINE
  5
28A
100
AcDbEntity
  8
0
100
AcDbLine
 62
7
  6
CONTINUOUS
 10
65.433301756
 20
103.5594983521
 11
65.433301756
 21
103.1512471436
  0
LINE
  5
28B
100
AcDbEntity
  8
0
100
AcDbLine
 62
7
  6
CONTINUOUS
 10
74.1661021512
 20
99.1709129605
 11
74.1661021512
 21
98.762661752
  0
LINE
  5
28C
100
AcDbEntity
  8
0
100
AcDbLine
 62
7
  6
CONTINUOUS
 10
79.3209055518
 20
51.2871261286
 11
80.3815613077
 21
51.8994923594
  0
LINE
  5
28D
100
AcDbEntity
  8
0
100
AcDbLine
 62
7
  6
CONTINUOUS
 10
58.0441346627
 20
89.4546950437
 11
49.3113295572
 21
94.496468362
  0
LINE
  5
28E
100
AcDbEntity
  8
0
100
AcDbLine
 62
7
  6
CONTINUOUS
 10
45.2666619293
 20
96.8316054779
 11
36.5338568238
 21
101.8733787962
  0
LINE
  5
28F
100
AcDbEntity
  8
0
100
AcDbLine
 62
7
  6
CONTINUOUS
 10
58.0441346627
 20
89.8629462523
 11
49.3113295572
 21
94.9047195706
  0
LINE
  5
290
100
AcDbEntity
  8
0
100
AcDbLine
 62
7
  6
CONTINUOUS
 10
45.2666619293
 20
97.2398566864
 11
36.5338568238
 21
102.2816300048
  0
LINE
  5
291
100
AcDbEntity
  8
0
100
AcDbLine
 62
7
  6
CONTINUOUS
 10
37.6652276737
 20
102.2816327242
 11
45.266657219
 21
97.8930446132
  0
LINE
  5
292
100
AcDbEntity
  8
0
100
AcDbLine
 62
7
  6
CONTINUOUS
 10
50.4427004071
 20
94.9047222901
 11
58.0441299524
 21
90.516134179
  0
LINE
  5
293
100
AcDbEntity
  8
0
100
AcDbLine
 62
7
  6
CONTINUOUS
 10
81.025363327
 20
79.7873208671
 11
79.3989828549
 21
80.7262908281
  0
LINE
  5
294
100
AcDbEntity
  8
0
100
AcDbLine
 62
7
  6
CONTINUOUS
 10
76.9733012644
 20
30.5152699294
 11
76.9733012644
 21
31.968691075
  0
LINE
  5
295
100
AcDbEntity
  8
0
100
AcDbLine
 62
7
  6
CONTINUOUS
 10
79.3067439272
 20
31.8624756372
 11
79.3067439272
 21
33.3158967828
  0
LINE
  5
296
100
AcDbEntity
  8
0
100
AcDbLine
 62
7
  6
CONTINUOUS
 10
79.3209055518
 20
80.6812131453
 11
79.3209055518
 21
51.2871261286
  0
LINE
  5
297
100
AcDbEntity
  8
0
100
AcDbLine
 62
7
  6
CONTINUOUS
 10
80.3815613077
 20
51.8994923594
 11
80.3815613077
 21
49.8582363166
  0
LINE
  5
298
100
AcDbEntity
  8
0
100
AcDbLine
 62
7
  6
CONTINUOUS
 10
83.2099766565
 20
89.5402255703
 11
81.9163141619
 21
80.301708501
  0
LINE
  5
299
100
AcDbEntity
  8
0
100
AcDbLine
 62
7
  6
CONTINUOUS
 10
80.3815613077
 20
49.8582363166
 11
81.9371897495
 21
50.7563734551
  0
LINE
  5
29A
100
AcDbEntity
  8
0
100
AcDbLine
 62
7
  6
CONTINUOUS
 10
36.1875714818
 20
23.1182230739
 11
48.3497574819
 21
30.1400225205
  0
LINE
  5
29B
100
AcDbEntity
  8
0
100
AcDbLine
 62
7
  6
CONTINUOUS
 10
58.9209199869
 20
93.2105277299
 11
55.8096371963
 21
95.0067870498
  0
LINE
  5
29C
100
AcDbEntity
  8
0
100
AcDbLine
 62
7
  6
CONTINUOUS
 10
46.1505183508
 20
100.5833557565
 11
43.0392355601
 21
102.3796150764
  0
LINE
  5
29D
100
AcDbEntity
  8
0
100
AcDbLine
 62
7
  6
CONTINUOUS
 10
60.4765578495
 20
92.802289015
 11
59.3451822892
 21
93.4554742222
  0
LINE
  5
29E
100
AcDbEntity
  8
0
100
AcDbLine
 62
7
  6
CONTINUOUS
 10
56.2338994986
 20
95.2517335421
 11
55.1025239384
 21
95.9049187493
  0
LINE
  5
29F
100
AcDbEntity
  8
0
100
AcDbLine
 62
7
  6
CONTINUOUS
 10
47.7061562133
 20
100.1751170416
 11
46.5747806531
 21
100.8283022489
  0
LINE
  5
2A0
100
AcDbEntity
  8
0
100
AcDbLine
 62
7
  6
CONTINUOUS
 10
43.4634978624
 20
102.6245615687
 11
42.3321223022
 21
103.277746776
  0
LINE
  5
2A1
100
AcDbEntity
  8
0
100
AcDbLine
 62
7
  6
CONTINUOUS
 10
81.9371897495
 20
50.7563734551
 11
81.9371897495
 21
51.9321369358
  0
LINE
  5
2A2
100
AcDbEntity
  8
0
100
AcDbLine
 62
7
  6
CONTINUOUS
 10
83.2099766565
 20
35.5694157981
 11
83.2099766565
 21
51.9319655516
  0
LINE
  5
2A3
100
AcDbEntity
  8
0
100
AcDbLine
 62
7
  6
CONTINUOUS
 10
83.2099766565
 20
89.5402255703
 11
83.2099766565
 21
93.7860381394
  0
LINE
  5
2A4
100
AcDbEntity
  8
0
100
AcDbLine
 62
7
  6
CONTINUOUS
 10
47.9889529999
 20
106.5437000069
 11
53.362986911
 21
103.4410702726
  0
LINE
  5
2A5
100
AcDbEntity
  8
0
100
AcDbLine
 62
7
  6
CONTINUOUS
 10
60.7593546361
 20
99.1708719803
 11
66.1333885472
 21
96.068242246
  0
LINE
  5
2A6
100
AcDbEntity
  8
0
100
AcDbLine
 62
7
  6
CONTINUOUS
 10
81.025363327
 20
79.7873208671
 11
79.8865886216
 21
81.0078084684
  0
LINE
  5
2A7
100
AcDbEntity
  8
0
100
AcDbLine
 62
7
  6
CONTINUOUS
 10
72.6811703291
 20
98.9667829371
 11
65.433301756
 21
103.1512471436
  0
LINE
  5
2A8
100
AcDbEntity
  8
0
100
AcDbLine
 62
7
  6
CONTINUOUS
 10
59.9036975957
 20
106.3436933712
 11
52.6558290226
 21
110.5281575778
  0
LINE
  5
2A9
100
AcDbEntity
  8
0
100
AcDbLine
 62
7
  6
CONTINUOUS
 10
82.0005662553
 20
101.0078623328
 11
83.2099766565
 21
93.7860381394
  0
LINE
  5
2AA
100
AcDbEntity
  8
0
100
AcDbLine
 62
7
  6
CONTINUOUS
 10
48.3497574819
 20
15.4429790122
 11
83.2099766565
 21
35.5694157981
  0
LINE
  5
2AB
100
AcDbEntity
  8
0
100
AcDbLine
 62
7
  6
CONTINUOUS
 10
79.3067439272
 20
31.8624756372
 11
76.9733012644
 21
30.5152699294
  0
LINE
  5
2AC
100
AcDbEntity
  8
0
100
AcDbLine
 62
7
  6
CONTINUOUS
 10
73.0347313013
 20
99.170910241
 11
65.433301756
 21
103.5594983521
  0
LINE
  5
2AD
100
AcDbEntity
  8
0
100
AcDbLine
 62
7
  6
CONTINUOUS
 10
60.2572585679
 20
106.5478206752
 11
52.6558290226
 21
110.9364087863
  0
LINE
  5
2AE
100
AcDbEntity
  8
0
100
AcDbLine
 62
7
  6
CONTINUOUS
 10
52.6558243122
 20
111.589596713
 11
61.3886294178
 21
106.5478233947
  0
LINE
  5
2AF
100
AcDbEntity
  8
0
100
AcDbLine
 62
7
  6
CONTINUOUS
 10
65.4332970457
 20
104.2126862789
 11
74.1661021512
 21
99.1709129605
  0
LINE
  5
2B0
100
AcDbEntity
  8
0
100
AcDbLine
 62
7
  6
CONTINUOUS
 10
82.0005662553
 20
101.0078623328
 11
56.54461615
 21
115.7045294956
  0
ARC
  5
2B1
100
AcDbEntity
  8
0
100
AcDbCircle
 62
7
  6
CONTINUOUS
 10
19.8502068832
 20
35.5749118533
 40
3.6257623365
100
AcDbArc
 50
17.7388754856
 51
22.3551851295
  0
ARC
  5
2B2
100
AcDbEntity
  8
0
100
AcDbCircle
 62
7
  6
CONTINUOUS
 10
28.9308974475
 20
39.6451554426
 40
2.7426293555
100
AcDbArc
 50
202.7571740001
 51
204.1124112097
  0
ARC
  5
2B3
100
AcDbEntity
  8
0
100
AcDbCircle
 62
7
  6
CONTINUOUS
 10
28.8669090035
 20
39.6166016293
 40
2.6725591416
100
AcDbArc
 50
204.1140986906
 51
205.1639325834
  0
SPLINE
  5
2B4
100
AcDbEntity
  8
0
100
AcDbSpline
 62
7
  6
CONTINUOUS
 70
0
 71
3
 72
11
 73
7
 74
0
 42
0.0000001
 43
0.0000001
 44
0.0000000001
 40
0.0
 40
0.0
 40
0.0
 40
0.0
 40
0.2177843137
 40
0.4509117637
 40
0.7102976701
 40
1.0
 40
1.0
 40
1.0
 40
1.0
 10
19.2507151814
 20
58.503896949
 30
0.0
 10
19.1682505217
 20
58.4562862761
 30
0.0
 10
18.9787751453
 20
58.3875241102
 30
0.0
 10
18.664059774
 20
58.3795555777
 30
0.0
 10
18.3286469451
 20
58.4605517964
 30
0.0
 10
18.110424075
 20
58.5643646487
 30
0.0
 10
18.0007270148
 20
58.6276968431
 30
0.0
  0
SPLINE
  5
2B5
100
AcDbEntity
  8
0
100
AcDbSpline
 62
7
  6
CONTINUOUS
 70
0
 71
3
 72
12
 73
8
 74
0
 42
0.0000001
 43
0.0000001
 44
0.0000000001
 40
0.0
 40
0.0
 40
0.0
 40
0.0
 40
0.1081627917
 40
0.2183732765
 40
0.4513405959
 40
0.710479986
 40
1.0
 40
1.0
 40
1.0
 40
1.0
 10
43.7357517761
 20
76.3439486544
 30
0.0
 10
43.7931413932
 20
76.377068981
 30
0.0
 10
43.9034666234
 20
76.4540916647
 30
0.0
 10
44.1013369688
 20
76.64878124
 30
0.0
 10
44.2974379769
 20
76.9683186812
 30
0.0
 10
44.4337174334
 20
77.4315191859
 30
0.0
 10
44.4606539936
 20
77.7688202355
 30
0.0
 10
44.4606539936
 20
77.9461815462
 30
0.0
  0
SPLINE
  5
2B6
100
AcDbEntity
  8
0
100
AcDbSpline
 62
7
  6
CONTINUOUS
 70
0
 71
3
 72
12
 73
8
 74
0
 42
0.0000001
 43
0.0000001
 44
0.0000000001
 40
0.0
 40
0.0
 40
0.0
 40
0.0
 40
0.1081627917
 40
0.2183732765
 40
0.4513405959
 40
0.710479986
 40
1.0
 40
1.0
 40
1.0
 40
1.0
 10
31.0077767234
 20
83.6922822358
 30
0.0
 10
31.0651663405
 20
83.7254025624
 30
0.0
 10
31.1754915707
 20
83.8024252461
 30
0.0
 10
31.3733619162
 20
83.9971148214
 30
0.0
 10
31.5694629243
 20
84.3166522626
 30
0.0
 10
31.7057423808
 20
84.7798527673
 30
0.0
 10
31.7326789409
 20
85.1171538168
 30
0.0
 10
31.7326789409
 20
85.2945151276
 30
0.0
  0
SPLINE
  5
2B7
100
AcDbEntity
  8
0
100
AcDbSpline
 62
7
  6
CONTINUOUS
 70
0
 71
3
 72
12
 73
8
 74
0
 42
0.0000001
 43
0.0000001
 44
0.0000000001
 40
0.0
 40
0.0
 40
0.0
 40
0.0
 40
0.1081627917
 40
0.2183732765
 40
0.4513405959
 40
0.710479986
 40
1.0
 40
1.0
 40
1.0
 40
1.0
 10
43.7357517761
 20
21.9648876736
 30
0.0
 10
43.7931413932
 20
21.9980080002
 30
0.0
 10
43.9034666234
 20
22.0750306839
 30
0.0
 10
44.1013369688
 20
22.2697202592
 30
0.0
 10
44.2974379769
 20
22.5892577004
 30
0.0
 10
44.4337174334
 20
23.0524582051
 30
0.0
 10
44.4606539936
 20
23.3897592546
 30
0.0
 10
44.4606539936
 20
23.5671205654
 30
0.0
  0
SPLINE
  5
2B8
100
AcDbEntity
  8
0
100
AcDbSpline
 62
7
  6
CONTINUOUS
 70
0
 71
3
 72
14
 73
10
 74
0
 42
0.0000001
 43
0.0000001
 44
0.0000000001
 40
0.0
 40
0.0
 40
0.0
 40
0.0
 40
0.1135099012
 40
0.2286217818
 40
0.3468279814
 40
0.4690940956
 40
0.5958639986
 40
0.7271085147
 40
1.0
 40
1.0
 40
1.0
 40
1.0
 10
22.5410843928
 20
29.8929239457
 30
0.0
 10
22.4497638809
 20
29.9907260962
 30
0.0
 10
22.2860045626
 20
30.2076403177
 30
0.0
 10
22.1101113953
 20
30.5796127878
 30
0.0
 10
22.0074304425
 20
30.9886712892
 30
0.0
 10
21.9805953287
 20
31.4229970488
 30
0.0
 10
22.0295850115
 20
31.8707413686
 30
0.0
 10
22.1956402776
 20
32.476104824
 30
0.0
 10
22.4249829984
 20
32.9033826481
 30
0.0
 10
22.6132168527
 20
33.1642533095
 30
0.0
  0
SPLINE
  5
2B9
100
AcDbEntity
  8
0
100
AcDbSpline
 62
7
  6
CONTINUOUS
 70
0
 71
3
 72
14
 73
10
 74
0
 42
0.0000001
 43
0.0000001
 44
0.0000000001
 40
0.0
 40
0.0
 40
0.0
 40
0.0
 40
0.1142727589
 40
0.2376117362
 40
0.5002971534
 40
0.6332881127
 40
0.7626902387
 40
0.8855305825
 40
1.0
 40
1.0
 40
1.0
 40
1.0
 10
30.8135599448
 20
32.5097146073
 30
0.0
 10
30.9509992386
 20
32.4303657891
 30
0.0
 10
31.2434770662
 20
32.276877404
 30
0.0
 10
31.8772491035
 20
31.9913764248
 30
0.0
 10
32.553457786
 20
31.740390177
 30
0.0
 10
33.2394253954
 20
31.4932313787
 30
0.0
 10
33.7399494789
 20
31.3040171779
 30
0.0
 10
34.2086135583
 20
31.104195813
 30
0.0
 10
34.5025136526
 20
30.9539915944
 30
0.0
 10
34.6401705627
 20
30.8744734737
 30
0.0
  0
SPLINE
  5
2BA
100
AcDbEntity
  8
0
100
AcDbSpline
 62
7
  6
CONTINUOUS
 70
0
 71
3
 72
10
 73
6
 74
0
 42
0.0000001
 43
0.0000001
 44
0.0000000001
 40
0.0
 40
0.0
 40
0.0
 40
0.0
 40
0.2385733894
 40
0.4826952448
 40
1.0
 40
1.0
 40
1.0
 40
1.0
 10
24.9786033809
 20
36.4494121434
 30
0.0
 10
24.880368936
 20
36.4995067197
 30
0.0
 10
24.6727666742
 20
36.5844936217
 30
0.0
 10
24.2211312899
 20
36.6894302177
 30
0.0
 10
23.8631237571
 20
36.6884973712
 30
0.0
 10
23.6257895887
 20
36.659481877
 30
0.0
  0
SPLINE
  5
2BB
100
AcDbEntity
  8
0
100
AcDbSpline
 62
7
  6
CONTINUOUS
 70
0
 71
3
 72
13
 73
9
 74
0
 42
0.0000001
 43
0.0000001
 44
0.0000000001
 40
0.0
 40
0.0
 40
0.0
 40
0.0
 40
0.1207070011
 40
0.2494859455
 40
0.3822834881
 40
0.5149974407
 40
0.7692549608
 40
1.0
 40
1.0
 40
1.0
 40
1.0
 10
22.3960982714
 20
42.7115539892
 30
0.0
 10
22.3961793291
 20
42.9433456727
 30
0.0
 10
22.4434864729
 20
43.4224374274
 30
0.0
 10
22.599905031
 20
44.1402566724
 30
0.0
 10
22.8048201842
 20
44.8693665628
 30
0.0
 10
23.090355616
 20
45.8256251192
 30
0.0
 10
23.3987383687
 20
46.9720205635
 30
0.0
 10
23.5090487312
 20
47.9036600536
 30
0.0
 10
23.5090938101
 20
48.3467560101
 30
0.0
  0
SPLINE
  5
2BC
100
AcDbEntity
  8
0
100
AcDbSpline
 62
7
  6
CONTINUOUS
 70
0
 71
3
 72
9
 73
5
 74
0
 42
0.0000001
 43
0.0000001
 44
0.0000000001
 40
0.0
 40
0.0
 40
0.0
 40
0.0
 40
0.2683784776
 40
1.0
 40
1.0
 40
1.0
 40
1.0
 10
23.509093988
 20
35.2722500041
 30
0.0
 10
23.5090810133
 20
35.3997678752
 30
0.0
 10
23.4930133226
 20
35.8745803725
 30
0.0
 10
23.4096063868
 20
36.3485458712
 30
0.0
 10
23.303582255
 20
36.679606862
 30
0.0
  0
SPLINE
  5
2BD
100
AcDbEntity
  8
0
100
AcDbSpline
 62
7
  6
CONTINUOUS
 70
0
 71
3
 72
13
 73
9
 74
0
 42
0.0000001
 43
0.0000001
 44
0.0000000001
 40
0.0
 40
0.0
 40
0.0
 40
0.0
 40
0.1111580556
 40
0.2294964312
 40
0.3536292761
 40
0.4820118058
 40
0.7438599936
 40
1.0
 40
1.0
 40
1.0
 40
1.0
 10
33.3838815094
 20
42.6462459943
 30
0.0
 10
33.3838815094
 20
42.393599334
 30
0.0
 10
33.3490784149
 20
41.8716334897
 30
0.0
 10
33.2063091162
 20
41.0792818669
 30
0.0
 10
32.9741835706
 20
40.2675593871
 30
0.0
 10
32.5498638976
 20
39.1767301862
 30
0.0
 10
31.8392446934
 20
37.8825235504
 30
0.0
 10
31.1019217622
 20
36.9552844105
 30
0.0
 10
30.6968868402
 20
36.5371110548
 30
0.0
  0
SPLINE
  5
2BE
100
AcDbEntity
  8
0
100
AcDbSpline
 62
7
  6
CONTINUOUS
 70
0
 71
3
 72
14
 73
10
 74
0
 42
0.0000001
 43
0.0000001
 44
0.0000000001
 40
0.0
 40
0.0
 40
0.0
 40
0.0
 40
0.0522920904
 40
0.1263135692
 40
0.2226340608
 40
0.3405529685
 40
0.4788184263
 40
0.6359174317
 40
1.0
 40
1.0
 40
1.0
 40
1.0
 10
22.3961110581
 20
37.8048303501
 30
0.0
 10
22.3961107031
 20
37.7771786072
 30
0.0
 10
22.4131293801
 20
37.7110074075
 30
0.0
 10
22.4663723179
 20
37.6058120751
 30
0.0
 10
22.5545278265
 20
37.4807862584
 30
0.0
 10
22.6783303576
 20
37.3411016723
 30
0.0
 10
22.8377015147
 20
37.1911559628
 30
0.0
 10
23.1097164585
 20
36.972553459
 30
0.0
 10
23.3423842839
 20
36.8231023044
 30
0.0
 10
23.5091164841
 20
36.7268416015
 30
0.0
  0
SPLINE
  5
2BF
100
AcDbEntity
  8
0
100
AcDbSpline
 62
7
  6
CONTINUOUS
 70
0
 71
3
 72
11
 73
7
 74
0
 42
0.0000001
 43
0.0000001
 44
0.0000000001
 40
0.0
 40
0.0
 40
0.0
 40
0.0
 40
0.2223015629
 40
0.4614905243
 40
0.7205287931
 40
1.0
 40
1.0
 40
1.0
 40
1.0
 10
32.7548582885
 20
31.7743219791
 30
0.0
 10
32.8601201638
 20
31.6374766197
 30
0.0
 10
33.047324448
 20
31.3283982833
 30
0.0
 10
33.2428464398
 20
30.8012512982
 30
0.0
 10
33.35987706
 20
30.2064790791
 30
0.0
 10
33.3838815094
 20
29.7876430092
 30
0.0
 10
33.3838815094
 20
29.5705970972
 30
0.0
  0
SPLINE
  5
2C0
100
AcDbEntity
  8
0
100
AcDbSpline
 62
7
  6
CONTINUOUS
 70
0
 71
3
 72
13
 73
9
 74
0
 42
0.0000001
 43
0.0000001
 44
0.0000000001
 40
0.0
 40
0.0
 40
0.0
 40
0.0
 40
0.1110053238
 40
0.2262968022
 40
0.34653907
 40
0.4718354358
 40
0.7331667508
 40
1.0
 40
1.0
 40
1.0
 40
1.0
 10
26.6583345394
 20
26.7957815095
 30
0.0
 10
26.7988702235
 20
26.71464503
 30
0.0
 10
27.1064064467
 20
26.58355394
 30
0.0
 10
27.6083939234
 20
26.4921615529
 30
0.0
 10
28.139218203
 20
26.5053838635
 30
0.0
 10
28.8671271169
 20
26.6622009253
 30
0.0
 10
29.7335156983
 20
27.1061294906
 30
0.0
 10
30.2890920118
 20
27.6629547752
 30
0.0
 10
30.5173403762
 20
27.9792809856
 30
0.0
  0
SPLINE
  5
2C1
100
AcDbEntity
  8
0
100
AcDbSpline
 62
7
  6
CONTINUOUS
 70
0
 71
3
 72
11
 73
7
 74
0
 42
0.0000001
 43
0.0000001
 44
0.0000000001
 40
0.0
 40
0.0
 40
0.0
 40
0.0
 40
0.2289808765
 40
0.4808196592
 40
0.7427220937
 40
1.0
 40
1.0
 40
1.0
 40
1.0
 10
44.4606539936
 20
23.5671205654
 30
0.0
 10
44.4606539936
 20
23.8638522301
 30
0.0
 10
44.3783249493
 20
24.4876404418
 30
0.0
 10
44.0704302217
 20
25.4043572439
 30
0.0
 10
43.5957825698
 20
26.2885900034
 30
0.0
 10
43.1815564222
 20
26.8238613941
 30
0.0
 10
42.9537019377
 20
27.0672514126
 30
0.0
  0
SPLINE
  5
2C2
100
AcDbEntity
  8
0
100
AcDbSpline
 62
7
  6
CONTINUOUS
 70
0
 71
3
 72
11
 73
7
 74
0
 42
0.0000001
 43
0.0000001
 44
0.0000000001
 40
0.0
 40
0.0
 40
0.0
 40
0.0
 40
0.2897033281
 40
0.5490895198
 40
0.7822165953
 40
1.0
 40
1.0
 40
1.0
 40
1.0
 10
11.5589574187
 20
64.3880261596
 30
0.0
 10
11.5589574187
 20
64.5146965206
 30
0.0
 10
11.5781625091
 20
64.7555967006
 30
0.0
 10
11.6757241918
 20
65.0865809239
 30
0.0
 10
11.8399856639
 20
65.3551559034
 30
0.0
 10
11.9942770447
 20
65.4848684632
 30
0.0
 10
12.076743565
 20
65.5324802103
 30
0.0
  0
SPLINE
  5
2C3
100
AcDbEntity
  8
0
100
AcDbSpline
 62
7
  6
CONTINUOUS
 70
0
 71
3
 72
15
 73
11
 74
0
 42
0.0000001
 43
0.0000001
 44
0.0000000001
 40
0.0
 40
0.0
 40
0.0
 40
0.0
 40
0.1141232787
 40
0.2373467935
 40
0.3669716251
 40
0.4999988493
 40
0.6330262331
 40
0.7626515288
 40
0.885875802
 40
1.0
 40
1.0
 40
1.0
 40
1.0
 10
13.3267317316
 20
61.3261682305
 30
0.0
 10
13.2057472149
 20
61.3960170936
 30
0.0
 10
12.9667274871
 20
61.5636315598
 30
0.0
 10
12.6377806681
 20
61.871272974
 30
0.0
 10
12.3347062113
 20
62.2350706392
 30
0.0
 10
12.0687992279
 20
62.641135877
 30
0.0
 10
11.8500875477
 20
63.0744501393
 30
0.0
 10
11.6865637892
 20
63.5188198517
 30
0.0
 10
11.5846085501
 20
63.9575187506
 30
0.0
 10
11.5589574187
 20
64.2483249378
 30
0.0
 10
11.5589574187
 20
64.3880261596
 30
0.0
  0
SPLINE
  5
2C4
100
AcDbEntity
  8
0
100
AcDbSpline
 62
7
  6
CONTINUOUS
 70
0
 71
3
 72
20
 73
16
 74
0
 42
0.0000001
 43
0.0000001
 44
0.0000000001
 40
0.0
 40
0.0
 40
0.0
 40
0.0
 40
0.0623923228
 40
0.1288110236
 40
0.2703047763
 40
0.4173658571
 40
0.5616166103
 40
0.6302527535
 40
0.6953794026
 40
0.7563618387
 40
0.8128311692
 40
0.8647639899
 40
0.912565871
 40
0.9571672013
 40
1.0
 40
1.0
 40
1.0
 40
1.0
 10
44.4606539936
 20
77.9461815462
 30
0.0
 10
44.4606539936
 20
78.0913183981
 30
0.0
 10
44.4409133797
 20
78.3911690656
 30
0.0
 10
44.3307420959
 20
79.0111776345
 30
0.0
 10
44.0644215986
 20
79.7983485124
 30
0.0
 10
43.5832900169
 20
80.6874890825
 30
0.0
 10
43.064992917
 20
81.3513024542
 30
0.0
 10
42.5985465613
 20
81.8005579016
 30
0.0
 10
42.2411451478
 20
82.0803963217
 30
0.0
 10
41.8779313921
 20
82.3025834624
 30
0.0
 10
41.5162945147
 20
82.4623944736
 30
0.0
 10
41.163439502
 20
82.5561976443
 30
0.0
 10
40.8262713527
 20
82.5809453601
 30
0.0
 10
40.5122803938
 20
82.534996908
 30
0.0
 10
40.3220856195
 20
82.4559031686
 30
0.0
 10
40.235788135
 20
82.4060997197
 30
0.0
  0
SPLINE
  5
2C5
100
AcDbEntity
  8
0
100
AcDbSpline
 62
7
  6
CONTINUOUS
 70
0
 71
3
 72
20
 73
16
 74
0
 42
0.0000001
 43
0.0000001
 44
0.0000000001
 40
0.0
 40
0.0
 40
0.0
 40
0.0
 40
0.0623923228
 40
0.1288110236
 40
0.2703047763
 40
0.4173658571
 40
0.5616166103
 40
0.6302527535
 40
0.6953794026
 40
0.7563618387
 40
0.8128311692
 40
0.8647639899
 40
0.912565871
 40
0.9571672013
 40
1.0
 40
1.0
 40
1.0
 40
1.0
 10
31.7326789409
 20
85.2945151276
 30
0.0
 10
31.7326789409
 20
85.4396519795
 30
0.0
 10
31.7129383271
 20
85.739502647
 30
0.0
 10
31.6027670432
 20
86.3595112159
 30
0.0
 10
31.336446546
 20
87.1466820937
 30
0.0
 10
30.8553149643
 20
88.0358226639
 30
0.0
 10
30.3370178643
 20
88.6996360355
 30
0.0
 10
29.8705715087
 20
89.1488914829
 30
0.0
 10
29.5131700952
 20
89.4287299031
 30
0.0
 10
29.1499563394
 20
89.6509170438
 30
0.0
 10
28.7883194621
 20
89.810728055
 30
0.0
 10
28.4354644494
 20
89.9045312256
 30
0.0
 10
28.0982963
 20
89.9292789415
 30
0.0
 10
27.7843053412
 20
89.8833304894
 30
0.0
 10
27.5941105669
 20
89.80423675
 30
0.0
 10
27.5078130824
 20
89.754433301
 30
0.0
  0
SPLINE
  5
2C6
100
AcDbEntity
  8
0
100
AcDbSpline
 62
7
  6
CONTINUOUS
 70
0
 71
3
 72
15
 73
11
 74
0
 42
0.0000001
 43
0.0000001
 44
0.0000000001
 40
0.0
 40
0.0
 40
0.0
 40
0.0
 40
0.1347563641
 40
0.2596951065
 40
0.3784128052
 40
0.4949842529
 40
0.6131507862
 40
0.7357209145
 40
0.8645032702
 40
1.0
 40
1.0
 40
1.0
 40
1.0
 10
34.6401705627
 20
30.8744734737
 30
0.0
 10
34.7759109913
 20
30.7960624168
 30
0.0
 10
35.0303984508
 20
30.6316885982
 30
0.0
 10
35.3651351185
 20
30.3433650096
 30
0.0
 10
35.6370763941
 20
30.022096854
 30
0.0
 10
35.8488047363
 20
29.6675855625
 30
0.0
 10
36.005664521
 20
29.2811221164
 30
0.0
 10
36.112777818
 20
28.8636973097
 30
0.0
 10
36.1748744982
 20
28.4171970107
 30
0.0
 10
36.1875717458
 20
28.1095389842
 30
0.0
 10
36.1875717458
 20
27.9519175352
 30
0.0
  0
SPLINE
  5
2C7
100
AcDbEntity
  8
0
100
AcDbSpline
 62
7
  6
CONTINUOUS
 70
0
 71
3
 72
18
 73
14
 74
0
 42
0.0000001
 43
0.0000001
 44
0.0000000001
 40
0.0
 40
0.0
 40
0.0
 40
0.0
 40
0.1150923969
 40
0.2385071881
 40
0.3672226642
 40
0.4984717579
 40
0.5645358904
 40
0.6304574577
 40
0.6959227493
 40
0.7605253449
 40
0.8237654223
 40
0.8851046906
 40
1.0
 40
1.0
 40
1.0
 40
1.0
 10
36.1875717454
 20
41.0275745414
 30
0.0
 10
36.1875717454
 20
40.7003493286
 30
0.0
 10
36.1300831774
 20
40.0214896466
 30
0.0
 10
35.8862372642
 20
39.0020772834
 30
0.0
 10
35.4513600689
 20
37.995418143
 30
0.0
 10
34.8960471234
 20
37.2387660737
 30
0.0
 10
34.3316730179
 20
36.7431498056
 30
0.0
 10
33.8545853325
 20
36.4424728361
 30
0.0
 10
33.3379347849
 20
36.2267379263
 30
0.0
 10
32.8000270862
 20
36.1023022454
 30
0.0
 10
32.2604956648
 20
36.0690553985
 30
0.0
 10
31.5814153069
 20
36.13703481
 30
0.0
 10
31.0964616146
 20
36.3064216702
 30
0.0
 10
30.8135599448
 20
36.4697513303
 30
0.0
  0
SPLINE
  5
2C8
100
AcDbEntity
  8
0
100
AcDbSpline
 62
7
  6
CONTINUOUS
 70
0
 71
3
 72
12
 73
8
 74
0
 42
0.0000001
 43
0.0000001
 44
0.0000000001
 40
0.0
 40
0.0
 40
0.0
 40
0.0
 40
0.1081627917
 40
0.2183732765
 40
0.4513405959
 40
0.710479986
 40
1.0
 40
1.0
 40
1.0
 40
1.0
 10
40.235788135
 20
82.4060997197
 30
0.0
 10
40.1783985179
 20
82.3729793931
 30
0.0
 10
40.0680732877
 20
82.2959567094
 30
0.0
 10
39.8702029423
 20
82.1012671341
 30
0.0
 10
39.6741019342
 20
81.7817296929
 30
0.0
 10
39.5378224777
 20
81.3185291882
 30
0.0
 10
39.5108859175
 20
80.9812281386
 30
0.0
 10
39.5108859175
 20
80.8038668279
 30
0.0
  0
SPLINE
  5
2C9
100
AcDbEntity
  8
0
100
AcDbSpline
 62
7
  6
CONTINUOUS
 70
0
 71
3
 72
11
 73
7
 74
0
 42
0.0000001
 43
0.0000001
 44
0.0000000001
 40
0.0
 40
0.0
 40
0.0
 40
0.0
 40
0.2177833598
 40
0.4509104088
 40
0.7102966711
 40
1.0
 40
1.0
 40
1.0
 40
1.0
 10
21.372026693
 20
59.7286294106
 30
0.0
 10
21.4544931739
 20
59.7762411861
 30
0.0
 10
21.6087845701
 20
59.905953655
 30
0.0
 10
21.7730460479
 20
60.1745286505
 30
0.0
 10
21.8706077058
 20
60.5055128932
 30
0.0
 10
21.8898128393
 20
60.7464131003
 30
0.0
 10
21.8898128393
 20
60.8730834612
 30
0.0
  0
SPLINE
  5
2CA
100
AcDbEntity
  8
0
100
AcDbSpline
 62
7
  6
CONTINUOUS
 70
0
 71
3
 72
11
 73
7
 74
0
 42
0.0000001
 43
0.0000001
 44
0.0000000001
 40
0.0
 40
0.0
 40
0.0
 40
0.0
 40
0.2177843137
 40
0.4509117637
 40
0.7102976701
 40
1.0
 40
1.0
 40
1.0
 40
1.0
 10
12.076743565
 20
65.5324802103
 30
0.0
 10
12.1592082248
 20
65.5800908831
 30
0.0
 10
12.3486836011
 20
65.648853049
 30
0.0
 10
12.6633989725
 20
65.6568215816
 30
0.0
 10
12.9988118013
 20
65.5758253628
 30
0.0
 10
13.2170346714
 20
65.4720125106
 30
0.0
 10
13.3267317316
 20
65.4086803161
 30
0.0
  0
SPLINE
  5
2CB
100
AcDbEntity
  8
0
100
AcDbSpline
 62
7
  6
CONTINUOUS
 70
0
 71
3
 72
11
 73
7
 74
0
 42
0.0000001
 43
0.0000001
 44
0.0000000001
 40
0.0
 40
0.0
 40
0.0
 40
0.0
 40
0.2428556173
 40
0.5004521581
 40
0.7578106392
 40
1.0
 40
1.0
 40
1.0
 40
1.0
 10
31.6180896274
 20
85.8204569524
 30
0.0
 10
31.3631568027
 20
86.0243724075
 30
0.0
 10
30.8845041983
 20
86.5044572472
 30
0.0
 10
30.3023379356
 20
87.346076718
 30
0.0
 10
29.870126803
 20
88.2726765816
 30
0.0
 10
29.698065739
 20
88.9272266442
 30
0.0
 10
29.6514952863
 20
89.2494369896
 30
0.0
  0
SPLINE
  5
2CC
100
AcDbEntity
  8
0
100
AcDbSpline
 62
7
  6
CONTINUOUS
 70
0
 71
3
 72
13
 73
9
 74
0
 42
0.0000001
 43
0.0000001
 44
0.0000000001
 40
0.0
 40
0.0
 40
0.0
 40
0.0
 40
0.2668331406
 40
0.528164434
 40
0.6534608118
 40
0.7737031029
 40
0.8889946419
 40
1.0
 40
1.0
 40
1.0
 40
1.0
 10
29.2600482691
 20
29.326790217
 30
0.0
 10
29.0317999976
 20
29.0104641354
 30
0.0
 10
28.4762238697
 20
28.4536389574
 30
0.0
 10
27.6098355101
 20
28.0097103543
 30
0.0
 10
26.8819266099
 20
27.8528931495
 30
0.0
 10
26.3511021856
 20
27.8396707344
 30
0.0
 10
25.8491145413
 20
27.9310631603
 30
0.0
 10
25.5415781599
 20
28.0621542363
 30
0.0
 10
25.4010424323
 20
28.1432907408
 30
0.0
  0
SPLINE
  5
2CD
100
AcDbEntity
  8
0
100
AcDbSpline
 62
7
  6
CONTINUOUS
 70
0
 71
3
 72
12
 73
8
 74
0
 42
0.0000001
 43
0.0000001
 44
0.0000000001
 40
0.0
 40
0.0
 40
0.0
 40
0.0
 40
0.1081627917
 40
0.2183732765
 40
0.4513405959
 40
0.710479986
 40
1.0
 40
1.0
 40
1.0
 40
1.0
 10
27.5078130824
 20
89.754433301
 30
0.0
 10
27.4504234653
 20
89.7213129745
 30
0.0
 10
27.3400982351
 20
89.6442902908
 30
0.0
 10
27.1422278897
 20
89.4496007155
 30
0.0
 10
26.9461268815
 20
89.1300632742
 30
0.0
 10
26.809847425
 20
88.6668627696
 30
0.0
 10
26.7829108649
 20
88.32956172
 30
0.0
 10
26.7829108649
 20
88.1522004092
 30
0.0
  0
SPLINE
  5
2CE
100
AcDbEntity
  8
0
100
AcDbSpline
 62
7
  6
CONTINUOUS
 70
0
 71
3
 72
15
 73
11
 74
0
 42
0.0000001
 43
0.0000001
 44
0.0000000001
 40
0.0
 40
0.0
 40
0.0
 40
0.0
 40
0.1141241598
 40
0.2373483675
 40
0.3669736385
 40
0.5000010132
 40
0.6330282465
 40
0.7626531028
 40
0.8858766831
 40
1.0
 40
1.0
 40
1.0
 40
1.0
 10
21.8898128393
 20
60.8730834612
 30
0.0
 10
21.8898128393
 20
61.0127846363
 30
0.0
 10
21.864161763
 20
61.3035907
 30
0.0
 10
21.7622065533
 20
61.7422894451
 30
0.0
 10
21.5986828896
 20
62.1866590602
 30
0.0
 10
21.3799712737
 20
62.619973322
 30
0.0
 10
21.114064322
 20
63.0260386157
 30
0.0
 10
20.8109898284
 20
63.3898364118
 30
0.0
 10
20.4820428909
 20
63.6974779283
 30
0.0
 10
20.2430230837
 20
63.8650925039
 30
0.0
 10
20.1220385265
 20
63.9349413904
 30
0.0
  0
SPLINE
  5
2CF
100
AcDbEntity
  8
0
100
AcDbSpline
 62
7
  6
CONTINUOUS
 70
0
 71
3
 72
11
 73
7
 74
0
 42
0.0000001
 43
0.0000001
 44
0.0000000001
 40
0.0
 40
0.0
 40
0.0
 40
0.0
 40
0.289702329
 40
0.5490881649
 40
0.7822156415
 40
1.0
 40
1.0
 40
1.0
 40
1.0
 10
15.4480432432
 20
66.6334127777
 30
0.0
 10
15.3383461831
 20
66.6967449722
 30
0.0
 10
15.1201233579
 20
66.8005578483
 30
0.0
 10
14.7847105335
 20
66.8815540359
 30
0.0
 10
14.4699951788
 20
66.8735855002
 30
0.0
 10
14.2805197315
 20
66.8048233931
 30
0.0
 10
14.1980550767
 20
66.7572126719
 30
0.0
  0
SPLINE
  5
2D0
100
AcDbEntity
  8
0
100
AcDbSpline
 62
7
  6
CONTINUOUS
 70
0
 71
3
 72
17
 73
13
 74
0
 42
0.0000001
 43
0.0000001
 44
0.0000000001
 40
0.0
 40
0.0
 40
0.0
 40
0.0
 40
0.1457257373
 40
0.29468603
 40
0.4410358233
 40
0.5792622583
 40
0.7049186849
 40
0.8155588826
 40
0.865472059
 40
0.9122720458
 40
0.9567558213
 40
1.0
 40
1.0
 40
1.0
 40
1.0
 10
39.7128975731
 20
25.1773383157
 30
0.0
 10
39.7943094798
 20
24.9121516942
 30
0.0
 10
40.0012949555
 20
24.3882010508
 30
0.0
 10
40.4169327306
 20
23.6558528997
 30
0.0
 10
40.9217967691
 20
22.9994246598
 30
0.0
 10
41.4875490848
 20
22.4561658946
 30
0.0
 10
42.0827010941
 20
22.0564756345
 30
0.0
 10
42.5962683148
 20
21.8553204472
 30
0.0
 10
42.9881611266
 20
21.7966162525
 30
0.0
 10
43.2583605847
 20
21.8019298222
 30
0.0
 10
43.5104266088
 20
21.8555186784
 30
0.0
 10
43.6644539899
 20
21.923740754
 30
0.0
 10
43.7357517761
 20
21.9648876736
 30
0.0
  0
SPLINE
  5
2D1
100
AcDbEntity
  8
0
100
AcDbSpline
 62
7
  6
CONTINUOUS
 70
0
 71
3
 72
11
 73
7
 74
0
 42
0.0000001
 43
0.0000001
 44
0.0000000001
 40
0.0
 40
0.0
 40
0.0
 40
0.0
 40
0.2502153698
 40
0.491786216
 40
0.7372995226
 40
1.0
 40
1.0
 40
1.0
 40
1.0
 10
23.5091164841
 20
40.6868783245
 30
0.0
 10
23.3339908746
 20
40.7879848549
 30
0.0
 10
23.0112638288
 20
41.0288593782
 30
0.0
 10
22.6456319922
 20
41.509846593
 30
0.0
 10
22.4332653867
 20
42.0861117336
 30
0.0
 10
22.3960240275
 20
42.4992474241
 30
0.0
 10
22.3960982714
 20
42.7115539892
 30
0.0
  0
SPLINE
  5
2D2
100
AcDbEntity
  8
0
100
AcDbSpline
 62
7
  6
CONTINUOUS
 70
0
 71
3
 72
13
 73
9
 74
0
 42
0.0000001
 43
0.0000001
 44
0.0000000001
 40
0.0
 40
0.0
 40
0.0
 40
0.0
 40
0.2561399698
 40
0.5179881491
 40
0.6463706819
 40
0.7705035358
 40
0.8888419306
 40
1.0
 40
1.0
 40
1.0
 40
1.0
 10
23.6257895887
 20
40.6195186
 30
0.0
 10
24.0308244528
 20
41.0376918959
 30
0.0
 10
24.7681473309
 20
41.9649309428
 30
0.0
 10
25.4787665253
 20
43.2591374749
 30
0.0
 10
25.9030862273
 20
44.3499666724
 30
0.0
 10
26.1352118361
 20
45.1616892085
 30
0.0
 10
26.2779811312
 20
45.9540409331
 30
0.0
 10
26.3127842128
 20
46.4760068481
 30
0.0
 10
26.312784258
 20
46.7286535396
 30
0.0
  0
SPLINE
  5
2D3
100
AcDbEntity
  8
0
100
AcDbSpline
 62
7
  6
CONTINUOUS
 70
0
 71
3
 72
11
 73
7
 74
0
 42
0.0000001
 43
0.0000001
 44
0.0000000001
 40
0.0
 40
0.0
 40
0.0
 40
0.0
 40
0.2386670004
 40
0.4913207259
 40
0.7484591059
 40
1.0
 40
1.0
 40
1.0
 40
1.0
 10
44.34606468
 20
24.0930623902
 30
0.0
 10
44.1406877504
 20
24.2573391173
 30
0.0
 10
43.7483347915
 20
24.6345417503
 30
0.0
 10
43.2442132259
 20
25.2906164714
 30
0.0
 10
42.8290627395
 20
26.0225943376
 30
0.0
 10
42.6223555763
 20
26.5461749157
 30
0.0
 10
42.5410532095
 20
26.8111645334
 30
0.0
  0
SPLINE
  5
2D4
100
AcDbEntity
  8
0
100
AcDbSpline
 62
7
  6
CONTINUOUS
 70
0
 71
3
 72
11
 73
7
 74
0
 42
0.0000001
 43
0.0000001
 44
0.0000000001
 40
0.0
 40
0.0
 40
0.0
 40
0.0
 40
0.2642294846
 40
0.5245786169
 40
0.7722877551
 40
1.0
 40
1.0
 40
1.0
 40
1.0
 10
27.6731389796
 20
44.5263120114
 30
0.0
 10
27.4344090085
 20
44.1790987374
 30
0.0
 10
27.006080814
 20
43.4571954404
 30
0.0
 10
26.5211556971
 20
42.3211188251
 30
0.0
 10
26.2146127528
 20
41.1844729981
 30
0.0
 10
26.1360082108
 20
40.4255165073
 30
0.0
 10
26.1360082108
 20
40.0623846995
 30
0.0
  0
SPLINE
  5
2D5
100
AcDbEntity
  8
0
100
AcDbSpline
 62
7
  6
CONTINUOUS
 70
0
 71
3
 72
11
 73
7
 74
0
 42
0.0000001
 43
0.0000001
 44
0.0000000001
 40
0.0
 40
0.0
 40
0.0
 40
0.0
 40
0.2897033281
 40
0.5490895198
 40
0.7822165953
 40
1.0
 40
1.0
 40
1.0
 40
1.0
 10
19.7685013277
 20
59.6483509996
 30
0.0
 10
19.7685013277
 20
59.5216806386
 30
0.0
 10
19.7492962373
 20
59.2807804586
 30
0.0
 10
19.6517345546
 20
58.9497962353
 30
0.0
 10
19.4874730825
 20
58.6812212558
 30
0.0
 10
19.3331817017
 20
58.551508696
 30
0.0
 10
19.2507151814
 20
58.503896949
 30
0.0
  0
SPLINE
  5
2D6
100
AcDbEntity
  8
0
100
AcDbSpline
 62
7
  6
CONTINUOUS
 70
0
 71
3
 72
15
 73
11
 74
0
 42
0.0000001
 43
0.0000001
 44
0.0000000001
 40
0.0
 40
0.0
 40
0.0
 40
0.0
 40
0.1141232787
 40
0.2373467935
 40
0.3669716251
 40
0.4999988493
 40
0.6330262331
 40
0.7626515288
 40
0.885875802
 40
1.0
 40
1.0
 40
1.0
 40
1.0
 10
18.0007270148
 20
62.7102089288
 30
0.0
 10
18.1217115315
 20
62.6403600656
 30
0.0
 10
18.3607312593
 20
62.4727455995
 30
0.0
 10
18.6896780783
 20
62.1651041853
 30
0.0
 10
18.9927525352
 20
61.8013065201
 30
0.0
 10
19.2586595185
 20
61.3952412823
 30
0.0
 10
19.4773711987
 20
60.9619270199
 30
0.0
 10
19.6408949572
 20
60.5175573075
 30
0.0
 10
19.7428501963
 20
60.0788584087
 30
0.0
 10
19.7685013277
 20
59.7880522214
 30
0.0
 10
19.7685013277
 20
59.6483509996
 30
0.0
  0
SPLINE
  5
2D7
100
AcDbEntity
  8
0
100
AcDbSpline
 62
7
  6
CONTINUOUS
 70
0
 71
3
 72
9
 73
5
 74
0
 42
0.0000001
 43
0.0000001
 44
0.0000000001
 40
0.0
 40
0.0
 40
0.0
 40
0.0
 40
0.5262626641
 40
1.0
 40
1.0
 40
1.0
 40
1.0
 10
26.1360082108
 20
40.0623846995
 30
0.0
 10
26.1360082108
 20
39.7976459193
 30
0.0
 10
26.174014922
 20
39.2933549821
 30
0.0
 10
26.3095747383
 20
38.8039917718
 30
0.0
 10
26.401774809
 20
38.5842339276
 30
0.0
  0
SPLINE
  5
2D8
100
AcDbEntity
  8
0
100
AcDbSpline
 62
7
  6
CONTINUOUS
 70
0
 71
3
 72
11
 73
7
 74
0
 42
0.0000001
 43
0.0000001
 44
0.0000000001
 40
0.0
 40
0.0
 40
0.0
 40
0.0
 40
0.2428556173
 40
0.5004521581
 40
0.7578106392
 40
1.0
 40
1.0
 40
1.0
 40
1.0
 10
44.34606468
 20
78.472123371
 30
0.0
 10
44.0911318553
 20
78.6760388261
 30
0.0
 10
43.6124792509
 20
79.1561236659
 30
0.0
 10
43.0303129882
 20
79.9977431366
 30
0.0
 10
42.5981018556
 20
80.9243430002
 30
0.0
 10
42.4260407917
 20
81.5788930628
 30
0.0
 10
42.379470339
 20
81.9011034082
 30
0.0
  0
SPLINE
  5
2D9
100
AcDbEntity
  8
0
100
AcDbSpline
 62
7
  6
CONTINUOUS
 70
0
 71
3
 72
20
 73
16
 74
0
 42
0.0000001
 43
0.0000001
 44
0.0000000001
 40
0.0
 40
0.0
 40
0.0
 40
0.0
 40
0.0623923228
 40
0.1288110236
 40
0.2703047763
 40
0.4173658571
 40
0.5616166103
 40
0.6302527535
 40
0.6953794026
 40
0.7563618387
 40
0.8128311692
 40
0.8647639899
 40
0.912565871
 40
0.9571672013
 40
1.0
 40
1.0
 40
1.0
 40
1.0
 10
39.5108859175
 20
80.8038668279
 30
0.0
 10
39.5108859175
 20
80.658729976
 30
0.0
 10
39.5306265314
 20
80.3588793085
 30
0.0
 10
39.6407978153
 20
79.7388707396
 30
0.0
 10
39.9071183125
 20
78.9516998617
 30
0.0
 10
40.3882498942
 20
78.0625592916
 30
0.0
 10
40.9065469941
 20
77.3987459199
 30
0.0
 10
41.3729933498
 20
76.9494904725
 30
0.0
 10
41.7303947633
 20
76.6696520524
 30
0.0
 10
42.093608519
 20
76.4474649117
 30
0.0
 10
42.4552453964
 20
76.2876539005
 30
0.0
 10
42.8081004091
 20
76.1938507298
 30
0.0
 10
43.1452685585
 20
76.169103014
 30
0.0
 10
43.4592595173
 20
76.2150514661
 30
0.0
 10
43.6494542916
 20
76.2941452055
 30
0.0
 10
43.7357517761
 20
76.3439486544
 30
0.0
  0
SPLINE
  5
2DA
100
AcDbEntity
  8
0
100
AcDbSpline
 62
7
  6
CONTINUOUS
 70
0
 71
3
 72
20
 73
16
 74
0
 42
0.0000001
 43
0.0000001
 44
0.0000000001
 40
0.0
 40
0.0
 40
0.0
 40
0.0
 40
0.0623923228
 40
0.1288110236
 40
0.2703047763
 40
0.4173658571
 40
0.5616166103
 40
0.6302527535
 40
0.6953794026
 40
0.7563618387
 40
0.8128311692
 40
0.8647639899
 40
0.912565871
 40
0.9571672013
 40
1.0
 40
1.0
 40
1.0
 40
1.0
 10
26.7829108649
 20
88.1522004092
 30
0.0
 10
26.7829108649
 20
88.0070635574
 30
0.0
 10
26.8026514787
 20
87.7072128899
 30
0.0
 10
26.9128227626
 20
87.0872043209
 30
0.0
 10
27.1791432598
 20
86.3000334431
 30
0.0
 10
27.6602748416
 20
85.4108928729
 30
0.0
 10
28.1785719415
 20
84.7470795013
 30
0.0
 10
28.6450182972
 20
84.2978240539
 30
0.0
 10
29.0024197106
 20
84.0179856338
 30
0.0
 10
29.3656334664
 20
83.7957984931
 30
0.0
 10
29.7272703437
 20
83.6359874818
 30
0.0
 10
30.0801253564
 20
83.5421843112
 30
0.0
 10
30.4172935058
 20
83.5174365954
 30
0.0
 10
30.7312844647
 20
83.5633850475
 30
0.0
 10
30.9214792389
 20
83.6424787868
 30
0.0
 10
31.0077767234
 20
83.6922822358
 30
0.0
  0
ENDSEC
  0
SECTION
  2
OBJECTS
  0
DICTIONARY
  5
C
100
AcDbDictionary
280
0
281
1
  3
ACAD_GROUP
350
D
  3
ACAD_MLINESTYLE
350
17
  3
ACAD_LAYOUT
350
1A
  3
ACAD_PLOTSETTINGS
350
19
  3
ACAD_PLOTSTYLENAME
350
E
  0
DICTIONARY
  5
D
102
{ACAD_REACTORS
330
C
102
}
100
AcDbDictionary
280
0
281
1
  0
ACDBDICTIONARYWDFLT
  5
E
102
{ACAD_REACTORS
330
C
102
}
100
AcDbDictionary
281
1
  3
Normal
350
F
100
AcDbDictionaryWithDefault
340
F
  0
DICTIONARY
  5
17
102
{ACAD_REACTORS
330
C
102
}
100
AcDbDictionary
280
0
281
1
  3
Standard
350
18
  0
DICTIONARY
  5
19
102
{ACAD_REACTORS
330
C
102
}
100
AcDbDictionary
281
1
  0
DICTIONARY
  5
1A
102
{ACAD_REACTORS
330
C
102
}
100
AcDbDictionary
281
1
  3
Model
350
2DB
  3
Layout1
350
2DC
  0
ACDBPLACEHOLDER
  5
F
102
{ACAD_REACTORS
330
E
102
}
  0
MLINESTYLE
  5
18
102
{ACAD_REACTORS
330
17
102
}
100
AcDbMlineStyle
  2
STANDARD
 70
0
  3

 62
256
 51
90.0
 52
90.0
 71
2
 49
0.5
 62
256
  6
BYLAYER
 49
-0.5
 62
256
  6
BYLAYER
  0
LAYOUT
  5
2DB
102
{ACAD_REACTORS
330
1A
102
}
100
AcDbPlotSettings
  1

  2
none_device
  4

  6

 40
0.0
 41
0.0
 42
0.0
 43
0.0
 44
210.0
 45
297.0
 46
0.0
 47
0.0
 48
0.0
 49
0.0
140
0.0
141
0.0
142
1.0
143
1.0
 70
1024
 72
1
 73
0
 74
0
  7

 75
0
147
1.0
148
0.0
149
0.0
100
AcDbLayout
  1
Model
 70
0
 71
0
 10
0.0
 20
0.0
 11
210.0
 21
297.0
 12
0.0
 22
0.0
 32
0.0
 14
0.0
 24
0.0
 34
0.0
 15
0.0
 25
0.0
 35
0.0
146
0.0
 13
0.0
 23
0.0
 33
0.0
 16
1.0
 26
0.0
 36
0.0
 17
0.0
 27
1.0
 37
0.0
 76
0
330
210
345
0
346
0
  0
LAYOUT
  5
2DC
102
{ACAD_REACTORS
330
1A
102
}
100
AcDbPlotSettings
  1

  2
none_device
  4

  6

 40
0.0
 41
0.0
 42
0.0
 43
0.0
 44
210.0
 45
297.0
 46
0.0
 47
0.0
 48
0.0
 49
0.0
140
0.0
141
0.0
142
1.0
143
1.0
 70
0
 72
1
 73
0
 74
0
  7

 75
0
147
1.0
148
0.0
149
0.0
100
AcDbLayout
  1
Layout1
 70
0
 71
1
 10
0.0
 20
0.0
 11
210.0
 21
297.0
 12
0.0
 22
0.0
 32
0.0
 14
0.0
 24
0.0
 34
0.0
 15
0.0
 25
0.0
 35
0.0
146
0.0
 13
0.0
 23
0.0
 33
0.0
 16
1.0
 26
0.0
 36
0.0
 17
0.0
 27
1.0
 37
0.0
 76
0
330
211
345
0
346
0
  0
ENDSEC
  0
EOF
