999
DXF file: C:\Users\sesa63760\Dev\_Creo\CAD\MCADFD0002195_3D-CAD\drw0001_1.dxf
999
Pro/ENGINEER 2019471 by Parametric Technology Corporation
  0
SECTION
  2
HEADER
  9
$ACADVER
  1
AC1024
  9
$DWGCODEPAGE
  3
ANSI_1252
  9
$EXTMAX
 10
79.6682486211
 20
112.673665907
 30
0.0
  9
$EXTMIN
 10
-0.0
 20
0.0
 30
0.0
  9
$LIMMIN
 10
-0.0
 20
0.0
  9
$LIMMAX
 10
79.6682486211
 20
112.673665907
  9
$VIEWCTR
 10
39.8341243106
 20
56.3368329535
  9
$VIEWSIZE
 40
112.673665907
  9
$CLAYER
  8
0
  9
$LTSCALE
 40
7.3446537776
  9
$CELTYPE
  6
BYLAYER
  9
$DIMSCALE
 40
1.0
  9
$DIMASZ
 40
0.9484315312
  9
$DIMEXO
 40
1.0
  9
$DIMDLI
 40
5.0744880646
  9
$DIMEXE
 40
1.0
  9
$DIMCEN
 40
1.2018524363
  9
$DIMLFAC
 40
1.0
  9
$DIMBLK
  1
_FILLED
  9
$DIMALT
 70
0
  9
$DIMALTF
 40
0.0393700787
  9
$DIMTXT
 40
1.3278041437
  9
$DIMTOL
 70
1
  9
$DIMLIM
 70
0
  9
$DIMTFAC
 40
1.0
  9
$DIMTP
 40
0.01
  9
$DIMTM
 40
0.01
  9
$DIMGAP
 40
0.625
  9
$DIMDSEP
 70
46
  9
$AUNITS
 70
0
  9
$PDMODE
 70
3
  9
$PDSIZE
 40
0.3125
  9
$HANDSEED
  5
2ED
  9
$TILEMODE
 70
1
  9
$MEASUREMENT
 70
1
  9
$INSUNITS
 70
4
  0
ENDSEC
  0
SECTION
  2
CLASSES
  0
CLASS
  1
ACDBDICTIONARYWDFLT
  2
AcDbDictionaryWithDefault
  3
AutoCAD 2000
 90
0
 91
1
280
0
281
0
  0
CLASS
  1
ACDBPLACEHOLDER
  2
AcDbPlaceHolder
  3
AutoCAD 2000
 90
0
 91
1
280
0
281
0
  0
CLASS
  1
LAYOUT
  2
AcDbLayout
  3
AutoCAD 2000
 90
0
 91
0
280
0
281
0
  0
ENDSEC
  0
SECTION
  2
TABLES
  0
TABLE
  2
VPORT
  5
8
100
AcDbSymbolTable
 70
2
  0
VPORT
  5
1F4
100
AcDbSymbolTableRecord
100
AcDbViewportTableRecord
  2
*ACTIVE
 70
0
 10
0.0
 20
0.0
 11
1.0
 21
1.0
 12
39.8341243106
 22
56.3368329535
 13
0.0
 23
0.0
 14
1.0
 24
1.0
 15
0.0
 25
0.0
 16
0.0
 26
0.0
 36
1.0
 17
0.0
 27
0.0
 37
0.0
 40
112.673665907
 41
0.7070707071
 42
50.0
 43
0.0
 44
0.0
 50
0.0
 51
0.0
 71
0
 72
100
 73
1
 74
1
 75
0
 76
0
 77
0
 78
0
  0
ENDTAB
  0
TABLE
  2
LTYPE
  5
5
100
AcDbSymbolTable
 70
6
  0
LTYPE
  5
14
100
AcDbSymbolTableRecord
100
AcDbLinetypeTableRecord
  2
BYBLOCK
 70
0
  3

 72
65
 73
0
 40
0.0
  0
LTYPE
  5
15
100
AcDbSymbolTableRecord
100
AcDbLinetypeTableRecord
  2
BYLAYER
 70
0
  3

 72
65
 73
0
 40
0.0
  0
LTYPE
  5
16
100
AcDbSymbolTableRecord
100
AcDbLinetypeTableRecord
  2
CONTINUOUS
 70
64
  3
Solid line
 72
65
 73
0
 40
0.0
  0
LTYPE
  5
1F5
100
AcDbSymbolTableRecord
100
AcDbLinetypeTableRecord
  2
CENTER
 70
64
  3
____ _ ____ _ ____ _ ____ _ ____ _ ____ _ ____
 72
65
 73
4
 40
0.6
 49
0.375
 74
0
 49
-0.075
 74
0
 49
0.075
 74
0
 49
-0.075
 74
0
  0
LTYPE
  5
1F6
100
AcDbSymbolTableRecord
100
AcDbLinetypeTableRecord
  2
HIDDEN
 70
64
  3
- - - - - - - - - - - - - - - - - - - -
 72
65
 73
2
 40
0.2
 49
0.1
 74
0
 49
-0.1
 74
0
  0
LTYPE
  5
1F7
100
AcDbSymbolTableRecord
100
AcDbLinetypeTableRecord
  2
PHANTOM
 70
64
  3
_____ _ _ _____ _ _ _____ _ _ _____
 72
65
 73
6
 40
0.8
 49
0.45
 74
0
 49
-0.05
 74
0
 49
0.1
 74
0
 49
-0.05
 74
0
 49
0.1
 74
0
 49
-0.05
 74
0
  0
LTYPE
  5
1F8
100
AcDbSymbolTableRecord
100
AcDbLinetypeTableRecord
  2
DOT
 70
64
  3
. . . . . . . . . . . . . . . . . . . .
 72
65
 73
2
 40
0.2
 49
0.1
 74
0
 49
-0.1
 74
0
  0
LTYPE
  5
1F9
100
AcDbSymbolTableRecord
100
AcDbLinetypeTableRecord
  2
DASHED
 70
64
  3
- - - - - - - - - - - - - - - - - - - -
 72
65
 73
2
 40
0.2
 49
0.1
 74
0
 49
-0.1
 74
0
  0
ENDTAB
  0
TABLE
  2
LAYER
  5
2
100
AcDbSymbolTable
 70
36
  0
LAYER
  5
10
100
AcDbSymbolTableRecord
100
AcDbLayerTableRecord
  2
0
 70
0
 62
7
  6
CONTINUOUS
370
-3
390
F
  0
LAYER
  5
1FA
100
AcDbSymbolTableRecord
100
AcDbLayerTableRecord
  2
DEFAULT_1
 70
0
 62
7
  6
CENTER
370
-3
390
F
  0
LAYER
  5
1FB
100
AcDbSymbolTableRecord
100
AcDbLayerTableRecord
  2
DEFAULT_2
 70
0
 62
8
  6
HIDDEN
370
-3
390
F
  0
LAYER
  5
1FC
100
AcDbSymbolTableRecord
100
AcDbLayerTableRecord
  2
DEFAULT_3
 70
0
 62
7
  6
PHANTOM
370
-3
390
F
  0
LAYER
  5
1FD
100
AcDbSymbolTableRecord
100
AcDbLayerTableRecord
  2
00_COMPONENTS
 70
0
 62
7
  6
CONTINUOUS
370
-3
390
F
  0
LAYER
  5
1FE
100
AcDbSymbolTableRecord
100
AcDbLayerTableRecord
  2
01_1_DEFAULT_DATUMS
 70
0
 62
7
  6
CONTINUOUS
370
-3
390
F
  0
LAYER
  5
1FF
100
AcDbSymbolTableRecord
100
AcDbLayerTableRecord
  2
01_PLANES
 70
0
 62
7
  6
CONTINUOUS
370
-3
390
F
  0
LAYER
  5
200
100
AcDbSymbolTableRecord
100
AcDbLayerTableRecord
  2
02_COORD_SYS
 70
0
 62
7
  6
CONTINUOUS
370
-3
390
F
  0
LAYER
  5
201
100
AcDbSymbolTableRecord
100
AcDbLayerTableRecord
  2
03_AXES
 70
0
 62
7
  6
CONTINUOUS
370
-3
390
F
  0
LAYER
  5
202
100
AcDbSymbolTableRecord
100
AcDbLayerTableRecord
  2
04_POINTS
 70
0
 62
7
  6
CONTINUOUS
370
-3
390
F
  0
LAYER
  5
203
100
AcDbSymbolTableRecord
100
AcDbLayerTableRecord
  2
05_CURVES
 70
0
 62
7
  6
CONTINUOUS
370
-3
390
F
  0
LAYER
  5
204
100
AcDbSymbolTableRecord
100
AcDbLayerTableRecord
  2
06_SURFS
 70
0
 62
7
  6
CONTINUOUS
370
-3
390
F
  0
LAYER
  5
205
100
AcDbSymbolTableRecord
100
AcDbLayerTableRecord
  2
07_COSMETICS
 70
0
 62
7
  6
CONTINUOUS
370
-3
390
F
  0
LAYER
  5
206
100
AcDbSymbolTableRecord
100
AcDbLayerTableRecord
  2
10_NOTES
 70
0
 62
7
  6
CONTINUOUS
370
-3
390
F
  0
LAYER
  5
207
100
AcDbSymbolTableRecord
100
AcDbLayerTableRecord
  2
11_NOTES_PUB
 70
0
 62
7
  6
CONTINUOUS
370
-3
390
F
  0
LAYER
  5
208
100
AcDbSymbolTableRecord
100
AcDbLayerTableRecord
  2
13_REF_GTOL
 70
0
 62
7
  6
CONTINUOUS
370
-3
390
F
  0
LAYER
  5
209
100
AcDbSymbolTableRecord
100
AcDbLayerTableRecord
  2
16_MISC
 70
0
 62
7
  6
CONTINUOUS
370
-3
390
F
  0
LAYER
  5
20A
100
AcDbSymbolTableRecord
100
AcDbLayerTableRecord
  2
17_NO_PRINT
 70
0
 62
7
  6
CONTINUOUS
370
-3
390
F
  0
LAYER
  5
20B
100
AcDbSymbolTableRecord
100
AcDbLayerTableRecord
  2
18_DATUM_CAMS_JOINTS
 70
0
 62
7
  6
CONTINUOUS
370
-3
390
F
  0
LAYER
  5
20C
100
AcDbSymbolTableRecord
100
AcDbLayerTableRecord
  2
19_DATUM_FUNCTIONAL
 70
0
 62
7
  6
CONTINUOUS
370
-3
390
F
  0
LAYER
  5
20D
100
AcDbSymbolTableRecord
100
AcDbLayerTableRecord
  2
20_DATUM_KINEMATIC_SCHEME
 70
0
 62
7
  6
CONTINUOUS
370
-3
390
F
  0
ENDTAB
  0
TABLE
  2
STYLE
  5
3
100
AcDbSymbolTable
 70
1
  0
STYLE
  5
11
100
AcDbSymbolTableRecord
100
AcDbTextStyleTableRecord
  2
STANDARD
 70
0
 40
0.0
 41
0.8
 50
0.0
 71
0
 42
0.2
  3
txt
  4

  0
STYLE
  5
20E
100
AcDbSymbolTableRecord
100
AcDbTextStyleTableRecord
  2
TEXTSTYLE_1
 70
0
 40
0.0
 41
0.8
 50
0.0
 71
0
 42
0.2
  3
gdt
  4

  0
ENDTAB
  0
TABLE
  2
VIEW
  5
6
100
AcDbSymbolTable
 70
0
  0
ENDTAB
  0
TABLE
  2
UCS
  5
7
100
AcDbSymbolTable
 70
0
  0
ENDTAB
  0
TABLE
  2
APPID
  5
9
100
AcDbSymbolTable
 70
1
  0
APPID
  5
20F
100
AcDbSymbolTableRecord
100
AcDbRegAppTableRecord
  2
ACAD
 70
0
  0
ENDTAB
  0
TABLE
  2
BLOCK_RECORD
  5
1
100
AcDbSymbolTable
 70
0
  0
BLOCK_RECORD
  5
210
100
AcDbSymbolTableRecord
100
AcDbBlockTableRecord
  2
*Model_Space
  0
BLOCK_RECORD
  5
211
100
AcDbSymbolTableRecord
100
AcDbBlockTableRecord
  2
*Paper_Space
  0
BLOCK_RECORD
  5
212
100
AcDbSymbolTableRecord
100
AcDbBlockTableRecord
  2
_FILLED
  0
ENDTAB
  0
TABLE
  2
DIMSTYLE
  5
A
100
AcDbSymbolTable
 70
1
100
AcDbDimStyleTable
 71
0
  0
DIMSTYLE
105
213
100
AcDbSymbolTableRecord
100
AcDbDimStyleTableRecord
  2
STANDARD
 70
0
  3

  4

 40
1.0
 41
0.9484315312
 42
1.0
 43
0.38
 44
1.0
 45
0.0
 46
0.0
 47
0.01
 48
0.01
140
1.3278041437
141
0.09
142
0.0
143
25.4
144
1.0
145
0.0
146
1.0
147
0.625
 71
1
 72
0
 73
0
 74
0
 75
0
 76
0
 77
1
 78
8
 79
2
170
0
171
1
172
0
173
0
174
0
175
0
176
0
177
0
178
0
270
2
179
2
271
2
272
2
273
2
274
2
275
0
280
0
281
0
282
0
283
1
284
8
285
0
286
0
287
3
288
0
340
11
278
46
341
212
342
212
343
212
344
212
  0
ENDTAB
  0
ENDSEC
  0
SECTION
  2
BLOCKS
  0
BLOCK
  5
20
100
AcDbEntity
  8
0
100
AcDbBlockBegin
  2
*Model_Space
 70
0
 10
0.0
 20
0.0
 30
0.0
  3
*Model_Space
  1

  0
ENDBLK
  5
21
100
AcDbEntity
  8
0
100
AcDbBlockEnd
  0
BLOCK
  5
1C
100
AcDbEntity
  8
0
100
AcDbBlockBegin
  2
*Paper_Space
 70
0
 10
0.0
 20
0.0
 30
0.0
  3
*Paper_Space
  1

  0
ENDBLK
  5
1D
100
AcDbEntity
  8
0
100
AcDbBlockEnd
  0
BLOCK
  5
214
100
AcDbEntity
  8
0
100
AcDbBlockBegin
  2
_FILLED
 70
64
 10
0.0
 20
0.0
  3
_FILLED
  1

  0
SOLID
  5
215
100
AcDbEntity
  8
0
  6
BYBLOCK
 62
0
100
AcDbTrace
 10
0.0
 20
0.0
 11
-1.0
 21
0.25
 12
-1.0
 22
-0.25
 13
-1.0
 23
-0.25
  0
ENDBLK
  5
216
100
AcDbEntity
  8
0
  6
BYBLOCK
 62
0
100
AcDbBlockEnd
  0
ENDSEC
  0
SECTION
  2
ENTITIES
  0
LINE
  5
217
100
AcDbEntity
  8
0
100
AcDbLine
 62
7
  6
CONTINUOUS
 10
36.8030127106
 20
10.0789571352
 11
24.2871705755
 21
17.3048184902
  0
LINE
  5
218
100
AcDbEntity
  8
0
100
AcDbLine
 62
7
  6
CONTINUOUS
 10
12.5392092169
 20
25.6974950906
 11
25.055051352
 21
18.4716337356
  0
LINE
  5
219
100
AcDbEntity
  8
0
100
AcDbLine
 62
7
  6
CONTINUOUS
 10
12.1249845755
 20
26.6130673862
 11
24.6408267106
 21
19.3872060312
  0
LINE
  5
21A
100
AcDbEntity
  8
0
100
AcDbLine
 62
7
  6
CONTINUOUS
 10
12.5134594342
 20
26.7636374196
 11
10.1105042992
 21
28.1509528284
  0
LINE
  5
21B
100
AcDbEntity
  8
0
100
AcDbLine
 62
7
  6
CONTINUOUS
 10
21.9184542687
 20
23.4159520097
 11
16.3824496798
 21
26.612093443
  0
LINE
  5
21C
100
AcDbEntity
  8
0
100
AcDbLine
 62
7
  6
CONTINUOUS
 10
12.5139086415
 20
29.2934151255
 11
10.1097354951
 21
30.6814337376
  0
LINE
  5
21D
100
AcDbEntity
  8
0
100
AcDbLine
 62
7
  6
CONTINUOUS
 10
24.6408267106
 20
22.6575802895
 11
21.9184542687
 21
24.2293071944
  0
LINE
  5
21E
100
AcDbEntity
  8
0
100
AcDbLine
 62
7
  6
CONTINUOUS
 10
13.3977886425
 20
29.7630390549
 11
10.9229046045
 21
31.1918816957
  0
LINE
  5
21F
100
AcDbEntity
  8
0
100
AcDbLine
 62
7
  6
CONTINUOUS
 10
19.2314596873
 20
27.1649618223
 11
19.2668151736
 21
27.1445497846
  0
LINE
  5
220
100
AcDbEntity
  8
0
100
AcDbLine
 62
7
  6
CONTINUOUS
 10
18.9796484778
 20
28.0467030422
 11
19.2314596873
 21
27.9013230615
  0
LINE
  5
221
100
AcDbEntity
  8
0
100
AcDbLine
 62
7
  6
CONTINUOUS
 10
14.4585269104
 20
32.4172551799
 11
16.9334109485
 21
30.988412539
  0
LINE
  5
222
100
AcDbEntity
  8
0
100
AcDbLine
 62
7
  6
CONTINUOUS
 10
14.4584237529
 20
33.2336980306
 11
16.9333077909
 21
31.8048553898
  0
LINE
  5
223
100
AcDbEntity
  8
0
100
AcDbLine
 62
7
  6
CONTINUOUS
 10
10.1097354951
 20
30.6814337376
 11
10.1105042992
 21
28.1509528284
  0
LINE
  5
224
100
AcDbEntity
  8
0
100
AcDbLine
 62
7
  6
CONTINUOUS
 10
9.2313666915
 20
29.3760028025
 11
9.2310470081
 21
31.9061444885
  0
LINE
  5
225
100
AcDbEntity
  8
0
100
AcDbLine
 62
7
  6
CONTINUOUS
 10
10.9228942874
 20
32.6209387333
 11
10.922997445
 21
31.8044958826
  0
LINE
  5
226
100
AcDbEntity
  8
0
100
AcDbLine
 62
7
  6
CONTINUOUS
 10
11.012001531
 20
37.3886703576
 11
11.012001531
 21
35.2412312878
  0
LINE
  5
227
100
AcDbEntity
  8
0
100
AcDbLine
 62
7
  6
CONTINUOUS
 10
11.012001531
 20
34.4933554058
 11
11.012001531
 21
33.6523284396
  0
LINE
  5
228
100
AcDbEntity
  8
0
100
AcDbLine
 62
7
  6
CONTINUOUS
 10
24.2871705755
 20
83.4415142777
 11
57.937959347
 21
102.8696902628
  0
LINE
  5
229
100
AcDbEntity
  8
0
100
AcDbLine
 62
7
  6
CONTINUOUS
 10
54.0916135059
 20
98.8119230739
 11
37.82822525
 21
89.4223075348
  0
LINE
  5
22A
100
AcDbEntity
  8
0
100
AcDbLine
 62
7
  6
CONTINUOUS
 10
56.1422146338
 20
99.5875799115
 11
58.2635261455
 21
100.8123123731
  0
LINE
  5
22B
100
AcDbEntity
  8
0
100
AcDbLine
 62
7
  6
CONTINUOUS
 10
19.2668151736
 20
31.2409180983
 11
19.2314596873
 21
31.261330136
  0
LINE
  5
22C
100
AcDbEntity
  8
0
100
AcDbLine
 62
7
  6
CONTINUOUS
 10
12.1603624359
 20
35.3437376812
 11
12.1250069186
 21
35.3641497368
  0
LINE
  5
22D
100
AcDbEntity
  8
0
100
AcDbLine
 62
7
  6
CONTINUOUS
 10
19.914474168
 20
32.1637178396
 11
14.1735465174
 21
35.4781689812
  0
LINE
  5
22E
100
AcDbEntity
  8
0
100
AcDbLine
 62
7
  6
CONTINUOUS
 10
20.7831262048
 20
33.4556016388
 11
15.1281010947
 21
36.7204580474
  0
LINE
  5
22F
100
AcDbEntity
  8
0
100
AcDbLine
 62
7
  6
CONTINUOUS
 10
11.9836531895
 20
32.417040783
 11
11.9835500319
 21
33.2334836338
  0
LINE
  5
230
100
AcDbEntity
  8
0
100
AcDbLine
 62
7
  6
CONTINUOUS
 10
12.1249845755
 20
26.6130673862
 11
12.1249845755
 21
26.98791841
  0
LINE
  5
231
100
AcDbEntity
  8
0
100
AcDbLine
 62
7
  6
CONTINUOUS
 10
12.1249845755
 20
42.9537747835
 11
12.1249845755
 21
60.0896664885
  0
LINE
  5
232
100
AcDbEntity
  8
0
100
AcDbLine
 62
7
  6
CONTINUOUS
 10
12.1250069267
 20
34.2951060636
 11
12.1250069186
 21
35.3641497368
  0
LINE
  5
233
100
AcDbEntity
  8
0
100
AcDbLine
 62
7
  6
CONTINUOUS
 10
12.1603624359
 20
34.3155244104
 11
12.1603624359
 21
35.3437376812
  0
LINE
  5
234
100
AcDbEntity
  8
0
100
AcDbLine
 62
7
  6
CONTINUOUS
 10
12.7282609436
 20
30.2735526466
 11
12.7282093648
 21
30.681774072
  0
LINE
  5
235
100
AcDbEntity
  8
0
100
AcDbLine
 62
7
  6
CONTINUOUS
 10
14.4584237529
 20
33.2336980306
 11
14.4585269105
 21
32.4172551798
  0
LINE
  5
236
100
AcDbEntity
  8
0
100
AcDbLine
 62
7
  6
CONTINUOUS
 10
14.8473570173
 20
42.1954030632
 11
14.8473570173
 21
41.3820478786
  0
LINE
  5
237
100
AcDbEntity
  8
0
100
AcDbLine
 62
7
  6
CONTINUOUS
 10
12.5139085876
 20
29.2934151567
 11
12.5134594342
 21
26.7636374196
  0
LINE
  5
238
100
AcDbEntity
  8
0
100
AcDbLine
 62
7
  6
CONTINUOUS
 10
39.1010174561
 20
89.4223105942
 11
54.0916188051
 21
98.0770866563
  0
LINE
  5
239
100
AcDbEntity
  8
0
100
AcDbLine
 62
7
  6
CONTINUOUS
 10
39.8081394005
 20
89.0140627851
 11
54.0916188051
 21
97.2605842392
  0
LINE
  5
23A
100
AcDbEntity
  8
0
100
AcDbLine
 62
7
  6
CONTINUOUS
 10
45.0406943991
 20
91.3818711429
 11
48.364082434
 21
93.3006186661
  0
LINE
  5
23B
100
AcDbEntity
  8
0
100
AcDbLine
 62
7
  6
CONTINUOUS
 10
44.47502075
 20
89.7488999664
 11
45.0407038198
 21
90.0754952895
  0
LINE
  5
23C
100
AcDbEntity
  8
0
100
AcDbLine
 62
7
  6
CONTINUOUS
 10
61.3869038004
 20
99.1046848155
 11
62.9230829093
 21
99.9915929434
  0
LINE
  5
23D
100
AcDbEntity
  8
0
100
AcDbLine
 62
7
  6
CONTINUOUS
 10
15.235292151
 20
39.8788849016
 11
21.7226779704
 21
36.1334756849
  0
LINE
  5
23E
100
AcDbEntity
  8
0
100
AcDbLine
 62
7
  6
CONTINUOUS
 10
12.1249845755
 20
42.9537747835
 11
14.8473570173
 21
41.3820478786
  0
LINE
  5
23F
100
AcDbEntity
  8
0
100
AcDbLine
 62
7
  6
CONTINUOUS
 10
21.9184542687
 20
37.2996403334
 11
24.6408267106
 21
35.7279134285
  0
LINE
  5
240
100
AcDbEntity
  8
0
100
AcDbLine
 62
7
  6
CONTINUOUS
 10
14.8473570173
 20
42.1954030633
 11
15.235292151
 21
39.8788849016
  0
LINE
  5
241
100
AcDbEntity
  8
0
100
AcDbLine
 62
7
  6
CONTINUOUS
 10
15.1282609245
 20
30.2738558866
 11
15.1282093457
 21
30.682077312
  0
LINE
  5
242
100
AcDbEntity
  8
0
100
AcDbLine
 62
7
  6
CONTINUOUS
 10
16.7565492251
 20
29.2937827096
 11
16.7568689405
 21
26.7633883384
  0
LINE
  5
243
100
AcDbEntity
  8
0
100
AcDbLine
 62
7
  6
CONTINUOUS
 10
16.9334109485
 20
30.988412539
 11
16.9333077909
 21
31.8048553898
  0
LINE
  5
244
100
AcDbEntity
  8
0
100
AcDbLine
 62
7
  6
CONTINUOUS
 10
61.3869038004
 20
97.5845531077
 11
63.1552137748
 21
98.6054812533
  0
LINE
  5
245
100
AcDbEntity
  8
0
100
AcDbLine
 62
7
  6
CONTINUOUS
 10
28.4951008207
 20
77.500475651
 11
27.9294177509
 21
77.1738803279
  0
LINE
  5
246
100
AcDbEntity
  8
0
100
AcDbLine
 62
7
  6
CONTINUOUS
 10
63.9558711975
 20
97.6485120723
 11
65.4686779198
 21
98.5219262271
  0
LINE
  5
247
100
AcDbEntity
  8
0
100
AcDbLine
 62
7
  6
CONTINUOUS
 10
49.0005182806
 20
87.7893470642
 11
48.4348352108
 21
87.4627517411
  0
LINE
  5
248
100
AcDbEntity
  8
0
100
AcDbLine
 62
7
  6
CONTINUOUS
 10
63.9558711975
 20
96.1805413277
 11
62.9515163766
 21
95.6006802628
  0
LINE
  5
249
100
AcDbEntity
  8
0
100
AcDbLine
 62
7
  6
CONTINUOUS
 10
30.384881335
 20
76.2656138167
 11
30.2271230088
 21
76.1745325482
  0
LINE
  5
24A
100
AcDbEntity
  8
0
100
AcDbLine
 62
7
  6
CONTINUOUS
 10
21.9184542687
 20
38.112995518
 11
14.8473570173
 21
42.1954030632
  0
LINE
  5
24B
100
AcDbEntity
  8
0
100
AcDbLine
 62
7
  6
CONTINUOUS
 10
19.2314596873
 20
27.1649618223
 11
19.2314596873
 21
31.261330136
  0
LINE
  5
24C
100
AcDbEntity
  8
0
100
AcDbLine
 62
7
  6
CONTINUOUS
 10
19.2668151736
 20
27.1445497846
 11
19.2668151736
 21
31.2409180983
  0
LINE
  5
24D
100
AcDbEntity
  8
0
100
AcDbLine
 62
7
  6
CONTINUOUS
 10
21.9184542687
 20
38.1129955181
 11
21.9184542687
 21
37.2996403334
  0
LINE
  5
24E
100
AcDbEntity
  8
0
100
AcDbLine
 62
7
  6
CONTINUOUS
 10
21.9184542687
 20
24.2293071944
 11
21.9184542687
 21
23.4159520097
  0
LINE
  5
24F
100
AcDbEntity
  8
0
100
AcDbLine
 62
7
  6
CONTINUOUS
 10
61.4455599466
 20
93.8313828093
 11
46.4549585976
 21
85.1766067472
  0
LINE
  5
250
100
AcDbEntity
  8
0
100
AcDbLine
 62
7
  6
CONTINUOUS
 10
46.4549638968
 20
84.4417703297
 11
62.7183521527
 21
93.8313858687
  0
LINE
  5
251
100
AcDbEntity
  8
0
100
AcDbLine
 62
7
  6
CONTINUOUS
 10
66.8902647921
 20
95.8317751679
 11
64.7689532805
 21
94.6070427063
  0
LINE
  5
252
100
AcDbEntity
  8
0
100
AcDbLine
 62
7
  6
CONTINUOUS
 10
62.7183521527
 20
93.4231346601
 11
46.4549638968
 21
84.0335191211
  0
LINE
  5
253
100
AcDbEntity
  8
0
100
AcDbLine
 62
7
  6
CONTINUOUS
 10
36.8030127106
 20
76.2156529227
 11
70.4538014821
 21
95.6438289078
  0
LINE
  5
254
100
AcDbEntity
  8
0
100
AcDbLine
 62
7
  6
CONTINUOUS
 10
13.5391922499
 20
62.5391596305
 11
24.2871705755
 21
68.7444707694
  0
LINE
  5
255
100
AcDbEntity
  8
0
100
AcDbLine
 62
7
  6
CONTINUOUS
 10
24.2871705755
 20
17.3048184902
 11
24.2871705755
 21
18.9149598792
  0
LINE
  5
256
100
AcDbEntity
  8
0
100
AcDbLine
 62
7
  6
CONTINUOUS
 10
24.2871705755
 20
68.7444707694
 11
24.2871705755
 21
83.4415142777
  0
LINE
  5
257
100
AcDbEntity
  8
0
100
AcDbLine
 62
7
  6
CONTINUOUS
 10
24.6408267106
 20
19.3872060312
 11
24.6408267106
 21
52.8638051335
  0
LINE
  5
258
100
AcDbEntity
  8
0
100
AcDbLine
 62
7
  6
CONTINUOUS
 10
32.5950824655
 20
70.3990567427
 11
32.0293993957
 21
70.0724614196
  0
LINE
  5
259
100
AcDbEntity
  8
0
100
AcDbLine
 62
7
  6
CONTINUOUS
 10
24.6408267106
 20
52.8638051335
 11
12.1249845755
 21
60.0896664885
  0
LINE
  5
25A
100
AcDbEntity
  8
0
100
AcDbLine
 62
7
  6
CONTINUOUS
 10
70.3904449783
 20
46.5681150588
 11
71.6632318853
 21
46.5679390598
  0
LINE
  5
25B
100
AcDbEntity
  8
0
100
AcDbLine
 62
7
  6
CONTINUOUS
 10
68.9408594435
 20
48.1396659647
 11
67.7741607806
 21
48.139827294
  0
LINE
  5
25C
100
AcDbEntity
  8
0
100
AcDbLine
 62
7
  6
CONTINUOUS
 10
13.5391922499
 20
62.5391596305
 11
26.055034385
 21
55.3132982755
  0
LINE
  5
25D
100
AcDbEntity
  8
0
100
AcDbLine
 62
7
  6
CONTINUOUS
 10
36.8030127106
 20
10.0789571352
 11
36.8030127106
 21
24.7760006435
  0
LINE
  5
25E
100
AcDbEntity
  8
0
100
AcDbLine
 62
7
  6
CONTINUOUS
 10
36.8030127106
 20
61.5186094143
 11
36.8030127106
 21
76.2156529227
  0
LINE
  5
25F
100
AcDbEntity
  8
0
100
AcDbLine
 62
7
  6
CONTINUOUS
 10
26.055034385
 20
55.3132982755
 11
36.8030127106
 21
61.5186094143
  0
LINE
  5
260
100
AcDbEntity
  8
0
100
AcDbLine
 62
7
  6
CONTINUOUS
 10
37.82822525
 20
89.4223075348
 11
37.82822525
 21
89.0140563263
  0
LINE
  5
261
100
AcDbEntity
  8
0
100
AcDbLine
 62
7
  6
CONTINUOUS
 10
68.3398438504
 20
75.6437865914
 11
67.7741607806
 21
75.3171912683
  0
LINE
  5
262
100
AcDbEntity
  8
0
100
AcDbLine
 62
7
  6
CONTINUOUS
 10
70.3665448686
 20
74.9359404258
 11
69.4786345802
 21
74.4233082418
  0
LINE
  5
263
100
AcDbEntity
  8
0
100
AcDbLine
 62
7
  6
CONTINUOUS
 10
36.8030127106
 20
61.5186094143
 11
24.2871705755
 21
68.7444707694
  0
LINE
  5
264
100
AcDbEntity
  8
0
100
AcDbLine
 62
7
  6
CONTINUOUS
 10
45.0406943991
 20
91.3818711429
 11
45.0407038198
 21
89.4223100822
  0
LINE
  5
265
100
AcDbEntity
  8
0
100
AcDbLine
 62
7
  6
CONTINUOUS
 10
46.4549638968
 20
84.4417703297
 11
46.4549638968
 21
84.0335191211
  0
LINE
  5
266
100
AcDbEntity
  8
0
100
AcDbLine
 62
7
  6
CONTINUOUS
 10
48.364082434
 20
87.5035999517
 11
48.364082434
 21
93.3006186661
  0
LINE
  5
267
100
AcDbEntity
  8
0
100
AcDbLine
 62
7
  6
CONTINUOUS
 10
10.1097178087
 20
33.1312458021
 11
14.1735465174
 21
35.4781689812
  0
LINE
  5
268
100
AcDbEntity
  8
0
100
AcDbLine
 62
7
  6
CONTINUOUS
 10
10.9228942874
 20
32.6209387333
 11
11.9835500319
 21
33.2334836338
  0
LINE
  5
269
100
AcDbEntity
  8
0
100
AcDbLine
 62
7
  6
CONTINUOUS
 10
10.922997445
 20
31.8044958826
 11
11.9836531895
 21
32.417040783
  0
LINE
  5
26A
100
AcDbEntity
  8
0
100
AcDbLine
 62
7
  6
CONTINUOUS
 10
70.3904449783
 20
45.3923515781
 11
68.8348165364
 21
46.2904737595
  0
LINE
  5
26B
100
AcDbEntity
  8
0
100
AcDbLine
 62
7
  6
CONTINUOUS
 10
68.8348165364
 20
46.5354704824
 11
67.7741607806
 21
47.1478265152
  0
LINE
  5
26C
100
AcDbEntity
  8
0
100
AcDbLine
 62
7
  6
CONTINUOUS
 10
67.7741607806
 20
47.2294537576
 11
68.269118158
 21
46.943681812
  0
LINE
  5
26D
100
AcDbEntity
  8
0
100
AcDbLine
 62
7
  6
CONTINUOUS
 10
70.3904449783
 20
46.5681150588
 11
67.7741607806
 21
48.078593273
  0
LINE
  5
26E
100
AcDbEntity
  8
0
100
AcDbLine
 62
7
  6
CONTINUOUS
 10
71.6632318853
 20
46.5679390598
 11
68.9408594435
 21
48.1396659647
  0
LINE
  5
26F
100
AcDbEntity
  8
0
100
AcDbLine
 62
7
  6
CONTINUOUS
 10
67.7741607806
 20
48.8624272295
 11
68.7640820122
 21
48.2908795989
  0
LINE
  5
270
100
AcDbEntity
  8
0
100
AcDbLine
 62
7
  6
CONTINUOUS
 10
51.1925095587
 20
93.3006254648
 11
51.1925095587
 21
87.9118167429
  0
LINE
  5
271
100
AcDbEntity
  8
0
100
AcDbLine
 62
7
  6
CONTINUOUS
 10
16.933318108
 20
30.3757983521
 11
15.8726623634
 21
29.7632534517
  0
LINE
  5
272
100
AcDbEntity
  8
0
100
AcDbLine
 62
7
  6
CONTINUOUS
 10
54.0916188051
 20
97.2605842392
 11
54.0916188051
 21
98.0770866563
  0
LINE
  5
273
100
AcDbEntity
  8
0
100
AcDbLine
 62
7
  6
CONTINUOUS
 10
54.5866362394
 20
89.8714049985
 11
54.5866362394
 21
91.3410698431
  0
LINE
  5
274
100
AcDbEntity
  8
0
100
AcDbLine
 62
7
  6
CONTINUOUS
 10
16.7565492251
 20
29.2937827096
 11
19.2314596873
 21
30.7230813209
  0
LINE
  5
275
100
AcDbEntity
  8
0
100
AcDbLine
 62
7
  6
CONTINUOUS
 10
19.2314596873
 20
28.1920854441
 11
16.7568689405
 21
26.7633883384
  0
LINE
  5
276
100
AcDbEntity
  8
0
100
AcDbLine
 62
7
  6
CONTINUOUS
 10
30.7982294057
 20
75.8448115756
 11
30.2271230088
 21
76.1745325482
  0
LINE
  5
277
100
AcDbEntity
  8
0
100
AcDbLine
 62
7
  6
CONTINUOUS
 10
36.8030127106
 20
76.2156529227
 11
24.2871705755
 21
83.4415142777
  0
LINE
  5
278
100
AcDbEntity
  8
0
100
AcDbLine
 62
7
  6
CONTINUOUS
 10
58.2635261455
 20
98.2788240832
 11
58.2635261455
 21
100.8123123731
  0
LINE
  5
279
100
AcDbEntity
  8
0
100
AcDbLine
 62
7
  6
CONTINUOUS
 10
61.3869038004
 20
97.5845531077
 11
61.3869038004
 21
99.1046848155
  0
LINE
  5
27A
100
AcDbEntity
  8
0
100
AcDbLine
 62
7
  6
CONTINUOUS
 10
62.7183521527
 20
93.8313858687
 11
62.7183521527
 21
93.4231346601
  0
LINE
  5
27B
100
AcDbEntity
  8
0
100
AcDbLine
 62
7
  6
CONTINUOUS
 10
67.7741607806
 20
45.9231042516
 11
68.8348165364
 21
46.5354704824
  0
LINE
  5
27C
100
AcDbEntity
  8
0
100
AcDbLine
 62
7
  6
CONTINUOUS
 10
63.9558711975
 20
95.0515747241
 11
63.9558711975
 21
97.6485120723
  0
LINE
  5
27D
100
AcDbEntity
  8
0
100
AcDbLine
 62
7
  6
CONTINUOUS
 10
68.8348165364
 20
44.4942144396
 11
70.3904449783
 21
45.3923515781
  0
LINE
  5
27E
100
AcDbEntity
  8
0
100
AcDbLine
 62
7
  6
CONTINUOUS
 10
36.8030127106
 20
24.7760006435
 11
26.055034385
 21
18.5706895047
  0
LINE
  5
27F
100
AcDbEntity
  8
0
100
AcDbLine
 62
7
  6
CONTINUOUS
 10
67.7741607806
 20
75.3171912683
 11
67.7741607806
 21
45.9231042516
  0
LINE
  5
280
100
AcDbEntity
  8
0
100
AcDbLine
 62
7
  6
CONTINUOUS
 10
68.269118158
 20
46.8620692048
 11
68.269118158
 21
46.943681812
  0
LINE
  5
281
100
AcDbEntity
  8
0
100
AcDbLine
 62
7
  6
CONTINUOUS
 10
68.7640820122
 20
48.1396904092
 11
68.7640820122
 21
48.2908795989
  0
LINE
  5
282
100
AcDbEntity
  8
0
100
AcDbLine
 62
7
  6
CONTINUOUS
 10
68.8348165364
 20
46.5354704824
 11
68.8348165364
 21
44.4942144396
  0
LINE
  5
283
100
AcDbEntity
  8
0
100
AcDbLine
 62
7
  6
CONTINUOUS
 10
70.3904449783
 20
45.3923515781
 11
70.3904449783
 21
46.5681150588
  0
LINE
  5
284
100
AcDbEntity
  8
0
100
AcDbLine
 62
7
  6
CONTINUOUS
 10
71.6632318853
 20
84.1762036933
 11
70.3665448686
 21
74.9359404258
  0
LINE
  5
285
100
AcDbEntity
  8
0
100
AcDbLine
 62
7
  6
CONTINUOUS
 10
46.4549638968
 20
84.0335191211
 11
37.82822525
 21
89.0140563263
  0
LINE
  5
286
100
AcDbEntity
  8
0
100
AcDbLine
 62
7
  6
CONTINUOUS
 10
37.82822525
 20
89.4223075348
 11
46.4549638968
 21
84.4417703297
  0
LINE
  5
287
100
AcDbEntity
  8
0
100
AcDbLine
 62
7
  6
CONTINUOUS
 10
46.4549585976
 20
85.1766067472
 11
39.1010174561
 21
89.4223105942
  0
LINE
  5
288
100
AcDbEntity
  8
0
100
AcDbLine
 62
7
  6
CONTINUOUS
 10
69.4786345802
 20
74.4233082418
 11
67.8522541081
 21
75.3622782028
  0
LINE
  5
289
100
AcDbEntity
  8
0
100
AcDbLine
 62
7
  6
CONTINUOUS
 10
62.9230829093
 20
99.9915929434
 11
63.1552137748
 21
98.6054812533
  0
LINE
  5
28A
100
AcDbEntity
  8
0
100
AcDbLine
 62
7
  6
CONTINUOUS
 10
71.6632318853
 20
88.4220162624
 11
71.6632318853
 21
84.1762036933
  0
LINE
  5
28B
100
AcDbEntity
  8
0
100
AcDbLine
 62
7
  6
CONTINUOUS
 10
71.6632318853
 20
46.5679390598
 11
71.6632318853
 21
30.205393921
  0
LINE
  5
28C
100
AcDbEntity
  8
0
100
AcDbLine
 62
7
  6
CONTINUOUS
 10
32.5950824655
 20
16.0199957618
 11
32.0293993957
 21
15.6934004387
  0
LINE
  5
28D
100
AcDbEntity
  8
0
100
AcDbLine
 62
7
  6
CONTINUOUS
 10
49.0005182806
 20
87.7893470642
 11
50.9803928295
 21
87.7893518232
  0
LINE
  5
28E
100
AcDbEntity
  8
0
100
AcDbLine
 62
7
  6
CONTINUOUS
 10
48.4348352108
 20
87.4627517411
 11
44.47502075
 21
89.7488999664
  0
LINE
  5
28F
100
AcDbEntity
  8
0
100
AcDbLine
 62
7
  6
CONTINUOUS
 10
69.4786345802
 20
74.4233082418
 11
68.3398438504
 21
75.6437865914
  0
LINE
  5
290
100
AcDbEntity
  8
0
100
AcDbLine
 62
7
  6
CONTINUOUS
 10
51.1925095587
 20
93.3006254648
 11
54.5866362394
 21
91.3410698431
  0
LINE
  5
291
100
AcDbEntity
  8
0
100
AcDbLine
 62
7
  6
CONTINUOUS
 10
70.4538014821
 20
95.6438289078
 11
71.6632318853
 21
88.4220162624
  0
LINE
  5
292
100
AcDbEntity
  8
0
100
AcDbLine
 62
7
  6
CONTINUOUS
 10
71.6632318853
 20
30.205393921
 11
36.8030127106
 21
10.0789571352
  0
LINE
  5
293
100
AcDbEntity
  8
0
100
AcDbLine
 62
7
  6
CONTINUOUS
 10
65.1678967055
 20
25.9421685208
 11
67.5013393683
 21
27.2893742286
  0
LINE
  5
294
100
AcDbEntity
  8
0
100
AcDbLine
 62
7
  6
CONTINUOUS
 10
59.9024527502
 20
97.2676785092
 11
64.7689532805
 21
94.6070427063
  0
LINE
  5
295
100
AcDbEntity
  8
0
100
AcDbLine
 62
7
  6
CONTINUOUS
 10
54.0916188051
 20
97.2605842392
 11
60.7384380022
 21
93.4231282013
  0
LINE
  5
296
100
AcDbEntity
  8
0
100
AcDbLine
 62
7
  6
CONTINUOUS
 10
54.0916188051
 20
98.0770866563
 11
61.4455599466
 21
93.8313828093
  0
LINE
  5
297
100
AcDbEntity
  8
0
100
AcDbLine
 62
7
  6
CONTINUOUS
 10
62.7183521527
 20
93.8313858687
 11
54.0916135059
 21
98.8119230739
  0
LINE
  5
298
100
AcDbEntity
  8
0
100
AcDbLine
 62
7
  6
CONTINUOUS
 10
56.1422146338
 20
99.5875799115
 11
59.9024527502
 21
97.2676785092
  0
LINE
  5
299
100
AcDbEntity
  8
0
100
AcDbLine
 62
7
  6
CONTINUOUS
 10
61.3869038004
 20
99.1046848155
 11
58.2635261455
 21
100.8123123731
  0
LINE
  5
29A
100
AcDbEntity
  8
0
100
AcDbLine
 62
7
  6
CONTINUOUS
 10
70.4538014821
 20
95.6438289078
 11
65.4686779198
 21
98.5219262271
  0
LINE
  5
29B
100
AcDbEntity
  8
0
100
AcDbLine
 62
7
  6
CONTINUOUS
 10
62.9230829093
 20
99.9915929434
 11
57.937959347
 21
102.8696902628
  0
LINE
  5
29C
100
AcDbEntity
  8
0
100
AcDbLine
 62
7
  6
CONTINUOUS
 10
66.8902647921
 20
95.8317751679
 11
63.9558711975
 21
97.6485120723
  0
SPLINE
  5
29D
100
AcDbEntity
  8
0
100
AcDbSpline
 62
7
  6
CONTINUOUS
 70
0
 71
3
 72
15
 73
11
 74
0
 42
0.0000001
 43
0.0000001
 44
0.0000000001
 40
0.0
 40
0.0
 40
0.0
 40
0.0
 40
0.1146295927
 40
0.2349206653
 40
0.3596906811
 40
0.4875742636
 40
0.6170873098
 40
0.7466851977
 40
0.8748222205
 40
1.0
 40
1.0
 40
1.0
 40
1.0
 10
32.4649030066
 20
18.0708678732
 30
0.0
 10
32.3485363391
 20
18.1525044084
 30
0.0
 10
32.1189233789
 20
18.332713318
 30
0.0
 10
31.7949585871
 20
18.6401047273
 30
0.0
 10
31.4877276445
 20
18.986507525
 30
0.0
 10
31.2027150966
 20
19.365750579
 30
0.0
 10
30.9449603181
 20
19.7711144118
 30
0.0
 10
30.7190378585
 20
20.1954095189
 30
0.0
 10
30.5289814999
 20
20.6310542397
 30
0.0
 10
30.4268296272
 20
20.9285602414
 30
0.0
 10
30.3828510482
 20
21.0774271488
 30
0.0
  0
SPLINE
  5
29E
100
AcDbEntity
  8
0
100
AcDbSpline
 62
7
  6
CONTINUOUS
 70
0
 71
3
 72
16
 73
12
 74
0
 42
0.0000001
 43
0.0000001
 44
0.0000000001
 40
0.0
 40
0.0
 40
0.0
 40
0.0
 40
0.1161853865
 40
0.2389796533
 40
0.3665545512
 40
0.4968051607
 40
0.6274806391
 40
0.7563095924
 40
0.8811127808
 40
0.9414213561
 40
1.0
 40
1.0
 40
1.0
 40
1.0
 10
32.4649030066
 20
72.449928854
 30
0.0
 10
32.3236608916
 20
72.5490166524
 30
0.0
 10
32.0462160714
 20
72.7718872075
 30
0.0
 10
31.6614436677
 20
73.158219519
 30
0.0
 10
31.3043367618
 20
73.5975156145
 30
0.0
 10
30.9841488928
 20
74.0784301365
 30
0.0
 10
30.7090739727
 20
74.5886277463
 30
0.0
 10
30.4862309709
 20
75.1149195036
 30
0.0
 10
30.3471662386
 20
75.5608470111
 30
0.0
 10
30.2677325591
 20
75.9140497021
 30
0.0
 10
30.2387589234
 20
76.0883260356
 30
0.0
 10
30.2271230088
 20
76.1745325482
 30
0.0
  0
SPLINE
  5
29F
100
AcDbEntity
  8
0
100
AcDbSpline
 62
7
  6
CONTINUOUS
 70
0
 71
3
 72
12
 73
8
 74
0
 42
0.0000001
 43
0.0000001
 44
0.0000000001
 40
0.0
 40
0.0
 40
0.0
 40
0.0
 40
0.1119291974
 40
0.225350163
 40
0.4615997584
 40
0.7180798454
 40
1.0
 40
1.0
 40
1.0
 40
1.0
 10
67.5013376611
 20
27.2893771856
 30
0.0
 10
67.5287949544
 20
27.3052295633
 30
0.0
 10
67.5818561173
 20
27.3411791716
 30
0.0
 10
67.6790161543
 20
27.4292180609
 30
0.0
 10
67.7809882612
 20
27.5699625064
 30
0.0
 10
67.8650206638
 20
27.7743609991
 30
0.0
 10
67.894717535
 20
27.9249089251
 30
0.0
 10
67.9041047934
 20
28.0042115555
 30
0.0
  0
SPLINE
  5
2A0
100
AcDbEntity
  8
0
100
AcDbSpline
 62
7
  6
CONTINUOUS
 70
0
 71
3
 72
12
 73
8
 74
0
 42
0.0000001
 43
0.0000001
 44
0.0000000001
 40
0.0
 40
0.0
 40
0.0
 40
0.0
 40
0.1119291451
 40
0.2253500647
 40
0.4615996089
 40
0.7180797215
 40
1.0
 40
1.0
 40
1.0
 40
1.0
 10
65.1678949983
 20
25.9421714778
 30
0.0
 10
65.1404376355
 20
25.9263190566
 30
0.0
 10
65.0827734798
 20
25.898341779
 30
0.0
 10
64.957948976
 20
25.8582187629
 30
0.0
 10
64.7850740304
 20
25.8402815717
 30
0.0
 10
64.5660430357
 20
25.8697081625
 30
0.0
 10
64.4208161279
 20
25.9192650436
 30
0.0
 10
64.3474443646
 20
25.9507873636
 30
0.0
  0
SPLINE
  5
2A1
100
AcDbEntity
  8
0
100
AcDbSpline
 62
7
  6
CONTINUOUS
 70
0
 71
3
 72
12
 73
8
 74
0
 42
0.0000001
 43
0.0000001
 44
0.0000000001
 40
0.0
 40
0.0
 40
0.0
 40
0.0
 40
0.2819201049
 40
0.5384001664
 40
0.7746497863
 40
0.8880707753
 40
1.0
 40
1.0
 40
1.0
 40
1.0
 10
65.570661926
 20
26.6570041417
 30
0.0
 10
65.5612745993
 20
26.5777016956
 30
0.0
 10
65.5315776314
 20
26.4271541265
 30
0.0
 10
65.4475452034
 20
26.2227561444
 30
0.0
 10
65.3455732051
 20
26.082012052
 30
0.0
 10
65.2484133139
 20
25.9939733648
 30
0.0
 10
65.1953522415
 20
25.95802383
 30
0.0
 10
65.1678949983
 20
25.9421714778
 30
0.0
  0
SPLINE
  5
2A2
100
AcDbEntity
  8
0
100
AcDbSpline
 62
7
  6
CONTINUOUS
 70
0
 71
3
 72
13
 73
9
 74
0
 42
0.0000001
 43
0.0000001
 44
0.0000000001
 40
0.0
 40
0.0
 40
0.0
 40
0.0
 40
0.1080961888
 40
0.2182383082
 40
0.3322649419
 40
0.4516962195
 40
0.7106345776
 40
1.0
 40
1.0
 40
1.0
 40
1.0
 10
12.7282182192
 20
30.6817740742
 30
0.0
 10
12.7282148387
 20
30.7044961371
 30
0.0
 10
12.7321420173
 20
30.7504650888
 30
0.0
 10
12.7497676149
 20
30.8183547487
 30
0.0
 10
12.7788171024
 20
30.884792336
 30
0.0
 10
12.8338057128
 20
30.9728535963
 30
0.0
 10
12.9314856483
 20
31.0756423098
 30
0.0
 10
13.0270052239
 20
31.1413954462
 30
0.0
 10
13.0796776851
 20
31.1718145974
 30
0.0
  0
SPLINE
  5
2A3
100
AcDbEntity
  8
0
100
AcDbSpline
 62
7
  6
CONTINUOUS
 70
0
 71
3
 72
9
 73
5
 74
0
 42
0.0000001
 43
0.0000001
 44
0.0000000001
 40
0.0
 40
0.0
 40
0.0
 40
0.0
 40
0.4937067731
 40
1.0
 40
1.0
 40
1.0
 40
1.0
 10
12.1282112618
 20
30.6816982633
 30
0.0
 10
12.1282171954
 20
30.6418678843
 30
0.0
 10
12.1363718103
 20
30.5610003905
 30
0.0
 10
12.1600439365
 20
30.4833204937
 30
0.0
 10
12.1753599327
 20
30.4454549398
 30
0.0
  0
SPLINE
  5
2A4
100
AcDbEntity
  8
0
100
AcDbSpline
 62
7
  6
CONTINUOUS
 70
0
 71
3
 72
11
 73
7
 74
0
 42
0.0000001
 43
0.0000001
 44
0.0000000001
 40
0.0
 40
0.0
 40
0.0
 40
0.0
 40
0.2544149708
 40
0.509042107
 40
0.7590932253
 40
1.0
 40
1.0
 40
1.0
 40
1.0
 10
13.6122610733
 20
29.6586706881
 30
0.0
 10
13.7127034246
 20
29.648341433
 30
0.0
 10
13.9148314964
 20
29.6376889236
 30
0.0
 10
14.2162653421
 20
29.6510223852
 30
0.0
 10
14.5096354243
 20
29.6931600682
 30
0.0
 10
14.6990393521
 20
29.7408383396
 30
0.0
 10
14.790231058
 20
29.7695703077
 30
0.0
  0
SPLINE
  5
2A5
100
AcDbEntity
  8
0
100
AcDbSpline
 62
7
  6
CONTINUOUS
 70
0
 71
3
 72
9
 73
5
 74
0
 42
0.0000001
 43
0.0000001
 44
0.0000000001
 40
0.0
 40
0.0
 40
0.0
 40
0.0
 40
0.5151231139
 40
1.0
 40
1.0
 40
1.0
 40
1.0
 10
14.790231058
 20
29.7695703077
 30
0.0
 10
14.8636258327
 20
29.7926949582
 30
0.0
 10
15.0040842965
 20
29.8443701562
 30
0.0
 10
15.1382823234
 20
29.9108679552
 30
0.0
 10
15.2010068605
 20
29.9470923339
 30
0.0
  0
SPLINE
  5
2A6
100
AcDbEntity
  8
0
100
AcDbSpline
 62
7
  6
CONTINUOUS
 70
0
 71
3
 72
14
 73
10
 74
0
 42
0.0000001
 43
0.0000001
 44
0.0000000001
 40
0.0
 40
0.0
 40
0.0
 40
0.0
 40
0.2588001841
 40
0.390136112
 40
0.5204467605
 40
0.6480459441
 40
0.7713624191
 40
0.8890759928
 40
1.0
 40
1.0
 40
1.0
 40
1.0
 10
15.1281010947
 20
36.7204580474
 30
0.0
 10
15.0840426455
 20
36.5899084862
 30
0.0
 10
15.0001488069
 20
36.3985208003
 30
0.0
 10
14.8594147319
 20
36.1596342702
 30
0.0
 10
14.7400199524
 20
35.9899401469
 30
0.0
 10
14.6096883833
 20
35.8340434195
 30
0.0
 10
14.4709089159
 20
35.6948796231
 30
0.0
 10
14.3263619949
 20
35.5751942689
 30
0.0
 10
14.2246862273
 20
35.5077029451
 30
0.0
 10
14.1735465174
 20
35.4781689812
 30
0.0
  0
SPLINE
  5
2A7
100
AcDbEntity
  8
0
100
AcDbSpline
 62
7
  6
CONTINUOUS
 70
0
 71
3
 72
16
 73
12
 74
0
 42
0.0000001
 43
0.0000001
 44
0.0000000001
 40
0.0
 40
0.0
 40
0.0
 40
0.0
 40
0.1141278138
 40
0.2372627566
 40
0.3668953023
 40
0.499910596
 40
0.6329334534
 40
0.7625875874
 40
0.8857573392
 40
0.9441499707
 40
1.0
 40
1.0
 40
1.0
 40
1.0
 10
12.5122918165
 20
26.7643730548
 30
0.0
 10
12.6575426012
 20
26.6804662123
 30
0.0
 10
12.9751100295
 20
26.5323815728
 30
0.0
 10
13.4923401355
 20
26.3749039782
 30
0.0
 10
14.0524025539
 20
26.2779231462
 30
0.0
 10
14.6342558363
 20
26.2451059912
 30
0.0
 10
15.2161951093
 20
26.277642423
 30
0.0
 10
15.7762891122
 20
26.3743308838
 30
0.0
 10
16.2154173542
 20
26.507720667
 30
0.0
 10
16.5366490466
 20
26.6446873637
 30
0.0
 10
16.6857785128
 20
26.7223445059
 30
0.0
 10
16.756868911
 20
26.7633883214
 30
0.0
  0
SPLINE
  5
2A8
100
AcDbEntity
  8
0
100
AcDbSpline
 62
7
  6
CONTINUOUS
 70
0
 71
3
 72
14
 73
10
 74
0
 42
0.0000001
 43
0.0000001
 44
0.0000000001
 40
0.0
 40
0.0
 40
0.0
 40
0.0
 40
0.2892660964
 40
0.422547867
 40
0.5484913536
 40
0.6678811624
 40
0.7818636484
 40
0.8919503985
 40
1.0
 40
1.0
 40
1.0
 40
1.0
 10
16.933318108
 20
30.3757983521
 30
0.0
 10
17.0101405203
 20
30.4201644692
 30
0.0
 10
17.117731388
 20
30.4942613887
 30
0.0
 10
17.2394428393
 20
30.6107885467
 30
0.0
 10
17.3135261889
 20
30.7006023433
 30
0.0
 10
17.372061331
 20
30.7943762333
 30
0.0
 10
17.4144662109
 20
30.8912505561
 30
0.0
 10
17.4401189656
 20
30.9902714135
 30
0.0
 10
17.4458772847
 20
31.0573037248
 30
0.0
 10
17.4458730874
 20
31.0904407847
 30
0.0
  0
SPLINE
  5
2A9
100
AcDbEntity
  8
0
100
AcDbSpline
 62
7
  6
CONTINUOUS
 70
0
 71
3
 72
15
 73
11
 74
0
 42
0.0000001
 43
0.0000001
 44
0.0000000001
 40
0.0
 40
0.0
 40
0.0
 40
0.0
 40
0.1141531337
 40
0.2373223789
 40
0.3669694071
 40
0.4999914053
 40
0.6330145981
 40
0.762665119
 40
0.8858398625
 40
1.0
 40
1.0
 40
1.0
 40
1.0
 10
13.3977886425
 20
29.7630390549
 30
0.0
 10
13.4825010458
 20
29.7141314325
 30
0.0
 10
13.6677405681
 20
29.6278767391
 30
0.0
 10
13.9693931437
 20
29.5362062595
 30
0.0
 10
14.2959785085
 20
29.4797922056
 30
0.0
 10
14.6352292705
 20
29.4607787944
 30
0.0
 10
14.9744796945
 20
29.4798513353
 30
0.0
 10
15.3010640133
 20
29.5363222997
 30
0.0
 10
15.6027148441
 20
29.6280453071
 30
0.0
 10
15.7879512953
 20
29.7143315153
 30
0.0
 10
15.8726623634
 20
29.7632534517
 30
0.0
  0
SPLINE
  5
2AA
100
AcDbEntity
  8
0
100
AcDbSpline
 62
7
  6
CONTINUOUS
 70
0
 71
3
 72
14
 73
10
 74
0
 42
0.0000001
 43
0.0000001
 44
0.0000000001
 40
0.0
 40
0.0
 40
0.0
 40
0.0
 40
0.1080536519
 40
0.2181438287
 40
0.3321286114
 40
0.4515192608
 40
0.5774620527
 40
0.7107416695
 40
1.0
 40
1.0
 40
1.0
 40
1.0
 10
10.410339308
 20
31.9062963008
 30
0.0
 10
10.4103435046
 20
31.8731650653
 30
0.0
 10
10.416116666
 20
31.806146253
 30
0.0
 10
10.4417853485
 20
31.7071490905
 30
0.0
 10
10.4841998374
 20
31.6103015146
 30
0.0
 10
10.5427384476
 20
31.516556785
 30
0.0
 10
10.616819363
 20
31.4267740332
 30
0.0
 10
10.7385193444
 20
31.3102916289
 30
0.0
 10
10.8460947135
 20
31.2362269037
 30
0.0
 10
10.9229046044
 20
31.1918816957
 30
0.0
  0
SPLINE
  5
2AB
100
AcDbEntity
  8
0
100
AcDbSpline
 62
7
  6
CONTINUOUS
 70
0
 71
3
 72
15
 73
11
 74
0
 42
0.0000001
 43
0.0000001
 44
0.0000000001
 40
0.0
 40
0.0
 40
0.0
 40
0.0
 40
0.1080152622
 40
0.2180669903
 40
0.3320079186
 40
0.4513695543
 40
0.5772764912
 40
0.7104981446
 40
0.8514497778
 40
1.0
 40
1.0
 40
1.0
 40
1.0
 10
9.2310583251
 20
31.9061444899
 30
0.0
 10
9.2310511561
 20
31.9629511302
 30
0.0
 10
9.2408886824
 20
32.0778686547
 30
0.0
 10
9.2849098031
 20
32.2476053415
 30
0.0
 10
9.3575608946
 20
32.4136953642
 30
0.0
 10
9.4579507265
 20
32.5744372007
 30
0.0
 10
9.5849221331
 20
32.7283979565
 30
0.0
 10
9.7372100723
 20
32.8742158352
 30
0.0
 10
9.9132879547
 20
33.0105114806
 30
0.0
 10
10.0420648355
 20
33.0921751763
 30
0.0
 10
10.1097178087
 20
33.1312458021
 30
0.0
  0
SPLINE
  5
2AC
100
AcDbEntity
  8
0
100
AcDbSpline
 62
7
  6
CONTINUOUS
 70
0
 71
3
 72
15
 73
11
 74
0
 42
0.0000001
 43
0.0000001
 44
0.0000000001
 40
0.0
 40
0.0
 40
0.0
 40
0.0
 40
0.1079979293
 40
0.2180365339
 40
0.3319708089
 40
0.4513330985
 40
0.5772502086
 40
0.71048801
 40
0.851447135
 40
1.0
 40
1.0
 40
1.0
 40
1.0
 10
9.2313778232
 20
29.3760028029
 30
0.0
 10
9.2313849492
 20
29.3191721741
 30
0.0
 10
9.2412632354
 20
29.2042058788
 30
0.0
 10
9.2853789251
 20
29.0344075143
 30
0.0
 10
9.358151551
 20
28.8682660122
 30
0.0
 10
9.4586887912
 20
28.7074824488
 30
0.0
 10
9.5858487241
 20
28.5535067982
 30
0.0
 10
9.7383341476
 20
28.4076939922
 30
0.0
 10
9.9145747425
 20
28.2713769153
 30
0.0
 10
10.0434561604
 20
28.1897013029
 30
0.0
 10
10.1111647026
 20
28.150633079
 30
0.0
  0
SPLINE
  5
2AD
100
AcDbEntity
  8
0
100
AcDbSpline
 62
7
  6
CONTINUOUS
 70
0
 71
3
 72
14
 73
10
 74
0
 42
0.0000001
 43
0.0000001
 44
0.0000000001
 40
0.0
 40
0.0
 40
0.0
 40
0.0
 40
0.2892652555
 40
0.4225472924
 40
0.5484919951
 40
0.6678830191
 40
0.7818658483
 40
0.8919513025
 40
1.0
 40
1.0
 40
1.0
 40
1.0
 10
15.2010068605
 20
29.9470923339
 30
0.0
 10
15.2800240572
 20
29.9927259724
 30
0.0
 10
15.3906891177
 20
30.0689396266
 30
0.0
 10
15.5158785114
 20
30.1887961926
 30
0.0
 10
15.5920795339
 20
30.2811765771
 30
0.0
 10
15.6522871787
 20
30.3776308897
 30
0.0
 10
15.6959037541
 20
30.4772731419
 30
0.0
 10
15.7222903495
 20
30.5791224578
 30
0.0
 10
15.7282125262
 20
30.6480695349
 30
0.0
 10
15.7282074487
 20
30.6821531207
 30
0.0
  0
SPLINE
  5
2AE
100
AcDbEntity
  8
0
100
AcDbSpline
 62
7
  6
CONTINUOUS
 70
0
 71
3
 72
22
 73
18
 74
0
 42
0.0000001
 43
0.0000001
 44
0.0000000001
 40
0.0
 40
0.0
 40
0.0
 40
0.0
 40
0.0623828265
 40
0.1287719667
 40
0.1983772603
 40
0.2703727104
 40
0.4173855667
 40
0.4904285955
 40
0.5617345742
 40
0.6303515188
 40
0.6954561193
 40
0.7564214812
 40
0.8128766474
 40
0.8647928614
 40
0.9125850363
 40
0.9571769345
 40
1.0
 40
1.0
 40
1.0
 40
1.0
 10
13.0796776851
 20
31.1718145974
 30
0.0
 10
13.1227752437
 20
31.1967040961
 30
0.0
 10
13.2151787371
 20
31.2422591409
 30
0.0
 10
13.3642037787
 20
31.2963059983
 30
0.0
 10
13.5252917007
 20
31.337216483
 30
0.0
 10
13.7529294698
 20
31.3733086257
 30
0.0
 10
13.9871983631
 20
31.3798028196
 30
0.0
 10
14.2187147489
 20
31.3568045751
 30
0.0
 10
14.3858978817
 20
31.3251782865
 30
0.0
 10
14.5433196897
 20
31.2798259307
 30
0.0
 10
14.6876684655
 20
31.2216718681
 30
0.0
 10
14.8159161255
 20
31.1519314114
 30
0.0
 10
14.9253754076
 20
31.0719601056
 30
0.0
 10
15.0137027178
 20
30.9832520746
 30
0.0
 10
15.0788855854
 20
30.8873978179
 30
0.0
 10
15.1190609281
 20
30.7862761358
 30
0.0
 10
15.1281954086
 20
30.7162410783
 30
0.0
 10
15.1282004913
 20
30.6820773097
 30
0.0
  0
SPLINE
  5
2AF
100
AcDbEntity
  8
0
100
AcDbSpline
 62
7
  6
CONTINUOUS
 70
0
 71
3
 72
9
 73
5
 74
0
 42
0.0000001
 43
0.0000001
 44
0.0000000001
 40
0.0
 40
0.0
 40
0.0
 40
0.0
 40
0.474074575
 40
1.0
 40
1.0
 40
1.0
 40
1.0
 10
10.5610585441
 20
31.5000660866
 30
0.0
 10
10.6068345974
 20
31.5595904336
 30
0.0
 10
10.7192887868
 20
31.6731797491
 30
0.0
 10
10.8508597021
 20
31.7628352337
 30
0.0
 10
10.922997445
 20
31.8044958826
 30
0.0
  0
SPLINE
  5
2B0
100
AcDbEntity
  8
0
100
AcDbSpline
 62
7
  6
CONTINUOUS
 70
0
 71
3
 72
14
 73
10
 74
0
 42
0.0000001
 43
0.0000001
 44
0.0000000001
 40
0.0
 40
0.0
 40
0.0
 40
0.0
 40
0.1080536519
 40
0.2181438287
 40
0.3321286114
 40
0.4515192608
 40
0.5774620527
 40
0.7107416695
 40
1.0
 40
1.0
 40
1.0
 40
1.0
 10
17.4458730874
 20
31.0904407847
 30
0.0
 10
17.4458688908
 20
31.1235720201
 30
0.0
 10
17.4400957294
 20
31.1905908325
 30
0.0
 10
17.4144270468
 20
31.289587995
 30
0.0
 10
17.372012558
 20
31.3864355709
 30
0.0
 10
17.3134739478
 20
31.4801803004
 30
0.0
 10
17.2393930323
 20
31.5699630523
 30
0.0
 10
17.117693051
 20
31.6864454566
 30
0.0
 10
17.0101176818
 20
31.7605101818
 30
0.0
 10
16.9333077909
 20
31.8048553898
 30
0.0
  0
SPLINE
  5
2B1
100
AcDbEntity
  8
0
100
AcDbSpline
 62
7
  6
CONTINUOUS
 70
0
 71
3
 72
11
 73
7
 74
0
 42
0.0000001
 43
0.0000001
 44
0.0000000001
 40
0.0
 40
0.0
 40
0.0
 40
0.0
 40
0.2211761418
 40
0.4595921112
 40
0.7188899756
 40
1.0
 40
1.0
 40
1.0
 40
1.0
 10
12.1648878914
 20
30.4821559759
 30
0.0
 10
12.1829721974
 20
30.5331169903
 30
0.0
 10
12.2335144161
 20
30.6346900482
 30
0.0
 10
12.3428874775
 20
30.773515606
 30
0.0
 10
12.4853402732
 20
30.9010587195
 30
0.0
 10
12.5959477596
 20
30.9741664163
 30
0.0
 10
12.6554634288
 20
31.0085376248
 30
0.0
  0
SPLINE
  5
2B2
100
AcDbEntity
  8
0
100
AcDbSpline
 62
7
  6
CONTINUOUS
 70
0
 71
3
 72
23
 73
19
 74
0
 42
0.0000001
 43
0.0000001
 44
0.0000000001
 40
0.0
 40
0.0
 40
0.0
 40
0.0
 40
0.0428187559
 40
0.087404722
 40
0.1351900178
 40
0.1871004288
 40
0.2435476692
 40
0.3045041225
 40
0.3695995456
 40
0.4382048739
 40
0.509500286
 40
0.582533823
 40
0.65627383
 40
0.7296603567
 40
0.8016493098
 40
0.8712469836
 40
0.9376145198
 40
1.0
 40
1.0
 40
1.0
 40
1.0
 10
15.7282074487
 20
30.6821531207
 30
0.0
 10
15.7281998143
 20
30.7334005685
 30
0.0
 10
15.7144836331
 20
30.8384537965
 30
0.0
 10
15.6542210761
 20
30.9901354528
 30
0.0
 10
15.5564569393
 20
31.1339262428
 30
0.0
 10
15.4239561966
 20
31.266980581
 30
0.0
 10
15.2597685345
 20
31.3869380941
 30
0.0
 10
15.0673994601
 20
31.491552173
 30
0.0
 10
14.8508771638
 20
31.5787705515
 30
0.0
 10
14.6147467354
 20
31.6468107425
 30
0.0
 10
14.3639970696
 20
31.694245704
 30
0.0
 10
14.1039587612
 20
31.7200793998
 30
0.0
 10
13.8401728323
 20
31.7237699674
 30
0.0
 10
13.5782604302
 20
31.7052320059
 30
0.0
 10
13.3238211481
 20
31.6648475958
 30
0.0
 10
13.0822173314
 20
31.6034967545
 30
0.0
 10
12.8586664088
 20
31.5224441285
 30
0.0
 10
12.7200697095
 20
31.454099952
 30
0.0
 10
12.65541185
 20
31.4167590501
 30
0.0
  0
SPLINE
  5
2B3
100
AcDbEntity
  8
0
100
AcDbSpline
 62
7
  6
CONTINUOUS
 70
0
 71
3
 72
9
 73
5
 74
0
 42
0.0000001
 43
0.0000001
 44
0.0000000001
 40
0.0
 40
0.0
 40
0.0
 40
0.0
 40
0.52591912
 40
1.0
 40
1.0
 40
1.0
 40
1.0
 10
16.9334109485
 20
30.988412539
 30
0.0
 10
17.0055302364
 20
30.9467753907
 30
0.0
 10
17.1370714933
 20
30.8571675019
 30
0.0
 10
17.2495089636
 20
30.7436346546
 30
0.0
 10
17.2952830802
 20
30.6841379622
 30
0.0
  0
SPLINE
  5
2B4
100
AcDbEntity
  8
0
100
AcDbSpline
 62
7
  6
CONTINUOUS
 70
0
 71
3
 72
13
 73
9
 74
0
 42
0.0000001
 43
0.0000001
 44
0.0000000001
 40
0.0
 40
0.0
 40
0.0
 40
0.0
 40
0.1080961888
 40
0.2182383082
 40
0.3322649419
 40
0.4516962195
 40
0.7106345776
 40
1.0
 40
1.0
 40
1.0
 40
1.0
 10
15.1282004913
 20
30.6820773097
 30
0.0
 10
15.1282038718
 20
30.6593552469
 30
0.0
 10
15.1242766932
 20
30.6133862952
 30
0.0
 10
15.1066510956
 20
30.5454966353
 30
0.0
 10
15.0776016081
 20
30.4790590479
 30
0.0
 10
15.0226129976
 20
30.3909977877
 30
0.0
 10
14.9249330622
 20
30.2882090742
 30
0.0
 10
14.8294134866
 20
30.2224559378
 30
0.0
 10
14.7767410254
 20
30.1920367866
 30
0.0
  0
SPLINE
  5
2B5
100
AcDbEntity
  8
0
100
AcDbSpline
 62
7
  6
CONTINUOUS
 70
0
 71
3
 72
17
 73
13
 74
0
 42
0.0000001
 43
0.0000001
 44
0.0000000001
 40
0.0
 40
0.0
 40
0.0
 40
0.0
 40
0.0558444646
 40
0.1142292996
 40
0.2373784054
 40
0.3670084686
 40
0.500008591
 40
0.6330075179
 40
0.7626340875
 40
0.8857776903
 40
0.9441591759
 40
1.0
 40
1.0
 40
1.0
 40
1.0
 10
16.7565492252
 20
29.2937827097
 30
0.0
 10
16.6854993675
 20
29.2527503311
 30
0.0
 10
16.5364585744
 20
29.1751107782
 30
0.0
 10
16.2154264436
 20
29.0381581727
 30
0.0
 10
15.7765794448
 20
28.9047424116
 30
0.0
 10
15.2168311372
 20
28.8079570472
 30
0.0
 10
14.6352353766
 20
28.7752568912
 30
0.0
 10
14.0536390268
 20
28.807855673
 30
0.0
 10
13.4938889681
 20
28.9045434794
 30
0.0
 10
13.0550376347
 20
29.0378833653
 30
0.0
 10
12.7340019159
 20
29.1747809038
 30
0.0
 10
12.5849593467
 20
29.2523949108
 30
0.0
 10
12.5139086415
 20
29.2934151255
 30
0.0
  0
SPLINE
  5
2B6
100
AcDbEntity
  8
0
100
AcDbSpline
 62
7
  6
CONTINUOUS
 70
0
 71
3
 72
15
 73
11
 74
0
 42
0.0000001
 43
0.0000001
 44
0.0000000001
 40
0.0
 40
0.0
 40
0.0
 40
0.0
 40
0.1141601498
 40
0.2373349074
 40
0.3669854349
 40
0.5000086307
 40
0.6330306259
 40
0.7626776475
 40
0.8858468786
 40
1.0
 40
1.0
 40
1.0
 40
1.0
 10
11.9836531895
 20
32.417040783
 30
0.0
 10
12.0683642668
 20
32.4659627247
 30
0.0
 10
12.2536007403
 20
32.5522489391
 30
0.0
 10
12.5552515994
 20
32.6439719508
 30
0.0
 10
12.8818359403
 20
32.7004429078
 30
0.0
 10
13.2210863703
 20
32.7195154403
 30
0.0
 10
13.5603371264
 20
32.7005020208
 30
0.0
 10
13.8869224691
 20
32.6440879594
 30
0.0
 10
14.1885750163
 20
32.5524174843
 30
0.0
 10
14.3738145163
 20
32.466162797
 30
0.0
 10
14.4585269104
 20
32.4172551799
 30
0.0
  0
SPLINE
  5
2B7
100
AcDbEntity
  8
0
100
AcDbSpline
 62
7
  6
CONTINUOUS
 70
0
 71
3
 72
14
 73
10
 74
0
 42
0.0000001
 43
0.0000001
 44
0.0000000001
 40
0.0
 40
0.0
 40
0.0
 40
0.0
 40
0.2892652555
 40
0.4225472924
 40
0.5484919951
 40
0.6678830191
 40
0.7818658483
 40
0.8919513025
 40
1.0
 40
1.0
 40
1.0
 40
1.0
 10
12.65541185
 20
31.4167590501
 30
0.0
 10
12.5763946533
 20
31.3711254116
 30
0.0
 10
12.4657295927
 20
31.2949117574
 30
0.0
 10
12.3405401991
 20
31.1750551914
 30
0.0
 10
12.2643391766
 20
31.0826748068
 30
0.0
 10
12.2041315318
 20
30.9862204943
 30
0.0
 10
12.1605149564
 20
30.8865782421
 30
0.0
 10
12.134128361
 20
30.7847289262
 30
0.0
 10
12.1282061843
 20
30.7157818491
 30
0.0
 10
12.1282112618
 20
30.6816982633
 30
0.0
  0
SPLINE
  5
2B8
100
AcDbEntity
  8
0
100
AcDbSpline
 62
7
  6
CONTINUOUS
 70
0
 71
3
 72
9
 73
5
 74
0
 42
0.0000001
 43
0.0000001
 44
0.0000000001
 40
0.0
 40
0.0
 40
0.0
 40
0.0
 40
0.4848766181
 40
1.0
 40
1.0
 40
1.0
 40
1.0
 10
12.6554634288
 20
31.0085376248
 30
0.0
 10
12.7182073329
 20
31.0447731882
 30
0.0
 10
12.8524481069
 20
31.1112895869
 30
0.0
 10
12.9929527631
 20
31.1629737025
 30
0.0
 10
13.066371574
 20
31.1861014047
 30
0.0
  0
SPLINE
  5
2B9
100
AcDbEntity
  8
0
100
AcDbSpline
 62
7
  6
CONTINUOUS
 70
0
 71
3
 72
14
 73
10
 74
0
 42
0.0000001
 43
0.0000001
 44
0.0000000001
 40
0.0
 40
0.0
 40
0.0
 40
0.0
 40
0.294408309
 40
0.4314841903
 40
0.5607119291
 40
0.6817769388
 40
0.7948004285
 40
0.9004477759
 40
1.0
 40
1.0
 40
1.0
 40
1.0
 10
14.6474868944
 20
31.2265531265
 30
0.0
 10
14.774141236
 20
31.194682518
 30
0.0
 10
14.9570035163
 20
31.1341581655
 30
0.0
 10
15.1803451412
 20
31.0239653191
 30
0.0
 10
15.3262177431
 20
30.9324778799
 30
0.0
 10
15.4523385836
 20
30.8314903161
 30
0.0
 10
15.5569084383
 20
30.7222474239
 30
0.0
 10
15.6383269915
 20
30.6062179493
 30
0.0
 10
15.6772225142
 20
30.5232425858
 30
0.0
 10
15.6919343984
 20
30.4816026924
 30
0.0
  0
SPLINE
  5
2BA
100
AcDbEntity
  8
0
100
AcDbSpline
 62
7
  6
CONTINUOUS
 70
0
 71
3
 72
15
 73
11
 74
0
 42
0.0000001
 43
0.0000001
 44
0.0000000001
 40
0.0
 40
0.0
 40
0.0
 40
0.0
 40
0.1485458688
 40
0.289494083
 40
0.4227135816
 40
0.5486198211
 40
0.6679823049
 40
0.7819255378
 40
0.8919806918
 40
1.0
 40
1.0
 40
1.0
 40
1.0
 10
10.1097354951
 20
30.6814337376
 30
0.0
 10
10.0420937177
 20
30.7204858525
 30
0.0
 10
9.9133367579
 20
30.8021125516
 30
0.0
 10
9.7372816451
 20
30.9383514273
 30
0.0
 10
9.585007513
 20
31.0841138402
 30
0.0
 10
9.4580402649
 20
31.2380213714
 30
0.0
 10
9.3576445304
 20
31.3987132288
 30
0.0
 10
9.2849769035
 20
31.5647573888
 30
0.0
 10
9.2409285602
 20
31.7344534566
 30
0.0
 10
9.2310654929
 20
31.8493478384
 30
0.0
 10
9.2310583251
 20
31.9061444899
 30
0.0
  0
SPLINE
  5
2BB
100
AcDbEntity
  8
0
100
AcDbSpline
 62
7
  6
CONTINUOUS
 70
0
 71
3
 72
13
 73
9
 74
0
 42
0.0000001
 43
0.0000001
 44
0.0000000001
 40
0.0
 40
0.0
 40
0.0
 40
0.0
 40
0.2893679374
 40
0.5483033365
 40
0.6677343427
 40
0.7817613576
 40
0.8919032114
 40
1.0
 40
1.0
 40
1.0
 40
1.0
 10
14.7767926042
 20
29.7838153612
 30
0.0
 10
14.8294655514
 20
29.8142347931
 30
0.0
 10
14.9249851163
 20
29.8799877685
 30
0.0
 10
15.0226653959
 20
29.9827763107
 30
0.0
 10
15.0776526386
 20
30.0708376496
 30
0.0
 10
15.1067038605
 20
30.1372745085
 30
0.0
 10
15.1243283435
 20
30.2051647476
 30
0.0
 10
15.1282556407
 20
30.2511336845
 30
0.0
 10
15.1282525845
 20
30.2738558856
 30
0.0
  0
SPLINE
  5
2BC
100
AcDbEntity
  8
0
100
AcDbSpline
 62
7
  6
CONTINUOUS
 70
0
 71
3
 72
22
 73
18
 74
0
 42
0.0000001
 43
0.0000001
 44
0.0000000001
 40
0.0
 40
0.0
 40
0.0
 40
0.0
 40
0.0623828265
 40
0.1287719667
 40
0.1983772603
 40
0.2703727104
 40
0.4173855667
 40
0.4904285955
 40
0.5617345742
 40
0.6303515188
 40
0.6954561193
 40
0.7564214812
 40
0.8128766474
 40
0.8647928614
 40
0.9125850363
 40
0.9571769345
 40
1.0
 40
1.0
 40
1.0
 40
1.0
 10
14.7767410254
 20
30.1920367866
 30
0.0
 10
14.7336434668
 20
30.1671472879
 30
0.0
 10
14.6412399734
 20
30.1215922431
 30
0.0
 10
14.4922149318
 20
30.0675453857
 30
0.0
 10
14.3311270098
 20
30.026634901
 30
0.0
 10
14.1034892407
 20
29.9905427582
 30
0.0
 10
13.8692203474
 20
29.9840485644
 30
0.0
 10
13.6377039616
 20
30.0070468089
 30
0.0
 10
13.4705208288
 20
30.0386730975
 30
0.0
 10
13.3130990207
 20
30.0840254533
 30
0.0
 10
13.1687502449
 20
30.1421795159
 30
0.0
 10
13.040502585
 20
30.2119199726
 30
0.0
 10
12.9310433029
 20
30.2918912784
 30
0.0
 10
12.8427159927
 20
30.3805993093
 30
0.0
 10
12.7775331251
 20
30.4764535661
 30
0.0
 10
12.7373577824
 20
30.5775752481
 30
0.0
 10
12.7282233019
 20
30.6476103057
 30
0.0
 10
12.7282182192
 20
30.6817740742
 30
0.0
  0
SPLINE
  5
2BD
100
AcDbEntity
  8
0
100
AcDbSpline
 62
7
  6
CONTINUOUS
 70
0
 71
3
 72
9
 73
5
 74
0
 42
0.0000001
 43
0.0000001
 44
0.0000000001
 40
0.0
 40
0.0
 40
0.0
 40
0.0
 40
0.4935715755
 40
1.0
 40
1.0
 40
1.0
 40
1.0
 10
12.7282692836
 20
30.2735526476
 30
0.0
 10
12.7282728906
 20
30.2467354915
 30
0.0
 10
12.7337980301
 20
30.1922674289
 30
0.0
 10
12.7499195615
 20
30.1400000933
 30
0.0
 10
12.7603246998
 20
30.1145276148
 30
0.0
  0
SPLINE
  5
2BE
100
AcDbEntity
  8
0
100
AcDbSpline
 62
7
  6
CONTINUOUS
 70
0
 71
3
 72
9
 73
5
 74
0
 42
0.0000001
 43
0.0000001
 44
0.0000000001
 40
0.0
 40
0.0
 40
0.0
 40
0.0
 40
0.2576771455
 40
1.0
 40
1.0
 40
1.0
 40
1.0
 10
14.6145406197
 20
29.7053583644
 30
0.0
 10
14.6289059471
 20
29.7111449354
 30
0.0
 10
14.6842852649
 20
29.7344996655
 30
0.0
 10
14.7381573561
 20
29.761502915
 30
0.0
 10
14.7767926042
 20
29.7838153612
 30
0.0
  0
SPLINE
  5
2BF
100
AcDbEntity
  8
0
100
AcDbSpline
 62
7
  6
CONTINUOUS
 70
0
 71
3
 72
15
 73
11
 74
0
 42
0.0000001
 43
0.0000001
 44
0.0000000001
 40
0.0
 40
0.0
 40
0.0
 40
0.0
 40
0.1141531337
 40
0.2373223788
 40
0.366969407
 40
0.4999914053
 40
0.6330145981
 40
0.7626651189
 40
0.8858398625
 40
1.0
 40
1.0
 40
1.0
 40
1.0
 10
14.4584237529
 20
33.2336980306
 30
0.0
 10
14.3737113496
 20
33.282605653
 30
0.0
 10
14.1884718273
 20
33.3688603464
 30
0.0
 10
13.8868192517
 20
33.4605308259
 30
0.0
 10
13.5602338869
 20
33.5169448799
 30
0.0
 10
13.2209831248
 20
33.5359582911
 30
0.0
 10
12.8817327008
 20
33.5168857502
 30
0.0
 10
12.555148382
 20
33.4604147858
 30
0.0
 10
12.2534975513
 20
33.3686917784
 30
0.0
 10
12.0682611001
 20
33.2824055701
 30
0.0
 10
11.9835500319
 20
33.2334836338
 30
0.0
  0
SPLINE
  5
2C0
100
AcDbEntity
  8
0
100
AcDbSpline
 62
7
  6
CONTINUOUS
 70
0
 71
3
 72
14
 73
10
 74
0
 42
0.0000001
 43
0.0000001
 44
0.0000000001
 40
0.0
 40
0.0
 40
0.0
 40
0.0
 40
0.2892660964
 40
0.422547867
 40
0.5484913536
 40
0.6678811624
 40
0.7818636484
 40
0.8919503985
 40
1.0
 40
1.0
 40
1.0
 40
1.0
 10
10.9228942874
 20
32.6209387333
 30
0.0
 10
10.8460718751
 20
32.5765726163
 30
0.0
 10
10.7384810074
 20
32.5024756967
 30
0.0
 10
10.616769556
 20
32.3859485388
 30
0.0
 10
10.5426862065
 20
32.2961347422
 30
0.0
 10
10.4841510643
 20
32.2023608522
 30
0.0
 10
10.4417461844
 20
32.1054865293
 30
0.0
 10
10.4160934298
 20
32.006465672
 30
0.0
 10
10.4103351107
 20
31.9394333607
 30
0.0
 10
10.410339308
 20
31.9062963008
 30
0.0
  0
SPLINE
  5
2C1
100
AcDbEntity
  8
0
100
AcDbSpline
 62
7
  6
CONTINUOUS
 70
0
 71
3
 72
11
 73
7
 74
0
 42
0.0000001
 43
0.0000001
 44
0.0000000001
 40
0.0
 40
0.0
 40
0.0
 40
0.0
 40
0.2897042895
 40
0.5490907647
 40
0.7822174449
 40
1.0
 40
1.0
 40
1.0
 40
1.0
 10
12.1249845755
 20
26.6130673862
 30
0.0
 10
12.1249845755
 20
26.51173064
 30
0.0
 10
12.1403486319
 20
26.319009829
 30
0.0
 10
12.2183980537
 20
26.0542218059
 30
0.0
 10
12.3498074339
 20
25.8393619283
 30
0.0
 10
12.4732408925
 20
25.735592549
 30
0.0
 10
12.5392142067
 20
25.6975037333
 30
0.0
  0
SPLINE
  5
2C2
100
AcDbEntity
  8
0
100
AcDbSpline
 62
7
  6
CONTINUOUS
 70
0
 71
3
 72
15
 73
11
 74
0
 42
0.0000001
 43
0.0000001
 44
0.0000000001
 40
0.0
 40
0.0
 40
0.0
 40
0.0
 40
0.1141229605
 40
0.2373462928
 40
0.366971064
 40
0.4999983279
 40
0.633025824
 40
0.762651271
 40
0.8858756957
 40
1.0
 40
1.0
 40
1.0
 40
1.0
 10
13.5391922499
 20
62.5391596305
 30
0.0
 10
13.4424053672
 20
62.4832800313
 30
0.0
 10
13.2511910774
 20
62.3491874372
 30
0.0
 10
12.9880358608
 20
62.1030730483
 30
0.0
 10
12.7455783553
 20
61.8120337692
 30
0.0
 10
12.5328545741
 20
61.4871805825
 30
0.0
 10
12.3578867152
 20
61.1405283661
 30
0.0
 10
12.2270688194
 20
60.7850320132
 30
0.0
 10
12.1455053201
 20
60.4340725615
 30
0.0
 10
12.1249845755
 20
60.2014275033
 30
0.0
 10
12.1249845755
 20
60.0896664885
 30
0.0
  0
SPLINE
  5
2C3
100
AcDbEntity
  8
0
100
AcDbSpline
 62
7
  6
CONTINUOUS
 70
0
 71
3
 72
11
 73
7
 74
0
 42
0.0000001
 43
0.0000001
 44
0.0000000001
 40
0.0
 40
0.0
 40
0.0
 40
0.0
 40
0.289702809
 40
0.549088757
 40
0.7822160314
 40
1.0
 40
1.0
 40
1.0
 40
1.0
 10
26.055034385
 20
18.5706895047
 30
0.0
 10
25.9672779823
 20
18.5200236244
 30
0.0
 10
25.7927022235
 20
18.4369728662
 30
0.0
 10
25.5243755189
 20
18.3721743962
 30
0.0
 10
25.2726062863
 20
18.3785469957
 30
0.0
 10
25.1210274531
 20
18.4335547935
 30
0.0
 10
25.0550563418
 20
18.4716423783
 30
0.0
  0
SPLINE
  5
2C4
100
AcDbEntity
  8
0
100
AcDbSpline
 62
7
  6
CONTINUOUS
 70
0
 71
3
 72
13
 73
9
 74
0
 42
0.0000001
 43
0.0000001
 44
0.0000000001
 40
0.0
 40
0.0
 40
0.0
 40
0.0
 40
0.2374550457
 40
0.500151906
 40
0.6331755683
 40
0.7626320655
 40
0.8855106276
 40
1.0
 40
1.0
 40
1.0
 40
1.0
 10
19.2668151736
 20
27.1445497846
 30
0.0
 10
19.5524305056
 20
26.9796534262
 30
0.0
 10
20.1822212022
 20
26.6814206283
 30
0.0
 10
21.0066688565
 20
26.3752357317
 30
0.0
 10
21.6929536115
 20
26.1281753168
 30
0.0
 10
22.1936379879
 20
25.9388225975
 30
0.0
 10
22.6625095566
 20
25.7389878465
 30
0.0
 10
22.956521096
 20
25.5887730464
 30
0.0
 10
23.0942276756
 20
25.5092621535
 30
0.0
  0
SPLINE
  5
2C5
100
AcDbEntity
  8
0
100
AcDbSpline
 62
7
  6
CONTINUOUS
 70
0
 71
3
 72
11
 73
7
 74
0
 42
0.0000001
 43
0.0000001
 44
0.0000000001
 40
0.0
 40
0.0
 40
0.0
 40
0.0
 40
0.2638355508
 40
0.5199971867
 40
0.7654886877
 40
1.0
 40
1.0
 40
1.0
 40
1.0
 10
22.0022184867
 20
28.146186192
 30
0.0
 10
21.962065339
 20
28.1693720978
 30
0.0
 10
21.886188932
 20
28.2211668549
 30
0.0
 10
21.7902349845
 20
28.3167967897
 30
0.0
 10
21.7221672336
 20
28.4287713514
 30
0.0
 10
21.7043722714
 20
28.5136805644
 30
0.0
 10
21.7043722714
 20
28.5548937062
 30
0.0
  0
SPLINE
  5
2C6
100
AcDbEntity
  8
0
100
AcDbSpline
 62
7
  6
CONTINUOUS
 70
0
 71
3
 72
13
 73
9
 74
0
 42
0.0000001
 43
0.0000001
 44
0.0000000001
 40
0.0
 40
0.0
 40
0.0
 40
0.0
 40
0.1080963346
 40
0.2182388353
 40
0.3322536654
 40
0.4516812592
 40
0.7106595508
 40
1.0
 40
1.0
 40
1.0
 40
1.0
 10
31.779389771
 20
16.1264323875
 30
0.0
 10
31.838419397
 20
16.1604990461
 30
0.0
 10
31.9519018924
 20
16.2397007372
 30
0.0
 10
32.1017994325
 20
16.3873039234
 30
0.0
 10
32.2308215354
 20
16.5623878373
 30
0.0
 10
32.3770358087
 20
16.8373526632
 30
0.0
 10
32.4974811805
 20
17.245266016
 30
0.0
 10
32.5250035838
 20
17.5920147005
 30
0.0
 10
32.5250035838
 20
17.7744431767
 30
0.0
  0
SPLINE
  5
2C7
100
AcDbEntity
  8
0
100
AcDbSpline
 62
7
  6
CONTINUOUS
 70
0
 71
3
 72
17
 73
13
 74
0
 42
0.0000001
 43
0.0000001
 44
0.0000000001
 40
0.0
 40
0.0
 40
0.0
 40
0.0
 40
0.0433385013
 40
0.0878814526
 40
0.1346784372
 40
0.1845144137
 40
0.2947974433
 40
0.4199392996
 40
0.5577063072
 40
0.7038952945
 40
0.8532163086
 40
1.0
 40
1.0
 40
1.0
 40
1.0
 10
32.0293873672
 20
15.6934212796
 30
0.0
 10
31.9472347404
 20
15.6460095465
 30
0.0
 10
31.7700255912
 20
15.5671339623
 30
0.0
 10
31.4802536589
 20
15.5040164011
 30
0.0
 10
31.1697338637
 20
15.4955790307
 30
0.0
 10
30.7195418091
 20
15.5588119255
 30
0.0
 10
30.1286679585
 20
15.7829653352
 30
0.0
 10
29.4416903107
 20
16.2330980604
 30
0.0
 10
28.785669721
 20
16.8481721609
 30
0.0
 10
28.1959191233
 20
17.5948539355
 30
0.0
 10
27.7044609709
 20
18.4321163495
 30
0.0
 10
27.4549266236
 20
19.0330534561
 30
0.0
 10
27.3545378796
 20
19.3382212815
 30
0.0
  0
SPLINE
  5
2C8
100
AcDbEntity
  8
0
100
AcDbSpline
 62
7
  6
CONTINUOUS
 70
0
 71
3
 72
13
 73
9
 74
0
 42
0.0000001
 43
0.0000001
 44
0.0000000001
 40
0.0
 40
0.0
 40
0.0
 40
0.0
 40
0.1080963346
 40
0.2182388353
 40
0.3322536654
 40
0.4516812592
 40
0.7106595508
 40
1.0
 40
1.0
 40
1.0
 40
1.0
 10
31.779389771
 20
70.5054933684
 30
0.0
 10
31.838419397
 20
70.5395600269
 30
0.0
 10
31.9519018924
 20
70.618761718
 30
0.0
 10
32.1017994325
 20
70.7663649042
 30
0.0
 10
32.2308215354
 20
70.9414488182
 30
0.0
 10
32.3770358087
 20
71.216413644
 30
0.0
 10
32.4974811805
 20
71.6243269969
 30
0.0
 10
32.5250035838
 20
71.9710756813
 30
0.0
 10
32.5250035838
 20
72.1535041575
 30
0.0
  0
SPLINE
  5
2C9
100
AcDbEntity
  8
0
100
AcDbSpline
 62
7
  6
CONTINUOUS
 70
0
 71
3
 72
20
 73
16
 74
0
 42
0.0000001
 43
0.0000001
 44
0.0000000001
 40
0.0
 40
0.0
 40
0.0
 40
0.0
 40
0.0428311618
 40
0.0874319126
 40
0.1352333097
 40
0.1871656014
 40
0.2436346277
 40
0.3046158312
 40
0.3697411197
 40
0.4383757968
 40
0.5826267566
 40
0.7296917431
 40
0.8711892943
 40
0.9376085839
 40
1.0
 40
1.0
 40
1.0
 40
1.0
 10
32.0293873672
 20
70.0724822604
 30
0.0
 10
31.9283000653
 20
70.0141429916
 30
0.0
 10
31.7055097723
 20
69.9214836834
 30
0.0
 10
31.337697316
 20
69.8676645019
 30
0.0
 10
30.9427342088
 20
69.8966508207
 30
0.0
 10
30.5293897797
 20
70.0065230952
 30
0.0
 10
30.105765504
 20
70.193733457
 30
0.0
 10
29.6802870993
 20
70.4539947928
 30
0.0
 10
29.2616241969
 20
70.7817977166
 30
0.0
 10
28.7152182673
 20
71.3080605256
 30
0.0
 10
28.1080581675
 20
72.0856700604
 30
0.0
 10
27.5444268357
 20
73.1272491463
 30
0.0
 10
27.2324432922
 20
74.0493851729
 30
0.0
 10
27.1033824761
 20
74.7756901174
 30
0.0
 10
27.0802587002
 20
75.1269429729
 30
0.0
 10
27.0802587002
 20
75.2969579673
 30
0.0
  0
SPLINE
  5
2CA
100
AcDbEntity
  8
0
100
AcDbSpline
 62
7
  6
CONTINUOUS
 70
0
 71
3
 72
11
 73
7
 74
0
 42
0.0000001
 43
0.0000001
 44
0.0000000001
 40
0.0
 40
0.0
 40
0.0
 40
0.0
 40
0.2227820631
 40
0.4620718093
 40
0.7209061171
 40
1.0
 40
1.0
 40
1.0
 40
1.0
 10
21.2747238382
 20
26.381766895
 30
0.0
 10
21.3795551833
 20
26.248441261
 30
0.0
 10
21.5668013213
 20
25.9472806207
 30
0.0
 10
21.7650097183
 20
25.432719179
 30
0.0
 10
21.8870634929
 20
24.8515582407
 30
0.0
 10
21.9157683019
 20
24.4417637396
 30
0.0
 10
21.9184542687
 20
24.2293071944
 30
0.0
  0
SPLINE
  5
2CB
100
AcDbEntity
  8
0
100
AcDbSpline
 62
7
  6
CONTINUOUS
 70
0
 71
3
 72
9
 73
5
 74
0
 42
0.0000001
 43
0.0000001
 44
0.0000000001
 40
0.0
 40
0.0
 40
0.0
 40
0.0
 40
0.5147944698
 40
1.0
 40
1.0
 40
1.0
 40
1.0
 10
11.0120024097
 20
35.241232057
 30
0.0
 10
11.0120047112
 20
35.1523386213
 30
0.0
 10
11.015873458
 20
34.9796899621
 30
0.0
 10
11.0201991641
 20
34.8070484694
 30
0.0
 10
11.0201991641
 20
34.7232643786
 30
0.0
  0
SPLINE
  5
2CC
100
AcDbEntity
  8
0
100
AcDbSpline
 62
7
  6
CONTINUOUS
 70
0
 71
3
 72
14
 73
10
 74
0
 42
0.0000001
 43
0.0000001
 44
0.0000000001
 40
0.0
 40
0.0
 40
0.0
 40
0.0
 40
0.1203647269
 40
0.2487268986
 40
0.3811723907
 40
0.5137201356
 40
0.6434061761
 40
0.7683580687
 40
1.0
 40
1.0
 40
1.0
 40
1.0
 10
11.0120017225
 20
37.3886705932
 30
0.0
 10
11.0120058024
 20
37.6170206144
 30
0.0
 10
11.0577732917
 20
38.0889408159
 30
0.0
 10
11.2106222206
 20
38.7963408353
 30
0.0
 10
11.4116211232
 20
39.5152312266
 30
0.0
 10
11.6257631986
 20
40.2326385503
 30
0.0
 10
11.8242777641
 20
40.9401151496
 30
0.0
 10
12.0334935886
 20
41.8384650905
 30
0.0
 10
12.1195091009
 20
42.5143492527
 30
0.0
 10
12.1249845755
 20
42.9537747835
 30
0.0
  0
SPLINE
  5
2CD
100
AcDbEntity
  8
0
100
AcDbSpline
 62
7
  6
CONTINUOUS
 70
0
 71
3
 72
11
 73
7
 74
0
 42
0.0000001
 43
0.0000001
 44
0.0000000001
 40
0.0
 40
0.0
 40
0.0
 40
0.0
 40
0.4236423403
 40
0.7269646022
 40
0.9139677959
 40
1.0
 40
1.0
 40
1.0
 40
1.0
 10
11.0201991641
 20
34.7232643786
 30
0.0
 10
11.0201991641
 20
34.6907691874
 30
0.0
 10
11.0196947965
 20
34.6350029245
 30
0.0
 10
11.0167281297
 20
34.5649409565
 30
0.0
 10
11.0141154502
 20
34.5208293968
 30
0.0
 10
11.0120047818
 20
34.4999516728
 30
0.0
 10
11.0120023984
 20
34.4933526328
 30
0.0
  0
SPLINE
  5
2CE
100
AcDbEntity
  8
0
100
AcDbSpline
 62
7
  6
CONTINUOUS
 70
0
 71
3
 72
17
 73
13
 74
0
 42
0.0000001
 43
0.0000001
 44
0.0000000001
 40
0.0
 40
0.0
 40
0.0
 40
0.0
 40
0.0550371015
 40
0.1112117813
 40
0.1695852903
 40
0.2303354867
 40
0.3577081533
 40
0.490628771
 40
0.6256552915
 40
0.7586937636
 40
0.8848622352
 40
1.0
 40
1.0
 40
1.0
 40
1.0
 10
21.7043722714
 20
28.5548937062
 30
0.0
 10
21.7043722714
 20
28.5872144475
 30
0.0
 10
21.7150547075
 20
28.6529418634
 30
0.0
 10
21.7596990871
 20
28.7432010869
 30
0.0
 10
21.8255382374
 20
28.8232103155
 30
0.0
 10
21.9354286939
 20
28.9181713824
 30
0.0
 10
22.0999259868
 20
29.0132516266
 30
0.0
 10
22.3173636327
 20
29.0963653958
 30
0.0
 10
22.547204344
 20
29.1507209986
 30
0.0
 10
22.7786318585
 20
29.1724310392
 30
0.0
 10
22.9990203056
 20
29.1550705358
 30
0.0
 10
23.1357681562
 20
29.1083165404
 30
0.0
 10
23.194324317
 20
29.0745086299
 30
0.0
  0
SPLINE
  5
2CF
100
AcDbEntity
  8
0
100
AcDbSpline
 62
7
  6
CONTINUOUS
 70
0
 71
3
 72
15
 73
11
 74
0
 42
0.0000001
 43
0.0000001
 44
0.0000000001
 40
0.0
 40
0.0
 40
0.0
 40
0.0
 40
0.1116045835
 40
0.2301943515
 40
0.3543905431
 40
0.4826723181
 40
0.6132522648
 40
0.7442358793
 40
0.8737961646
 40
1.0
 40
1.0
 40
1.0
 40
1.0
 10
21.9184542687
 20
37.2996403334
 30
0.0
 10
21.9153248495
 20
37.0484937484
 30
0.0
 10
21.8752338599
 20
36.5305637279
 30
0.0
 10
21.7271264657
 20
35.7455492492
 30
0.0
 10
21.492058765
 20
34.942907951
 30
0.0
 10
21.1752915496
 20
34.1399433202
 30
0.0
 10
20.7834455348
 20
33.3537731765
 30
0.0
 10
20.3249991695
 20
32.6011016024
 30
0.0
 10
19.8097615905
 20
31.8983414692
 30
0.0
 10
19.4290787858
 20
31.4653277196
 30
0.0
 10
19.2314596873
 20
31.261330136
 30
0.0
  0
SPLINE
  5
2D0
100
AcDbEntity
  8
0
100
AcDbSpline
 62
7
  6
CONTINUOUS
 70
0
 71
3
 72
13
 73
9
 74
0
 42
0.0000001
 43
0.0000001
 44
0.0000000001
 40
0.0
 40
0.0
 40
0.0
 40
0.0
 40
0.2893469043
 40
0.5483224384
 40
0.6677487293
 40
0.7817630896
 40
0.89190446
 40
1.0
 40
1.0
 40
1.0
 40
1.0
 10
27.0802587002
 20
75.2969579673
 30
0.0
 10
27.0802587002
 20
75.5047285619
 30
0.0
 10
27.1116034461
 20
75.8996398175
 30
0.0
 10
27.2487789094
 20
76.3642100814
 30
0.0
 10
27.4153037594
 20
76.677359542
 30
0.0
 10
27.5622422553
 20
76.8767600516
 30
0.0
 10
27.7329536386
 20
77.0448681109
 30
0.0
 10
27.8622022138
 20
77.1350612706
 30
0.0
 10
27.9294297794
 20
77.1738594871
 30
0.0
  0
SPLINE
  5
2D1
100
AcDbEntity
  8
0
100
AcDbSpline
 62
7
  6
CONTINUOUS
 70
0
 71
3
 72
20
 73
16
 74
0
 42
0.0000001
 43
0.0000001
 44
0.0000000001
 40
0.0
 40
0.0
 40
0.0
 40
0.0
 40
0.0623917707
 40
0.1288096548
 40
0.2703030816
 40
0.417364666
 40
0.5616164847
 40
0.6302527552
 40
0.6953793367
 40
0.7563616105
 40
0.8128308438
 40
0.864763636
 40
0.9125655963
 40
0.9571670893
 40
1.0
 40
1.0
 40
1.0
 40
1.0
 10
32.5250035838
 20
72.1535041575
 30
0.0
 10
32.5250035838
 20
72.3027864568
 30
0.0
 10
32.504700521
 20
72.6112011132
 30
0.0
 10
32.3913810288
 20
73.2489200363
 30
0.0
 10
32.117455244
 20
74.0585810161
 30
0.0
 10
31.6225759959
 20
74.9731286699
 30
0.0
 10
31.0894685943
 20
75.65591189
 30
0.0
 10
30.6096933746
 20
76.1180052072
 30
0.0
 10
30.2420808372
 20
76.4058390872
 30
0.0
 10
29.8684900786
 20
76.6343737711
 30
0.0
 10
29.496521659
 20
76.7987511842
 30
0.0
 10
29.1335851808
 20
76.8952346011
 30
0.0
 10
28.7867832671
 20
76.920689716
 30
0.0
 10
28.4638199794
 20
76.8734294712
 30
0.0
 10
28.2681908262
 20
76.792074761
 30
0.0
 10
28.1794273756
 20
76.7408483792
 30
0.0
  0
SPLINE
  5
2D2
100
AcDbEntity
  8
0
100
AcDbSpline
 62
7
  6
CONTINUOUS
 70
0
 71
3
 72
12
 73
8
 74
0
 42
0.0000001
 43
0.0000001
 44
0.0000000001
 40
0.0
 40
0.0
 40
0.0
 40
0.0
 40
0.1111399003
 40
0.2295106163
 40
0.4817187571
 40
0.7436304119
 40
1.0
 40
1.0
 40
1.0
 40
1.0
 10
32.5250035838
 20
17.7744431767
 30
0.0
 10
32.5250035838
 20
17.9253911079
 30
0.0
 10
32.5042441904
 20
18.2373308609
 30
0.0
 10
32.388477026
 20
18.8822746164
 30
0.0
 10
32.1088982265
 20
19.7004555304
 30
0.0
 10
31.604766499
 20
20.6223903371
 30
0.0
 10
31.165084439
 20
21.1779078146
 30
0.0
 10
30.9235784838
 20
21.4287369733
 30
0.0
  0
SPLINE
  5
2D3
100
AcDbEntity
  8
0
100
AcDbSpline
 62
7
  6
CONTINUOUS
 70
0
 71
3
 72
9
 73
5
 74
0
 42
0.0000001
 43
0.0000001
 44
0.0000000001
 40
0.0
 40
0.0
 40
0.0
 40
0.0
 40
0.5170164673
 40
1.0
 40
1.0
 40
1.0
 40
1.0
 10
55.0201913926
 20
90.0827194067
 30
0.0
 10
55.06772449
 20
90.1489818874
 30
0.0
 10
55.1443213248
 20
90.2897063414
 30
0.0
 10
55.1724185994
 20
90.4484012811
 30
0.0
 10
55.1724185852
 20
90.5245815354
 30
0.0
  0
SPLINE
  5
2D4
100
AcDbEntity
  8
0
100
AcDbSpline
 62
7
  6
CONTINUOUS
 70
0
 71
3
 72
13
 73
9
 74
0
 42
0.0000001
 43
0.0000001
 44
0.0000000001
 40
0.0
 40
0.0
 40
0.0
 40
0.0
 40
0.1080960695
 40
0.2182380026
 40
0.3322524737
 40
0.451680088
 40
0.7106587771
 40
1.0
 40
1.0
 40
1.0
 40
1.0
 10
32.5950701582
 20
70.3990780595
 30
0.0
 10
32.6622982101
 20
70.437876064
 30
0.0
 10
32.7915424589
 20
70.5280765272
 30
0.0
 10
32.9622583944
 20
70.6961798509
 30
0.0
 10
33.1091994492
 20
70.8955807201
 30
0.0
 10
33.2757215616
 20
71.2087349909
 30
0.0
 10
33.4128967962
 20
71.6733035725
 30
0.0
 10
33.4442415162
 20
72.0682127624
 30
0.0
 10
33.4442415162
 20
72.2759791033
 30
0.0
  0
SPLINE
  5
2D5
100
AcDbEntity
  8
0
100
AcDbSpline
 62
7
  6
CONTINUOUS
 70
0
 71
3
 72
20
 73
16
 74
0
 42
0.0000001
 43
0.0000001
 44
0.0000000001
 40
0.0
 40
0.0
 40
0.0
 40
0.0
 40
0.0428311618
 40
0.0874319126
 40
0.1352333097
 40
0.1871656014
 40
0.2436346277
 40
0.3046158312
 40
0.3697411197
 40
0.4383757968
 40
0.5826267566
 40
0.7296917431
 40
0.8711892943
 40
0.9376085839
 40
1.0
 40
1.0
 40
1.0
 40
1.0
 10
27.9294297794
 20
77.1738594871
 30
0.0
 10
28.0305170813
 20
77.2321987559
 30
0.0
 10
28.2533073743
 20
77.3248580641
 30
0.0
 10
28.6211198306
 20
77.3786772457
 30
0.0
 10
29.0160829378
 20
77.3496909268
 30
0.0
 10
29.4294273669
 20
77.2398186523
 30
0.0
 10
29.8530516426
 20
77.0526082905
 30
0.0
 10
30.2785300473
 20
76.7923469547
 30
0.0
 10
30.6971929498
 20
76.4645440309
 30
0.0
 10
31.2435988794
 20
75.9382812219
 30
0.0
 10
31.8507589791
 20
75.1606716871
 30
0.0
 10
32.4143903109
 20
74.1190926012
 30
0.0
 10
32.7263738544
 20
73.1969565746
 30
0.0
 10
32.8554346706
 20
72.4706516302
 30
0.0
 10
32.8785584464
 20
72.1193987746
 30
0.0
 10
32.8785584464
 20
71.9493837802
 30
0.0
  0
SPLINE
  5
2D6
100
AcDbEntity
  8
0
100
AcDbSpline
 62
7
  6
CONTINUOUS
 70
0
 71
3
 72
11
 73
7
 74
0
 42
0.0000001
 43
0.0000001
 44
0.0000000001
 40
0.0
 40
0.0
 40
0.0
 40
0.0
 40
0.2177825102
 40
0.4509091639
 40
0.7102957096
 40
1.0
 40
1.0
 40
1.0
 40
1.0
 10
25.0550563418
 20
18.4716423783
 30
0.0
 10
24.9890830591
 20
18.5097312168
 30
0.0
 10
24.8656495882
 20
18.6135005234
 30
0.0
 10
24.7342402035
 20
18.8283604137
 30
0.0
 10
24.6561908015
 20
19.0931484524
 30
0.0
 10
24.6408267106
 20
19.285869285
 30
0.0
 10
24.6408267106
 20
19.3872060312
 30
0.0
  0
SPLINE
  5
2D7
100
AcDbEntity
  8
0
100
AcDbSpline
 62
7
  6
CONTINUOUS
 70
0
 71
3
 72
15
 73
11
 74
0
 42
0.0000001
 43
0.0000001
 44
0.0000000001
 40
0.0
 40
0.0
 40
0.0
 40
0.0
 40
0.1350379582
 40
0.2604360265
 40
0.3795848205
 40
0.4964311031
 40
0.6146110002
 40
0.7369076271
 40
0.8650988806
 40
1.0
 40
1.0
 40
1.0
 40
1.0
 10
23.0942276756
 20
25.5092621535
 30
0.0
 10
23.2275009284
 20
25.4323110351
 30
0.0
 10
23.4775347177
 20
25.2709065898
 30
0.0
 10
23.807661592
 20
24.9890619482
 30
0.0
 10
24.0771531305
 20
24.67529093
 30
0.0
 10
24.2886328365
 20
24.3295376367
 30
0.0
 10
24.446751564
 20
23.9527708668
 30
0.0
 10
24.5566662592
 20
23.5461567543
 30
0.0
 10
24.6226716999
 20
23.1111688578
 30
0.0
 10
24.6388832487
 20
22.811305641
 30
0.0
 10
24.6408267106
 20
22.6575802895
 30
0.0
  0
SPLINE
  5
2D8
100
AcDbEntity
  8
0
100
AcDbSpline
 62
7
  6
CONTINUOUS
 70
0
 71
3
 72
20
 73
16
 74
0
 42
0.0000001
 43
0.0000001
 44
0.0000000001
 40
0.0
 40
0.0
 40
0.0
 40
0.0
 40
0.0623915509
 40
0.1288092277
 40
0.2703023822
 40
0.4173639367
 40
0.5616163563
 40
0.6302527133
 40
0.6953794098
 40
0.7563618881
 40
0.8128312514
 40
0.8647639545
 40
0.9125658095
 40
0.9571672284
 40
1.0
 40
1.0
 40
1.0
 40
1.0
 10
33.4442415162
 20
72.2759791033
 30
0.0
 10
33.4442415162
 20
72.4459944589
 30
0.0
 10
33.4211192341
 20
72.7972433724
 30
0.0
 10
33.2920605627
 20
73.523532378
 30
0.0
 10
32.9800919586
 20
74.4456455511
 30
0.0
 10
32.4164788676
 20
75.4872144418
 30
0.0
 10
31.8093282291
 20
76.2648305198
 30
0.0
 10
31.2629161638
 20
76.7911051638
 30
0.0
 10
30.8442455528
 20
77.1189168878
 30
0.0
 10
30.4187655536
 20
77.3791920885
 30
0.0
 10
29.9951346347
 20
77.5664009389
 30
0.0
 10
29.5817900493
 20
77.6762834434
 30
0.0
 10
29.1868220512
 20
77.7052737141
 30
0.0
 10
28.8190034229
 20
77.6514500046
 30
0.0
 10
28.5962045462
 20
77.5587952377
 30
0.0
 10
28.495113128
 20
77.5004543342
 30
0.0
  0
SPLINE
  5
2D9
100
AcDbEntity
  8
0
100
AcDbSpline
 62
7
  6
CONTINUOUS
 70
0
 71
3
 72
13
 73
9
 74
0
 42
0.0000001
 43
0.0000001
 44
0.0000000001
 40
0.0
 40
0.0
 40
0.0
 40
0.0
 40
0.2499265235
 40
0.3712412974
 40
0.491770485
 40
0.6132714504
 40
0.7375708732
 40
1.0
 40
1.0
 40
1.0
 40
1.0
 10
12.1250069186
 20
35.3641497368
 30
0.0
 10
11.9498798024
 20
35.4652571388
 30
0.0
 10
11.7056871603
 20
35.6478096527
 30
0.0
 10
11.4428660033
 20
35.9479400195
 30
0.0
 10
11.2822894069
 20
36.1954946722
 30
0.0
 10
11.1584208201
 20
36.4659193724
 30
0.0
 10
11.0408725249
 20
36.8611234886
 30
0.0
 10
11.0119979287
 20
37.1763363702
 30
0.0
 10
11.0120017225
 20
37.3886705932
 30
0.0
  0
SPLINE
  5
2DA
100
AcDbEntity
  8
0
100
AcDbSpline
 62
7
  6
CONTINUOUS
 70
0
 71
3
 72
13
 73
9
 74
0
 42
0.0000001
 43
0.0000001
 44
0.0000000001
 40
0.0
 40
0.0
 40
0.0
 40
0.0
 40
0.2893469043
 40
0.5483224384
 40
0.6677487293
 40
0.7817630896
 40
0.89190446
 40
1.0
 40
1.0
 40
1.0
 40
1.0
 10
32.8785584464
 20
71.9493837802
 30
0.0
 10
32.8785584464
 20
71.7416131856
 30
0.0
 10
32.8472137005
 20
71.34670193
 30
0.0
 10
32.7100382372
 20
70.8821316662
 30
0.0
 10
32.5435133872
 20
70.5689822055
 30
0.0
 10
32.3965748914
 20
70.3695816959
 30
0.0
 10
32.2258635081
 20
70.2014736366
 30
0.0
 10
32.0966149328
 20
70.1112804769
 30
0.0
 10
32.0293873672
 20
70.0724822604
 30
0.0
  0
SPLINE
  5
2DB
100
AcDbEntity
  8
0
100
AcDbSpline
 62
7
  6
CONTINUOUS
 70
0
 71
3
 72
20
 73
16
 74
0
 42
0.0000001
 43
0.0000001
 44
0.0000000001
 40
0.0
 40
0.0
 40
0.0
 40
0.0
 40
0.0623917707
 40
0.1288096548
 40
0.2703030816
 40
0.417364666
 40
0.5616164847
 40
0.6302527552
 40
0.6953793367
 40
0.7563616105
 40
0.8128308438
 40
0.864763636
 40
0.9125655963
 40
0.9571670893
 40
1.0
 40
1.0
 40
1.0
 40
1.0
 10
27.4338135628
 20
75.09283759
 30
0.0
 10
27.4338135628
 20
74.9435552907
 30
0.0
 10
27.4541166256
 20
74.6351406343
 30
0.0
 10
27.5674361179
 20
73.9974217112
 30
0.0
 10
27.8413619026
 20
73.1877607314
 30
0.0
 10
28.3362411507
 20
72.2732130776
 30
0.0
 10
28.8693485523
 20
71.5904298575
 30
0.0
 10
29.349123772
 20
71.1283365403
 30
0.0
 10
29.7167363094
 20
70.8405026603
 30
0.0
 10
30.090327068
 20
70.6119679764
 30
0.0
 10
30.4622954876
 20
70.4475905634
 30
0.0
 10
30.8252319658
 20
70.3511071464
 30
0.0
 10
31.1720338795
 20
70.3256520315
 30
0.0
 10
31.4949971672
 20
70.3729122763
 30
0.0
 10
31.6906263204
 20
70.4542669865
 30
0.0
 10
31.779389771
 20
70.5054933684
 30
0.0
  0
SPLINE
  5
2DC
100
AcDbEntity
  8
0
100
AcDbSpline
 62
7
  6
CONTINUOUS
 70
0
 71
3
 72
17
 73
13
 74
0
 42
0.0000001
 43
0.0000001
 44
0.0000000001
 40
0.0
 40
0.0
 40
0.0
 40
0.0
 40
0.1449418762
 40
0.2936275921
 40
0.4400857006
 40
0.5786421827
 40
0.7046761817
 40
0.8155861143
 40
0.8655621909
 40
0.9123709473
 40
0.9568184643
 40
1.0
 40
1.0
 40
1.0
 40
1.0
 10
27.6193315577
 20
19.5051068889
 30
0.0
 10
27.6997245445
 20
19.2290381403
 30
0.0
 10
27.9078527562
 20
18.6822255824
 30
0.0
 10
28.3321236097
 20
17.9161402172
 30
0.0
 10
28.8521814139
 20
17.22695607
 30
0.0
 10
29.4381459251
 20
16.6546852556
 30
0.0
 10
30.0566262932
 20
16.23207354
 30
0.0
 10
30.5915959757
 20
16.0178313506
 30
0.0
 10
31.000285253
 20
15.9538752002
 30
0.0
 10
31.2819909757
 20
15.9579176209
 30
0.0
 10
31.5447364882
 20
16.0127844636
 30
0.0
 10
31.7051952035
 20
16.0836138713
 30
0.0
 10
31.779389771
 20
16.1264323875
 30
0.0
  0
SPLINE
  5
2DD
100
AcDbEntity
  8
0
100
AcDbSpline
 62
7
  6
CONTINUOUS
 70
0
 71
3
 72
13
 73
9
 74
0
 42
0.0000001
 43
0.0000001
 44
0.0000000001
 40
0.0
 40
0.0
 40
0.0
 40
0.0
 40
0.2893469043
 40
0.5483224384
 40
0.6677487293
 40
0.7817630896
 40
0.89190446
 40
1.0
 40
1.0
 40
1.0
 40
1.0
 10
32.8785584464
 20
17.5703227994
 30
0.0
 10
32.8785584464
 20
17.3625522048
 30
0.0
 10
32.8472137005
 20
16.9676409491
 30
0.0
 10
32.7100382372
 20
16.5030706853
 30
0.0
 10
32.5435133872
 20
16.1899212247
 30
0.0
 10
32.3965748914
 20
15.990520715
 30
0.0
 10
32.2258635081
 20
15.8224126558
 30
0.0
 10
32.0966149328
 20
15.7322194961
 30
0.0
 10
32.0293873672
 20
15.6934212796
 30
0.0
  0
SPLINE
  5
2DE
100
AcDbEntity
  8
0
100
AcDbSpline
 62
7
  6
CONTINUOUS
 70
0
 71
3
 72
11
 73
7
 74
0
 42
0.0000001
 43
0.0000001
 44
0.0000000001
 40
0.0
 40
0.0
 40
0.0
 40
0.0
 40
0.2277261001
 40
0.4750707131
 40
0.7351953139
 40
1.0
 40
1.0
 40
1.0
 40
1.0
 10
61.3869038004
 20
97.584425231
 30
0.0
 10
61.3869038004
 20
97.4679865228
 30
0.0
 10
61.4123754958
 20
97.2248099193
 30
0.0
 10
61.5118779997
 20
96.8609536286
 30
0.0
 10
61.6696003638
 20
96.4976219054
 30
0.0
 10
61.8087757416
 20
96.2670337463
 30
0.0
 10
61.8863497016
 20
96.1560619969
 30
0.0
  0
SPLINE
  5
2DF
100
AcDbEntity
  8
0
100
AcDbSpline
 62
7
  6
CONTINUOUS
 70
0
 71
3
 72
11
 73
7
 74
0
 42
0.0000001
 43
0.0000001
 44
0.0000000001
 40
0.0
 40
0.0
 40
0.0
 40
0.0
 40
0.253919027
 40
0.499153869
 40
0.7448439518
 40
1.0
 40
1.0
 40
1.0
 40
1.0
 10
23.194324317
 20
29.0745086299
 30
0.0
 10
23.2262152839
 20
29.0560961019
 30
0.0
 10
23.2853422794
 20
29.0129203318
 30
0.0
 10
23.3538550636
 20
28.9276602946
 30
0.0
 10
23.3958738281
 20
28.8264316709
 30
0.0
 10
23.4046170966
 20
28.7533572691
 30
0.0
 10
23.4046170966
 20
28.7163532185
 30
0.0
  0
SPLINE
  5
2E0
100
AcDbEntity
  8
0
100
AcDbSpline
 62
7
  6
CONTINUOUS
 70
0
 71
3
 72
15
 73
11
 74
0
 42
0.0000001
 43
0.0000001
 44
0.0000000001
 40
0.0
 40
0.0
 40
0.0
 40
0.0
 40
0.1115736528
 40
0.2334452179
 40
0.3615900135
 40
0.4917658654
 40
0.6214621656
 40
0.7496935693
 40
0.8760676252
 40
1.0
 40
1.0
 40
1.0
 40
1.0
 10
23.4046170966
 20
28.7163532185
 30
0.0
 10
23.4046170966
 20
28.6499101275
 30
0.0
 10
23.3745758041
 20
28.5102921491
 30
0.0
 10
23.2615020903
 20
28.323408703
 30
0.0
 10
23.0921717932
 20
28.1687198166
 30
0.0
 10
22.8845221925
 20
28.0617955548
 30
0.0
 10
22.6576031585
 20
28.0080373723
 30
0.0
 10
22.4269886318
 20
28.005671514
 30
0.0
 10
22.2045039781
 20
28.0500927658
 30
0.0
 10
22.0661312071
 20
28.1092806341
 30
0.0
 10
22.0022184867
 20
28.146186192
 30
0.0
  0
SPLINE
  5
2E1
100
AcDbEntity
  8
0
100
AcDbSpline
 62
7
  6
CONTINUOUS
 70
0
 71
3
 72
15
 73
11
 74
0
 42
0.0000001
 43
0.0000001
 44
0.0000000001
 40
0.0
 40
0.0
 40
0.0
 40
0.0
 40
0.1141236058
 40
0.2373475862
 40
0.3669728832
 40
0.5000004526
 40
0.6330279586
 40
0.7626530685
 40
0.8858767805
 40
1.0
 40
1.0
 40
1.0
 40
1.0
 10
51.1925095587
 20
93.3006254648
 30
0.0
 10
51.095721846
 20
93.3565046127
 30
0.0
 10
50.8839852734
 20
93.4550529971
 30
0.0
 10
50.5392644459
 20
93.5598930732
 30
0.0
 10
50.1659871402
 20
93.6243466926
 30
0.0
 10
49.7782938062
 20
93.6461439599
 30
0.0
 10
49.3906007562
 20
93.6243448968
 30
0.0
 10
49.0173242607
 20
93.559889532
 30
0.0
 10
48.6726047994
 20
93.4550477759
 30
0.0
 10
48.4608694161
 20
93.3564983227
 30
0.0
 10
48.364082434
 20
93.3006186661
 30
0.0
  0
SPLINE
  5
2E2
100
AcDbEntity
  8
0
100
AcDbSpline
 62
7
  6
CONTINUOUS
 70
0
 71
3
 72
12
 73
8
 74
0
 42
0.0000001
 43
0.0000001
 44
0.0000000001
 40
0.0
 40
0.0
 40
0.0
 40
0.0
 40
0.1109719144
 40
0.2289177041
 40
0.480050075
 40
0.7417117895
 40
1.0
 40
1.0
 40
1.0
 40
1.0
 10
33.4442415162
 20
17.8969181225
 30
0.0
 10
33.4442415162
 20
18.0609939429
 30
0.0
 10
33.4227067894
 20
18.3996835191
 30
0.0
 10
33.3022197059
 20
19.1001680653
 30
0.0
 10
33.0099668396
 20
19.9917112208
 30
0.0
 10
32.4796366018
 20
21.0058355215
 30
0.0
 10
32.015951649
 20
21.6245237452
 30
0.0
 10
31.7604245411
 20
21.9083271878
 30
0.0
  0
SPLINE
  5
2E3
100
AcDbEntity
  8
0
100
AcDbSpline
 62
7
  6
CONTINUOUS
 70
0
 71
3
 72
19
 73
15
 74
0
 42
0.0000001
 43
0.0000001
 44
0.0000000001
 40
0.0
 40
0.0
 40
0.0
 40
0.0
 40
0.1156113562
 40
0.2392715193
 40
0.3680072582
 40
0.4335361279
 40
0.499410362
 40
0.5653818305
 40
0.6311942226
 40
0.6965355512
 40
0.7610023104
 40
0.8241013278
 40
0.8853051753
 40
1.0
 40
1.0
 40
1.0
 40
1.0
 10
24.6408267106
 20
35.7279134285
 30
0.0
 10
24.6367638174
 20
35.4018523787
 30
0.0
 10
24.572432061
 20
34.7269026441
 30
0.0
 10
24.320521609
 20
33.7161173634
 30
0.0
 10
23.953305149
 20
32.8906437938
 30
0.0
 10
23.5460736189
 20
32.2783288968
 30
0.0
 10
23.1794926803
 20
31.8569984734
 30
0.0
 10
22.7550620399
 20
31.4922234983
 30
0.0
 10
22.2796104377
 20
31.1992769502
 30
0.0
 10
21.7662194761
 20
30.9901636489
 30
0.0
 10
21.2328818014
 20
30.8707913591
 30
0.0
 10
20.6986903477
 20
30.8407809766
 30
0.0
 10
20.0266472052
 20
30.9106727149
 30
0.0
 10
19.5469770576
 20
31.0791702184
 30
0.0
 10
19.2668151736
 20
31.2409180983
 30
0.0
  0
SPLINE
  5
2E4
100
AcDbEntity
  8
0
100
AcDbSpline
 62
7
  6
CONTINUOUS
 70
0
 71
3
 72
13
 73
9
 74
0
 42
0.0000001
 43
0.0000001
 44
0.0000000001
 40
0.0
 40
0.0
 40
0.0
 40
0.0
 40
0.1080960695
 40
0.2182380026
 40
0.3322524737
 40
0.451680088
 40
0.7106587771
 40
1.0
 40
1.0
 40
1.0
 40
1.0
 10
32.5950701582
 20
16.0200170787
 30
0.0
 10
32.6622982101
 20
16.0588150832
 30
0.0
 10
32.7915424589
 20
16.1490155464
 30
0.0
 10
32.9622583944
 20
16.3171188701
 30
0.0
 10
33.1091994492
 20
16.5165197393
 30
0.0
 10
33.2757215616
 20
16.82967401
 30
0.0
 10
33.4128967962
 20
17.2942425916
 30
0.0
 10
33.4442415162
 20
17.6891517815
 30
0.0
 10
33.4442415162
 20
17.8969181225
 30
0.0
  0
SPLINE
  5
2E5
100
AcDbEntity
  8
0
100
AcDbSpline
 62
7
  6
CONTINUOUS
 70
0
 71
3
 72
12
 73
8
 74
0
 42
0.0000001
 43
0.0000001
 44
0.0000000001
 40
0.0
 40
0.0
 40
0.0
 40
0.0
 40
0.2582894912
 40
0.5199527677
 40
0.7710853321
 40
0.8890305623
 40
1.0
 40
1.0
 40
1.0
 40
1.0
 10
31.195214596
 20
21.5812026038
 30
0.0
 10
31.450671453
 20
21.2974154476
 30
0.0
 10
31.9142271898
 20
20.6787816403
 30
0.0
 10
32.4444136286
 20
19.6647849233
 30
0.0
 10
32.7365828666
 20
18.7733712126
 30
0.0
 10
32.8570300641
 20
18.0729995902
 30
0.0
 10
32.8785584464
 20
17.7343687502
 30
0.0
 10
32.8785584464
 20
17.5703227994
 30
0.0
  0
SPLINE
  5
2E6
100
AcDbEntity
  8
0
100
AcDbSpline
 62
7
  6
CONTINUOUS
 70
0
 71
3
 72
15
 73
11
 74
0
 42
0.0000001
 43
0.0000001
 44
0.0000000001
 40
0.0
 40
0.0
 40
0.0
 40
0.0
 40
0.1141242661
 40
0.2373486253
 40
0.3669740476
 40
0.5000015346
 40
0.6330288076
 40
0.7626536034
 40
0.8858770013
 40
1.0
 40
1.0
 40
1.0
 40
1.0
 10
24.6408267106
 20
52.8638051335
 30
0.0
 10
24.6408267106
 20
52.9755661108
 30
0.0
 10
24.6613474111
 20
53.2082110703
 30
0.0
 10
24.742910887
 20
53.559170399
 30
0.0
 10
24.8737287069
 20
53.914666674
 30
0.0
 10
25.0486965143
 20
54.26131889
 30
0.0
 10
25.2614202702
 20
54.5861721215
 30
0.0
 10
25.5038778051
 20
54.8772115053
 30
0.0
 10
25.7670331166
 20
55.1233259759
 30
0.0
 10
25.9582474699
 20
55.2574186576
 30
0.0
 10
26.055034385
 20
55.3132982755
 30
0.0
  0
SPLINE
  5
2E7
100
AcDbEntity
  8
0
100
AcDbSpline
 62
7
  6
CONTINUOUS
 70
0
 71
3
 72
11
 73
7
 74
0
 42
0.0000001
 43
0.0000001
 44
0.0000000001
 40
0.0
 40
0.0
 40
0.0
 40
0.0
 40
0.2177817009
 40
0.4509079353
 40
0.7102947134
 40
1.0
 40
1.0
 40
1.0
 40
1.0
 10
55.1724185852
 20
90.5245815354
 30
0.0
 10
55.1724185711
 20
90.6007583629
 30
0.0
 10
55.1442674606
 20
90.7595349841
 30
0.0
 10
55.0238983329
 20
90.9807616202
 30
0.0
 10
54.8336118567
 20
91.1807414218
 30
0.0
 10
54.6743951058
 20
91.2904033842
 30
0.0
 10
54.5866362394
 20
91.3410698431
 30
0.0
  0
SPLINE
  5
2E8
100
AcDbEntity
  8
0
100
AcDbSpline
 62
7
  6
CONTINUOUS
 70
0
 71
3
 72
13
 73
9
 74
0
 42
0.0000001
 43
0.0000001
 44
0.0000000001
 40
0.0
 40
0.0
 40
0.0
 40
0.0
 40
0.1080963346
 40
0.2182388353
 40
0.3322536654
 40
0.4516812592
 40
0.7106595508
 40
1.0
 40
1.0
 40
1.0
 40
1.0
 10
28.1794273756
 20
76.7408483792
 30
0.0
 10
28.1203977496
 20
76.7067817206
 30
0.0
 10
28.0069152542
 20
76.6275800295
 30
0.0
 10
27.8570177141
 20
76.4799768433
 30
0.0
 10
27.7279956112
 20
76.3048929293
 30
0.0
 10
27.581781338
 20
76.0299281035
 30
0.0
 10
27.4613359661
 20
75.6220147506
 30
0.0
 10
27.4338135628
 20
75.2752660662
 30
0.0
 10
27.4338135628
 20
75.09283759
 30
0.0
  0
SPLINE
  5
2E9
100
AcDbEntity
  8
0
100
AcDbSpline
 62
7
  6
CONTINUOUS
 70
0
 71
3
 72
15
 73
11
 74
0
 42
0.0000001
 43
0.0000001
 44
0.0000000001
 40
0.0
 40
0.0
 40
0.0
 40
0.0
 40
0.1262038227
 40
0.2557640859
 40
0.3867476937
 40
0.5173276389
 40
0.645609417
 40
0.7698056161
 40
0.8883954047
 40
1.0
 40
1.0
 40
1.0
 40
1.0
 10
12.1603624359
 20
35.3437376812
 30
0.0
 10
12.3579815145
 20
35.5477352443
 30
0.0
 10
12.7386642802
 20
35.9807489238
 30
0.0
 10
13.253901802
 20
36.6835089832
 30
0.0
 10
13.7123481512
 20
37.4361804861
 30
0.0
 10
14.1041941835
 20
38.2223506083
 30
0.0
 10
14.4209614301
 20
39.0253152484
 30
0.0
 10
14.6560291751
 20
39.8279566078
 30
0.0
 10
14.8041365832
 20
40.6129711751
 30
0.0
 10
14.8442275977
 20
41.1309012671
 30
0.0
 10
14.8473570173
 20
41.3820478786
 30
0.0
  0
ELLIPSE
  5
2EA
100
AcDbEntity
  8
0
100
AcDbEllipse
 62
7
  6
CONTINUOUS
 10
64.4280112801
 20
97.8706478952
 30
0.0
 11
-1.1022032659
 21
1.4381845897
 31
0.0
 40
0.4692929977
 41
7.0071677847
 42
8.0258654176
  0
ENDSEC
  0
SECTION
  2
OBJECTS
  0
DICTIONARY
  5
C
100
AcDbDictionary
280
0
281
1
  3
ACAD_GROUP
350
D
  3
ACAD_MLINESTYLE
350
17
  3
ACAD_LAYOUT
350
1A
  3
ACAD_PLOTSETTINGS
350
19
  3
ACAD_PLOTSTYLENAME
350
E
  0
DICTIONARY
  5
D
102
{ACAD_REACTORS
330
C
102
}
100
AcDbDictionary
280
0
281
1
  0
ACDBDICTIONARYWDFLT
  5
E
102
{ACAD_REACTORS
330
C
102
}
100
AcDbDictionary
281
1
  3
Normal
350
F
100
AcDbDictionaryWithDefault
340
F
  0
DICTIONARY
  5
17
102
{ACAD_REACTORS
330
C
102
}
100
AcDbDictionary
280
0
281
1
  3
Standard
350
18
  0
DICTIONARY
  5
19
102
{ACAD_REACTORS
330
C
102
}
100
AcDbDictionary
281
1
  0
DICTIONARY
  5
1A
102
{ACAD_REACTORS
330
C
102
}
100
AcDbDictionary
281
1
  3
Model
350
2EB
  3
Layout1
350
2EC
  0
ACDBPLACEHOLDER
  5
F
102
{ACAD_REACTORS
330
E
102
}
  0
MLINESTYLE
  5
18
102
{ACAD_REACTORS
330
17
102
}
100
AcDbMlineStyle
  2
STANDARD
 70
0
  3

 62
256
 51
90.0
 52
90.0
 71
2
 49
0.5
 62
256
  6
BYLAYER
 49
-0.5
 62
256
  6
BYLAYER
  0
LAYOUT
  5
2EB
102
{ACAD_REACTORS
330
1A
102
}
100
AcDbPlotSettings
  1

  2
none_device
  4

  6

 40
0.0
 41
0.0
 42
0.0
 43
0.0
 44
210.0
 45
297.0
 46
0.0
 47
0.0
 48
0.0
 49
0.0
140
0.0
141
0.0
142
1.0
143
1.0
 70
1024
 72
1
 73
0
 74
0
  7

 75
0
147
1.0
148
0.0
149
0.0
100
AcDbLayout
  1
Model
 70
0
 71
0
 10
0.0
 20
0.0
 11
210.0
 21
297.0
 12
0.0
 22
0.0
 32
0.0
 14
0.0
 24
0.0
 34
0.0
 15
0.0
 25
0.0
 35
0.0
146
0.0
 13
0.0
 23
0.0
 33
0.0
 16
1.0
 26
0.0
 36
0.0
 17
0.0
 27
1.0
 37
0.0
 76
0
330
210
345
0
346
0
  0
LAYOUT
  5
2EC
102
{ACAD_REACTORS
330
1A
102
}
100
AcDbPlotSettings
  1

  2
none_device
  4

  6

 40
0.0
 41
0.0
 42
0.0
 43
0.0
 44
210.0
 45
297.0
 46
0.0
 47
0.0
 48
0.0
 49
0.0
140
0.0
141
0.0
142
1.0
143
1.0
 70
0
 72
1
 73
0
 74
0
  7

 75
0
147
1.0
148
0.0
149
0.0
100
AcDbLayout
  1
Layout1
 70
0
 71
1
 10
0.0
 20
0.0
 11
210.0
 21
297.0
 12
0.0
 22
0.0
 32
0.0
 14
0.0
 24
0.0
 34
0.0
 15
0.0
 25
0.0
 35
0.0
146
0.0
 13
0.0
 23
0.0
 33
0.0
 16
1.0
 26
0.0
 36
0.0
 17
0.0
 27
1.0
 37
0.0
 76
0
330
211
345
0
346
0
  0
ENDSEC
  0
EOF
