999
DXF file: C:\Users\sesa63760\Dev\_Creo\CAD\MCADFD0002196_3D-CAD\drw0001_1.dxf
999
Pro/ENGINEER 2019471 by Parametric Technology Corporation
  0
SECTION
  2
HEADER
  9
$ACADVER
  1
AC1024
  9
$DWGCODEPAGE
  3
ANSI_1252
  9
$EXTMAX
 10
99.5432523116
 20
140.7825996978
 30
0.0
  9
$EXTMIN
 10
0.0
 20
0.0
 30
0.0
  9
$LIMMIN
 10
0.0
 20
0.0
  9
$LIMMAX
 10
99.5432523116
 20
140.7825996978
  9
$VIEWCTR
 10
49.7716261558
 20
70.3912998489
  9
$VIEWSIZE
 40
140.7825996978
  9
$CLAYER
  8
0
  9
$LTSCALE
 40
9.1769398322
  9
$CELTYPE
  6
BYLAYER
  9
$DIMSCALE
 40
1.0
  9
$DIMASZ
 40
1.185038718
  9
$DIMEXO
 40
1.0
  9
$DIMDLI
 40
6.3404311568
  9
$DIMEXE
 40
1.0
  9
$DIMCEN
 40
1.5016810634
  9
$DIMLFAC
 40
1.0
  9
$DIMBLK
  1
_FILLED
  9
$DIMALT
 70
0
  9
$DIMALTF
 40
0.0393700787
  9
$DIMTXT
 40
1.6590542052
  9
$DIMTOL
 70
1
  9
$DIMLIM
 70
0
  9
$DIMTFAC
 40
1.0
  9
$DIMTP
 40
0.01
  9
$DIMTM
 40
0.01
  9
$DIMGAP
 40
0.625
  9
$DIMDSEP
 70
46
  9
$AUNITS
 70
0
  9
$PDMODE
 70
3
  9
$PDSIZE
 40
0.3125
  9
$HANDSEED
  5
36A
  9
$TILEMODE
 70
1
  9
$MEASUREMENT
 70
1
  9
$INSUNITS
 70
4
  0
ENDSEC
  0
SECTION
  2
CLASSES
  0
CLASS
  1
ACDBDICTIONARYWDFLT
  2
AcDbDictionaryWithDefault
  3
AutoCAD 2000
 90
0
 91
1
280
0
281
0
  0
CLASS
  1
ACDBPLACEHOLDER
  2
AcDbPlaceHolder
  3
AutoCAD 2000
 90
0
 91
1
280
0
281
0
  0
CLASS
  1
LAYOUT
  2
AcDbLayout
  3
AutoCAD 2000
 90
0
 91
0
280
0
281
0
  0
ENDSEC
  0
SECTION
  2
TABLES
  0
TABLE
  2
VPORT
  5
8
100
AcDbSymbolTable
 70
2
  0
VPORT
  5
1F4
100
AcDbSymbolTableRecord
100
AcDbViewportTableRecord
  2
*ACTIVE
 70
0
 10
0.0
 20
0.0
 11
1.0
 21
1.0
 12
49.7716261558
 22
70.3912998489
 13
0.0
 23
0.0
 14
1.0
 24
1.0
 15
0.0
 25
0.0
 16
0.0
 26
0.0
 36
1.0
 17
0.0
 27
0.0
 37
0.0
 40
140.7825996978
 41
0.7070707071
 42
50.0
 43
0.0
 44
0.0
 50
0.0
 51
0.0
 71
0
 72
100
 73
1
 74
1
 75
0
 76
0
 77
0
 78
0
  0
ENDTAB
  0
TABLE
  2
LTYPE
  5
5
100
AcDbSymbolTable
 70
6
  0
LTYPE
  5
14
100
AcDbSymbolTableRecord
100
AcDbLinetypeTableRecord
  2
BYBLOCK
 70
0
  3

 72
65
 73
0
 40
0.0
  0
LTYPE
  5
15
100
AcDbSymbolTableRecord
100
AcDbLinetypeTableRecord
  2
BYLAYER
 70
0
  3

 72
65
 73
0
 40
0.0
  0
LTYPE
  5
16
100
AcDbSymbolTableRecord
100
AcDbLinetypeTableRecord
  2
CONTINUOUS
 70
64
  3
Solid line
 72
65
 73
0
 40
0.0
  0
LTYPE
  5
1F5
100
AcDbSymbolTableRecord
100
AcDbLinetypeTableRecord
  2
CENTER
 70
64
  3
____ _ ____ _ ____ _ ____ _ ____ _ ____ _ ____
 72
65
 73
4
 40
0.6
 49
0.375
 74
0
 49
-0.075
 74
0
 49
0.075
 74
0
 49
-0.075
 74
0
  0
LTYPE
  5
1F6
100
AcDbSymbolTableRecord
100
AcDbLinetypeTableRecord
  2
HIDDEN
 70
64
  3
- - - - - - - - - - - - - - - - - - - -
 72
65
 73
2
 40
0.2
 49
0.1
 74
0
 49
-0.1
 74
0
  0
LTYPE
  5
1F7
100
AcDbSymbolTableRecord
100
AcDbLinetypeTableRecord
  2
PHANTOM
 70
64
  3
_____ _ _ _____ _ _ _____ _ _ _____
 72
65
 73
6
 40
0.8
 49
0.45
 74
0
 49
-0.05
 74
0
 49
0.1
 74
0
 49
-0.05
 74
0
 49
0.1
 74
0
 49
-0.05
 74
0
  0
LTYPE
  5
1F8
100
AcDbSymbolTableRecord
100
AcDbLinetypeTableRecord
  2
DOT
 70
64
  3
. . . . . . . . . . . . . . . . . . . .
 72
65
 73
2
 40
0.2
 49
0.1
 74
0
 49
-0.1
 74
0
  0
LTYPE
  5
1F9
100
AcDbSymbolTableRecord
100
AcDbLinetypeTableRecord
  2
DASHED
 70
64
  3
- - - - - - - - - - - - - - - - - - - -
 72
65
 73
2
 40
0.2
 49
0.1
 74
0
 49
-0.1
 74
0
  0
ENDTAB
  0
TABLE
  2
LAYER
  5
2
100
AcDbSymbolTable
 70
36
  0
LAYER
  5
10
100
AcDbSymbolTableRecord
100
AcDbLayerTableRecord
  2
0
 70
0
 62
7
  6
CONTINUOUS
370
-3
390
F
  0
LAYER
  5
1FA
100
AcDbSymbolTableRecord
100
AcDbLayerTableRecord
  2
DEFAULT_1
 70
0
 62
7
  6
CENTER
370
-3
390
F
  0
LAYER
  5
1FB
100
AcDbSymbolTableRecord
100
AcDbLayerTableRecord
  2
DEFAULT_2
 70
0
 62
8
  6
HIDDEN
370
-3
390
F
  0
LAYER
  5
1FC
100
AcDbSymbolTableRecord
100
AcDbLayerTableRecord
  2
DEFAULT_3
 70
0
 62
7
  6
PHANTOM
370
-3
390
F
  0
LAYER
  5
1FD
100
AcDbSymbolTableRecord
100
AcDbLayerTableRecord
  2
00_COMPONENTS
 70
0
 62
7
  6
CONTINUOUS
370
-3
390
F
  0
LAYER
  5
1FE
100
AcDbSymbolTableRecord
100
AcDbLayerTableRecord
  2
01_1_DEFAULT_DATUMS
 70
0
 62
7
  6
CONTINUOUS
370
-3
390
F
  0
LAYER
  5
1FF
100
AcDbSymbolTableRecord
100
AcDbLayerTableRecord
  2
01_PLANES
 70
0
 62
7
  6
CONTINUOUS
370
-3
390
F
  0
LAYER
  5
200
100
AcDbSymbolTableRecord
100
AcDbLayerTableRecord
  2
02_COORD_SYS
 70
0
 62
7
  6
CONTINUOUS
370
-3
390
F
  0
LAYER
  5
201
100
AcDbSymbolTableRecord
100
AcDbLayerTableRecord
  2
03_AXES
 70
0
 62
7
  6
CONTINUOUS
370
-3
390
F
  0
LAYER
  5
202
100
AcDbSymbolTableRecord
100
AcDbLayerTableRecord
  2
04_POINTS
 70
0
 62
7
  6
CONTINUOUS
370
-3
390
F
  0
LAYER
  5
203
100
AcDbSymbolTableRecord
100
AcDbLayerTableRecord
  2
05_CURVES
 70
0
 62
7
  6
CONTINUOUS
370
-3
390
F
  0
LAYER
  5
204
100
AcDbSymbolTableRecord
100
AcDbLayerTableRecord
  2
06_SURFS
 70
0
 62
7
  6
CONTINUOUS
370
-3
390
F
  0
LAYER
  5
205
100
AcDbSymbolTableRecord
100
AcDbLayerTableRecord
  2
07_COSMETICS
 70
0
 62
7
  6
CONTINUOUS
370
-3
390
F
  0
LAYER
  5
206
100
AcDbSymbolTableRecord
100
AcDbLayerTableRecord
  2
10_NOTES
 70
0
 62
7
  6
CONTINUOUS
370
-3
390
F
  0
LAYER
  5
207
100
AcDbSymbolTableRecord
100
AcDbLayerTableRecord
  2
11_NOTES_PUB
 70
0
 62
7
  6
CONTINUOUS
370
-3
390
F
  0
LAYER
  5
208
100
AcDbSymbolTableRecord
100
AcDbLayerTableRecord
  2
13_REF_GTOL
 70
0
 62
7
  6
CONTINUOUS
370
-3
390
F
  0
LAYER
  5
209
100
AcDbSymbolTableRecord
100
AcDbLayerTableRecord
  2
16_MISC
 70
0
 62
7
  6
CONTINUOUS
370
-3
390
F
  0
LAYER
  5
20A
100
AcDbSymbolTableRecord
100
AcDbLayerTableRecord
  2
17_NO_PRINT
 70
0
 62
7
  6
CONTINUOUS
370
-3
390
F
  0
LAYER
  5
20B
100
AcDbSymbolTableRecord
100
AcDbLayerTableRecord
  2
18_DATUM_CAMS_JOINTS
 70
0
 62
7
  6
CONTINUOUS
370
-3
390
F
  0
LAYER
  5
20C
100
AcDbSymbolTableRecord
100
AcDbLayerTableRecord
  2
19_DATUM_FUNCTIONAL
 70
0
 62
7
  6
CONTINUOUS
370
-3
390
F
  0
LAYER
  5
20D
100
AcDbSymbolTableRecord
100
AcDbLayerTableRecord
  2
20_DATUM_KINEMATIC_SCHEME
 70
0
 62
7
  6
CONTINUOUS
370
-3
390
F
  0
ENDTAB
  0
TABLE
  2
STYLE
  5
3
100
AcDbSymbolTable
 70
1
  0
STYLE
  5
11
100
AcDbSymbolTableRecord
100
AcDbTextStyleTableRecord
  2
STANDARD
 70
0
 40
0.0
 41
0.8
 50
0.0
 71
0
 42
0.2
  3
txt
  4

  0
STYLE
  5
20E
100
AcDbSymbolTableRecord
100
AcDbTextStyleTableRecord
  2
TEXTSTYLE_1
 70
0
 40
0.0
 41
0.8
 50
0.0
 71
0
 42
0.2
  3
gdt
  4

  0
ENDTAB
  0
TABLE
  2
VIEW
  5
6
100
AcDbSymbolTable
 70
0
  0
ENDTAB
  0
TABLE
  2
UCS
  5
7
100
AcDbSymbolTable
 70
0
  0
ENDTAB
  0
TABLE
  2
APPID
  5
9
100
AcDbSymbolTable
 70
1
  0
APPID
  5
20F
100
AcDbSymbolTableRecord
100
AcDbRegAppTableRecord
  2
ACAD
 70
0
  0
ENDTAB
  0
TABLE
  2
BLOCK_RECORD
  5
1
100
AcDbSymbolTable
 70
0
  0
BLOCK_RECORD
  5
210
100
AcDbSymbolTableRecord
100
AcDbBlockTableRecord
  2
*Model_Space
  0
BLOCK_RECORD
  5
211
100
AcDbSymbolTableRecord
100
AcDbBlockTableRecord
  2
*Paper_Space
  0
BLOCK_RECORD
  5
212
100
AcDbSymbolTableRecord
100
AcDbBlockTableRecord
  2
_FILLED
  0
ENDTAB
  0
TABLE
  2
DIMSTYLE
  5
A
100
AcDbSymbolTable
 70
1
100
AcDbDimStyleTable
 71
0
  0
DIMSTYLE
105
213
100
AcDbSymbolTableRecord
100
AcDbDimStyleTableRecord
  2
STANDARD
 70
0
  3

  4

 40
1.0
 41
1.185038718
 42
1.0
 43
0.38
 44
1.0
 45
0.0
 46
0.0
 47
0.01
 48
0.01
140
1.6590542052
141
0.09
142
0.0
143
25.4
144
1.0
145
0.0
146
1.0
147
0.625
 71
1
 72
0
 73
0
 74
0
 75
0
 76
0
 77
1
 78
8
 79
2
170
0
171
1
172
0
173
0
174
0
175
0
176
0
177
0
178
0
270
2
179
2
271
2
272
2
273
2
274
2
275
0
280
0
281
0
282
0
283
1
284
8
285
0
286
0
287
3
288
0
340
11
278
46
341
212
342
212
343
212
344
212
  0
ENDTAB
  0
ENDSEC
  0
SECTION
  2
BLOCKS
  0
BLOCK
  5
20
100
AcDbEntity
  8
0
100
AcDbBlockBegin
  2
*Model_Space
 70
0
 10
0.0
 20
0.0
 30
0.0
  3
*Model_Space
  1

  0
ENDBLK
  5
21
100
AcDbEntity
  8
0
100
AcDbBlockEnd
  0
BLOCK
  5
1C
100
AcDbEntity
  8
0
100
AcDbBlockBegin
  2
*Paper_Space
 70
0
 10
0.0
 20
0.0
 30
0.0
  3
*Paper_Space
  1

  0
ENDBLK
  5
1D
100
AcDbEntity
  8
0
100
AcDbBlockEnd
  0
BLOCK
  5
214
100
AcDbEntity
  8
0
100
AcDbBlockBegin
  2
_FILLED
 70
64
 10
0.0
 20
0.0
  3
_FILLED
  1

  0
SOLID
  5
215
100
AcDbEntity
  8
0
  6
BYBLOCK
 62
0
100
AcDbTrace
 10
0.0
 20
0.0
 11
-1.0
 21
0.25
 12
-1.0
 22
-0.25
 13
-1.0
 23
-0.25
  0
ENDBLK
  5
216
100
AcDbEntity
  8
0
  6
BYBLOCK
 62
0
100
AcDbBlockEnd
  0
ENDSEC
  0
SECTION
  2
ENTITIES
  0
LINE
  5
217
100
AcDbEntity
  8
0
100
AcDbLine
 62
7
  6
CONTINUOUS
 10
14.3395859167
 20
41.5263538675
 11
14.4320842984
 21
41.4815502536
  0
LINE
  5
218
100
AcDbEntity
  8
0
100
AcDbLine
 62
7
  6
CONTINUOUS
 10
35.8519391899
 20
29.1064718251
 11
14.3398901441
 21
41.5261781612
  0
LINE
  5
219
100
AcDbEntity
  8
0
100
AcDbLine
 62
7
  6
CONTINUOUS
 10
14.4320842984
 20
41.4815502536
 11
35.6453760528
 21
29.234327618
  0
LINE
  5
21A
100
AcDbEntity
  8
0
100
AcDbLine
 62
7
  6
CONTINUOUS
 10
34.4372485655
 20
30.3221417216
 11
13.2239568111
 21
42.5693643573
  0
LINE
  5
21B
100
AcDbEntity
  8
0
100
AcDbLine
 62
7
  6
CONTINUOUS
 10
12.1933543602
 20
43.5734819314
 11
35.1741282092
 21
30.305826118
  0
LINE
  5
21C
100
AcDbEntity
  8
0
100
AcDbLine
 62
7
  6
CONTINUOUS
 10
13.0803917747
 20
43.9790472445
 11
34.5765274192
 21
31.568528307
  0
LINE
  5
21D
100
AcDbEntity
  8
0
100
AcDbLine
 62
7
  6
CONTINUOUS
 10
35.6453760528
 20
29.234327618
 11
35.8519093749
 21
29.1064891019
  0
LINE
  5
21E
100
AcDbEntity
  8
0
100
AcDbLine
 62
7
  6
CONTINUOUS
 10
12.8717041391
 20
44.1316258831
 11
13.0803917747
 21
43.9790472445
  0
LINE
  5
21F
100
AcDbEntity
  8
0
100
AcDbLine
 62
7
  6
CONTINUOUS
 10
14.2232921602
 20
41.6109478391
 11
12.760998473
 21
42.9276165794
  0
LINE
  5
220
100
AcDbEntity
  8
0
100
AcDbLine
 62
7
  6
CONTINUOUS
 10
13.2239568111
 20
42.5693643573
 11
14.4320842984
 21
41.4815502536
  0
LINE
  5
221
100
AcDbEntity
  8
0
100
AcDbLine
 62
7
  6
CONTINUOUS
 10
12.5612512814
 20
46.4222668994
 11
12.9943018764
 21
46.0323423676
  0
LINE
  5
222
100
AcDbEntity
  8
0
100
AcDbLine
 62
7
  6
CONTINUOUS
 10
54.6809882259
 20
20.5547934553
 11
39.6787335921
 21
29.2161532605
  0
LINE
  5
223
100
AcDbEntity
  8
0
100
AcDbLine
 62
7
  6
CONTINUOUS
 10
40.6109655661
 20
30.2880824443
 11
42.9330268673
 21
28.9474700557
  0
LINE
  5
224
100
AcDbEntity
  8
0
100
AcDbLine
 62
7
  6
CONTINUOUS
 10
11.9632531083
 20
46.9974831708
 11
12.6703628335
 21
46.5892424163
  0
LINE
  5
225
100
AcDbEntity
  8
0
100
AcDbLine
 62
7
  6
CONTINUOUS
 10
36.7120934885
 20
32.7090567626
 11
37.4192032136
 21
32.3008160081
  0
LINE
  5
226
100
AcDbEntity
  8
0
100
AcDbLine
 62
7
  6
CONTINUOUS
 10
40.9398107715
 20
30.7746528691
 11
42.5188022258
 21
29.8630423513
  0
LINE
  5
227
100
AcDbEntity
  8
0
100
AcDbLine
 62
7
  6
CONTINUOUS
 10
24.2007547653
 20
38.331693504
 11
24.4022735952
 21
38.1853915459
  0
LINE
  5
228
100
AcDbEntity
  8
0
100
AcDbLine
 62
7
  6
CONTINUOUS
 10
24.8199222408
 20
38.5815696195
 11
24.9542663222
 21
38.4840329728
  0
LINE
  5
229
100
AcDbEntity
  8
0
100
AcDbLine
 62
7
  6
CONTINUOUS
 10
26.6096260537
 20
41.0069884802
 11
26.4081072237
 21
41.1532904383
  0
LINE
  5
22A
100
AcDbEntity
  8
0
100
AcDbLine
 62
7
  6
CONTINUOUS
 10
24.7365792
 20
38.6800413613
 11
24.6022652927
 21
38.7776115776
  0
LINE
  5
22B
100
AcDbEntity
  8
0
100
AcDbLine
 62
7
  6
CONTINUOUS
 10
26.073801619
 20
40.6586406229
 11
26.2081155262
 21
40.5610704066
  0
LINE
  5
22C
100
AcDbEntity
  8
0
100
AcDbLine
 62
7
  6
CONTINUOUS
 10
24.819916227
 20
38.5815629344
 11
24.6022291047
 21
38.7775713228
  0
LINE
  5
22D
100
AcDbEntity
  8
0
100
AcDbLine
 62
7
  6
CONTINUOUS
 10
35.6453760528
 20
29.234327618
 11
34.4372485655
 21
30.3221417216
  0
LINE
  5
22E
100
AcDbEntity
  8
0
100
AcDbLine
 62
7
  6
CONTINUOUS
 10
14.7772651018
 20
48.6704747165
 11
14.3418908572
 21
49.0624914933
  0
LINE
  5
22F
100
AcDbEntity
  8
0
100
AcDbLine
 62
7
  6
CONTINUOUS
 10
26.4258388365
 20
40.365102273
 11
26.2081517142
 21
40.5611106614
  0
LINE
  5
230
100
AcDbEntity
  8
0
100
AcDbLine
 62
7
  6
CONTINUOUS
 10
16.3741349112
 20
55.0903680328
 11
16.3741349112
 21
52.942928963
  0
LINE
  5
231
100
AcDbEntity
  8
0
100
AcDbLine
 62
7
  6
CONTINUOUS
 10
16.3741349112
 20
52.195053081
 11
16.3741349112
 21
50.0476140111
  0
LINE
  5
232
100
AcDbEntity
  8
0
100
AcDbLine
 62
7
  6
CONTINUOUS
 10
29.6493039557
 20
101.1432119528
 11
63.3000927272
 21
120.5713879379
  0
LINE
  5
233
100
AcDbEntity
  8
0
100
AcDbLine
 62
7
  6
CONTINUOUS
 10
59.4537468861
 20
116.513620749
 11
43.1903586301
 21
107.12400521
  0
LINE
  5
234
100
AcDbEntity
  8
0
100
AcDbLine
 62
7
  6
CONTINUOUS
 10
61.504348014
 20
117.2892775867
 11
63.6256595256
 21
118.5140100483
  0
LINE
  5
235
100
AcDbEntity
  8
0
100
AcDbLine
 62
7
  6
CONTINUOUS
 10
44.4631508363
 20
107.1240082694
 11
59.4537521852
 21
115.7787843315
  0
LINE
  5
236
100
AcDbEntity
  8
0
100
AcDbLine
 62
7
  6
CONTINUOUS
 10
45.1702727807
 20
106.7157604603
 11
59.4537521852
 21
114.9622819143
  0
LINE
  5
237
100
AcDbEntity
  8
0
100
AcDbLine
 62
7
  6
CONTINUOUS
 10
50.4028277792
 20
109.0835688181
 11
53.7262158141
 21
111.0023163413
  0
LINE
  5
238
100
AcDbEntity
  8
0
100
AcDbLine
 62
7
  6
CONTINUOUS
 10
14.7772651018
 20
48.6704747165
 11
38.3152398787
 21
35.081126075
  0
LINE
  5
239
100
AcDbEntity
  8
0
100
AcDbLine
 62
7
  6
CONTINUOUS
 10
14.3418908572
 20
49.0624914933
 11
38.3836215122
 21
35.1823058396
  0
LINE
  5
23A
100
AcDbEntity
  8
0
100
AcDbLine
 62
7
  6
CONTINUOUS
 10
42.5188022258
 20
33.1334166096
 11
42.1475977724
 21
33.3477267524
  0
LINE
  5
23B
100
AcDbEntity
  8
0
100
AcDbLine
 62
7
  6
CONTINUOUS
 10
39.6479072453
 20
35.5984814441
 11
14.19195714
 21
50.2951486069
  0
LINE
  5
23C
100
AcDbEntity
  8
0
100
AcDbLine
 62
7
  6
CONTINUOUS
 10
17.4871403297
 20
48.9694790804
 11
17.522495816
 21
48.9490670427
  0
LINE
  5
23D
100
AcDbEntity
  8
0
100
AcDbLine
 62
7
  6
CONTINUOUS
 10
24.5935930675
 20
44.8666594975
 11
24.6289485537
 21
44.8462474598
  0
LINE
  5
23E
100
AcDbEntity
  8
0
100
AcDbLine
 62
7
  6
CONTINUOUS
 10
30.0029824649
 20
41.7436177254
 11
30.0383379511
 21
41.7232056877
  0
LINE
  5
23F
100
AcDbEntity
  8
0
100
AcDbLine
 62
7
  6
CONTINUOUS
 10
37.1094352026
 20
37.6407981425
 11
37.1447906888
 21
37.6203861048
  0
LINE
  5
240
100
AcDbEntity
  8
0
100
AcDbLine
 62
7
  6
CONTINUOUS
 10
37.1094352026
 20
39.9100367541
 11
32.321357064
 21
42.6743724187
  0
LINE
  5
241
100
AcDbEntity
  8
0
100
AcDbLine
 62
7
  6
CONTINUOUS
 10
24.5935930675
 20
47.1358981091
 11
19.8055149289
 21
49.9002337737
  0
LINE
  5
242
100
AcDbEntity
  8
0
100
AcDbLine
 62
7
  6
CONTINUOUS
 10
37.4192032136
 20
32.3008160081
 11
40.2491358031
 21
29.7527069586
  0
LINE
  5
243
100
AcDbEntity
  8
0
100
AcDbLine
 62
7
  6
CONTINUOUS
 10
39.6479072453
 20
35.5984814441
 11
42.4778398348
 21
33.0503723946
  0
LINE
  5
244
100
AcDbEntity
  8
0
100
AcDbLine
 62
7
  6
CONTINUOUS
 10
17.4871179556
 20
60.6554724586
 11
17.4871179556
 21
77.7913641637
  0
LINE
  5
245
100
AcDbEntity
  8
0
100
AcDbLine
 62
7
  6
CONTINUOUS
 10
17.4871403297
 20
48.9694790804
 11
17.4871402988
 21
53.065847412
  0
LINE
  5
246
100
AcDbEntity
  8
0
100
AcDbLine
 62
7
  6
CONTINUOUS
 10
17.522495816
 20
48.9490670427
 11
17.522495816
 21
53.0454353564
  0
LINE
  5
247
100
AcDbEntity
  8
0
100
AcDbLine
 62
7
  6
CONTINUOUS
 10
20.2094903974
 20
59.8971007384
 11
20.2094903974
 21
59.0837455537
  0
LINE
  5
248
100
AcDbEntity
  8
0
100
AcDbLine
 62
7
  6
CONTINUOUS
 10
49.8371541301
 20
107.4505976415
 11
50.4028371999
 21
107.7771929646
  0
LINE
  5
249
100
AcDbEntity
  8
0
100
AcDbLine
 62
7
  6
CONTINUOUS
 10
66.7490371806
 20
116.8063824907
 11
68.2852162894
 21
117.6932906186
  0
LINE
  5
24A
100
AcDbEntity
  8
0
100
AcDbLine
 62
7
  6
CONTINUOUS
 10
66.7490371806
 20
115.2862507829
 11
68.517347155
 21
116.3071789285
  0
LINE
  5
24B
100
AcDbEntity
  8
0
100
AcDbLine
 62
7
  6
CONTINUOUS
 10
33.8572342008
 20
95.2021733262
 11
33.2915511311
 21
94.8755780031
  0
LINE
  5
24C
100
AcDbEntity
  8
0
100
AcDbLine
 62
7
  6
CONTINUOUS
 10
69.3180045776
 20
115.3502097475
 11
70.8308113
 21
116.2236239023
  0
LINE
  5
24D
100
AcDbEntity
  8
0
100
AcDbLine
 62
7
  6
CONTINUOUS
 10
31.4831093958
 20
41.463486004
 11
30.0383379511
 21
41.7232056877
  0
LINE
  5
24E
100
AcDbEntity
  8
0
100
AcDbLine
 62
7
  6
CONTINUOUS
 10
37.1094352026
 20
41.5763336546
 11
32.7050438846
 21
44.1191526414
  0
LINE
  5
24F
100
AcDbEntity
  8
0
100
AcDbLine
 62
7
  6
CONTINUOUS
 10
24.5935930675
 20
48.8021950096
 11
20.1892017495
 21
51.3450139964
  0
LINE
  5
250
100
AcDbEntity
  8
0
100
AcDbLine
 62
7
  6
CONTINUOUS
 10
37.1447906888
 20
41.7167544184
 11
37.1094352026
 21
41.7371664562
  0
LINE
  5
251
100
AcDbEntity
  8
0
100
AcDbLine
 62
7
  6
CONTINUOUS
 10
30.0383379511
 20
45.8195740014
 11
30.0029824339
 21
45.839986057
  0
LINE
  5
252
100
AcDbEntity
  8
0
100
AcDbLine
 62
7
  6
CONTINUOUS
 10
24.6289485537
 20
48.9426157734
 11
24.5935930675
 21
48.9630278112
  0
LINE
  5
253
100
AcDbEntity
  8
0
100
AcDbLine
 62
7
  6
CONTINUOUS
 10
17.522495816
 20
53.0454353564
 11
17.4871402988
 21
53.065847412
  0
LINE
  5
254
100
AcDbEntity
  8
0
100
AcDbLine
 62
7
  6
CONTINUOUS
 10
20.2094903974
 20
59.8971007384
 11
20.5974255311
 21
57.5805825768
  0
LINE
  5
255
100
AcDbEntity
  8
0
100
AcDbLine
 62
7
  6
CONTINUOUS
 10
24.5935930675
 20
44.8666594975
 11
24.5935930675
 21
48.9630278112
  0
LINE
  5
256
100
AcDbEntity
  8
0
100
AcDbLine
 62
7
  6
CONTINUOUS
 10
24.6289485537
 20
44.8462474598
 11
24.6289485537
 21
48.9426157734
  0
LINE
  5
257
100
AcDbEntity
  8
0
100
AcDbLine
 62
7
  6
CONTINUOUS
 10
54.3626516607
 20
105.4910447393
 11
53.796968591
 21
105.1644494162
  0
LINE
  5
258
100
AcDbEntity
  8
0
100
AcDbLine
 62
7
  6
CONTINUOUS
 10
69.3180045776
 20
113.8822390029
 11
68.3136497568
 21
113.302377938
  0
LINE
  5
259
100
AcDbEntity
  8
0
100
AcDbLine
 62
7
  6
CONTINUOUS
 10
35.7470147152
 20
93.9673114918
 11
35.589256389
 21
93.8762302234
  0
LINE
  5
25A
100
AcDbEntity
  8
0
100
AcDbLine
 62
7
  6
CONTINUOUS
 10
66.8076933267
 20
111.5330804845
 11
51.8170919778
 21
102.8783044224
  0
LINE
  5
25B
100
AcDbEntity
  8
0
100
AcDbLine
 62
7
  6
CONTINUOUS
 10
51.8170972769
 20
102.1434680048
 11
68.0804855329
 21
111.5330835439
  0
LINE
  5
25C
100
AcDbEntity
  8
0
100
AcDbLine
 62
7
  6
CONTINUOUS
 10
72.2523981722
 20
113.5334728431
 11
70.1310866606
 21
112.3087403814
  0
LINE
  5
25D
100
AcDbEntity
  8
0
100
AcDbLine
 62
7
  6
CONTINUOUS
 10
68.0804855329
 20
111.1248323353
 11
51.8170972769
 21
101.7352167963
  0
LINE
  5
25E
100
AcDbEntity
  8
0
100
AcDbLine
 62
7
  6
CONTINUOUS
 10
18.9672672607
 20
48.689347359
 11
17.522495816
 21
48.9490670427
  0
LINE
  5
25F
100
AcDbEntity
  8
0
100
AcDbLine
 62
7
  6
CONTINUOUS
 10
20.5974255311
 20
57.5805825768
 11
27.0848113505
 21
53.8351733601
  0
LINE
  5
260
100
AcDbEntity
  8
0
100
AcDbLine
 62
7
  6
CONTINUOUS
 10
33.1132676662
 20
50.3547212218
 11
39.6006534856
 21
46.6093120051
  0
LINE
  5
261
100
AcDbEntity
  8
0
100
AcDbLine
 62
7
  6
CONTINUOUS
 10
17.4871179556
 20
60.6554724586
 11
20.2094903974
 21
59.0837455537
  0
LINE
  5
262
100
AcDbEntity
  8
0
100
AcDbLine
 62
7
  6
CONTINUOUS
 10
27.2805876489
 20
55.0013380085
 11
32.7253325325
 21
51.8578841987
  0
LINE
  5
263
100
AcDbEntity
  8
0
100
AcDbLine
 62
7
  6
CONTINUOUS
 10
39.796429784
 20
47.7754766535
 11
42.5188022258
 21
46.2037497486
  0
LINE
  5
264
100
AcDbEntity
  8
0
100
AcDbLine
 62
7
  6
CONTINUOUS
 10
27.2805876489
 20
55.8146931932
 11
27.2805876489
 21
55.0013380085
  0
LINE
  5
265
100
AcDbEntity
  8
0
100
AcDbLine
 62
7
  6
CONTINUOUS
 10
28.8899770463
 20
47.8645066778
 11
28.8899770463
 21
45.717067608
  0
LINE
  5
266
100
AcDbEntity
  8
0
100
AcDbLine
 62
7
  6
CONTINUOUS
 10
28.8899770463
 20
44.969191726
 11
28.8899770463
 21
42.8217526561
  0
LINE
  5
267
100
AcDbEntity
  8
0
100
AcDbLine
 62
7
  6
CONTINUOUS
 10
29.6493039557
 20
86.4461684445
 11
29.6493039557
 21
101.1432119528
  0
LINE
  5
268
100
AcDbEntity
  8
0
100
AcDbLine
 62
7
  6
CONTINUOUS
 10
42.1651460908
 20
93.9173505978
 11
75.8159348623
 21
113.3455265829
  0
LINE
  5
269
100
AcDbEntity
  8
0
100
AcDbLine
 62
7
  6
CONTINUOUS
 10
18.90132563
 20
80.2408573057
 11
29.6493039557
 21
86.4461684445
  0
LINE
  5
26A
100
AcDbEntity
  8
0
100
AcDbLine
 62
7
  6
CONTINUOUS
 10
71.9695890212
 20
109.287759394
 11
55.7062007652
 21
99.898143855
  0
LINE
  5
26B
100
AcDbEntity
  8
0
100
AcDbLine
 62
7
  6
CONTINUOUS
 10
74.0201901491
 20
110.0634162317
 11
76.1415016607
 21
111.2881486933
  0
LINE
  5
26C
100
AcDbEntity
  8
0
100
AcDbLine
 62
7
  6
CONTINUOUS
 10
56.9789929714
 20
99.8981469144
 11
71.9695943203
 21
108.5529229765
  0
LINE
  5
26D
100
AcDbEntity
  8
0
100
AcDbLine
 62
7
  6
CONTINUOUS
 10
37.9572158456
 20
88.1007544178
 11
37.3915327759
 21
87.7741590947
  0
LINE
  5
26E
100
AcDbEntity
  8
0
100
AcDbLine
 62
7
  6
CONTINUOUS
 10
57.6861149158
 20
99.4898991052
 11
71.9695943203
 21
107.7364205593
  0
LINE
  5
26F
100
AcDbEntity
  8
0
100
AcDbLine
 62
7
  6
CONTINUOUS
 10
62.9186699143
 20
101.8577074631
 11
66.2420579492
 21
103.7764549863
  0
LINE
  5
270
100
AcDbEntity
  8
0
100
AcDbLine
 62
7
  6
CONTINUOUS
 10
39.796429784
 20
48.5888318382
 11
32.7253325325
 21
52.6712393834
  0
LINE
  5
271
100
AcDbEntity
  8
0
100
AcDbLine
 62
7
  6
CONTINUOUS
 10
27.2805876489
 20
55.8146931932
 11
20.2094903974
 21
59.8971007384
  0
LINE
  5
272
100
AcDbEntity
  8
0
100
AcDbLine
 62
7
  6
CONTINUOUS
 10
30.0029600907
 20
53.4296111036
 11
30.0029600907
 21
70.5655028087
  0
LINE
  5
273
100
AcDbEntity
  8
0
100
AcDbLine
 62
7
  6
CONTINUOUS
 10
30.0029824649
 20
41.7436177254
 11
30.0029824339
 21
45.839986057
  0
LINE
  5
274
100
AcDbEntity
  8
0
100
AcDbLine
 62
7
  6
CONTINUOUS
 10
30.0383379511
 20
41.7232056877
 11
30.0383379511
 21
45.8195740014
  0
LINE
  5
275
100
AcDbEntity
  8
0
100
AcDbLine
 62
7
  6
CONTINUOUS
 10
32.7253325325
 20
52.6712393834
 11
32.7253325325
 21
51.8578841987
  0
LINE
  5
276
100
AcDbEntity
  8
0
100
AcDbLine
 62
7
  6
CONTINUOUS
 10
11.9632531083
 20
46.9974831708
 11
14.19195714
 21
50.2951486069
  0
LINE
  5
277
100
AcDbEntity
  8
0
100
AcDbLine
 62
7
  6
CONTINUOUS
 10
14.3418908572
 20
49.0624914933
 11
12.6703628335
 21
46.5892424163
  0
LINE
  5
278
100
AcDbEntity
  8
0
100
AcDbLine
 62
7
  6
CONTINUOUS
 10
12.9943018764
 20
46.0323423676
 11
14.7772651018
 21
48.6704747165
  0
LINE
  5
279
100
AcDbEntity
  8
0
100
AcDbLine
 62
7
  6
CONTINUOUS
 10
62.3529962652
 20
100.2247362865
 11
62.918679335
 21
100.5513316096
  0
LINE
  5
27A
100
AcDbEntity
  8
0
100
AcDbLine
 62
7
  6
CONTINUOUS
 10
79.2648793157
 20
109.5805211357
 11
80.8010584245
 21
110.4674292636
  0
LINE
  5
27B
100
AcDbEntity
  8
0
100
AcDbLine
 62
7
  6
CONTINUOUS
 10
79.2648793157
 20
108.0603894279
 11
81.0331892901
 21
109.0813175735
  0
LINE
  5
27C
100
AcDbEntity
  8
0
100
AcDbLine
 62
7
  6
CONTINUOUS
 10
46.3730763359
 20
87.9763119712
 11
45.8073932662
 21
87.6497166481
  0
LINE
  5
27D
100
AcDbEntity
  8
0
100
AcDbLine
 62
7
  6
CONTINUOUS
 10
81.8338467127
 20
108.1243483925
 11
83.3466534351
 21
108.9977625473
  0
LINE
  5
27E
100
AcDbEntity
  8
0
100
AcDbLine
 62
7
  6
CONTINUOUS
 10
32.7253325325
 20
52.6712393834
 11
33.1132676662
 21
50.3547212218
  0
LINE
  5
27F
100
AcDbEntity
  8
0
100
AcDbLine
 62
7
  6
CONTINUOUS
 10
37.1094352026
 20
37.6407981425
 11
37.1094352026
 21
41.7371664562
  0
LINE
  5
280
100
AcDbEntity
  8
0
100
AcDbLine
 62
7
  6
CONTINUOUS
 10
37.1447906888
 20
37.6203861048
 11
37.1447906888
 21
41.7167544184
  0
LINE
  5
281
100
AcDbEntity
  8
0
100
AcDbLine
 62
7
  6
CONTINUOUS
 10
18.4220177944
 20
47.8529771987
 11
19.8055149289
 21
49.9002337737
  0
LINE
  5
282
100
AcDbEntity
  8
0
100
AcDbLine
 62
7
  6
CONTINUOUS
 10
66.8784937958
 20
98.2651833843
 11
66.3128107261
 21
97.9385880612
  0
LINE
  5
283
100
AcDbEntity
  8
0
100
AcDbLine
 62
7
  6
CONTINUOUS
 10
81.8338467127
 20
106.6563776478
 11
80.8294918919
 21
106.076516583
  0
LINE
  5
284
100
AcDbEntity
  8
0
100
AcDbLine
 62
7
  6
CONTINUOUS
 10
48.2628568503
 20
86.7414501368
 11
48.1050985241
 21
86.6503688684
  0
LINE
  5
285
100
AcDbEntity
  8
0
100
AcDbLine
 62
7
  6
CONTINUOUS
 10
79.3235354618
 20
104.3072191294
 11
64.3329341129
 21
95.6524430674
  0
LINE
  5
286
100
AcDbEntity
  8
0
100
AcDbLine
 62
7
  6
CONTINUOUS
 10
64.332939412
 20
94.9176066498
 11
80.596327668
 21
104.3072221889
  0
LINE
  5
287
100
AcDbEntity
  8
0
100
AcDbLine
 62
7
  6
CONTINUOUS
 10
84.7682403073
 20
106.307611488
 11
82.6469287957
 21
105.0828790264
  0
LINE
  5
288
100
AcDbEntity
  8
0
100
AcDbLine
 62
7
  6
CONTINUOUS
 10
80.596327668
 20
103.8989709803
 11
64.332939412
 21
94.5093554413
  0
LINE
  5
289
100
AcDbEntity
  8
0
100
AcDbLine
 62
7
  6
CONTINUOUS
 10
88.2684204935
 20
57.0439513789
 11
89.5412074005
 21
57.04377538
  0
LINE
  5
28A
100
AcDbEntity
  8
0
100
AcDbLine
 62
7
  6
CONTINUOUS
 10
39.796429784
 20
48.5888318382
 11
39.796429784
 21
47.7754766535
  0
LINE
  5
28B
100
AcDbEntity
  8
0
100
AcDbLine
 62
7
  6
CONTINUOUS
 10
42.1651460908
 20
27.7806548103
 11
42.1651460908
 21
29.3907961993
  0
LINE
  5
28C
100
AcDbEntity
  8
0
100
AcDbLine
 62
7
  6
CONTINUOUS
 10
42.1651460908
 20
79.2203070895
 11
42.1651460908
 21
93.9173505978
  0
LINE
  5
28D
100
AcDbEntity
  8
0
100
AcDbLine
 62
7
  6
CONTINUOUS
 10
42.5188022258
 20
29.8630423513
 11
42.5188022258
 21
63.3396414536
  0
LINE
  5
28E
100
AcDbEntity
  8
0
100
AcDbLine
 62
7
  6
CONTINUOUS
 10
54.6809882259
 20
86.6914892428
 11
88.3317769974
 21
106.1196652279
  0
LINE
  5
28F
100
AcDbEntity
  8
0
100
AcDbLine
 62
7
  6
CONTINUOUS
 10
31.4171677651
 20
73.0149959507
 11
42.1651460908
 21
79.2203070895
  0
LINE
  5
290
100
AcDbEntity
  8
0
100
AcDbLine
 62
7
  6
CONTINUOUS
 10
50.4730579807
 20
80.8748930628
 11
49.907374911
 21
80.5482977397
  0
LINE
  5
291
100
AcDbEntity
  8
0
100
AcDbLine
 62
7
  6
CONTINUOUS
 10
86.8188349587
 20
58.6155022849
 11
85.6521362959
 21
58.6156636141
  0
LINE
  5
292
100
AcDbEntity
  8
0
100
AcDbLine
 62
7
  6
CONTINUOUS
 10
42.5188022258
 20
63.3396414536
 11
17.4871179556
 21
77.7913641637
  0
LINE
  5
293
100
AcDbEntity
  8
0
100
AcDbLine
 62
7
  6
CONTINUOUS
 10
43.1903586301
 20
107.12400521
 11
43.1903586301
 21
106.7157540014
  0
LINE
  5
294
100
AcDbEntity
  8
0
100
AcDbLine
 62
7
  6
CONTINUOUS
 10
25.0688492108
 20
44.0155141062
 11
25.3782162048
 21
44.4733058839
  0
LINE
  5
295
100
AcDbEntity
  8
0
100
AcDbLine
 62
7
  6
CONTINUOUS
 10
26.9391041731
 20
43.5707218336
 11
26.6303893521
 21
43.1139788807
  0
LINE
  5
296
100
AcDbEntity
  8
0
100
AcDbLine
 62
7
  6
CONTINUOUS
 10
18.90132563
 20
80.2408573057
 11
43.9330099002
 21
65.7891345957
  0
LINE
  5
297
100
AcDbEntity
  8
0
100
AcDbLine
 62
7
  6
CONTINUOUS
 10
50.4028277792
 20
109.0835688181
 11
50.4028371999
 21
107.1240077574
  0
LINE
  5
298
100
AcDbEntity
  8
0
100
AcDbLine
 62
7
  6
CONTINUOUS
 10
30.9378599295
 20
40.6271158437
 11
32.321357064
 21
42.6743724187
  0
LINE
  5
299
100
AcDbEntity
  8
0
100
AcDbLine
 62
7
  6
CONTINUOUS
 10
51.8170972769
 20
102.1434680048
 11
51.8170972769
 21
101.7352167963
  0
LINE
  5
29A
100
AcDbEntity
  8
0
100
AcDbLine
 62
7
  6
CONTINUOUS
 10
53.7262158141
 20
105.2052976269
 11
53.7262158141
 21
111.0023163413
  0
LINE
  5
29B
100
AcDbEntity
  8
0
100
AcDbLine
 62
7
  6
CONTINUOUS
 10
54.6809882259
 20
20.5547934553
 11
54.6809882259
 21
35.2518369637
  0
LINE
  5
29C
100
AcDbEntity
  8
0
100
AcDbLine
 62
7
  6
CONTINUOUS
 10
54.6809882259
 20
71.9944457345
 11
54.6809882259
 21
86.6914892428
  0
LINE
  5
29D
100
AcDbEntity
  8
0
100
AcDbLine
 62
7
  6
CONTINUOUS
 10
43.9330099002
 20
65.7891345957
 11
54.6809882259
 21
71.9944457345
  0
LINE
  5
29E
100
AcDbEntity
  8
0
100
AcDbLine
 62
7
  6
CONTINUOUS
 10
86.2178193656
 20
86.1196229115
 11
85.6521362959
 21
85.7930275884
  0
LINE
  5
29F
100
AcDbEntity
  8
0
100
AcDbLine
 62
7
  6
CONTINUOUS
 10
54.6809882259
 20
71.9944457345
 11
29.6493039557
 21
86.4461684445
  0
LINE
  5
2A0
100
AcDbEntity
  8
0
100
AcDbLine
 62
7
  6
CONTINUOUS
 10
55.7062007652
 20
99.898143855
 11
55.7062007652
 21
99.4898926464
  0
LINE
  5
2A1
100
AcDbEntity
  8
0
100
AcDbLine
 62
7
  6
CONTINUOUS
 10
56.5546429388
 20
111.00232314
 11
56.5546429388
 21
105.613514418
  0
LINE
  5
2A2
100
AcDbEntity
  8
0
100
AcDbLine
 62
7
  6
CONTINUOUS
 10
59.4537521852
 20
114.9622819143
 11
59.4537521852
 21
115.7787843315
  0
LINE
  5
2A3
100
AcDbEntity
  8
0
100
AcDbLine
 62
7
  6
CONTINUOUS
 10
37.5846913459
 20
36.7896527512
 11
37.8940583399
 21
37.2474445289
  0
LINE
  5
2A4
100
AcDbEntity
  8
0
100
AcDbLine
 62
7
  6
CONTINUOUS
 10
88.2445203838
 20
85.4117767459
 11
87.3566100955
 21
84.8991445619
  0
LINE
  5
2A5
100
AcDbEntity
  8
0
100
AcDbLine
 62
7
  6
CONTINUOUS
 10
88.2684204935
 20
55.8681878983
 11
86.7127920517
 21
56.7663100797
  0
LINE
  5
2A6
100
AcDbEntity
  8
0
100
AcDbLine
 62
7
  6
CONTINUOUS
 10
86.7127920517
 20
57.0113068026
 11
85.6521362959
 21
57.6236628354
  0
LINE
  5
2A7
100
AcDbEntity
  8
0
100
AcDbLine
 62
7
  6
CONTINUOUS
 10
88.2684204935
 20
57.0439513789
 11
85.6521362959
 21
58.5544295932
  0
LINE
  5
2A8
100
AcDbEntity
  8
0
100
AcDbLine
 62
7
  6
CONTINUOUS
 10
89.5412074005
 20
57.04377538
 11
86.8188349587
 21
58.6155022849
  0
LINE
  5
2A9
100
AcDbEntity
  8
0
100
AcDbLine
 62
7
  6
CONTINUOUS
 10
59.9487696195
 20
107.5731026736
 11
59.9487696195
 21
109.0427675183
  0
LINE
  5
2AA
100
AcDbEntity
  8
0
100
AcDbLine
 62
7
  6
CONTINUOUS
 10
62.9186699143
 20
101.8577074631
 11
62.918679335
 21
99.8981464024
  0
LINE
  5
2AB
100
AcDbEntity
  8
0
100
AcDbLine
 62
7
  6
CONTINUOUS
 10
63.6256595256
 20
115.9805217584
 11
63.6256595256
 21
118.5140100483
  0
LINE
  5
2AC
100
AcDbEntity
  8
0
100
AcDbLine
 62
7
  6
CONTINUOUS
 10
38.3836215122
 20
35.1823058396
 11
36.7120934885
 21
32.7090567626
  0
LINE
  5
2AD
100
AcDbEntity
  8
0
100
AcDbLine
 62
7
  6
CONTINUOUS
 10
37.4192032136
 20
32.3008160081
 11
39.6479072453
 21
35.5984814441
  0
LINE
  5
2AE
100
AcDbEntity
  8
0
100
AcDbLine
 62
7
  6
CONTINUOUS
 10
39.4549463082
 20
36.3448604786
 11
39.1462314872
 21
35.8881175257
  0
LINE
  5
2AF
100
AcDbEntity
  8
0
100
AcDbLine
 62
7
  6
CONTINUOUS
 10
48.6762049209
 20
86.3206478957
 11
48.1050985241
 21
86.6503688684
  0
LINE
  5
2B0
100
AcDbEntity
  8
0
100
AcDbLine
 62
7
  6
CONTINUOUS
 10
36.1603627858
 20
93.5465092507
 11
35.589256389
 21
93.8762302234
  0
LINE
  5
2B1
100
AcDbEntity
  8
0
100
AcDbLine
 62
7
  6
CONTINUOUS
 10
64.332939412
 20
94.9176066498
 11
64.332939412
 21
94.5093554413
  0
LINE
  5
2B2
100
AcDbEntity
  8
0
100
AcDbLine
 62
7
  6
CONTINUOUS
 10
66.2420579492
 20
97.9794362719
 11
66.2420579492
 21
103.7764549863
  0
LINE
  5
2B3
100
AcDbEntity
  8
0
100
AcDbLine
 62
7
  6
CONTINUOUS
 10
66.7490371806
 20
115.2862507829
 11
66.7490371806
 21
116.8063824907
  0
LINE
  5
2B4
100
AcDbEntity
  8
0
100
AcDbLine
 62
7
  6
CONTINUOUS
 10
42.4778398348
 20
33.0503723946
 11
40.2491358031
 21
29.7527069586
  0
LINE
  5
2B5
100
AcDbEntity
  8
0
100
AcDbLine
 62
7
  6
CONTINUOUS
 10
54.6809882259
 20
86.6914892428
 11
29.6493039557
 21
101.1432119528
  0
LINE
  5
2B6
100
AcDbEntity
  8
0
100
AcDbLine
 62
7
  6
CONTINUOUS
 10
68.0804855329
 20
111.5330835439
 11
68.0804855329
 21
111.1248323353
  0
LINE
  5
2B7
100
AcDbEntity
  8
0
100
AcDbLine
 62
7
  6
CONTINUOUS
 10
69.0704850739
 20
103.776461785
 11
69.0704850739
 21
98.387653063
  0
LINE
  5
2B8
100
AcDbEntity
  8
0
100
AcDbLine
 62
7
  6
CONTINUOUS
 10
69.3180045776
 20
112.7532723993
 11
69.3180045776
 21
115.3502097475
  0
LINE
  5
2B9
100
AcDbEntity
  8
0
100
AcDbLine
 62
7
  6
CONTINUOUS
 10
71.9695943203
 20
107.7364205593
 11
71.9695943203
 21
108.5529229765
  0
LINE
  5
2BA
100
AcDbEntity
  8
0
100
AcDbLine
 62
7
  6
CONTINUOUS
 10
72.4646117546
 20
100.3472413186
 11
72.4646117546
 21
101.8169061633
  0
LINE
  5
2BB
100
AcDbEntity
  8
0
100
AcDbLine
 62
7
  6
CONTINUOUS
 10
76.1415016607
 20
108.7546604033
 11
76.1415016607
 21
111.2881486933
  0
LINE
  5
2BC
100
AcDbEntity
  8
0
100
AcDbLine
 62
7
  6
CONTINUOUS
 10
68.2852162894
 20
117.6932906186
 11
68.517347155
 21
116.3071789285
  0
LINE
  5
2BD
100
AcDbEntity
  8
0
100
AcDbLine
 62
7
  6
CONTINUOUS
 10
79.2648793157
 20
108.0603894279
 11
79.2648793157
 21
109.5805211357
  0
LINE
  5
2BE
100
AcDbEntity
  8
0
100
AcDbLine
 62
7
  6
CONTINUOUS
 10
80.596327668
 20
104.3072221889
 11
80.596327668
 21
103.8989709803
  0
LINE
  5
2BF
100
AcDbEntity
  8
0
100
AcDbLine
 62
7
  6
CONTINUOUS
 10
85.6521362959
 20
56.3989405718
 11
86.7127920517
 21
57.0113068026
  0
LINE
  5
2C0
100
AcDbEntity
  8
0
100
AcDbLine
 62
7
  6
CONTINUOUS
 10
66.8784937958
 20
98.2651833843
 11
68.8583683448
 21
98.2651881434
  0
LINE
  5
2C1
100
AcDbEntity
  8
0
100
AcDbLine
 62
7
  6
CONTINUOUS
 10
64.332939412
 20
94.5093554413
 11
55.7062007652
 21
99.4898926464
  0
LINE
  5
2C2
100
AcDbEntity
  8
0
100
AcDbLine
 62
7
  6
CONTINUOUS
 10
51.8170972769
 20
101.7352167963
 11
43.1903586301
 21
106.7157540014
  0
LINE
  5
2C3
100
AcDbEntity
  8
0
100
AcDbLine
 62
7
  6
CONTINUOUS
 10
43.1903586301
 20
107.12400521
 11
51.8170972769
 21
102.1434680048
  0
LINE
  5
2C4
100
AcDbEntity
  8
0
100
AcDbLine
 62
7
  6
CONTINUOUS
 10
55.7062007652
 20
99.898143855
 11
64.332939412
 21
94.9176066498
  0
LINE
  5
2C5
100
AcDbEntity
  8
0
100
AcDbLine
 62
7
  6
CONTINUOUS
 10
64.3329341129
 20
95.6524430674
 11
56.9789929714
 21
99.8981469144
  0
LINE
  5
2C6
100
AcDbEntity
  8
0
100
AcDbLine
 62
7
  6
CONTINUOUS
 10
51.8170919778
 20
102.8783044224
 11
44.4631508363
 21
107.1240082694
  0
LINE
  5
2C7
100
AcDbEntity
  8
0
100
AcDbLine
 62
7
  6
CONTINUOUS
 10
81.8338467127
 20
105.5274110443
 11
81.8338467127
 21
108.1243483925
  0
LINE
  5
2C8
100
AcDbEntity
  8
0
100
AcDbLine
 62
7
  6
CONTINUOUS
 10
86.7127920517
 20
54.9700507597
 11
88.2684204935
 21
55.8681878983
  0
LINE
  5
2C9
100
AcDbEntity
  8
0
100
AcDbLine
 62
7
  6
CONTINUOUS
 10
54.6809882259
 20
35.2518369637
 11
43.9330099002
 21
29.0465258248
  0
LINE
  5
2CA
100
AcDbEntity
  8
0
100
AcDbLine
 62
7
  6
CONTINUOUS
 10
87.3566100955
 20
84.8991445619
 11
85.7302296234
 21
85.838114523
  0
LINE
  5
2CB
100
AcDbEntity
  8
0
100
AcDbLine
 62
7
  6
CONTINUOUS
 10
66.3128107261
 20
97.9385880612
 11
62.3529962652
 21
100.2247362865
  0
LINE
  5
2CC
100
AcDbEntity
  8
0
100
AcDbLine
 62
7
  6
CONTINUOUS
 10
53.796968591
 20
105.1644494162
 11
49.8371541301
 21
107.4505976415
  0
LINE
  5
2CD
100
AcDbEntity
  8
0
100
AcDbLine
 62
7
  6
CONTINUOUS
 10
85.6521362959
 20
85.7930275884
 11
85.6521362959
 21
56.3989405718
  0
LINE
  5
2CE
100
AcDbEntity
  8
0
100
AcDbLine
 62
7
  6
CONTINUOUS
 10
86.7127920517
 20
57.0113068026
 11
86.7127920517
 21
54.9700507597
  0
LINE
  5
2CF
100
AcDbEntity
  8
0
100
AcDbLine
 62
7
  6
CONTINUOUS
 10
88.2684204935
 20
55.8681878983
 11
88.2684204935
 21
57.0439513789
  0
LINE
  5
2D0
100
AcDbEntity
  8
0
100
AcDbLine
 62
7
  6
CONTINUOUS
 10
89.5412074005
 20
94.6520400135
 11
88.2445203838
 21
85.4117767459
  0
LINE
  5
2D1
100
AcDbEntity
  8
0
100
AcDbLine
 62
7
  6
CONTINUOUS
 10
50.4730579807
 20
26.495832082
 11
49.907374911
 21
26.1692367589
  0
LINE
  5
2D2
100
AcDbEntity
  8
0
100
AcDbLine
 62
7
  6
CONTINUOUS
 10
54.3626516607
 20
105.4910447393
 11
56.3425262097
 21
105.4910494984
  0
LINE
  5
2D3
100
AcDbEntity
  8
0
100
AcDbLine
 62
7
  6
CONTINUOUS
 10
56.5546429388
 20
111.00232314
 11
59.9487696195
 21
109.0427675183
  0
LINE
  5
2D4
100
AcDbEntity
  8
0
100
AcDbLine
 62
7
  6
CONTINUOUS
 10
69.0704850739
 20
103.776461785
 11
72.4646117546
 21
101.8169061633
  0
LINE
  5
2D5
100
AcDbEntity
  8
0
100
AcDbLine
 62
7
  6
CONTINUOUS
 10
87.3566100955
 20
84.8991445619
 11
86.2178193656
 21
86.1196229115
  0
LINE
  5
2D6
100
AcDbEntity
  8
0
100
AcDbLine
 62
7
  6
CONTINUOUS
 10
80.8010584245
 20
110.4674292636
 11
81.0331892901
 21
109.0813175735
  0
LINE
  5
2D7
100
AcDbEntity
  8
0
100
AcDbLine
 62
7
  6
CONTINUOUS
 10
89.5412074005
 20
98.8978525825
 11
89.5412074005
 21
94.6520400135
  0
LINE
  5
2D8
100
AcDbEntity
  8
0
100
AcDbLine
 62
7
  6
CONTINUOUS
 10
89.5412074005
 20
57.04377538
 11
89.5412074005
 21
40.6812302412
  0
LINE
  5
2D9
100
AcDbEntity
  8
0
100
AcDbLine
 62
7
  6
CONTINUOUS
 10
89.5412074005
 20
40.6812302412
 11
54.6809882259
 21
20.5547934553
  0
LINE
  5
2DA
100
AcDbEntity
  8
0
100
AcDbLine
 62
7
  6
CONTINUOUS
 10
77.7804282654
 20
107.7435148293
 11
82.6469287957
 21
105.0828790264
  0
LINE
  5
2DB
100
AcDbEntity
  8
0
100
AcDbLine
 62
7
  6
CONTINUOUS
 10
65.2645861303
 20
114.9693761843
 11
70.1310866606
 21
112.3087403814
  0
LINE
  5
2DC
100
AcDbEntity
  8
0
100
AcDbLine
 62
7
  6
CONTINUOUS
 10
59.4537521852
 20
114.9622819143
 11
66.1005713823
 21
111.1248258765
  0
LINE
  5
2DD
100
AcDbEntity
  8
0
100
AcDbLine
 62
7
  6
CONTINUOUS
 10
71.9695943203
 20
107.7364205593
 11
78.6164135174
 21
103.8989645215
  0
LINE
  5
2DE
100
AcDbEntity
  8
0
100
AcDbLine
 62
7
  6
CONTINUOUS
 10
59.4537521852
 20
115.7787843315
 11
66.8076933267
 21
111.5330804845
  0
LINE
  5
2DF
100
AcDbEntity
  8
0
100
AcDbLine
 62
7
  6
CONTINUOUS
 10
71.9695943203
 20
108.5529229765
 11
79.3235354618
 21
104.3072191294
  0
LINE
  5
2E0
100
AcDbEntity
  8
0
100
AcDbLine
 62
7
  6
CONTINUOUS
 10
80.596327668
 20
104.3072221889
 11
71.9695890212
 21
109.287759394
  0
LINE
  5
2E1
100
AcDbEntity
  8
0
100
AcDbLine
 62
7
  6
CONTINUOUS
 10
68.0804855329
 20
111.5330835439
 11
59.4537468861
 21
116.513620749
  0
LINE
  5
2E2
100
AcDbEntity
  8
0
100
AcDbLine
 62
7
  6
CONTINUOUS
 10
61.504348014
 20
117.2892775867
 11
65.2645861303
 21
114.9693761843
  0
LINE
  5
2E3
100
AcDbEntity
  8
0
100
AcDbLine
 62
7
  6
CONTINUOUS
 10
74.0201901491
 20
110.0634162317
 11
77.7804282654
 21
107.7435148293
  0
LINE
  5
2E4
100
AcDbEntity
  8
0
100
AcDbLine
 62
7
  6
CONTINUOUS
 10
88.3317769974
 20
106.1196652279
 11
89.5412074005
 21
98.8978525825
  0
LINE
  5
2E5
100
AcDbEntity
  8
0
100
AcDbLine
 62
7
  6
CONTINUOUS
 10
79.2648793157
 20
109.5805211357
 11
76.1415016607
 21
111.2881486933
  0
LINE
  5
2E6
100
AcDbEntity
  8
0
100
AcDbLine
 62
7
  6
CONTINUOUS
 10
66.7490371806
 20
116.8063824907
 11
63.6256595256
 21
118.5140100483
  0
LINE
  5
2E7
100
AcDbEntity
  8
0
100
AcDbLine
 62
7
  6
CONTINUOUS
 10
88.3317769974
 20
106.1196652279
 11
83.3466534351
 21
108.9977625473
  0
LINE
  5
2E8
100
AcDbEntity
  8
0
100
AcDbLine
 62
7
  6
CONTINUOUS
 10
80.8010584245
 20
110.4674292636
 11
70.8308113
 21
116.2236239023
  0
LINE
  5
2E9
100
AcDbEntity
  8
0
100
AcDbLine
 62
7
  6
CONTINUOUS
 10
68.2852162894
 20
117.6932906186
 11
63.3000927272
 21
120.5713879379
  0
LINE
  5
2EA
100
AcDbEntity
  8
0
100
AcDbLine
 62
7
  6
CONTINUOUS
 10
72.2523981722
 20
113.5334728431
 11
69.3180045776
 21
115.3502097475
  0
LINE
  5
2EB
100
AcDbEntity
  8
0
100
AcDbLine
 62
7
  6
CONTINUOUS
 10
84.7682403073
 20
106.307611488
 11
81.8338467127
 21
108.1243483925
  0
ARC
  5
2EC
100
AcDbEntity
  8
0
100
AcDbCircle
 62
7
  6
CONTINUOUS
 10
42.0394579723
 20
29.1087080667
 40
6.4298773764
100
AcDbArc
 50
145.9483175939
 51
147.7257919225
  0
ARC
  5
2ED
100
AcDbEntity
  8
0
100
AcDbCircle
 62
7
  6
CONTINUOUS
 10
17.9977273172
 20
42.9888937204
 40
6.4298773763
100
AcDbArc
 50
145.9483175938
 51
147.7257919225
  0
ARC
  5
2EE
100
AcDbEntity
  8
0
100
AcDbCircle
 62
7
  6
CONTINUOUS
 10
15.4132956481
 20
45.876877587
 40
3.9664654679
100
AcDbArc
 50
228.0346624132
 51
236.4982704223
  0
ARC
  5
2EF
100
AcDbEntity
  8
0
100
AcDbCircle
 62
7
  6
CONTINUOUS
 10
35.8918513647
 20
34.8157062398
 40
3.8920282792
100
AcDbArc
 50
12.4971411954
 51
12.9850833314
  0
ARC
  5
2F0
100
AcDbEntity
  8
0
100
AcDbCircle
 62
7
  6
CONTINUOUS
 10
13.8322080806
 20
47.8187085828
 40
3.6220422262
100
AcDbArc
 50
17.6830028836
 51
22.4316177286
  0
ARC
  5
2F1
100
AcDbEntity
  8
0
100
AcDbCircle
 62
7
  6
CONTINUOUS
 10
26.3480502157
 20
40.5928472278
 40
3.6220422262
100
AcDbArc
 50
17.6830028836
 51
22.4316177286
  0
ARC
  5
2F2
100
AcDbEntity
  8
0
100
AcDbCircle
 62
7
  6
CONTINUOUS
 10
33.3424897345
 20
70.266475526
 40
3.3798354823
100
AcDbArc
 50
149.9420545162
 51
158.7315729341
  0
ARC
  5
2F3
100
AcDbEntity
  8
0
100
AcDbCircle
 62
7
  6
CONTINUOUS
 10
17.9680152849
 20
46.9590472559
 40
1.9981149302
100
AcDbArc
 50
59.5286631091
 51
59.9934751816
  0
ARC
  5
2F4
100
AcDbEntity
  8
0
100
AcDbCircle
 62
7
  6
CONTINUOUS
 10
30.4838574203
 20
39.7331859016
 40
1.9981149294
100
AcDbArc
 50
59.528663109
 51
59.9934751817
  0
ARC
  5
2F5
100
AcDbEntity
  8
0
100
AcDbCircle
 62
7
  6
CONTINUOUS
 10
26.0238358429
 20
39.9145967659
 40
1.2039711961
100
AcDbArc
 50
60.0014888847
 51
61.279013799
  0
ARC
  5
2F6
100
AcDbEntity
  8
0
100
AcDbCircle
 62
7
  6
CONTINUOUS
 10
13.865248944
 20
44.8488285897
 40
1.1977628239
100
AcDbArc
 50
216.3225074188
 51
222.4608153717
  0
ARC
  5
2F7
100
AcDbEntity
  8
0
100
AcDbCircle
 62
7
  6
CONTINUOUS
 10
26.0269948448
 20
39.9200921999
 40
1.1976325094
100
AcDbArc
 50
56.857573689
 51
60.0009254899
  0
ARC
  5
2F8
100
AcDbEntity
  8
0
100
AcDbCircle
 62
7
  6
CONTINUOUS
 10
25.2206414634
 20
39.0244882467
 40
1.1973683132
100
AcDbArc
 50
214.0753559443
 51
222.573267499
  0
ARC
  5
2F9
100
AcDbEntity
  8
0
100
AcDbCircle
 62
7
  6
CONTINUOUS
 10
13.8531410231
 20
44.8381633996
 40
1.181630457
100
AcDbArc
 50
222.4756411437
 51
224.1279506026
  0
ARC
  5
2FA
100
AcDbEntity
  8
0
100
AcDbCircle
 62
7
  6
CONTINUOUS
 10
25.1464928255
 20
39.391256089
 40
0.8208870625
100
AcDbArc
 50
240.0426986168
 51
247.0467141296
  0
ARC
  5
2FB
100
AcDbEntity
  8
0
100
AcDbCircle
 62
7
  6
CONTINUOUS
 10
14.685040689
 20
42.1235118112
 40
0.6898827236
100
AcDbArc
 50
227.9857750416
 51
239.9799403342
  0
SPLINE
  5
2FC
100
AcDbEntity
  8
0
100
AcDbSpline
 62
7
  6
CONTINUOUS
 70
0
 71
3
 72
15
 73
11
 74
0
 42
0.0000001
 43
0.0000001
 44
0.0000000001
 40
0.0
 40
0.0
 40
0.0
 40
0.0
 40
0.1146295927
 40
0.2349206653
 40
0.3596906811
 40
0.4875742636
 40
0.6170873098
 40
0.7466851977
 40
0.8748222205
 40
1.0
 40
1.0
 40
1.0
 40
1.0
 10
50.3428785218
 20
28.5467041934
 30
0.0
 10
50.2265118543
 20
28.6283407285
 30
0.0
 10
49.9968988942
 20
28.8085496381
 30
0.0
 10
49.6729341023
 20
29.1159410475
 30
0.0
 10
49.3657031598
 20
29.4623438452
 30
0.0
 10
49.0806906119
 20
29.8415868991
 30
0.0
 10
48.8229358333
 20
30.2469507319
 30
0.0
 10
48.5970133738
 20
30.671245839
 30
0.0
 10
48.4069570151
 20
31.1068905599
 30
0.0
 10
48.3048051424
 20
31.4043965616
 30
0.0
 10
48.2608265634
 20
31.5532634689
 30
0.0
  0
SPLINE
  5
2FD
100
AcDbEntity
  8
0
100
AcDbSpline
 62
7
  6
CONTINUOUS
 70
0
 71
3
 72
15
 73
11
 74
0
 42
0.0000001
 43
0.0000001
 44
0.0000000001
 40
0.0
 40
0.0
 40
0.0
 40
0.0
 40
0.1161909264
 40
0.2389910484
 40
0.3665720293
 40
0.4968288494
 40
0.6275105587
 40
0.7563456548
 40
0.8811547941
 40
1.0
 40
1.0
 40
1.0
 40
1.0
 10
37.8270363867
 20
90.1516265292
 30
0.0
 10
37.6857942717
 20
90.2507143276
 30
0.0
 10
37.4083494707
 20
90.4735848293
 30
0.0
 10
37.0235769752
 20
90.8599173955
 30
0.0
 10
36.6664704255
 20
91.2992125039
 30
0.0
 10
36.3462811906
 20
91.7801308114
 30
0.0
 10
36.0712113794
 20
92.2903142619
 30
0.0
 10
35.8483497575
 20
92.816657625
 30
0.0
 10
35.6834239909
 20
93.34554037
 30
0.0
 10
35.6128623763
 20
93.701341534
 30
0.0
 10
35.589256389
 20
93.8762302234
 30
0.0
  0
SPLINE
  5
2FE
100
AcDbEntity
  8
0
100
AcDbSpline
 62
7
  6
CONTINUOUS
 70
0
 71
3
 72
15
 73
11
 74
0
 42
0.0000001
 43
0.0000001
 44
0.0000000001
 40
0.0
 40
0.0
 40
0.0
 40
0.0
 40
0.1161909264
 40
0.2389910484
 40
0.3665720293
 40
0.4968288494
 40
0.6275105587
 40
0.7563456548
 40
0.8811547941
 40
1.0
 40
1.0
 40
1.0
 40
1.0
 10
50.3428785218
 20
82.9257651742
 30
0.0
 10
50.2016364068
 20
83.0248529726
 30
0.0
 10
49.9241916058
 20
83.2477234743
 30
0.0
 10
49.5394191103
 20
83.6340560405
 30
0.0
 10
49.1823125606
 20
84.0733511489
 30
0.0
 10
48.8621233257
 20
84.5542694564
 30
0.0
 10
48.5870535145
 20
85.0644529069
 30
0.0
 10
48.3641918926
 20
85.59079627
 30
0.0
 10
48.199266126
 20
86.119679015
 30
0.0
 10
48.1287045114
 20
86.475480179
 30
0.0
 10
48.1050985241
 20
86.6503688684
 30
0.0
  0
SPLINE
  5
2FF
100
AcDbEntity
  8
0
100
AcDbSpline
 62
7
  6
CONTINUOUS
 70
0
 71
3
 72
14
 73
10
 74
0
 42
0.0000001
 43
0.0000001
 44
0.0000000001
 40
0.0
 40
0.0
 40
0.0
 40
0.0
 40
0.1037625741
 40
0.2155900059
 40
0.3348777616
 40
0.46070541
 40
0.5917621147
 40
0.7264923537
 40
1.0
 40
1.0
 40
1.0
 40
1.0
 10
20.1892017495
 20
51.3450139964
 30
0.0
 10
20.2000494594
 20
51.2932070634
 30
0.0
 10
20.2140872452
 20
51.1836904828
 30
0.0
 10
20.2137326995
 20
51.0124881849
 30
0.0
 10
20.192833369
 20
50.831257821
 30
0.0
 10
20.1518579902
 20
50.6435053087
 30
0.0
 10
20.0915654581
 20
50.4527627761
 30
0.0
 10
19.9865493908
 20
50.1982625703
 30
0.0
 10
19.8836341895
 20
50.0158322566
 30
0.0
 10
19.8055149289
 20
49.9002337737
 30
0.0
  0
SPLINE
  5
300
100
AcDbEntity
  8
0
100
AcDbSpline
 62
7
  6
CONTINUOUS
 70
0
 71
3
 72
14
 73
10
 74
0
 42
0.0000001
 43
0.0000001
 44
0.0000000001
 40
0.0
 40
0.0
 40
0.0
 40
0.0
 40
0.1037625741
 40
0.2155900059
 40
0.3348777616
 40
0.46070541
 40
0.5917621147
 40
0.7264923537
 40
1.0
 40
1.0
 40
1.0
 40
1.0
 10
32.7050438846
 20
44.1191526414
 30
0.0
 10
32.7158915945
 20
44.0673457084
 30
0.0
 10
32.7299293804
 20
43.9578291278
 30
0.0
 10
32.7295748346
 20
43.7866268299
 30
0.0
 10
32.7086755041
 20
43.605396466
 30
0.0
 10
32.6677001253
 20
43.4176439537
 30
0.0
 10
32.6074075932
 20
43.2269014211
 30
0.0
 10
32.5023915259
 20
42.9724012153
 30
0.0
 10
32.3994763246
 20
42.7899709016
 30
0.0
 10
32.321357064
 20
42.6743724187
 30
0.0
  0
SPLINE
  5
301
100
AcDbEntity
  8
0
100
AcDbSpline
 62
7
  6
CONTINUOUS
 70
0
 71
3
 72
14
 73
10
 74
0
 42
0.0000001
 43
0.0000001
 44
0.0000000001
 40
0.0
 40
0.0
 40
0.0
 40
0.0
 40
0.1250297258
 40
0.2502305309
 40
0.3755316694
 40
0.5008861878
 40
0.7509492589
 40
0.8759143224
 40
1.0
 40
1.0
 40
1.0
 40
1.0
 10
11.9632531083
 20
46.9974831708
 30
0.0
 10
11.8784620244
 20
46.8720234315
 30
0.0
 10
11.7331398287
 20
46.6034861208
 30
0.0
 10
11.5958825031
 20
46.1673084696
 30
0.0
 10
11.5375236065
 20
45.7135883303
 30
0.0
 10
11.5567853373
 20
45.1054984661
 30
0.0
 10
11.7056320185
 20
44.5095595974
 30
0.0
 10
11.9540588045
 20
43.9576731659
 30
0.0
 10
12.1089151528
 20
43.6977990119
 30
0.0
 10
12.1933543602
 20
43.5734819314
 30
0.0
  0
SPLINE
  5
302
100
AcDbEntity
  8
0
100
AcDbSpline
 62
7
  6
CONTINUOUS
 70
0
 71
3
 72
21
 73
17
 74
0
 42
0.0000001
 43
0.0000001
 44
0.0000000001
 40
0.0
 40
0.0
 40
0.0
 40
0.0
 40
0.0556600286
 40
0.1122489182
 40
0.170596721
 40
0.2311852527
 40
0.2941709689
 40
0.3593820017
 40
0.4940963304
 40
0.5625912163
 40
0.6306520758
 40
0.7621319805
 40
0.8249303556
 40
0.8853219186
 40
0.9435259866
 40
1.0
 40
1.0
 40
1.0
 40
1.0
 10
24.6022424164
 20
38.7775861634
 30
0.0
 10
24.5574463929
 20
38.817902472
 30
0.0
 10
24.4762389645
 20
38.9100203415
 30
0.0
 10
24.3877463162
 20
39.0737985633
 30
0.0
 10
24.3347129175
 20
39.2577483852
 30
0.0
 10
24.3187777295
 20
39.4552874743
 30
0.0
 10
24.3401363045
 20
39.6597006619
 30
0.0
 10
24.417665592
 20
39.9347190863
 30
0.0
 10
24.5639380841
 20
40.1922413117
 30
0.0
 10
24.7624740397
 20
40.4098691348
 30
0.0
 10
24.9884182986
 20
40.5932747805
 30
0.0
 10
25.2490052582
 20
40.720585216
 30
0.0
 10
25.5208055657
 20
40.7739601364
 30
0.0
 10
25.7184890491
 20
40.7756785492
 30
0.0
 10
25.9058101316
 20
40.7390835212
 30
0.0
 10
26.0208454544
 20
40.6892141871
 30
0.0
 10
26.073801619
 20
40.6586406229
 30
0.0
  0
SPLINE
  5
303
100
AcDbEntity
  8
0
100
AcDbSpline
 62
7
  6
CONTINUOUS
 70
0
 71
3
 72
16
 73
12
 74
0
 42
0.0000001
 43
0.0000001
 44
0.0000000001
 40
0.0
 40
0.0
 40
0.0
 40
0.0
 40
0.1148435549
 40
0.1702770378
 40
0.2251952324
 40
0.3361626941
 40
0.45295262
 40
0.5783444557
 40
0.7128198505
 40
0.8546369892
 40
1.0
 40
1.0
 40
1.0
 40
1.0
 10
34.5765274192
 20
31.568528307
 30
0.0
 10
34.6588142061
 20
31.5210210832
 30
0.0
 10
34.791086733
 20
31.4658363315
 30
0.0
 10
34.9751520472
 20
31.4337849847
 30
0.0
 10
35.1587690405
 20
31.4283403007
 30
0.0
 10
35.3916672557
 20
31.4705142078
 30
0.0
 10
35.6613175579
 20
31.587920482
 30
0.0
 10
35.9214754352
 20
31.7618079098
 30
0.0
 10
36.1697183291
 20
31.9841059178
 30
0.0
 10
36.4011072303
 20
32.2460859509
 30
0.0
 10
36.5387592043
 20
32.440398175
 30
0.0
 10
36.6029819364
 20
32.5420812458
 30
0.0
  0
SPLINE
  5
304
100
AcDbEntity
  8
0
100
AcDbSpline
 62
7
  6
CONTINUOUS
 70
0
 71
3
 72
14
 73
10
 74
0
 42
0.0000001
 43
0.0000001
 44
0.0000000001
 40
0.0
 40
0.0
 40
0.0
 40
0.0
 40
0.1247816896
 40
0.2495222748
 40
0.3742879697
 40
0.4991943254
 40
0.7492201739
 40
0.874791768
 40
1.0
 40
1.0
 40
1.0
 40
1.0
 10
40.2491358031
 20
29.7527069586
 30
0.0
 10
40.1644336046
 20
29.6273787372
 30
0.0
 10
39.9698441594
 20
29.3928192554
 30
0.0
 10
39.6169138259
 20
29.1037394226
 30
0.0
 10
39.2184391511
 20
28.8817484863
 30
0.0
 10
38.6471644245
 20
28.6743161467
 30
0.0
 10
38.0383110731
 20
28.5908397643
 30
0.0
 10
37.4309608324
 20
28.6105647025
 30
0.0
 10
37.1290605243
 20
28.6518331302
 30
0.0
 10
36.9798926898
 20
28.6798916942
 30
0.0
  0
SPLINE
  5
305
100
AcDbEntity
  8
0
100
AcDbSpline
 62
7
  6
CONTINUOUS
 70
0
 71
3
 72
9
 73
5
 74
0
 42
0.0000001
 43
0.0000001
 44
0.0000000001
 40
0.0
 40
0.0
 40
0.0
 40
0.0
 40
0.250660871
 40
1.0
 40
1.0
 40
1.0
 40
1.0
 10
35.8519387591
 20
29.1064706843
 30
0.0
 10
35.9394216205
 20
29.0559644358
 30
0.0
 10
36.2958825465
 20
28.8679844744
 30
0.0
 10
36.6831161063
 20
28.7357155571
 30
0.0
 10
36.9798926898
 20
28.6798916942
 30
0.0
  0
SPLINE
  5
306
100
AcDbEntity
  8
0
100
AcDbSpline
 62
7
  6
CONTINUOUS
 70
0
 71
3
 72
9
 73
5
 74
0
 42
0.0000001
 43
0.0000001
 44
0.0000000001
 40
0.0
 40
0.0
 40
0.0
 40
0.0
 40
0.2511614242
 40
1.0
 40
1.0
 40
1.0
 40
1.0
 10
12.7609959444
 20
42.9276141891
 30
0.0
 10
12.7074250545
 20
42.9758437523
 30
0.0
 10
12.4995683407
 20
43.1737593051
 30
0.0
 10
12.3141089892
 20
43.3956988446
 30
0.0
 10
12.1933543602
 20
43.5734819314
 30
0.0
  0
SPLINE
  5
307
100
AcDbEntity
  8
0
100
AcDbSpline
 62
7
  6
CONTINUOUS
 70
0
 71
3
 72
23
 73
19
 74
0
 42
0.0000001
 43
0.0000001
 44
0.0000000001
 40
0.0
 40
0.0
 40
0.0
 40
0.0
 40
0.0564318095
 40
0.1145768201
 40
0.1749184943
 40
0.2376608888
 40
0.3026489993
 40
0.3694630258
 40
0.4374694304
 40
0.5059089084
 40
0.5739787405
 40
0.6409146905
 40
0.7060727638
 40
0.7690081527
 40
0.8295470387
 40
0.8878471385
 40
0.944392775
 40
1.0
 40
1.0
 40
1.0
 40
1.0
 10
24.4022735952
 20
38.1853915459
 30
0.0
 10
24.4817149619
 20
38.139527089
 30
0.0
 10
24.6542505923
 20
38.0647073427
 30
0.0
 10
24.9352442289
 20
38.0098475122
 30
0.0
 10
25.2316910025
 20
38.0123813226
 30
0.0
 10
25.5332480503
 20
38.0716723494
 30
0.0
 10
25.829879297
 20
38.185428986
 30
0.0
 10
26.1116922399
 20
38.3495701503
 30
0.0
 10
26.3692954913
 20
38.5584884099
 30
0.0
 10
26.5940814546
 20
38.8051033401
 30
0.0
 10
26.7785066218
 20
39.0811296206
 30
0.0
 10
26.9163327954
 20
39.3773344899
 30
0.0
 10
27.002813598
 20
39.683837078
 30
0.0
 10
27.0348081436
 20
39.9904081179
 30
0.0
 10
27.0109017861
 20
40.2867371311
 30
0.0
 10
26.9313508032
 20
40.5626695554
 30
0.0
 10
26.7986044966
 20
40.8083310775
 30
0.0
 10
26.6768058963
 20
40.9465133711
 30
0.0
 10
26.6096197972
 20
41.0069815297
 30
0.0
  0
SPLINE
  5
308
100
AcDbEntity
  8
0
100
AcDbSpline
 62
7
  6
CONTINUOUS
 70
0
 71
3
 72
14
 73
10
 74
0
 42
0.0000001
 43
0.0000001
 44
0.0000000001
 40
0.0
 40
0.0
 40
0.0
 40
0.0
 40
0.1132925754
 40
0.2292115208
 40
0.3485855687
 40
0.4718836902
 40
0.5991742032
 40
0.7301454238
 40
1.0
 40
1.0
 40
1.0
 40
1.0
 10
12.9002166346
 20
44.1393580658
 30
0.0
 10
12.8551549455
 20
44.2006394523
 30
0.0
 10
12.7755991636
 20
44.3335933516
 30
0.0
 10
12.6932754032
 20
44.5539169569
 30
0.0
 10
12.6486065784
 20
44.7916526468
 30
0.0
 10
12.6424821152
 20
45.0409623861
 30
0.0
 10
12.6748739902
 20
45.2960631584
 30
0.0
 10
12.7689385392
 20
45.6388044969
 30
0.0
 10
12.8928482785
 20
45.8822282123
 30
0.0
 10
12.9943018764
 20
46.0323423676
 30
0.0
  0
SPLINE
  5
309
100
AcDbEntity
  8
0
100
AcDbSpline
 62
7
  6
CONTINUOUS
 70
0
 71
3
 72
15
 73
11
 74
0
 42
0.0000001
 43
0.0000001
 44
0.0000000001
 40
0.0
 40
0.0
 40
0.0
 40
0.0
 40
0.1291503281
 40
0.2579679944
 40
0.3862565769
 40
0.5137428788
 40
0.6399237531
 40
0.7639568557
 40
0.884541817
 40
1.0
 40
1.0
 40
1.0
 40
1.0
 10
12.5612512814
 20
46.4222668994
 30
0.0
 10
12.5039330662
 20
46.3315156663
 30
0.0
 10
12.4070331666
 20
46.1384547657
 30
0.0
 10
12.3200570581
 20
45.8275872238
 30
0.0
 10
12.290641535
 20
45.5076378149
 30
0.0
 10
12.3155480692
 20
45.1897358786
 30
0.0
 10
12.3900760972
 20
44.8834706281
 30
0.0
 10
12.5093560871
 20
44.5978966276
 30
0.0
 10
12.6682347176
 20
44.3427850629
 30
0.0
 10
12.8004253431
 20
44.1959180875
 30
0.0
 10
12.8717509035
 20
44.1317274261
 30
0.0
  0
SPLINE
  5
30A
100
AcDbEntity
  8
0
100
AcDbSpline
 62
7
  6
CONTINUOUS
 70
0
 71
3
 72
21
 73
17
 74
0
 42
0.0000001
 43
0.0000001
 44
0.0000000001
 40
0.0
 40
0.0
 40
0.0
 40
0.0
 40
0.0554468248
 40
0.1117555631
 40
0.169714068
 40
0.2297954254
 40
0.292181994
 40
0.3567599703
 40
0.4904313124
 40
0.5586474238
 40
0.6266848135
 40
0.7590089298
 40
0.8225707017
 40
0.8838505165
 40
0.9428708807
 40
1.0
 40
1.0
 40
1.0
 40
1.0
 10
26.2081384026
 20
40.5610958208
 30
0.0
 10
26.2513951653
 20
40.5221648429
 30
0.0
 10
26.3300687929
 20
40.4336389939
 30
0.0
 10
26.4171983358
 20
40.2767840822
 30
0.0
 10
26.4714392382
 20
40.1006927515
 30
0.0
 10
26.4912022156
 20
39.9112502778
 30
0.0
 10
26.4761587248
 20
39.714482454
 30
0.0
 10
26.4100497235
 20
39.4480158376
 30
0.0
 10
26.2786076718
 20
39.1954440676
 30
0.0
 10
26.0965176497
 20
38.9774156262
 30
0.0
 10
25.8861032425
 20
38.7887242864
 30
0.0
 10
25.6402296672
 20
38.6501720544
 30
0.0
 10
25.3790170305
 20
38.5781289146
 30
0.0
 10
25.1858460773
 20
38.5594678682
 30
0.0
 10
24.9992820788
 20
38.5764371359
 30
0.0
 10
24.8815714151
 20
38.6119673453
 30
0.0
 10
24.8263628809
 20
38.6353643058
 30
0.0
  0
SPLINE
  5
30B
100
AcDbEntity
  8
0
100
AcDbSpline
 62
7
  6
CONTINUOUS
 70
0
 71
3
 72
16
 73
12
 74
0
 42
0.0000001
 43
0.0000001
 44
0.0000000001
 40
0.0
 40
0.0
 40
0.0
 40
0.0
 40
0.149012896
 40
0.2957796143
 40
0.436150513
 40
0.5675504304
 40
0.6889050446
 40
0.8003472561
 40
0.8527349245
 40
0.9032396342
 40
1.0
 40
1.0
 40
1.0
 40
1.0
 10
37.4192032136
 20
32.3008160081
 30
0.0
 10
37.3340441015
 20
32.1748117219
 30
0.0
 10
37.1583068976
 20
31.9291615812
 30
0.0
 10
36.880490964
 20
31.581101659
 30
0.0
 10
36.5957954109
 20
31.2623271607
 30
0.0
 10
36.3103004104
 20
30.9799724104
 30
0.0
 10
36.0270346996
 20
30.7387182021
 30
0.0
 10
35.7884570121
 20
30.5709068231
 30
0.0
 10
35.5982728923
 20
30.4624436182
 30
0.0
 10
35.4144690779
 20
30.3743346811
 30
0.0
 10
35.270716764
 20
30.3263918911
 30
0.0
 10
35.1741282092
 20
30.305826118
 30
0.0
  0
SPLINE
  5
30C
100
AcDbEntity
  8
0
100
AcDbSpline
 62
7
  6
CONTINUOUS
 70
0
 71
3
 72
21
 73
17
 74
0
 42
0.0000001
 43
0.0000001
 44
0.0000000001
 40
0.0
 40
0.0
 40
0.0
 40
0.0
 40
0.056473459
 40
0.1146749924
 40
0.1750638137
 40
0.2378590582
 40
0.3693354462
 40
0.4373964947
 40
0.5058917985
 40
0.6406061744
 40
0.7058173741
 40
0.7688042198
 40
0.8293954106
 40
0.8877461544
 40
0.9443376477
 40
1.0
 40
1.0
 40
1.0
 40
1.0
 10
24.9542663222
 20
38.4840329728
 30
0.0
 10
25.0072219646
 20
38.4534597101
 30
0.0
 10
25.1222539243
 20
38.4035912158
 30
0.0
 10
25.3095684248
 20
38.3669960143
 30
0.0
 10
25.5072426704
 20
38.3687118184
 30
0.0
 10
25.7790339488
 20
38.4220785851
 30
0.0
 10
26.0396185244
 20
38.5493777904
 30
0.0
 10
26.2655640862
 20
38.732776945
 30
0.0
 10
26.4641059889
 20
38.9504000403
 30
0.0
 10
26.6103877341
 20
39.2079179179
 30
0.0
 10
26.6879237631
 20
39.4829360483
 30
0.0
 10
26.7092881886
 20
39.6873528258
 30
0.0
 10
26.6933592725
 20
39.8848997248
 30
0.0
 10
26.6403287051
 20
40.0688598986
 30
0.0
 10
26.5518335319
 20
40.2326466854
 30
0.0
 10
26.4706231137
 20
40.3247691541
 30
0.0
 10
26.4258252811
 20
40.3650872095
 30
0.0
  0
SPLINE
  5
30D
100
AcDbEntity
  8
0
100
AcDbSpline
 62
7
  6
CONTINUOUS
 70
0
 71
3
 72
19
 73
15
 74
0
 42
0.0000001
 43
0.0000001
 44
0.0000000001
 40
0.0
 40
0.0
 40
0.0
 40
0.0
 40
0.0561824775
 40
0.1139777438
 40
0.173811407
 40
0.2358526508
 40
0.3655578687
 40
0.5003124413
 40
0.6349957579
 40
0.7645136776
 40
0.8264427336
 40
0.8861610813
 40
0.9438738963
 40
1.0
 40
1.0
 40
1.0
 40
1.0
 10
24.2288596132
 20
38.3536234025
 30
0.0
 10
24.1810248124
 20
38.4242569084
 30
0.0
 10
24.0989503544
 20
38.5782479009
 30
0.0
 10
24.0229766802
 20
38.8326052338
 30
0.0
 10
23.9946066452
 20
39.1054740365
 30
0.0
 10
24.0212842434
 20
39.4881300471
 30
0.0
 10
24.1767929691
 20
39.9677641599
 30
0.0
 10
24.5232273568
 20
40.474270959
 30
0.0
 10
24.9933738408
 20
40.8682012608
 30
0.0
 10
25.455215195
 20
41.0692406834
 30
0.0
 10
25.8329474747
 20
41.1323343432
 30
0.0
 10
26.1068126744
 20
41.1301142827
 30
0.0
 10
26.3668504965
 20
41.0786028508
 30
0.0
 10
26.5276620003
 20
41.0113974259
 30
0.0
 10
26.6023978741
 20
40.9704436378
 30
0.0
  0
SPLINE
  5
30E
100
AcDbEntity
  8
0
100
AcDbSpline
 62
7
  6
CONTINUOUS
 70
0
 71
3
 72
11
 73
7
 74
0
 42
0.0000001
 43
0.0000001
 44
0.0000000001
 40
0.0
 40
0.0
 40
0.0
 40
0.0
 40
0.2934203893
 40
0.5532702988
 40
0.7861477943
 40
1.0
 40
1.0
 40
1.0
 40
1.0
 10
35.1741282092
 20
30.305826118
 30
0.0
 10
35.1026681162
 20
30.2906107329
 30
0.0
 10
34.9666212455
 20
30.2673565979
 30
0.0
 10
34.7706327651
 20
30.2564417415
 30
0.0
 10
34.594690663
 20
30.2723440879
 30
0.0
 10
34.4867039439
 20
30.3024017558
 30
0.0
 10
34.4372485655
 20
30.3221417216
 30
0.0
  0
SPLINE
  5
30F
100
AcDbEntity
  8
0
100
AcDbSpline
 62
7
  6
CONTINUOUS
 70
0
 71
3
 72
23
 73
19
 74
0
 42
0.0000001
 43
0.0000001
 44
0.0000000001
 40
0.0
 40
0.0
 40
0.0
 40
0.0
 40
0.0564318095
 40
0.1145768201
 40
0.1749184943
 40
0.2376608888
 40
0.3026489993
 40
0.3694630258
 40
0.4374694304
 40
0.5059089084
 40
0.5739787405
 40
0.6409146905
 40
0.7060727638
 40
0.7690081527
 40
0.8295470387
 40
0.8878471385
 40
0.944392775
 40
1.0
 40
1.0
 40
1.0
 40
1.0
 10
26.4081072237
 20
41.1532904383
 30
0.0
 10
26.3286658571
 20
41.1991548952
 30
0.0
 10
26.1561302266
 20
41.2739746415
 30
0.0
 10
25.8751365901
 20
41.328834472
 30
0.0
 10
25.5786898164
 20
41.3263006616
 30
0.0
 10
25.2771327687
 20
41.2670096347
 30
0.0
 10
24.9805015219
 20
41.1532529982
 30
0.0
 10
24.698688579
 20
40.9891118339
 30
0.0
 10
24.4410853276
 20
40.7801935742
 30
0.0
 10
24.2162993644
 20
40.5335786441
 30
0.0
 10
24.0318741971
 20
40.2575523636
 30
0.0
 10
23.8940480235
 20
39.9613474943
 30
0.0
 10
23.8075672209
 20
39.6548449062
 30
0.0
 10
23.7755726754
 20
39.3482738662
 30
0.0
 10
23.7994790329
 20
39.051944853
 30
0.0
 10
23.8790300157
 20
38.7760124287
 30
0.0
 10
24.0117763224
 20
38.5303509066
 30
0.0
 10
24.1335749226
 20
38.3921686131
 30
0.0
 10
24.2007610218
 20
38.3317004545
 30
0.0
  0
SPLINE
  5
310
100
AcDbEntity
  8
0
100
AcDbSpline
 62
7
  6
CONTINUOUS
 70
0
 71
3
 72
16
 73
12
 74
0
 42
0.0000001
 43
0.0000001
 44
0.0000000001
 40
0.0
 40
0.0
 40
0.0
 40
0.0
 40
0.0428755151
 40
0.0875161207
 40
0.1869217599
 40
0.3042393126
 40
0.437962533
 40
0.5823660413
 40
0.7295547149
 40
0.8712848126
 40
1.0
 40
1.0
 40
1.0
 40
1.0
 10
19.0338223213
 20
52.2739467626
 30
0.0
 10
19.0165592468
 20
52.2838971179
 30
0.0
 10
18.9785300191
 20
52.2997105137
 30
0.0
 10
18.8918345342
 20
52.3124605461
 30
0.0
 10
18.7694298879
 20
52.2885430845
 30
0.0
 10
18.6252483008
 20
52.2094467276
 30
0.0
 10
18.4866448468
 20
52.0868550949
 30
0.0
 10
18.3644184236
 20
51.9302944428
 30
0.0
 10
18.2680692943
 20
51.7523588039
 30
0.0
 10
18.2056444957
 20
51.5676185675
 30
0.0
 10
18.1888704722
 20
51.441798016
 30
0.0
 10
18.1888704722
 20
51.3819804901
 30
0.0
  0
SPLINE
  5
311
100
AcDbEntity
  8
0
100
AcDbSpline
 62
7
  6
CONTINUOUS
 70
0
 71
3
 72
13
 73
9
 74
0
 42
0.0000001
 43
0.0000001
 44
0.0000000001
 40
0.0
 40
0.0
 40
0.0
 40
0.0
 40
0.1142247162
 40
0.2375579183
 40
0.4999983243
 40
0.7624396433
 40
0.8857739388
 40
1.0
 40
1.0
 40
1.0
 40
1.0
 10
18.90132563
 20
80.2408573057
 30
0.0
 10
18.8045387474
 20
80.1849777065
 30
0.0
 10
18.6132987353
 20
80.0508896112
 30
0.0
 10
18.2552400328
 20
79.7158273977
 30
0.0
 10
17.8770695776
 20
79.1992225772
 30
0.0
 10
17.6187645017
 20
78.6134127458
 30
0.0
 10
17.5076219433
 20
78.1357902638
 30
0.0
 10
17.4871179556
 20
77.9031251784
 30
0.0
 10
17.4871179556
 20
77.7913641637
 30
0.0
  0
SPLINE
  5
312
100
AcDbEntity
  8
0
100
AcDbSpline
 62
7
  6
CONTINUOUS
 70
0
 71
3
 72
11
 73
7
 74
0
 42
0.0000001
 43
0.0000001
 44
0.0000000001
 40
0.0
 40
0.0
 40
0.0
 40
0.0
 40
0.237491771
 40
0.5002292608
 40
0.7627409579
 40
1.0
 40
1.0
 40
1.0
 40
1.0
 10
24.6289485537
 20
44.8462474598
 30
0.0
 10
24.9145638858
 20
44.6813511014
 30
0.0
 10
25.5443445114
 20
44.3831773588
 30
0.0
 10
26.5373929144
 20
44.0141062413
 30
0.0
 10
27.5346502698
 20
43.6597764216
 30
0.0
 10
28.1710325741
 20
43.3757066578
 30
0.0
 10
28.4563610557
 20
43.2109598287
 30
0.0
  0
SPLINE
  5
313
100
AcDbEntity
  8
0
100
AcDbSpline
 62
7
  6
CONTINUOUS
 70
0
 71
3
 72
11
 73
7
 74
0
 42
0.0000001
 43
0.0000001
 44
0.0000000001
 40
0.0
 40
0.0
 40
0.0
 40
0.0
 40
0.2638355508
 40
0.5199971867
 40
0.7654886877
 40
1.0
 40
1.0
 40
1.0
 40
1.0
 10
27.3643518668
 20
45.8478838672
 30
0.0
 10
27.3241987192
 20
45.871069773
 30
0.0
 10
27.2483223122
 20
45.9228645301
 30
0.0
 10
27.1523683646
 20
46.0184944649
 30
0.0
 10
27.0843006137
 20
46.1304690266
 30
0.0
 10
27.0665056516
 20
46.2153782396
 30
0.0
 10
27.0665056516
 20
46.2565913813
 30
0.0
  0
SPLINE
  5
314
100
AcDbEntity
  8
0
100
AcDbSpline
 62
7
  6
CONTINUOUS
 70
0
 71
3
 72
12
 73
8
 74
0
 42
0.0000001
 43
0.0000001
 44
0.0000000001
 40
0.0
 40
0.0
 40
0.0
 40
0.0
 40
0.1081632204
 40
0.218373873
 40
0.4513419811
 40
0.7104805182
 40
1.0
 40
1.0
 40
1.0
 40
1.0
 10
37.1415231512
 20
88.2071910435
 30
0.0
 10
37.2005527771
 20
88.241257702
 30
0.0
 10
37.3140313359
 20
88.3204801009
 30
0.0
 10
37.5175548357
 20
88.5207340824
 30
0.0
 10
37.7192577493
 20
88.8494015785
 30
0.0
 10
37.8594321815
 20
89.3258357675
 30
0.0
 10
37.887136964
 20
89.6727733565
 30
0.0
 10
37.887136964
 20
89.8552018326
 30
0.0
  0
SPLINE
  5
315
100
AcDbEntity
  8
0
100
AcDbSpline
 62
7
  6
CONTINUOUS
 70
0
 71
3
 72
20
 73
16
 74
0
 42
0.0000001
 43
0.0000001
 44
0.0000000001
 40
0.0
 40
0.0
 40
0.0
 40
0.0
 40
0.0428311618
 40
0.0874319126
 40
0.1352333097
 40
0.1871656014
 40
0.2436346277
 40
0.3046158312
 40
0.3697411197
 40
0.4383757968
 40
0.5826267566
 40
0.7296917431
 40
0.8711892943
 40
0.9376085839
 40
1.0
 40
1.0
 40
1.0
 40
1.0
 10
37.3915207473
 20
87.7741799356
 30
0.0
 10
37.2904334454
 20
87.7158406667
 30
0.0
 10
37.0676431524
 20
87.6231813586
 30
0.0
 10
36.6998306962
 20
87.569362177
 30
0.0
 10
36.3048675889
 20
87.5983484958
 30
0.0
 10
35.8915231599
 20
87.7082207704
 30
0.0
 10
35.4678988842
 20
87.8954311322
 30
0.0
 10
35.0424204795
 20
88.155692468
 30
0.0
 10
34.623757577
 20
88.4834953917
 30
0.0
 10
34.0773516474
 20
89.0097582008
 30
0.0
 10
33.4701915476
 20
89.7873677356
 30
0.0
 10
32.9065602159
 20
90.8289468215
 30
0.0
 10
32.5945766724
 20
91.7510828481
 30
0.0
 10
32.4655158562
 20
92.4773877925
 30
0.0
 10
32.4423920804
 20
92.8286406481
 30
0.0
 10
32.4423920804
 20
92.9986556424
 30
0.0
  0
SPLINE
  5
316
100
AcDbEntity
  8
0
100
AcDbSpline
 62
7
  6
CONTINUOUS
 70
0
 71
3
 72
9
 73
5
 74
0
 42
0.0000001
 43
0.0000001
 44
0.0000000001
 40
0.0
 40
0.0
 40
0.0
 40
0.0
 40
0.4778694176
 40
1.0
 40
1.0
 40
1.0
 40
1.0
 10
26.6368572184
 20
44.0834645701
 30
0.0
 10
26.7639160541
 20
43.9218697741
 30
0.0
 10
26.9849146278
 20
43.5472118565
 30
0.0
 10
27.1180428816
 20
43.1349566601
 30
0.0
 10
27.1685128838
 20
42.9160961301
 30
0.0
  0
SPLINE
  5
317
100
AcDbEntity
  8
0
100
AcDbSpline
 62
7
  6
CONTINUOUS
 70
0
 71
3
 72
14
 73
10
 74
0
 42
0.0000001
 43
0.0000001
 44
0.0000000001
 40
0.0
 40
0.0
 40
0.0
 40
0.0
 40
0.0523118366
 40
0.1263465649
 40
0.2226741487
 40
0.3405945397
 40
0.4788560554
 40
0.6359467895
 40
1.0
 40
1.0
 40
1.0
 40
1.0
 10
16.3741351053
 20
50.0476135364
 30
0.0
 10
16.3741326593
 20
50.0199492681
 30
0.0
 10
16.39115263
 20
49.9537547116
 30
0.0
 10
16.4443958231
 20
49.8485260298
 30
0.0
 10
16.5325542975
 20
49.7234735598
 30
0.0
 10
16.6563582611
 20
49.5837681621
 30
0.0
 10
16.8157301388
 20
49.4338072263
 30
0.0
 10
17.0877417422
 20
49.215193569
 30
0.0
 10
17.3204090151
 20
49.0657392728
 30
0.0
 10
17.4871403297
 20
48.9694790804
 30
0.0
  0
SPLINE
  5
318
100
AcDbEntity
  8
0
100
AcDbSpline
 62
7
  6
CONTINUOUS
 70
0
 71
3
 72
9
 73
5
 74
0
 42
0.0000001
 43
0.0000001
 44
0.0000000001
 40
0.0
 40
0.0
 40
0.0
 40
0.0
 40
0.2550593862
 40
1.0
 40
1.0
 40
1.0
 40
1.0
 10
16.3741357899
 20
52.9429297322
 30
0.0
 10
16.3741369302
 20
52.8988864041
 30
0.0
 10
16.3760093003
 20
52.726211418
 30
0.0
 10
16.3823325443
 20
52.5535974446
 30
0.0
 10
16.3823325443
 20
52.4249620537
 30
0.0
  0
SPLINE
  5
319
100
AcDbEntity
  8
0
100
AcDbSpline
 62
7
  6
CONTINUOUS
 70
0
 71
3
 72
13
 73
9
 74
0
 42
0.0000001
 43
0.0000001
 44
0.0000000001
 40
0.0
 40
0.0
 40
0.0
 40
0.0
 40
0.1203723328
 40
0.2487426158
 40
0.3811964772
 40
0.5137525978
 40
0.7683434311
 40
1.0
 40
1.0
 40
1.0
 40
1.0
 10
16.3741351026
 20
55.0903682684
 30
0.0
 10
16.3741391825
 20
55.3187182895
 30
0.0
 10
16.4199071301
 20
55.7906384299
 30
0.0
 10
16.5727538589
 20
56.4980387432
 30
0.0
 10
16.77376119
 20
57.2169280084
 30
0.0
 10
17.0556230963
 20
58.1613506758
 30
0.0
 10
17.3643619618
 20
59.2947443747
 30
0.0
 10
17.4816424811
 20
60.2160469279
 30
0.0
 10
17.4871179556
 20
60.6554724586
 30
0.0
  0
SPLINE
  5
31A
100
AcDbEntity
  8
0
100
AcDbSpline
 62
7
  6
CONTINUOUS
 70
0
 71
3
 72
11
 73
7
 74
0
 42
0.0000001
 43
0.0000001
 44
0.0000000001
 40
0.0
 40
0.0
 40
0.0
 40
0.0
 40
0.4236423403
 40
0.7269646022
 40
0.9139677959
 40
1.0
 40
1.0
 40
1.0
 40
1.0
 10
16.3823325443
 20
52.4249620537
 30
0.0
 10
16.3823325443
 20
52.3924668626
 30
0.0
 10
16.3818281766
 20
52.3367005997
 30
0.0
 10
16.3788615099
 20
52.2666386316
 30
0.0
 10
16.3762488303
 20
52.2225270719
 30
0.0
 10
16.374138162
 20
52.201649348
 30
0.0
 10
16.3741357785
 20
52.195050308
 30
0.0
  0
SPLINE
  5
31B
100
AcDbEntity
  8
0
100
AcDbSpline
 62
7
  6
CONTINUOUS
 70
0
 71
3
 72
17
 73
13
 74
0
 42
0.0000001
 43
0.0000001
 44
0.0000000001
 40
0.0
 40
0.0
 40
0.0
 40
0.0
 40
0.0550371015
 40
0.1112117813
 40
0.1695852903
 40
0.2303354867
 40
0.3577081533
 40
0.490628771
 40
0.6256552915
 40
0.7586937636
 40
0.8848622352
 40
1.0
 40
1.0
 40
1.0
 40
1.0
 10
27.0665056516
 20
46.2565913813
 30
0.0
 10
27.0665056516
 20
46.2889121227
 30
0.0
 10
27.0771880876
 20
46.3546395385
 30
0.0
 10
27.1218324673
 20
46.444898762
 30
0.0
 10
27.1876716176
 20
46.5249079907
 30
0.0
 10
27.297562074
 20
46.6198690576
 30
0.0
 10
27.4620593669
 20
46.7149493018
 30
0.0
 10
27.6794970129
 20
46.798063071
 30
0.0
 10
27.9093377241
 20
46.8524186738
 30
0.0
 10
28.1407652386
 20
46.8741287144
 30
0.0
 10
28.3611536858
 20
46.856768211
 30
0.0
 10
28.4979015364
 20
46.8100142155
 30
0.0
 10
28.5564576972
 20
46.7762063051
 30
0.0
  0
SPLINE
  5
31C
100
AcDbEntity
  8
0
100
AcDbSpline
 62
7
  6
CONTINUOUS
 70
0
 71
3
 72
13
 73
9
 74
0
 42
0.0000001
 43
0.0000001
 44
0.0000000001
 40
0.0
 40
0.0
 40
0.0
 40
0.0
 40
0.1116596483
 40
0.2303079275
 40
0.3545653965
 40
0.4829104646
 40
0.7443647369
 40
1.0
 40
1.0
 40
1.0
 40
1.0
 10
27.2805876489
 20
55.0013380085
 30
0.0
 10
27.2774582296
 20
54.7501914235
 30
0.0
 10
27.2373677362
 20
54.2322592617
 30
0.0
 10
27.0892579549
 20
53.4472550857
 30
0.0
 10
26.8541996263
 20
52.6445733383
 30
0.0
 10
26.4292643004
 20
51.5677524799
 30
0.0
 10
25.7231569009
 20
50.2910880424
 30
0.0
 10
24.9936878587
 20
49.3760363271
 30
0.0
 10
24.5935930675
 20
48.9630278112
 30
0.0
  0
SPLINE
  5
31D
100
AcDbEntity
  8
0
100
AcDbSpline
 62
7
  6
CONTINUOUS
 70
0
 71
3
 72
11
 73
7
 74
0
 42
0.0000001
 43
0.0000001
 44
0.0000000001
 40
0.0
 40
0.0
 40
0.0
 40
0.0
 40
0.2893975675
 40
0.5491290883
 40
0.7823145228
 40
1.0
 40
1.0
 40
1.0
 40
1.0
 10
18.1888704722
 20
51.3819804901
 30
0.0
 10
18.1888704722
 20
51.3465511439
 30
0.0
 10
18.1943154995
 20
51.2791078691
 30
0.0
 10
18.2215286573
 20
51.1863921498
 30
0.0
 10
18.2675676924
 20
51.1111683884
 30
0.0
 10
18.3107748498
 20
51.0748645083
 30
0.0
 10
18.3338639952
 20
51.0615560331
 30
0.0
  0
SPLINE
  5
31E
100
AcDbEntity
  8
0
100
AcDbSpline
 62
7
  6
CONTINUOUS
 70
0
 71
3
 72
9
 73
5
 74
0
 42
0.0000001
 43
0.0000001
 44
0.0000000001
 40
0.0
 40
0.0
 40
0.0
 40
0.0
 40
0.2577061349
 40
1.0
 40
1.0
 40
1.0
 40
1.0
 10
17.4004606067
 20
48.4580977313
 30
0.0
 10
17.3926520128
 20
48.4982053343
 30
0.0
 10
17.3601656856
 20
48.653401871
 30
0.0
 10
17.318907688
 20
48.8067855352
 30
0.0
 10
17.2831147244
 20
48.9189054851
 30
0.0
  0
SPLINE
  5
31F
100
AcDbEntity
  8
0
100
AcDbSpline
 62
7
  6
CONTINUOUS
 70
0
 71
3
 72
12
 73
8
 74
0
 42
0.0000001
 43
0.0000001
 44
0.0000000001
 40
0.0
 40
0.0
 40
0.0
 40
0.0
 40
0.2895258967
 40
0.5486616352
 40
0.7816280864
 40
0.8918375912
 40
1.0
 40
1.0
 40
1.0
 40
1.0
 10
32.4423920804
 20
92.9986556424
 30
0.0
 10
32.4423920804
 20
93.2064262371
 30
0.0
 10
32.4739441522
 20
93.6015526336
 30
0.0
 10
32.6335904863
 20
94.1441604226
 30
0.0
 10
32.8633086171
 20
94.5184692056
 30
0.0
 10
33.095091412
 20
94.7465422205
 30
0.0
 10
33.224335594
 20
94.8367589458
 30
0.0
 10
33.2915631596
 20
94.8755571623
 30
0.0
  0
SPLINE
  5
320
100
AcDbEntity
  8
0
100
AcDbSpline
 62
7
  6
CONTINUOUS
 70
0
 71
3
 72
20
 73
16
 74
0
 42
0.0000001
 43
0.0000001
 44
0.0000000001
 40
0.0
 40
0.0
 40
0.0
 40
0.0
 40
0.0623917707
 40
0.1288096548
 40
0.2703030816
 40
0.417364666
 40
0.5616164847
 40
0.6302527552
 40
0.6953793367
 40
0.7563616105
 40
0.8128308438
 40
0.864763636
 40
0.9125655963
 40
0.9571670893
 40
1.0
 40
1.0
 40
1.0
 40
1.0
 10
37.887136964
 20
89.8552018326
 30
0.0
 10
37.887136964
 20
90.004484132
 30
0.0
 10
37.8668339012
 20
90.3128987884
 30
0.0
 10
37.7535144089
 20
90.9506177115
 30
0.0
 10
37.4795886242
 20
91.7602786913
 30
0.0
 10
36.9847093761
 20
92.674826345
 30
0.0
 10
36.4516019745
 20
93.3576095651
 30
0.0
 10
35.9718267547
 20
93.8197028824
 30
0.0
 10
35.6042142174
 20
94.1075367624
 30
0.0
 10
35.2306234588
 20
94.3360714462
 30
0.0
 10
34.8586550391
 20
94.5004488593
 30
0.0
 10
34.495718561
 20
94.5969322763
 30
0.0
 10
34.1489166473
 20
94.6223873912
 30
0.0
 10
33.8259533596
 20
94.5751271463
 30
0.0
 10
33.6303242064
 20
94.4937724362
 30
0.0
 10
33.5415607557
 20
94.4425460543
 30
0.0
  0
SPLINE
  5
321
100
AcDbEntity
  8
0
100
AcDbSpline
 62
7
  6
CONTINUOUS
 70
0
 71
3
 72
9
 73
5
 74
0
 42
0.0000001
 43
0.0000001
 44
0.0000000001
 40
0.0
 40
0.0
 40
0.0
 40
0.0
 40
0.5170164673
 40
1.0
 40
1.0
 40
1.0
 40
1.0
 10
60.3823247728
 20
107.7844170819
 30
0.0
 10
60.4298578702
 20
107.8506795626
 30
0.0
 10
60.5064547049
 20
107.9914040165
 30
0.0
 10
60.5345519795
 20
108.1500989562
 30
0.0
 10
60.5345519654
 20
108.2262792105
 30
0.0
  0
SPLINE
  5
322
100
AcDbEntity
  8
0
100
AcDbSpline
 62
7
  6
CONTINUOUS
 70
0
 71
3
 72
12
 73
8
 74
0
 42
0.0000001
 43
0.0000001
 44
0.0000000001
 40
0.0
 40
0.0
 40
0.0
 40
0.0
 40
0.1081629533
 40
0.218373036
 40
0.4513408185
 40
0.7104797491
 40
1.0
 40
1.0
 40
1.0
 40
1.0
 10
37.9572035383
 20
88.1007757347
 30
0.0
 10
38.0244315902
 20
88.1395737392
 30
0.0
 10
38.1536713673
 20
88.2297977778
 30
0.0
 10
38.3854612243
 20
88.4578646853
 30
0.0
 10
38.6151777607
 20
88.8321802542
 30
0.0
 10
38.7748225161
 20
89.374786082
 30
0.0
 10
38.8063748963
 20
89.7699104375
 30
0.0
 10
38.8063748963
 20
89.9776767785
 30
0.0
  0
SPLINE
  5
323
100
AcDbEntity
  8
0
100
AcDbSpline
 62
7
  6
CONTINUOUS
 70
0
 71
3
 72
20
 73
16
 74
0
 42
0.0000001
 43
0.0000001
 44
0.0000000001
 40
0.0
 40
0.0
 40
0.0
 40
0.0
 40
0.0428311618
 40
0.0874319126
 40
0.1352333097
 40
0.1871656014
 40
0.2436346277
 40
0.3046158312
 40
0.3697411197
 40
0.4383757968
 40
0.5826267566
 40
0.7296917431
 40
0.8711892943
 40
0.9376085839
 40
1.0
 40
1.0
 40
1.0
 40
1.0
 10
33.2915631596
 20
94.8755571623
 30
0.0
 10
33.3926504615
 20
94.9338964311
 30
0.0
 10
33.6154407545
 20
95.0265557392
 30
0.0
 10
33.9832532108
 20
95.0803749208
 30
0.0
 10
34.378216318
 20
95.051388602
 30
0.0
 10
34.791560747
 20
94.9415163274
 30
0.0
 10
35.2151850227
 20
94.7543059656
 30
0.0
 10
35.6406634274
 20
94.4940446298
 30
0.0
 10
36.0593263299
 20
94.1662417061
 30
0.0
 10
36.6057322595
 20
93.639978897
 30
0.0
 10
37.2128923593
 20
92.8623693622
 30
0.0
 10
37.776523691
 20
91.8207902763
 30
0.0
 10
38.0885072345
 20
90.8986542497
 30
0.0
 10
38.2175680507
 20
90.1723493053
 30
0.0
 10
38.2406918266
 20
89.8210964498
 30
0.0
 10
38.2406918266
 20
89.6510814554
 30
0.0
  0
SPLINE
  5
324
100
AcDbEntity
  8
0
100
AcDbSpline
 62
7
  6
CONTINUOUS
 70
0
 71
3
 72
9
 73
5
 74
0
 42
0.0000001
 43
0.0000001
 44
0.0000000001
 40
0.0
 40
0.0
 40
0.0
 40
0.0
 40
0.2590845794
 40
1.0
 40
1.0
 40
1.0
 40
1.0
 10
28.4563610557
 20
43.2109598287
 30
0.0
 10
28.4968632278
 20
43.1875741352
 30
0.0
 10
28.6518035458
 20
43.0949623517
 30
0.0
 10
28.8008085344
 20
42.9921677609
 30
0.0
 10
28.9059109137
 20
42.9094534655
 30
0.0
  0
SPLINE
  5
325
100
AcDbEntity
  8
0
100
AcDbSpline
 62
7
  6
CONTINUOUS
 70
0
 71
3
 72
9
 73
5
 74
0
 42
0.0000001
 43
0.0000001
 44
0.0000000001
 40
0.0
 40
0.0
 40
0.0
 40
0.0
 40
0.2480968732
 40
1.0
 40
1.0
 40
1.0
 40
1.0
 10
29.6532317673
 20
42.0038011168
 30
0.0
 10
29.6667391837
 20
41.9767698387
 30
0.0
 10
29.7193472577
 20
41.8669035379
 30
0.0
 10
29.7646641146
 20
41.7535775194
 30
0.0
 10
29.7948259892
 20
41.6671050134
 30
0.0
  0
SPLINE
  5
326
100
AcDbEntity
  8
0
100
AcDbSpline
 62
7
  6
CONTINUOUS
 70
0
 71
3
 72
9
 73
5
 74
0
 42
0.0000001
 43
0.0000001
 44
0.0000000001
 40
0.0
 40
0.0
 40
0.0
 40
0.0
 40
0.2459432893
 40
1.0
 40
1.0
 40
1.0
 40
1.0
 10
29.7948259892
 20
41.6671050134
 30
0.0
 10
29.806958089
 20
41.6323229222
 30
0.0
 10
29.8537414978
 20
41.490017287
 30
0.0
 10
29.890592334
 20
41.3445061046
 30
0.0
 10
29.9134227263
 20
41.233895521
 30
0.0
  0
SPLINE
  5
327
100
AcDbEntity
  8
0
100
AcDbSpline
 62
7
  6
CONTINUOUS
 70
0
 71
3
 72
20
 73
16
 74
0
 42
0.0000001
 43
0.0000001
 44
0.0000000001
 40
0.0
 40
0.0
 40
0.0
 40
0.0
 40
0.0623915509
 40
0.1288092277
 40
0.2703023822
 40
0.4173639367
 40
0.5616163563
 40
0.6302527133
 40
0.6953794098
 40
0.7563618881
 40
0.8128312514
 40
0.8647639545
 40
0.9125658095
 40
0.9571672284
 40
1.0
 40
1.0
 40
1.0
 40
1.0
 10
38.8063748963
 20
89.9776767785
 30
0.0
 10
38.8063748963
 20
90.1476921341
 30
0.0
 10
38.7832526142
 20
90.4989410476
 30
0.0
 10
38.6541939428
 20
91.2252300532
 30
0.0
 10
38.3422253387
 20
92.1473432263
 30
0.0
 10
37.7786122478
 20
93.1889121169
 30
0.0
 10
37.1714616092
 20
93.9665281949
 30
0.0
 10
36.625049544
 20
94.4928028389
 30
0.0
 10
36.2063789329
 20
94.8206145629
 30
0.0
 10
35.7808989338
 20
95.0808897636
 30
0.0
 10
35.3572680149
 20
95.2680986141
 30
0.0
 10
34.9439234294
 20
95.3779811185
 30
0.0
 10
34.5489554313
 20
95.4069713892
 30
0.0
 10
34.181136803
 20
95.3531476797
 30
0.0
 10
33.9583379264
 20
95.2604929129
 30
0.0
 10
33.8572465082
 20
95.2021520093
 30
0.0
  0
SPLINE
  5
328
100
AcDbEntity
  8
0
100
AcDbSpline
 62
7
  6
CONTINUOUS
 70
0
 71
3
 72
13
 73
9
 74
0
 42
0.0000001
 43
0.0000001
 44
0.0000000001
 40
0.0
 40
0.0
 40
0.0
 40
0.0
 40
0.2499265235
 40
0.3712412974
 40
0.491770485
 40
0.6132714504
 40
0.7375708732
 40
1.0
 40
1.0
 40
1.0
 40
1.0
 10
17.4871402988
 20
53.065847412
 30
0.0
 10
17.3120131825
 20
53.1669548139
 30
0.0
 10
17.0678205404
 20
53.3495073279
 30
0.0
 10
16.8049993834
 20
53.6496376947
 30
0.0
 10
16.644422787
 20
53.8971923474
 30
0.0
 10
16.5205542003
 20
54.1676170476
 30
0.0
 10
16.403005905
 20
54.5628211638
 30
0.0
 10
16.3741313088
 20
54.8780340453
 30
0.0
 10
16.3741351026
 20
55.0903682684
 30
0.0
  0
SPLINE
  5
329
100
AcDbEntity
  8
0
100
AcDbSpline
 62
7
  6
CONTINUOUS
 70
0
 71
3
 72
12
 73
8
 74
0
 42
0.0000001
 43
0.0000001
 44
0.0000000001
 40
0.0
 40
0.0
 40
0.0
 40
0.0
 40
0.2895258967
 40
0.5486616352
 40
0.7816280864
 40
0.8918375912
 40
1.0
 40
1.0
 40
1.0
 40
1.0
 10
38.2406918266
 20
89.6510814554
 30
0.0
 10
38.2406918266
 20
89.4433108607
 30
0.0
 10
38.2091397548
 20
89.0481844643
 30
0.0
 10
38.0494934206
 20
88.5055766752
 30
0.0
 10
37.8197752898
 20
88.1312678922
 30
0.0
 10
37.5879924949
 20
87.9031948773
 30
0.0
 10
37.458748313
 20
87.812978152
 30
0.0
 10
37.3915207473
 20
87.7741799356
 30
0.0
  0
SPLINE
  5
32A
100
AcDbEntity
  8
0
100
AcDbSpline
 62
7
  6
CONTINUOUS
 70
0
 71
3
 72
20
 73
16
 74
0
 42
0.0000001
 43
0.0000001
 44
0.0000000001
 40
0.0
 40
0.0
 40
0.0
 40
0.0
 40
0.0623917707
 40
0.1288096548
 40
0.2703030816
 40
0.417364666
 40
0.5616164847
 40
0.6302527552
 40
0.6953793367
 40
0.7563616105
 40
0.8128308438
 40
0.864763636
 40
0.9125655963
 40
0.9571670893
 40
1.0
 40
1.0
 40
1.0
 40
1.0
 10
32.7959469429
 20
92.7945352652
 30
0.0
 10
32.7959469429
 20
92.6452529659
 30
0.0
 10
32.8162500057
 20
92.3368383095
 30
0.0
 10
32.929569498
 20
91.6991193863
 30
0.0
 10
33.2034952827
 20
90.8894584065
 30
0.0
 10
33.6983745309
 20
89.9749107528
 30
0.0
 10
34.2314819324
 20
89.2921275327
 30
0.0
 10
34.7112571522
 20
88.8300342154
 30
0.0
 10
35.0788696896
 20
88.5422003354
 30
0.0
 10
35.4524604482
 20
88.3136656516
 30
0.0
 10
35.8244288678
 20
88.1492882385
 30
0.0
 10
36.187365346
 20
88.0528048215
 30
0.0
 10
36.5341672597
 20
88.0273497067
 30
0.0
 10
36.8571305474
 20
88.0746099515
 30
0.0
 10
37.0527597006
 20
88.1559646616
 30
0.0
 10
37.1415231512
 20
88.2071910435
 30
0.0
  0
SPLINE
  5
32B
100
AcDbEntity
  8
0
100
AcDbSpline
 62
7
  6
CONTINUOUS
 70
0
 71
3
 72
10
 73
6
 74
0
 42
0.0000001
 43
0.0000001
 44
0.0000000001
 40
0.0
 40
0.0
 40
0.0
 40
0.0
 40
0.2280013718
 40
0.4756449711
 40
1.0
 40
1.0
 40
1.0
 40
1.0
 10
66.7490371806
 20
115.2861229062
 30
0.0
 10
66.7490371806
 20
115.169684198
 30
0.0
 10
66.7745204706
 20
114.9264322991
 30
0.0
 10
66.9096213311
 20
114.4326209396
 30
0.0
 10
67.0950598657
 20
114.0772359328
 30
0.0
 10
67.2484830818
 20
113.8577596721
 30
0.0
  0
SPLINE
  5
32C
100
AcDbEntity
  8
0
100
AcDbSpline
 62
7
  6
CONTINUOUS
 70
0
 71
3
 72
11
 73
7
 74
0
 42
0.0000001
 43
0.0000001
 44
0.0000000001
 40
0.0
 40
0.0
 40
0.0
 40
0.0
 40
0.253919027
 40
0.499153869
 40
0.7448439518
 40
1.0
 40
1.0
 40
1.0
 40
1.0
 10
28.5564576972
 20
46.7762063051
 30
0.0
 10
28.5883486641
 20
46.7577937771
 30
0.0
 10
28.6474756595
 20
46.714618007
 30
0.0
 10
28.7159884437
 20
46.6293579698
 30
0.0
 10
28.7580072083
 20
46.5281293461
 30
0.0
 10
28.7667504768
 20
46.4550549443
 30
0.0
 10
28.7667504768
 20
46.4180508936
 30
0.0
  0
SPLINE
  5
32D
100
AcDbEntity
  8
0
100
AcDbSpline
 62
7
  6
CONTINUOUS
 70
0
 71
3
 72
15
 73
11
 74
0
 42
0.0000001
 43
0.0000001
 44
0.0000000001
 40
0.0
 40
0.0
 40
0.0
 40
0.0
 40
0.1115736528
 40
0.2334452179
 40
0.3615900135
 40
0.4917658654
 40
0.6214621656
 40
0.7496935693
 40
0.8760676252
 40
1.0
 40
1.0
 40
1.0
 40
1.0
 10
28.7667504768
 20
46.4180508936
 30
0.0
 10
28.7667504768
 20
46.3516078026
 30
0.0
 10
28.7367091843
 20
46.2119898242
 30
0.0
 10
28.6236354704
 20
46.0251063782
 30
0.0
 10
28.4543051734
 20
45.8704174917
 30
0.0
 10
28.2466555727
 20
45.76349323
 30
0.0
 10
28.0197365386
 20
45.7097350475
 30
0.0
 10
27.7891220119
 20
45.7073691892
 30
0.0
 10
27.5666373582
 20
45.7517904409
 30
0.0
 10
27.4282645873
 20
45.8109783093
 30
0.0
 10
27.3643518668
 20
45.8478838672
 30
0.0
  0
SPLINE
  5
32E
100
AcDbEntity
  8
0
100
AcDbSpline
 62
7
  6
CONTINUOUS
 70
0
 71
3
 72
16
 73
12
 74
0
 42
0.0000001
 43
0.0000001
 44
0.0000000001
 40
0.0
 40
0.0
 40
0.0
 40
0.0
 40
0.0428755151
 40
0.0875161207
 40
0.1869217599
 40
0.3042393126
 40
0.437962533
 40
0.5823660413
 40
0.7295547149
 40
0.8712848126
 40
1.0
 40
1.0
 40
1.0
 40
1.0
 10
18.3338639952
 20
51.0615560331
 30
0.0
 10
18.3511270697
 20
51.0516056778
 30
0.0
 10
18.3891562974
 20
51.035792282
 30
0.0
 10
18.4758517823
 20
51.0230422496
 30
0.0
 10
18.5982564286
 20
51.0469597112
 30
0.0
 10
18.7424380157
 20
51.1260560681
 30
0.0
 10
18.8810414697
 20
51.2486477008
 30
0.0
 10
19.0032678929
 20
51.4052083529
 30
0.0
 10
19.0996170222
 20
51.5831439918
 30
0.0
 10
19.1620418207
 20
51.7678842282
 30
0.0
 10
19.1788158443
 20
51.8937047797
 30
0.0
 10
19.1788158443
 20
51.9535223056
 30
0.0
  0
SPLINE
  5
32F
100
AcDbEntity
  8
0
100
AcDbSpline
 62
7
  6
CONTINUOUS
 70
0
 71
3
 72
13
 73
9
 74
0
 42
0.0000001
 43
0.0000001
 44
0.0000000001
 40
0.0
 40
0.0
 40
0.0
 40
0.0
 40
0.1142253587
 40
0.237559206
 40
0.5000004539
 40
0.7624414493
 40
0.885775028
 40
1.0
 40
1.0
 40
1.0
 40
1.0
 10
56.5546429388
 20
111.00232314
 30
0.0
 10
56.4578552261
 20
111.0582022878
 30
0.0
 10
56.2461096888
 20
111.1567751974
 30
0.0
 10
55.7769056661
 20
111.2993294359
 30
0.0
 10
55.140427335
 20
111.3685311654
 30
0.0
 10
54.5039495342
 20
111.2993265659
 30
0.0
 10
54.0347471439
 20
111.1567699769
 30
0.0
 10
53.8230027962
 20
111.0581959979
 30
0.0
 10
53.7262158141
 20
111.0023163413
 30
0.0
  0
SPLINE
  5
330
100
AcDbEntity
  8
0
100
AcDbSpline
 62
7
  6
CONTINUOUS
 70
0
 71
3
 72
18
 73
14
 74
0
 42
0.0000001
 43
0.0000001
 44
0.0000000001
 40
0.0
 40
0.0
 40
0.0
 40
0.0
 40
0.1156430495
 40
0.2393371125
 40
0.3681081426
 40
0.4992731318
 40
0.5652626855
 40
0.6310931192
 40
0.6964523603
 40
0.7609367923
 40
0.8240531074
 40
0.8852737332
 40
1.0
 40
1.0
 40
1.0
 40
1.0
 10
30.0029600907
 20
53.4296111036
 30
0.0
 10
29.9988971976
 20
53.1035500539
 30
0.0
 10
29.9346265228
 20
52.4286636702
 30
0.0
 10
29.6824211535
 20
51.4175725151
 30
0.0
 10
29.2405808616
 20
50.4229615744
 30
0.0
 10
28.6816931185
 20
49.6789152934
 30
0.0
 10
28.1172056774
 20
49.1939603197
 30
0.0
 10
27.6417410927
 20
48.9009642251
 30
0.0
 10
27.1283535739
 20
48.6918640629
 30
0.0
 10
26.5950149949
 20
48.5724883219
 30
0.0
 10
26.060823775
 20
48.5424788317
 30
0.0
 10
25.3887805593
 20
48.6123702906
 30
0.0
 10
24.9091104377
 20
48.7808678935
 30
0.0
 10
24.6289485537
 20
48.9426157734
 30
0.0
  0
SPLINE
  5
331
100
AcDbEntity
  8
0
100
AcDbSpline
 62
7
  6
CONTINUOUS
 70
0
 71
3
 72
11
 73
7
 74
0
 42
0.0000001
 43
0.0000001
 44
0.0000000001
 40
0.0
 40
0.0
 40
0.0
 40
0.0
 40
0.2893975675
 40
0.5491290883
 40
0.7823145228
 40
1.0
 40
1.0
 40
1.0
 40
1.0
 10
19.1788158443
 20
51.9535223056
 30
0.0
 10
19.1788158443
 20
51.9889516518
 30
0.0
 10
19.173370817
 20
52.0563949266
 30
0.0
 10
19.1461576592
 20
52.1491106459
 30
0.0
 10
19.1001186241
 20
52.2243344073
 30
0.0
 10
19.0569114667
 20
52.2606382874
 30
0.0
 10
19.0338223213
 20
52.2739467626
 30
0.0
  0
SPLINE
  5
332
100
AcDbEntity
  8
0
100
AcDbSpline
 62
7
  6
CONTINUOUS
 70
0
 71
3
 72
9
 73
5
 74
0
 42
0.0000001
 43
0.0000001
 44
0.0000000001
 40
0.0
 40
0.0
 40
0.0
 40
0.0
 40
0.4773773815
 40
1.0
 40
1.0
 40
1.0
 40
1.0
 10
30.0029600907
 20
70.5655028087
 30
0.0
 10
30.0029600907
 20
70.7166977445
 30
0.0
 10
30.0404053041
 20
71.0337117074
 30
0.0
 10
30.1329128006
 20
71.3381776064
 30
0.0
 10
30.1928506007
 20
71.4924694962
 30
0.0
  0
SPLINE
  5
333
100
AcDbEntity
  8
0
100
AcDbSpline
 62
7
  6
CONTINUOUS
 70
0
 71
3
 72
9
 73
5
 74
0
 42
0.0000001
 43
0.0000001
 44
0.0000000001
 40
0.0
 40
0.0
 40
0.0
 40
0.0
 40
0.2518834874
 40
1.0
 40
1.0
 40
1.0
 40
1.0
 10
30.4171769233
 20
71.9593526168
 30
0.0
 10
30.4389336368
 20
71.9970365521
 30
0.0
 10
30.5281403457
 20
72.1449884075
 30
0.0
 10
30.6284144907
 20
72.2863035259
 30
0.0
 10
30.70934376
 20
72.3870668558
 30
0.0
  0
SPLINE
  5
334
100
AcDbEntity
  8
0
100
AcDbSpline
 62
7
  6
CONTINUOUS
 70
0
 71
3
 72
9
 73
5
 74
0
 42
0.0000001
 43
0.0000001
 44
0.0000000001
 40
0.0
 40
0.0
 40
0.0
 40
0.0
 40
0.5226236696
 40
1.0
 40
1.0
 40
1.0
 40
1.0
 10
30.70934376
 20
72.3870668558
 30
0.0
 10
30.8129943396
 20
72.5161200111
 30
0.0
 10
31.0304130615
 20
72.7484655982
 30
0.0
 10
31.2862303444
 20
72.9393996468
 30
0.0
 10
31.4171677651
 20
73.0149959507
 30
0.0
  0
SPLINE
  5
335
100
AcDbEntity
  8
0
100
AcDbSpline
 62
7
  6
CONTINUOUS
 70
0
 71
3
 72
11
 73
7
 74
0
 42
0.0000001
 43
0.0000001
 44
0.0000000001
 40
0.0
 40
0.0
 40
0.0
 40
0.0
 40
0.2177817009
 40
0.4509079353
 40
0.7102947134
 40
1.0
 40
1.0
 40
1.0
 40
1.0
 10
60.5345519654
 20
108.2262792105
 30
0.0
 10
60.5345519513
 20
108.302456038
 30
0.0
 10
60.5064008408
 20
108.4612326593
 30
0.0
 10
60.3860317131
 20
108.6824592954
 30
0.0
 10
60.1957452369
 20
108.882439097
 30
0.0
 10
60.036528486
 20
108.9921010593
 30
0.0
 10
59.9487696195
 20
109.0427675183
 30
0.0
  0
SPLINE
  5
336
100
AcDbEntity
  8
0
100
AcDbSpline
 62
7
  6
CONTINUOUS
 70
0
 71
3
 72
12
 73
8
 74
0
 42
0.0000001
 43
0.0000001
 44
0.0000000001
 40
0.0
 40
0.0
 40
0.0
 40
0.0
 40
0.1081632204
 40
0.218373873
 40
0.4513419811
 40
0.7104805182
 40
1.0
 40
1.0
 40
1.0
 40
1.0
 10
33.5415607557
 20
94.4425460543
 30
0.0
 10
33.4825311298
 20
94.4084793958
 30
0.0
 10
33.3690525711
 20
94.3292569969
 30
0.0
 10
33.1655290713
 20
94.1290030154
 30
0.0
 10
32.9638261576
 20
93.8003355193
 30
0.0
 10
32.8236517255
 20
93.3239013304
 30
0.0
 10
32.7959469429
 20
92.9769637413
 30
0.0
 10
32.7959469429
 20
92.7945352652
 30
0.0
  0
SPLINE
  5
337
100
AcDbEntity
  8
0
100
AcDbSpline
 62
7
  6
CONTINUOUS
 70
0
 71
3
 72
13
 73
9
 74
0
 42
0.0000001
 43
0.0000001
 44
0.0000000001
 40
0.0
 40
0.0
 40
0.0
 40
0.0
 40
0.2556352283
 40
0.5170894923
 40
0.6454345636
 40
0.7696920401
 40
0.8883403399
 40
1.0
 40
1.0
 40
1.0
 40
1.0
 10
17.522495816
 20
53.0454353564
 30
0.0
 10
17.9225905527
 20
53.458443816
 30
0.0
 10
18.6520595458
 20
54.3734954435
 30
0.0
 10
19.3581669314
 20
55.6501597853
 30
0.0
 10
19.7831022914
 20
56.7269806356
 30
0.0
 10
20.0181606642
 20
57.5296624443
 30
0.0
 10
20.1662704595
 20
58.314666709
 30
0.0
 10
20.2063609778
 20
58.8325989423
 30
0.0
 10
20.2094903974
 20
59.0837455537
 30
0.0
  0
SPLINE
  5
338
100
AcDbEntity
  8
0
100
AcDbSpline
 62
7
  6
CONTINUOUS
 70
0
 71
3
 72
16
 73
12
 74
0
 42
0.0000001
 43
0.0000001
 44
0.0000000001
 40
0.0
 40
0.0
 40
0.0
 40
0.0
 40
0.0428755151
 40
0.0875161207
 40
0.1869217599
 40
0.3042393126
 40
0.437962533
 40
0.5823660413
 40
0.7295547149
 40
0.8712848126
 40
1.0
 40
1.0
 40
1.0
 40
1.0
 10
31.5496644564
 20
45.0480854076
 30
0.0
 10
31.5324013819
 20
45.0580357629
 30
0.0
 10
31.4943721542
 20
45.0738491587
 30
0.0
 10
31.4076766693
 20
45.0865991911
 30
0.0
 10
31.285272023
 20
45.0626817295
 30
0.0
 10
31.1410904359
 20
44.9835853726
 30
0.0
 10
31.0024869819
 20
44.8609937399
 30
0.0
 10
30.8802605587
 20
44.7044330878
 30
0.0
 10
30.7839114294
 20
44.5264974489
 30
0.0
 10
30.7214866308
 20
44.3417572125
 30
0.0
 10
30.7047126073
 20
44.215936661
 30
0.0
 10
30.7047126073
 20
44.1561191351
 30
0.0
  0
SPLINE
  5
339
100
AcDbEntity
  8
0
100
AcDbSpline
 62
7
  6
CONTINUOUS
 70
0
 71
3
 72
13
 73
9
 74
0
 42
0.0000001
 43
0.0000001
 44
0.0000000001
 40
0.0
 40
0.0
 40
0.0
 40
0.0
 40
0.1142247162
 40
0.2375579183
 40
0.4999983243
 40
0.7624396433
 40
0.8857739388
 40
1.0
 40
1.0
 40
1.0
 40
1.0
 10
31.4171677651
 20
73.0149959507
 30
0.0
 10
31.3203808825
 20
72.9591163515
 30
0.0
 10
31.1291408705
 20
72.8250282562
 30
0.0
 10
30.7710821679
 20
72.4899660427
 30
0.0
 10
30.3929117127
 20
71.9733612222
 30
0.0
 10
30.1346066368
 20
71.3875513908
 30
0.0
 10
30.0234640784
 20
70.9099289088
 30
0.0
 10
30.0029600907
 20
70.6772638234
 30
0.0
 10
30.0029600907
 20
70.5655028087
 30
0.0
  0
SPLINE
  5
33A
100
AcDbEntity
  8
0
100
AcDbSpline
 62
7
  6
CONTINUOUS
 70
0
 71
3
 72
11
 73
7
 74
0
 42
0.0000001
 43
0.0000001
 44
0.0000000001
 40
0.0
 40
0.0
 40
0.0
 40
0.0
 40
0.289702809
 40
0.549088757
 40
0.7822160314
 40
1.0
 40
1.0
 40
1.0
 40
1.0
 10
43.9330099002
 20
29.0465258248
 30
0.0
 10
43.8452534976
 20
28.9958599445
 30
0.0
 10
43.6706777388
 20
28.9128091863
 30
0.0
 10
43.4023510342
 20
28.8480107164
 30
0.0
 10
43.1505818015
 20
28.8543833158
 30
0.0
 10
42.9990029683
 20
28.9093911136
 30
0.0
 10
42.9330318571
 20
28.9474786984
 30
0.0
  0
SPLINE
  5
33B
100
AcDbEntity
  8
0
100
AcDbSpline
 62
7
  6
CONTINUOUS
 70
0
 71
3
 72
11
 73
7
 74
0
 42
0.0000001
 43
0.0000001
 44
0.0000000001
 40
0.0
 40
0.0
 40
0.0
 40
0.0
 40
0.237491771
 40
0.5002292608
 40
0.7627409579
 40
1.0
 40
1.0
 40
1.0
 40
1.0
 10
37.1447906888
 20
37.6203861048
 30
0.0
 10
37.4304060209
 20
37.4554897464
 30
0.0
 10
38.0601866465
 20
37.1573160038
 30
0.0
 10
39.0532350495
 20
36.7882448863
 30
0.0
 10
40.0504924049
 20
36.4339150666
 30
0.0
 10
40.6868747092
 20
36.1498453028
 30
0.0
 10
40.9722031908
 20
35.9850984737
 30
0.0
  0
SPLINE
  5
33C
100
AcDbEntity
  8
0
100
AcDbSpline
 62
7
  6
CONTINUOUS
 70
0
 71
3
 72
11
 73
7
 74
0
 42
0.0000001
 43
0.0000001
 44
0.0000000001
 40
0.0
 40
0.0
 40
0.0
 40
0.0
 40
0.2638355508
 40
0.5199971867
 40
0.7654886877
 40
1.0
 40
1.0
 40
1.0
 40
1.0
 10
39.8801940019
 20
38.6220225122
 30
0.0
 10
39.8400408543
 20
38.645208418
 30
0.0
 10
39.7641644473
 20
38.6970031751
 30
0.0
 10
39.6682104998
 20
38.7926331098
 30
0.0
 10
39.6001427488
 20
38.9046076716
 30
0.0
 10
39.5823477867
 20
38.9895168846
 30
0.0
 10
39.5823477867
 20
39.0307300263
 30
0.0
  0
SPLINE
  5
33D
100
AcDbEntity
  8
0
100
AcDbSpline
 62
7
  6
CONTINUOUS
 70
0
 71
3
 72
12
 73
8
 74
0
 42
0.0000001
 43
0.0000001
 44
0.0000000001
 40
0.0
 40
0.0
 40
0.0
 40
0.0
 40
0.1081632204
 40
0.218373873
 40
0.4513419811
 40
0.7104805182
 40
1.0
 40
1.0
 40
1.0
 40
1.0
 10
49.6573652863
 20
26.6022687077
 30
0.0
 10
49.7163949122
 20
26.6363353662
 30
0.0
 10
49.829873471
 20
26.7155577651
 30
0.0
 10
50.0333969708
 20
26.9158117466
 30
0.0
 10
50.2350998844
 20
27.2444792427
 30
0.0
 10
50.3752743166
 20
27.7209134316
 30
0.0
 10
50.4029790991
 20
28.0678510206
 30
0.0
 10
50.4029790991
 20
28.2502794968
 30
0.0
  0
SPLINE
  5
33E
100
AcDbEntity
  8
0
100
AcDbSpline
 62
7
  6
CONTINUOUS
 70
0
 71
3
 72
17
 73
13
 74
0
 42
0.0000001
 43
0.0000001
 44
0.0000000001
 40
0.0
 40
0.0
 40
0.0
 40
0.0
 40
0.0433385013
 40
0.0878814526
 40
0.1346784372
 40
0.1845144137
 40
0.2947974433
 40
0.4199392996
 40
0.5577063072
 40
0.7038952945
 40
0.8532163086
 40
1.0
 40
1.0
 40
1.0
 40
1.0
 10
49.9073628824
 20
26.1692575997
 30
0.0
 10
49.8252102557
 20
26.1218458666
 30
0.0
 10
49.6480011064
 20
26.0429702824
 30
0.0
 10
49.3582291742
 20
25.9798527212
 30
0.0
 10
49.0477093789
 20
25.9714153509
 30
0.0
 10
48.5975173244
 20
26.0346482456
 30
0.0
 10
48.0066434737
 20
26.2588016553
 30
0.0
 10
47.3196658259
 20
26.7089343806
 30
0.0
 10
46.6636452362
 20
27.3240084811
 30
0.0
 10
46.0738946385
 20
28.0706902556
 30
0.0
 10
45.5824364862
 20
28.9079526697
 30
0.0
 10
45.3329021388
 20
29.5088897762
 30
0.0
 10
45.2325133948
 20
29.8140576017
 30
0.0
  0
SPLINE
  5
33F
100
AcDbEntity
  8
0
100
AcDbSpline
 62
7
  6
CONTINUOUS
 70
0
 71
3
 72
12
 73
8
 74
0
 42
0.0000001
 43
0.0000001
 44
0.0000000001
 40
0.0
 40
0.0
 40
0.0
 40
0.0
 40
0.1081632204
 40
0.218373873
 40
0.4513419811
 40
0.7104805182
 40
1.0
 40
1.0
 40
1.0
 40
1.0
 10
49.6573652863
 20
80.9813296885
 30
0.0
 10
49.7163949122
 20
81.015396347
 30
0.0
 10
49.829873471
 20
81.0946187459
 30
0.0
 10
50.0333969708
 20
81.2948727274
 30
0.0
 10
50.2350998844
 20
81.6235402235
 30
0.0
 10
50.3752743166
 20
82.0999744125
 30
0.0
 10
50.4029790991
 20
82.4469120015
 30
0.0
 10
50.4029790991
 20
82.6293404776
 30
0.0
  0
SPLINE
  5
340
100
AcDbEntity
  8
0
100
AcDbSpline
 62
7
  6
CONTINUOUS
 70
0
 71
3
 72
20
 73
16
 74
0
 42
0.0000001
 43
0.0000001
 44
0.0000000001
 40
0.0
 40
0.0
 40
0.0
 40
0.0
 40
0.0428311618
 40
0.0874319126
 40
0.1352333097
 40
0.1871656014
 40
0.2436346277
 40
0.3046158312
 40
0.3697411197
 40
0.4383757968
 40
0.5826267566
 40
0.7296917431
 40
0.8711892943
 40
0.9376085839
 40
1.0
 40
1.0
 40
1.0
 40
1.0
 10
49.9073628824
 20
80.5483185806
 30
0.0
 10
49.8062755805
 20
80.4899793117
 30
0.0
 10
49.5834852875
 20
80.3973200036
 30
0.0
 10
49.2156728313
 20
80.343500822
 30
0.0
 10
48.820709724
 20
80.3724871408
 30
0.0
 10
48.407365295
 20
80.4823594154
 30
0.0
 10
47.9837410193
 20
80.6695697772
 30
0.0
 10
47.5582626146
 20
80.929831113
 30
0.0
 10
47.1395997121
 20
81.2576340367
 30
0.0
 10
46.5931937825
 20
81.7838968458
 30
0.0
 10
45.9860336827
 20
82.5615063806
 30
0.0
 10
45.422402351
 20
83.6030854665
 30
0.0
 10
45.1104188075
 20
84.5252214931
 30
0.0
 10
44.9813579913
 20
85.2515264375
 30
0.0
 10
44.9582342155
 20
85.602779293
 30
0.0
 10
44.9582342155
 20
85.7727942874
 30
0.0
  0
SPLINE
  5
341
100
AcDbEntity
  8
0
100
AcDbSpline
 62
7
  6
CONTINUOUS
 70
0
 71
3
 72
9
 73
5
 74
0
 42
0.0000001
 43
0.0000001
 44
0.0000000001
 40
0.0
 40
0.0
 40
0.0
 40
0.0
 40
0.4778694176
 40
1.0
 40
1.0
 40
1.0
 40
1.0
 10
39.1526993535
 20
36.8576032151
 30
0.0
 10
39.2797581892
 20
36.6960084191
 30
0.0
 10
39.5007567629
 20
36.3213505015
 30
0.0
 10
39.6338850167
 20
35.9090953051
 30
0.0
 10
39.6843550189
 20
35.6902347751
 30
0.0
  0
SPLINE
  5
342
100
AcDbEntity
  8
0
100
AcDbSpline
 62
7
  6
CONTINUOUS
 70
0
 71
3
 72
14
 73
10
 74
0
 42
0.0000001
 43
0.0000001
 44
0.0000000001
 40
0.0
 40
0.0
 40
0.0
 40
0.0
 40
0.0523118366
 40
0.1263465649
 40
0.2226741487
 40
0.3405945397
 40
0.4788560554
 40
0.6359467895
 40
1.0
 40
1.0
 40
1.0
 40
1.0
 10
28.8899772404
 20
42.8217521814
 30
0.0
 10
28.8899747944
 20
42.7940879131
 30
0.0
 10
28.9069947651
 20
42.7278933566
 30
0.0
 10
28.9602379582
 20
42.6226646748
 30
0.0
 10
29.0483964326
 20
42.4976122048
 30
0.0
 10
29.1722003962
 20
42.3579068071
 30
0.0
 10
29.3315722739
 20
42.2079458713
 30
0.0
 10
29.6035838773
 20
41.989332214
 30
0.0
 10
29.8362511502
 20
41.8398779178
 30
0.0
 10
30.0029824649
 20
41.7436177254
 30
0.0
  0
SPLINE
  5
343
100
AcDbEntity
  8
0
100
AcDbSpline
 62
7
  6
CONTINUOUS
 70
0
 71
3
 72
9
 73
5
 74
0
 42
0.0000001
 43
0.0000001
 44
0.0000000001
 40
0.0
 40
0.0
 40
0.0
 40
0.0
 40
0.2550593862
 40
1.0
 40
1.0
 40
1.0
 40
1.0
 10
28.889977925
 20
45.7170683771
 30
0.0
 10
28.8899790653
 20
45.6730250491
 30
0.0
 10
28.8918514354
 20
45.500350063
 30
0.0
 10
28.8981746794
 20
45.3277360896
 30
0.0
 10
28.8981746794
 20
45.1991006987
 30
0.0
  0
SPLINE
  5
344
100
AcDbEntity
  8
0
100
AcDbSpline
 62
7
  6
CONTINUOUS
 70
0
 71
3
 72
13
 73
9
 74
0
 42
0.0000001
 43
0.0000001
 44
0.0000000001
 40
0.0
 40
0.0
 40
0.0
 40
0.0
 40
0.1203723328
 40
0.2487426158
 40
0.3811964772
 40
0.5137525978
 40
0.7683434311
 40
1.0
 40
1.0
 40
1.0
 40
1.0
 10
28.8899772377
 20
47.8645069134
 30
0.0
 10
28.8899813176
 20
48.0928569345
 30
0.0
 10
28.9357492652
 20
48.5647770749
 30
0.0
 10
29.088595994
 20
49.2721773882
 30
0.0
 10
29.2896033251
 20
49.9910666534
 30
0.0
 10
29.5714652314
 20
50.9354893208
 30
0.0
 10
29.8802040969
 20
52.0688830197
 30
0.0
 10
29.9974846162
 20
52.9901855729
 30
0.0
 10
30.0029600907
 20
53.4296111036
 30
0.0
  0
SPLINE
  5
345
100
AcDbEntity
  8
0
100
AcDbSpline
 62
7
  6
CONTINUOUS
 70
0
 71
3
 72
11
 73
7
 74
0
 42
0.0000001
 43
0.0000001
 44
0.0000000001
 40
0.0
 40
0.0
 40
0.0
 40
0.0
 40
0.4236423403
 40
0.7269646022
 40
0.9139677959
 40
1.0
 40
1.0
 40
1.0
 40
1.0
 10
28.8981746794
 20
45.1991006987
 30
0.0
 10
28.8981746794
 20
45.1666055075
 30
0.0
 10
28.8976703117
 20
45.1108392447
 30
0.0
 10
28.894703645
 20
45.0407772766
 30
0.0
 10
28.8920909654
 20
44.9966657169
 30
0.0
 10
28.8899802971
 20
44.975787993
 30
0.0
 10
28.8899779136
 20
44.969188953
 30
0.0
  0
SPLINE
  5
346
100
AcDbEntity
  8
0
100
AcDbSpline
 62
7
  6
CONTINUOUS
 70
0
 71
3
 72
17
 73
13
 74
0
 42
0.0000001
 43
0.0000001
 44
0.0000000001
 40
0.0
 40
0.0
 40
0.0
 40
0.0
 40
0.0550371015
 40
0.1112117813
 40
0.1695852903
 40
0.2303354867
 40
0.3577081533
 40
0.490628771
 40
0.6256552915
 40
0.7586937636
 40
0.8848622352
 40
1.0
 40
1.0
 40
1.0
 40
1.0
 10
39.5823477867
 20
39.0307300263
 30
0.0
 10
39.5823477867
 20
39.0630507677
 30
0.0
 10
39.5930302227
 20
39.1287781835
 30
0.0
 10
39.6376746024
 20
39.219037407
 30
0.0
 10
39.7035137527
 20
39.2990466356
 30
0.0
 10
39.8134042091
 20
39.3940077026
 30
0.0
 10
39.9779015021
 20
39.4890879468
 30
0.0
 10
40.195339148
 20
39.572201716
 30
0.0
 10
40.4251798592
 20
39.6265573188
 30
0.0
 10
40.6566073737
 20
39.6482673594
 30
0.0
 10
40.8769958209
 20
39.630906856
 30
0.0
 10
41.0137436715
 20
39.5841528605
 30
0.0
 10
41.0722998323
 20
39.5503449501
 30
0.0
  0
SPLINE
  5
347
100
AcDbEntity
  8
0
100
AcDbSpline
 62
7
  6
CONTINUOUS
 70
0
 71
3
 72
13
 73
9
 74
0
 42
0.0000001
 43
0.0000001
 44
0.0000000001
 40
0.0
 40
0.0
 40
0.0
 40
0.0
 40
0.1116596483
 40
0.2303079275
 40
0.3545653965
 40
0.4829104646
 40
0.7443647369
 40
1.0
 40
1.0
 40
1.0
 40
1.0
 10
39.796429784
 20
47.7754766535
 30
0.0
 10
39.7933003647
 20
47.5243300685
 30
0.0
 10
39.7532098713
 20
47.0063979067
 30
0.0
 10
39.60510009
 20
46.2213937306
 30
0.0
 10
39.3700417614
 20
45.4187119833
 30
0.0
 10
38.9451064356
 20
44.3418911249
 30
0.0
 10
38.238999036
 20
43.0652266874
 30
0.0
 10
37.5095299938
 20
42.1501749721
 30
0.0
 10
37.1094352026
 20
41.7371664562
 30
0.0
  0
SPLINE
  5
348
100
AcDbEntity
  8
0
100
AcDbSpline
 62
7
  6
CONTINUOUS
 70
0
 71
3
 72
11
 73
7
 74
0
 42
0.0000001
 43
0.0000001
 44
0.0000000001
 40
0.0
 40
0.0
 40
0.0
 40
0.0
 40
0.2893975675
 40
0.5491290883
 40
0.7823145228
 40
1.0
 40
1.0
 40
1.0
 40
1.0
 10
30.7047126073
 20
44.1561191351
 30
0.0
 10
30.7047126073
 20
44.1206897889
 30
0.0
 10
30.7101576346
 20
44.0532465141
 30
0.0
 10
30.7373707924
 20
43.9605307948
 30
0.0
 10
30.7834098275
 20
43.8853070333
 30
0.0
 10
30.8266169849
 20
43.8490031533
 30
0.0
 10
30.8497061303
 20
43.835694678
 30
0.0
  0
SPLINE
  5
349
100
AcDbEntity
  8
0
100
AcDbSpline
 62
7
  6
CONTINUOUS
 70
0
 71
3
 72
9
 73
5
 74
0
 42
0.0000001
 43
0.0000001
 44
0.0000000001
 40
0.0
 40
0.0
 40
0.0
 40
0.0
 40
0.2577061349
 40
1.0
 40
1.0
 40
1.0
 40
1.0
 10
29.9163027418
 20
41.2322363763
 30
0.0
 10
29.9084941479
 20
41.2723439793
 30
0.0
 10
29.8760078207
 20
41.427540516
 30
0.0
 10
29.8347498232
 20
41.5809241802
 30
0.0
 10
29.7989568595
 20
41.6930441301
 30
0.0
  0
SPLINE
  5
34A
100
AcDbEntity
  8
0
100
AcDbSpline
 62
7
  6
CONTINUOUS
 70
0
 71
3
 72
12
 73
8
 74
0
 42
0.0000001
 43
0.0000001
 44
0.0000000001
 40
0.0
 40
0.0
 40
0.0
 40
0.0
 40
0.2895258967
 40
0.5486616352
 40
0.7816280864
 40
0.8918375912
 40
1.0
 40
1.0
 40
1.0
 40
1.0
 10
44.9582342155
 20
85.7727942874
 30
0.0
 10
44.9582342155
 20
85.9805648821
 30
0.0
 10
44.9897862873
 20
86.3756912785
 30
0.0
 10
45.1494326214
 20
86.9182990676
 30
0.0
 10
45.3791507522
 20
87.2926078506
 30
0.0
 10
45.6109335471
 20
87.5206808655
 30
0.0
 10
45.7401777291
 20
87.6108975908
 30
0.0
 10
45.8074052947
 20
87.6496958073
 30
0.0
  0
SPLINE
  5
34B
100
AcDbEntity
  8
0
100
AcDbSpline
 62
7
  6
CONTINUOUS
 70
0
 71
3
 72
20
 73
16
 74
0
 42
0.0000001
 43
0.0000001
 44
0.0000000001
 40
0.0
 40
0.0
 40
0.0
 40
0.0
 40
0.0623917707
 40
0.1288096548
 40
0.2703030816
 40
0.417364666
 40
0.5616164847
 40
0.6302527552
 40
0.6953793367
 40
0.7563616105
 40
0.8128308438
 40
0.864763636
 40
0.9125655963
 40
0.9571670893
 40
1.0
 40
1.0
 40
1.0
 40
1.0
 10
50.4029790991
 20
82.6293404776
 30
0.0
 10
50.4029790991
 20
82.7786227769
 30
0.0
 10
50.3826760363
 20
83.0870374334
 30
0.0
 10
50.269356544
 20
83.7247563565
 30
0.0
 10
49.9954307593
 20
84.5344173363
 30
0.0
 10
49.5005515112
 20
85.44896499
 30
0.0
 10
48.9674441096
 20
86.1317482101
 30
0.0
 10
48.4876688898
 20
86.5938415274
 30
0.0
 10
48.1200563525
 20
86.8816754074
 30
0.0
 10
47.7464655939
 20
87.1102100912
 30
0.0
 10
47.3744971742
 20
87.2745875043
 30
0.0
 10
47.0115606961
 20
87.3710709213
 30
0.0
 10
46.6647587824
 20
87.3965260361
 30
0.0
 10
46.3417954947
 20
87.3492657913
 30
0.0
 10
46.1461663415
 20
87.2679110812
 30
0.0
 10
46.0574028908
 20
87.2166846993
 30
0.0
  0
SPLINE
  5
34C
100
AcDbEntity
  8
0
100
AcDbSpline
 62
7
  6
CONTINUOUS
 70
0
 71
3
 72
12
 73
8
 74
0
 42
0.0000001
 43
0.0000001
 44
0.0000000001
 40
0.0
 40
0.0
 40
0.0
 40
0.0
 40
0.1111399003
 40
0.2295106163
 40
0.4817187571
 40
0.7436304119
 40
1.0
 40
1.0
 40
1.0
 40
1.0
 10
50.4029790991
 20
28.2502794968
 30
0.0
 10
50.4029790991
 20
28.401227428
 30
0.0
 10
50.3822197057
 20
28.7131671811
 30
0.0
 10
50.2664525413
 20
29.3581109365
 30
0.0
 10
49.9868737417
 20
30.1762918506
 30
0.0
 10
49.4827420143
 20
31.0982266573
 30
0.0
 10
49.0430599542
 20
31.6537441347
 30
0.0
 10
48.8015539991
 20
31.9045732934
 30
0.0
  0
SPLINE
  5
34D
100
AcDbEntity
  8
0
100
AcDbSpline
 62
7
  6
CONTINUOUS
 70
0
 71
3
 72
9
 73
5
 74
0
 42
0.0000001
 43
0.0000001
 44
0.0000000001
 40
0.0
 40
0.0
 40
0.0
 40
0.0
 40
0.5170164673
 40
1.0
 40
1.0
 40
1.0
 40
1.0
 10
72.8981669079
 20
100.5585557269
 30
0.0
 10
72.9457000053
 20
100.6248182076
 30
0.0
 10
73.02229684
 20
100.7655426615
 30
0.0
 10
73.0503941146
 20
100.9242376012
 30
0.0
 10
73.0503941005
 20
101.0004178555
 30
0.0
  0
SPLINE
  5
34E
100
AcDbEntity
  8
0
100
AcDbSpline
 62
7
  6
CONTINUOUS
 70
0
 71
3
 72
12
 73
8
 74
0
 42
0.0000001
 43
0.0000001
 44
0.0000000001
 40
0.0
 40
0.0
 40
0.0
 40
0.0
 40
0.1081629533
 40
0.218373036
 40
0.4513408185
 40
0.7104797491
 40
1.0
 40
1.0
 40
1.0
 40
1.0
 10
50.4730456734
 20
80.8749143797
 30
0.0
 10
50.5402737253
 20
80.9137123842
 30
0.0
 10
50.6695135024
 20
81.0039364228
 30
0.0
 10
50.9013033594
 20
81.2320033303
 30
0.0
 10
51.1310198958
 20
81.6063188992
 30
0.0
 10
51.2906646512
 20
82.148924727
 30
0.0
 10
51.3222170314
 20
82.5440490825
 30
0.0
 10
51.3222170314
 20
82.7518154235
 30
0.0
  0
SPLINE
  5
34F
100
AcDbEntity
  8
0
100
AcDbSpline
 62
7
  6
CONTINUOUS
 70
0
 71
3
 72
20
 73
16
 74
0
 42
0.0000001
 43
0.0000001
 44
0.0000000001
 40
0.0
 40
0.0
 40
0.0
 40
0.0
 40
0.0428311618
 40
0.0874319126
 40
0.1352333097
 40
0.1871656014
 40
0.2436346277
 40
0.3046158312
 40
0.3697411197
 40
0.4383757968
 40
0.5826267566
 40
0.7296917431
 40
0.8711892943
 40
0.9376085839
 40
1.0
 40
1.0
 40
1.0
 40
1.0
 10
45.8074052947
 20
87.6496958073
 30
0.0
 10
45.9084925966
 20
87.7080350761
 30
0.0
 10
46.1312828896
 20
87.8006943842
 30
0.0
 10
46.4990953459
 20
87.8545135658
 30
0.0
 10
46.8940584531
 20
87.825527247
 30
0.0
 10
47.3074028821
 20
87.7156549724
 30
0.0
 10
47.7310271578
 20
87.5284446106
 30
0.0
 10
48.1565055625
 20
87.2681832748
 30
0.0
 10
48.575168465
 20
86.9403803511
 30
0.0
 10
49.1215743946
 20
86.414117542
 30
0.0
 10
49.7287344944
 20
85.6365080072
 30
0.0
 10
50.2923658261
 20
84.5949289213
 30
0.0
 10
50.6043493697
 20
83.6727928947
 30
0.0
 10
50.7334101858
 20
82.9464879503
 30
0.0
 10
50.7565339617
 20
82.5952350948
 30
0.0
 10
50.7565339617
 20
82.4252201004
 30
0.0
  0
SPLINE
  5
350
100
AcDbEntity
  8
0
100
AcDbSpline
 62
7
  6
CONTINUOUS
 70
0
 71
3
 72
11
 73
7
 74
0
 42
0.0000001
 43
0.0000001
 44
0.0000000001
 40
0.0
 40
0.0
 40
0.0
 40
0.0
 40
0.2177825102
 40
0.4509091639
 40
0.7102957096
 40
1.0
 40
1.0
 40
1.0
 40
1.0
 10
42.9330318571
 20
28.9474786984
 30
0.0
 10
42.8670585744
 20
28.9855675369
 30
0.0
 10
42.7436251034
 20
29.0893368435
 30
0.0
 10
42.6122157188
 20
29.3041967339
 30
0.0
 10
42.5341663168
 20
29.5689847726
 30
0.0
 10
42.5188022258
 20
29.7617056051
 30
0.0
 10
42.5188022258
 20
29.8630423513
 30
0.0
  0
SPLINE
  5
351
100
AcDbEntity
  8
0
100
AcDbSpline
 62
7
  6
CONTINUOUS
 70
0
 71
3
 72
15
 73
11
 74
0
 42
0.0000001
 43
0.0000001
 44
0.0000000001
 40
0.0
 40
0.0
 40
0.0
 40
0.0
 40
0.1350379582
 40
0.2604360265
 40
0.3795848205
 40
0.4964311031
 40
0.6146110002
 40
0.7369076271
 40
0.8650988806
 40
1.0
 40
1.0
 40
1.0
 40
1.0
 10
40.9722031908
 20
35.9850984737
 30
0.0
 10
41.1054764436
 20
35.9081473552
 30
0.0
 10
41.355510233
 20
35.7467429099
 30
0.0
 10
41.6856371073
 20
35.4648982684
 30
0.0
 10
41.9551286458
 20
35.1511272502
 30
0.0
 10
42.1666083518
 20
34.8053739568
 30
0.0
 10
42.3247270792
 20
34.4286071869
 30
0.0
 10
42.4346417744
 20
34.0219930744
 30
0.0
 10
42.5006472151
 20
33.587005178
 30
0.0
 10
42.5168587639
 20
33.2871419611
 30
0.0
 10
42.5188022258
 20
33.1334166096
 30
0.0
  0
SPLINE
  5
352
100
AcDbEntity
  8
0
100
AcDbSpline
 62
7
  6
CONTINUOUS
 70
0
 71
3
 72
20
 73
16
 74
0
 42
0.0000001
 43
0.0000001
 44
0.0000000001
 40
0.0
 40
0.0
 40
0.0
 40
0.0
 40
0.0623915509
 40
0.1288092277
 40
0.2703023822
 40
0.4173639367
 40
0.5616163563
 40
0.6302527133
 40
0.6953794098
 40
0.7563618881
 40
0.8128312514
 40
0.8647639545
 40
0.9125658095
 40
0.9571672284
 40
1.0
 40
1.0
 40
1.0
 40
1.0
 10
51.3222170314
 20
82.7518154235
 30
0.0
 10
51.3222170314
 20
82.9218307791
 30
0.0
 10
51.2990947493
 20
83.2730796926
 30
0.0
 10
51.1700360779
 20
83.9993686982
 30
0.0
 10
50.8580674738
 20
84.9214818713
 30
0.0
 10
50.2944543829
 20
85.9630507619
 30
0.0
 10
49.6873037443
 20
86.7406668399
 30
0.0
 10
49.1408916791
 20
87.2669414839
 30
0.0
 10
48.722221068
 20
87.5947532079
 30
0.0
 10
48.2967410689
 20
87.8550284086
 30
0.0
 10
47.87311015
 20
88.0422372591
 30
0.0
 10
47.4597655645
 20
88.1521197635
 30
0.0
 10
47.0647975664
 20
88.1811100342
 30
0.0
 10
46.6969789381
 20
88.1272863247
 30
0.0
 10
46.4741800615
 20
88.0346315579
 30
0.0
 10
46.3730886433
 20
87.9762906543
 30
0.0
  0
SPLINE
  5
353
100
AcDbEntity
  8
0
100
AcDbSpline
 62
7
  6
CONTINUOUS
 70
0
 71
3
 72
13
 73
9
 74
0
 42
0.0000001
 43
0.0000001
 44
0.0000000001
 40
0.0
 40
0.0
 40
0.0
 40
0.0
 40
0.2499265235
 40
0.3712412974
 40
0.491770485
 40
0.6132714504
 40
0.7375708732
 40
1.0
 40
1.0
 40
1.0
 40
1.0
 10
30.0029824339
 20
45.839986057
 30
0.0
 10
29.8278553176
 20
45.9410934589
 30
0.0
 10
29.5836626755
 20
46.1236459729
 30
0.0
 10
29.3208415185
 20
46.4237763397
 30
0.0
 10
29.1602649221
 20
46.6713309924
 30
0.0
 10
29.0363963354
 20
46.9417556926
 30
0.0
 10
28.9188480401
 20
47.3369598088
 30
0.0
 10
28.889973444
 20
47.6521726903
 30
0.0
 10
28.8899772377
 20
47.8645069134
 30
0.0
  0
SPLINE
  5
354
100
AcDbEntity
  8
0
100
AcDbSpline
 62
7
  6
CONTINUOUS
 70
0
 71
3
 72
12
 73
8
 74
0
 42
0.0000001
 43
0.0000001
 44
0.0000000001
 40
0.0
 40
0.0
 40
0.0
 40
0.0
 40
0.2895258967
 40
0.5486616352
 40
0.7816280864
 40
0.8918375912
 40
1.0
 40
1.0
 40
1.0
 40
1.0
 10
50.7565339617
 20
82.4252201004
 30
0.0
 10
50.7565339617
 20
82.2174495057
 30
0.0
 10
50.7249818899
 20
81.8223231093
 30
0.0
 10
50.5653355557
 20
81.2797153202
 30
0.0
 10
50.3356174249
 20
80.9054065372
 30
0.0
 10
50.10383463
 20
80.6773335223
 30
0.0
 10
49.9745904481
 20
80.587116797
 30
0.0
 10
49.9073628824
 20
80.5483185806
 30
0.0
  0
SPLINE
  5
355
100
AcDbEntity
  8
0
100
AcDbSpline
 62
7
  6
CONTINUOUS
 70
0
 71
3
 72
20
 73
16
 74
0
 42
0.0000001
 43
0.0000001
 44
0.0000000001
 40
0.0
 40
0.0
 40
0.0
 40
0.0
 40
0.0623917707
 40
0.1288096548
 40
0.2703030816
 40
0.417364666
 40
0.5616164847
 40
0.6302527552
 40
0.6953793367
 40
0.7563616105
 40
0.8128308438
 40
0.864763636
 40
0.9125655963
 40
0.9571670893
 40
1.0
 40
1.0
 40
1.0
 40
1.0
 10
45.311789078
 20
85.5686739102
 30
0.0
 10
45.311789078
 20
85.4193916109
 30
0.0
 10
45.3320921408
 20
85.1109769545
 30
0.0
 10
45.4454116331
 20
84.4732580313
 30
0.0
 10
45.7193374178
 20
83.6635970515
 30
0.0
 10
46.214216666
 20
82.7490493978
 30
0.0
 10
46.7473240675
 20
82.0662661777
 30
0.0
 10
47.2270992873
 20
81.6041728604
 30
0.0
 10
47.5947118247
 20
81.3163389804
 30
0.0
 10
47.9683025833
 20
81.0878042966
 30
0.0
 10
48.3402710029
 20
80.9234268835
 30
0.0
 10
48.7032074811
 20
80.8269434665
 30
0.0
 10
49.0500093948
 20
80.8014883517
 30
0.0
 10
49.3729726825
 20
80.8487485965
 30
0.0
 10
49.5686018357
 20
80.9301033066
 30
0.0
 10
49.6573652863
 20
80.9813296885
 30
0.0
  0
SPLINE
  5
356
100
AcDbEntity
  8
0
100
AcDbSpline
 62
7
  6
CONTINUOUS
 70
0
 71
3
 72
17
 73
13
 74
0
 42
0.0000001
 43
0.0000001
 44
0.0000000001
 40
0.0
 40
0.0
 40
0.0
 40
0.0
 40
0.1449418762
 40
0.2936275921
 40
0.4400857006
 40
0.5786421827
 40
0.7046761817
 40
0.8155861143
 40
0.8655621909
 40
0.9123709473
 40
0.9568184643
 40
1.0
 40
1.0
 40
1.0
 40
1.0
 10
45.4973070729
 20
29.980943209
 30
0.0
 10
45.5777000597
 20
29.7048744604
 30
0.0
 10
45.7858282714
 20
29.1580619025
 30
0.0
 10
46.2100991249
 20
28.3919765374
 30
0.0
 10
46.7301569291
 20
27.7027923901
 30
0.0
 10
47.3161214404
 20
27.1305215758
 30
0.0
 10
47.9346018084
 20
26.7079098602
 30
0.0
 10
48.4695714909
 20
26.4936676707
 30
0.0
 10
48.8782607683
 20
26.4297115203
 30
0.0
 10
49.1599664909
 20
26.4337539411
 30
0.0
 10
49.4227120035
 20
26.4886207837
 30
0.0
 10
49.5831707187
 20
26.5594501914
 30
0.0
 10
49.6573652863
 20
26.6022687077
 30
0.0
  0
SPLINE
  5
357
100
AcDbEntity
  8
0
100
AcDbSpline
 62
7
  6
CONTINUOUS
 70
0
 71
3
 72
12
 73
8
 74
0
 42
0.0000001
 43
0.0000001
 44
0.0000000001
 40
0.0
 40
0.0
 40
0.0
 40
0.0
 40
0.2895258967
 40
0.5486616352
 40
0.7816280864
 40
0.8918375912
 40
1.0
 40
1.0
 40
1.0
 40
1.0
 10
50.7565339617
 20
28.0461591195
 30
0.0
 10
50.7565339617
 20
27.8383885249
 30
0.0
 10
50.7249818899
 20
27.4432621284
 30
0.0
 10
50.5653355557
 20
26.9006543394
 30
0.0
 10
50.3356174249
 20
26.5263455564
 30
0.0
 10
50.10383463
 20
26.2982725415
 30
0.0
 10
49.9745904481
 20
26.2080558162
 30
0.0
 10
49.9073628824
 20
26.1692575997
 30
0.0
  0
SPLINE
  5
358
100
AcDbEntity
  8
0
100
AcDbSpline
 62
7
  6
CONTINUOUS
 70
0
 71
3
 72
10
 73
6
 74
0
 42
0.0000001
 43
0.0000001
 44
0.0000000001
 40
0.0
 40
0.0
 40
0.0
 40
0.0
 40
0.2280013718
 40
0.4756449711
 40
1.0
 40
1.0
 40
1.0
 40
1.0
 10
79.2648793157
 20
108.0602615511
 30
0.0
 10
79.2648793157
 20
107.943822843
 30
0.0
 10
79.2903626057
 20
107.7005709441
 30
0.0
 10
79.4254634663
 20
107.2067595846
 30
0.0
 10
79.6109020008
 20
106.8513745778
 30
0.0
 10
79.7643252169
 20
106.6318983171
 30
0.0
  0
SPLINE
  5
359
100
AcDbEntity
  8
0
100
AcDbSpline
 62
7
  6
CONTINUOUS
 70
0
 71
3
 72
11
 73
7
 74
0
 42
0.0000001
 43
0.0000001
 44
0.0000000001
 40
0.0
 40
0.0
 40
0.0
 40
0.0
 40
0.253919027
 40
0.499153869
 40
0.7448439518
 40
1.0
 40
1.0
 40
1.0
 40
1.0
 10
41.0722998323
 20
39.5503449501
 30
0.0
 10
41.1041907992
 20
39.5319324221
 30
0.0
 10
41.1633177946
 20
39.488756652
 30
0.0
 10
41.2318305788
 20
39.4034966148
 30
0.0
 10
41.2738493434
 20
39.3022679911
 30
0.0
 10
41.2825926119
 20
39.2291935893
 30
0.0
 10
41.2825926119
 20
39.1921895386
 30
0.0
  0
SPLINE
  5
35A
100
AcDbEntity
  8
0
100
AcDbSpline
 62
7
  6
CONTINUOUS
 70
0
 71
3
 72
15
 73
11
 74
0
 42
0.0000001
 43
0.0000001
 44
0.0000000001
 40
0.0
 40
0.0
 40
0.0
 40
0.0
 40
0.1115736528
 40
0.2334452179
 40
0.3615900135
 40
0.4917658654
 40
0.6214621656
 40
0.7496935693
 40
0.8760676252
 40
1.0
 40
1.0
 40
1.0
 40
1.0
 10
41.2825926119
 20
39.1921895386
 30
0.0
 10
41.2825926119
 20
39.1257464476
 30
0.0
 10
41.2525513194
 20
38.9861284692
 30
0.0
 10
41.1394776055
 20
38.7992450232
 30
0.0
 10
40.9701473085
 20
38.6445561367
 30
0.0
 10
40.7624977078
 20
38.5376318749
 30
0.0
 10
40.5355786737
 20
38.4838736925
 30
0.0
 10
40.304964147
 20
38.4815078342
 30
0.0
 10
40.0824794933
 20
38.5259290859
 30
0.0
 10
39.9441067224
 20
38.5851169543
 30
0.0
 10
39.8801940019
 20
38.6220225122
 30
0.0
  0
SPLINE
  5
35B
100
AcDbEntity
  8
0
100
AcDbSpline
 62
7
  6
CONTINUOUS
 70
0
 71
3
 72
16
 73
12
 74
0
 42
0.0000001
 43
0.0000001
 44
0.0000000001
 40
0.0
 40
0.0
 40
0.0
 40
0.0
 40
0.0428755151
 40
0.0875161207
 40
0.1869217599
 40
0.3042393126
 40
0.437962533
 40
0.5823660413
 40
0.7295547149
 40
0.8712848126
 40
1.0
 40
1.0
 40
1.0
 40
1.0
 10
30.8497061303
 20
43.835694678
 30
0.0
 10
30.8669692048
 20
43.8257443228
 30
0.0
 10
30.9049984325
 20
43.809930927
 30
0.0
 10
30.9916939174
 20
43.7971808946
 30
0.0
 10
31.1140985637
 20
43.8210983562
 30
0.0
 10
31.2582801508
 20
43.9001947131
 30
0.0
 10
31.3968836048
 20
44.0227863458
 30
0.0
 10
31.519110028
 20
44.1793469979
 30
0.0
 10
31.6154591573
 20
44.3572826368
 30
0.0
 10
31.6778839559
 20
44.5420228732
 30
0.0
 10
31.6946579794
 20
44.6678434247
 30
0.0
 10
31.6946579794
 20
44.7276609506
 30
0.0
  0
SPLINE
  5
35C
100
AcDbEntity
  8
0
100
AcDbSpline
 62
7
  6
CONTINUOUS
 70
0
 71
3
 72
13
 73
9
 74
0
 42
0.0000001
 43
0.0000001
 44
0.0000000001
 40
0.0
 40
0.0
 40
0.0
 40
0.0
 40
0.1142253587
 40
0.237559206
 40
0.5000004539
 40
0.7624414493
 40
0.885775028
 40
1.0
 40
1.0
 40
1.0
 40
1.0
 10
69.0704850739
 20
103.776461785
 30
0.0
 10
68.9736973612
 20
103.8323409328
 30
0.0
 10
68.7619518239
 20
103.9309138424
 30
0.0
 10
68.2927478012
 20
104.0734680809
 30
0.0
 10
67.6562694701
 20
104.1426698104
 30
0.0
 10
67.0197916693
 20
104.0734652109
 30
0.0
 10
66.550589279
 20
103.9309086219
 30
0.0
 10
66.3388449313
 20
103.8323346429
 30
0.0
 10
66.2420579492
 20
103.7764549863
 30
0.0
  0
SPLINE
  5
35D
100
AcDbEntity
  8
0
100
AcDbSpline
 62
7
  6
CONTINUOUS
 70
0
 71
3
 72
12
 73
8
 74
0
 42
0.0000001
 43
0.0000001
 44
0.0000000001
 40
0.0
 40
0.0
 40
0.0
 40
0.0
 40
0.1109719144
 40
0.2289177041
 40
0.480050075
 40
0.7417117895
 40
1.0
 40
1.0
 40
1.0
 40
1.0
 10
51.3222170314
 20
28.3727544426
 30
0.0
 10
51.3222170314
 20
28.536830263
 30
0.0
 10
51.3006823047
 20
28.8755198392
 30
0.0
 10
51.1801952212
 20
29.5760043854
 30
0.0
 10
50.8879423549
 20
30.467547541
 30
0.0
 10
50.357612117
 20
31.4816718417
 30
0.0
 10
49.8939271643
 20
32.1003600654
 30
0.0
 10
49.6384000563
 20
32.384163508
 30
0.0
  0
SPLINE
  5
35E
100
AcDbEntity
  8
0
100
AcDbSpline
 62
7
  6
CONTINUOUS
 70
0
 71
3
 72
18
 73
14
 74
0
 42
0.0000001
 43
0.0000001
 44
0.0000000001
 40
0.0
 40
0.0
 40
0.0
 40
0.0
 40
0.1156430495
 40
0.2393371125
 40
0.3681081426
 40
0.4992731318
 40
0.5652626855
 40
0.6310931192
 40
0.6964523603
 40
0.7609367923
 40
0.8240531074
 40
0.8852737332
 40
1.0
 40
1.0
 40
1.0
 40
1.0
 10
42.5188022258
 20
46.2037497486
 30
0.0
 10
42.5147393327
 20
45.8776886989
 30
0.0
 10
42.4504686579
 20
45.2028023152
 30
0.0
 10
42.1982632886
 20
44.1917111601
 30
0.0
 10
41.7564229967
 20
43.1971002193
 30
0.0
 10
41.1975352536
 20
42.4530539383
 30
0.0
 10
40.6330478125
 20
41.9680989647
 30
0.0
 10
40.1575832278
 20
41.6751028701
 30
0.0
 10
39.644195709
 20
41.4660027079
 30
0.0
 10
39.11085713
 20
41.3466269669
 30
0.0
 10
38.5766659101
 20
41.3166174767
 30
0.0
 10
37.9046226944
 20
41.3865089356
 30
0.0
 10
37.4249525728
 20
41.5550065385
 30
0.0
 10
37.1447906888
 20
41.7167544184
 30
0.0
  0
SPLINE
  5
35F
100
AcDbEntity
  8
0
100
AcDbSpline
 62
7
  6
CONTINUOUS
 70
0
 71
3
 72
12
 73
8
 74
0
 42
0.0000001
 43
0.0000001
 44
0.0000000001
 40
0.0
 40
0.0
 40
0.0
 40
0.0
 40
0.1081629533
 40
0.218373036
 40
0.4513408185
 40
0.7104797491
 40
1.0
 40
1.0
 40
1.0
 40
1.0
 10
50.4730456734
 20
26.4958533989
 30
0.0
 10
50.5402737253
 20
26.5346514033
 30
0.0
 10
50.6695135024
 20
26.624875442
 30
0.0
 10
50.9013033594
 20
26.8529423494
 30
0.0
 10
51.1310198958
 20
27.2272579184
 30
0.0
 10
51.2906646512
 20
27.7698637462
 30
0.0
 10
51.3222170314
 20
28.1649881017
 30
0.0
 10
51.3222170314
 20
28.3727544426
 30
0.0
  0
SPLINE
  5
360
100
AcDbEntity
  8
0
100
AcDbSpline
 62
7
  6
CONTINUOUS
 70
0
 71
3
 72
11
 73
7
 74
0
 42
0.0000001
 43
0.0000001
 44
0.0000000001
 40
0.0
 40
0.0
 40
0.0
 40
0.0
 40
0.2893975675
 40
0.5491290883
 40
0.7823145228
 40
1.0
 40
1.0
 40
1.0
 40
1.0
 10
31.6946579794
 20
44.7276609506
 30
0.0
 10
31.6946579794
 20
44.7630902968
 30
0.0
 10
31.6892129521
 20
44.8305335715
 30
0.0
 10
31.6619997943
 20
44.9232492909
 30
0.0
 10
31.6159607592
 20
44.9984730523
 30
0.0
 10
31.5727536018
 20
45.0347769324
 30
0.0
 10
31.5496644564
 20
45.0480854076
 30
0.0
  0
SPLINE
  5
361
100
AcDbEntity
  8
0
100
AcDbSpline
 62
7
  6
CONTINUOUS
 70
0
 71
3
 72
12
 73
8
 74
0
 42
0.0000001
 43
0.0000001
 44
0.0000000001
 40
0.0
 40
0.0
 40
0.0
 40
0.0
 40
0.2582894912
 40
0.5199527677
 40
0.7710853321
 40
0.8890305623
 40
1.0
 40
1.0
 40
1.0
 40
1.0
 10
49.0731901112
 20
32.0570389239
 30
0.0
 10
49.3286469682
 20
31.7732517678
 30
0.0
 10
49.792202705
 20
31.1546179605
 30
0.0
 10
50.3223891438
 20
30.1406212435
 30
0.0
 10
50.6145583818
 20
29.2492075327
 30
0.0
 10
50.7350055794
 20
28.5488359103
 30
0.0
 10
50.7565339617
 20
28.2102050703
 30
0.0
 10
50.7565339617
 20
28.0461591195
 30
0.0
  0
SPLINE
  5
362
100
AcDbEntity
  8
0
100
AcDbSpline
 62
7
  6
CONTINUOUS
 70
0
 71
3
 72
13
 73
9
 74
0
 42
0.0000001
 43
0.0000001
 44
0.0000000001
 40
0.0
 40
0.0
 40
0.0
 40
0.0
 40
0.1142260229
 40
0.2375602528
 40
0.5000015383
 40
0.7624419778
 40
0.8857752456
 40
1.0
 40
1.0
 40
1.0
 40
1.0
 10
42.5188022258
 20
63.3396414536
 30
0.0
 10
42.5188022258
 20
63.451402431
 30
0.0
 10
42.5393061699
 20
63.6840674174
 30
0.0
 10
42.6504487017
 20
64.1616897688
 30
0.0
 10
42.9087536738
 20
64.7474995658
 30
0.0
 10
43.2869241068
 20
65.2641044934
 30
0.0
 10
43.6449829093
 20
65.5991667952
 30
0.0
 10
43.8362229852
 20
65.7332549777
 30
0.0
 10
43.9330099002
 20
65.7891345957
 30
0.0
  0
SPLINE
  5
363
100
AcDbEntity
  8
0
100
AcDbSpline
 62
7
  6
CONTINUOUS
 70
0
 71
3
 72
11
 73
7
 74
0
 42
0.0000001
 43
0.0000001
 44
0.0000000001
 40
0.0
 40
0.0
 40
0.0
 40
0.0
 40
0.2177817009
 40
0.4509079353
 40
0.7102947134
 40
1.0
 40
1.0
 40
1.0
 40
1.0
 10
73.0503941005
 20
101.0004178555
 30
0.0
 10
73.0503940864
 20
101.076594683
 30
0.0
 10
73.0222429759
 20
101.2353713042
 30
0.0
 10
72.9018738482
 20
101.4565979404
 30
0.0
 10
72.711587372
 20
101.656577742
 30
0.0
 10
72.5523706211
 20
101.7662397043
 30
0.0
 10
72.4646117546
 20
101.8169061633
 30
0.0
  0
SPLINE
  5
364
100
AcDbEntity
  8
0
100
AcDbSpline
 62
7
  6
CONTINUOUS
 70
0
 71
3
 72
12
 73
8
 74
0
 42
0.0000001
 43
0.0000001
 44
0.0000000001
 40
0.0
 40
0.0
 40
0.0
 40
0.0
 40
0.1081632204
 40
0.218373873
 40
0.4513419811
 40
0.7104805182
 40
1.0
 40
1.0
 40
1.0
 40
1.0
 10
46.0574028908
 20
87.2166846993
 30
0.0
 10
45.9983732649
 20
87.1826180408
 30
0.0
 10
45.8848947062
 20
87.1033956419
 30
0.0
 10
45.6813712064
 20
86.9031416604
 30
0.0
 10
45.4796682927
 20
86.5744741643
 30
0.0
 10
45.3394938606
 20
86.0980399753
 30
0.0
 10
45.311789078
 20
85.7511023863
 30
0.0
 10
45.311789078
 20
85.5686739102
 30
0.0
  0
SPLINE
  5
365
100
AcDbEntity
  8
0
100
AcDbSpline
 62
7
  6
CONTINUOUS
 70
0
 71
3
 72
13
 73
9
 74
0
 42
0.0000001
 43
0.0000001
 44
0.0000000001
 40
0.0
 40
0.0
 40
0.0
 40
0.0
 40
0.2556352283
 40
0.5170894923
 40
0.6454345636
 40
0.7696920401
 40
0.8883403399
 40
1.0
 40
1.0
 40
1.0
 40
1.0
 10
30.0383379511
 20
45.8195740014
 30
0.0
 10
30.4384326878
 20
46.232582461
 30
0.0
 10
31.1679016809
 20
47.1476340885
 30
0.0
 10
31.8740090665
 20
48.4242984303
 30
0.0
 10
32.2989444265
 20
49.5011192806
 30
0.0
 10
32.5340027993
 20
50.3038010893
 30
0.0
 10
32.6821125946
 20
51.088805354
 30
0.0
 10
32.7222031129
 20
51.6067375872
 30
0.0
 10
32.7253325325
 20
51.8578841987
 30
0.0
  0
ELLIPSE
  5
366
100
AcDbEntity
  8
0
100
AcDbEllipse
 62
7
  6
CONTINUOUS
 10
69.7901446602
 20
115.5723455704
 30
0.0
 11
-1.1022032659
 21
1.4381845897
 31
0.0
 40
0.4692929977
 41
7.0071677847
 42
8.0258654176
  0
ELLIPSE
  5
367
100
AcDbEntity
  8
0
100
AcDbEllipse
 62
7
  6
CONTINUOUS
 10
82.3059867953
 20
108.3464842153
 30
0.0
 11
-1.1022032659
 21
1.4381845897
 31
0.0
 40
0.4692929977
 41
7.0071677847
 42
8.0258654176
  0
ENDSEC
  0
SECTION
  2
OBJECTS
  0
DICTIONARY
  5
C
100
AcDbDictionary
280
0
281
1
  3
ACAD_GROUP
350
D
  3
ACAD_MLINESTYLE
350
17
  3
ACAD_LAYOUT
350
1A
  3
ACAD_PLOTSETTINGS
350
19
  3
ACAD_PLOTSTYLENAME
350
E
  0
DICTIONARY
  5
D
102
{ACAD_REACTORS
330
C
102
}
100
AcDbDictionary
280
0
281
1
  0
ACDBDICTIONARYWDFLT
  5
E
102
{ACAD_REACTORS
330
C
102
}
100
AcDbDictionary
281
1
  3
Normal
350
F
100
AcDbDictionaryWithDefault
340
F
  0
DICTIONARY
  5
17
102
{ACAD_REACTORS
330
C
102
}
100
AcDbDictionary
280
0
281
1
  3
Standard
350
18
  0
DICTIONARY
  5
19
102
{ACAD_REACTORS
330
C
102
}
100
AcDbDictionary
281
1
  0
DICTIONARY
  5
1A
102
{ACAD_REACTORS
330
C
102
}
100
AcDbDictionary
281
1
  3
Model
350
368
  3
Layout1
350
369
  0
ACDBPLACEHOLDER
  5
F
102
{ACAD_REACTORS
330
E
102
}
  0
MLINESTYLE
  5
18
102
{ACAD_REACTORS
330
17
102
}
100
AcDbMlineStyle
  2
STANDARD
 70
0
  3

 62
256
 51
90.0
 52
90.0
 71
2
 49
0.5
 62
256
  6
BYLAYER
 49
-0.5
 62
256
  6
BYLAYER
  0
LAYOUT
  5
368
102
{ACAD_REACTORS
330
1A
102
}
100
AcDbPlotSettings
  1

  2
none_device
  4

  6

 40
0.0
 41
0.0
 42
0.0
 43
0.0
 44
210.0
 45
297.0
 46
0.0
 47
0.0
 48
0.0
 49
0.0
140
0.0
141
0.0
142
1.0
143
1.0
 70
1024
 72
1
 73
0
 74
0
  7

 75
0
147
1.0
148
0.0
149
0.0
100
AcDbLayout
  1
Model
 70
0
 71
0
 10
0.0
 20
0.0
 11
210.0
 21
297.0
 12
0.0
 22
0.0
 32
0.0
 14
0.0
 24
0.0
 34
0.0
 15
0.0
 25
0.0
 35
0.0
146
0.0
 13
0.0
 23
0.0
 33
0.0
 16
1.0
 26
0.0
 36
0.0
 17
0.0
 27
1.0
 37
0.0
 76
0
330
210
345
0
346
0
  0
LAYOUT
  5
369
102
{ACAD_REACTORS
330
1A
102
}
100
AcDbPlotSettings
  1

  2
none_device
  4

  6

 40
0.0
 41
0.0
 42
0.0
 43
0.0
 44
210.0
 45
297.0
 46
0.0
 47
0.0
 48
0.0
 49
0.0
140
0.0
141
0.0
142
1.0
143
1.0
 70
0
 72
1
 73
0
 74
0
  7

 75
0
147
1.0
148
0.0
149
0.0
100
AcDbLayout
  1
Layout1
 70
0
 71
1
 10
0.0
 20
0.0
 11
210.0
 21
297.0
 12
0.0
 22
0.0
 32
0.0
 14
0.0
 24
0.0
 34
0.0
 15
0.0
 25
0.0
 35
0.0
146
0.0
 13
0.0
 23
0.0
 33
0.0
 16
1.0
 26
0.0
 36
0.0
 17
0.0
 27
1.0
 37
0.0
 76
0
330
211
345
0
346
0
  0
ENDSEC
  0
EOF
