999
DXF file: C:\Users\sesa63760\Dev\_Creo\CAD\MCADFD0002197_3D-CAD\drw0001_1.dxf
999
Pro/ENGINEER 2019471 by Parametric Technology Corporation
  0
SECTION
  2
HEADER
  9
$ACADVER
  1
AC1024
  9
$DWGCODEPAGE
  3
ANSI_1252
  9
$EXTMAX
 10
115.5166484115
 20
163.3735456105
 30
0.0
  9
$EXTMIN
 10
0.0
 20
0.0
 30
0.0
  9
$LIMMIN
 10
0.0
 20
0.0
  9
$LIMMAX
 10
115.5166484115
 20
163.3735456105
  9
$VIEWCTR
 10
57.7583242057
 20
81.6867728053
  9
$VIEWSIZE
 40
163.3735456105
  9
$CLAYER
  8
0
  9
$LTSCALE
 40
10.649534825
  9
$CELTYPE
  6
BYLAYER
  9
$DIMSCALE
 40
1.0
  9
$DIMASZ
 40
1.3751981954
  9
$DIMEXO
 40
1.0
  9
$DIMDLI
 40
7.3578604245
  9
$DIMEXE
 40
1.0
  9
$DIMCEN
 40
1.7426511532
  9
$DIMLFAC
 40
1.0
  9
$DIMBLK
  1
_FILLED
  9
$DIMALT
 70
0
  9
$DIMALTF
 40
0.0393700787
  9
$DIMTXT
 40
1.9252774735
  9
$DIMTOL
 70
1
  9
$DIMLIM
 70
0
  9
$DIMTFAC
 40
1.0
  9
$DIMTP
 40
0.01
  9
$DIMTM
 40
0.01
  9
$DIMGAP
 40
0.625
  9
$DIMDSEP
 70
46
  9
$AUNITS
 70
0
  9
$PDMODE
 70
3
  9
$PDSIZE
 40
0.3125
  9
$HANDSEED
  5
3E4
  9
$TILEMODE
 70
1
  9
$MEASUREMENT
 70
1
  9
$INSUNITS
 70
4
  0
ENDSEC
  0
SECTION
  2
CLASSES
  0
CLASS
  1
ACDBDICTIONARYWDFLT
  2
AcDbDictionaryWithDefault
  3
AutoCAD 2000
 90
0
 91
1
280
0
281
0
  0
CLASS
  1
ACDBPLACEHOLDER
  2
AcDbPlaceHolder
  3
AutoCAD 2000
 90
0
 91
1
280
0
281
0
  0
CLASS
  1
LAYOUT
  2
AcDbLayout
  3
AutoCAD 2000
 90
0
 91
0
280
0
281
0
  0
ENDSEC
  0
SECTION
  2
TABLES
  0
TABLE
  2
VPORT
  5
8
100
AcDbSymbolTable
 70
2
  0
VPORT
  5
1F4
100
AcDbSymbolTableRecord
100
AcDbViewportTableRecord
  2
*ACTIVE
 70
0
 10
0.0
 20
0.0
 11
1.0
 21
1.0
 12
57.7583242057
 22
81.6867728053
 13
0.0
 23
0.0
 14
1.0
 24
1.0
 15
0.0
 25
0.0
 16
0.0
 26
0.0
 36
1.0
 17
0.0
 27
0.0
 37
0.0
 40
163.3735456105
 41
0.7070707071
 42
50.0
 43
0.0
 44
0.0
 50
0.0
 51
0.0
 71
0
 72
100
 73
1
 74
1
 75
0
 76
0
 77
0
 78
0
  0
ENDTAB
  0
TABLE
  2
LTYPE
  5
5
100
AcDbSymbolTable
 70
6
  0
LTYPE
  5
14
100
AcDbSymbolTableRecord
100
AcDbLinetypeTableRecord
  2
BYBLOCK
 70
0
  3

 72
65
 73
0
 40
0.0
  0
LTYPE
  5
15
100
AcDbSymbolTableRecord
100
AcDbLinetypeTableRecord
  2
BYLAYER
 70
0
  3

 72
65
 73
0
 40
0.0
  0
LTYPE
  5
16
100
AcDbSymbolTableRecord
100
AcDbLinetypeTableRecord
  2
CONTINUOUS
 70
64
  3
Solid line
 72
65
 73
0
 40
0.0
  0
LTYPE
  5
1F5
100
AcDbSymbolTableRecord
100
AcDbLinetypeTableRecord
  2
CENTER
 70
64
  3
____ _ ____ _ ____ _ ____ _ ____ _ ____ _ ____
 72
65
 73
4
 40
0.6
 49
0.375
 74
0
 49
-0.075
 74
0
 49
0.075
 74
0
 49
-0.075
 74
0
  0
LTYPE
  5
1F6
100
AcDbSymbolTableRecord
100
AcDbLinetypeTableRecord
  2
HIDDEN
 70
64
  3
- - - - - - - - - - - - - - - - - - - -
 72
65
 73
2
 40
0.2
 49
0.1
 74
0
 49
-0.1
 74
0
  0
LTYPE
  5
1F7
100
AcDbSymbolTableRecord
100
AcDbLinetypeTableRecord
  2
PHANTOM
 70
64
  3
_____ _ _ _____ _ _ _____ _ _ _____
 72
65
 73
6
 40
0.8
 49
0.45
 74
0
 49
-0.05
 74
0
 49
0.1
 74
0
 49
-0.05
 74
0
 49
0.1
 74
0
 49
-0.05
 74
0
  0
LTYPE
  5
1F8
100
AcDbSymbolTableRecord
100
AcDbLinetypeTableRecord
  2
DOT
 70
64
  3
. . . . . . . . . . . . . . . . . . . .
 72
65
 73
2
 40
0.2
 49
0.1
 74
0
 49
-0.1
 74
0
  0
LTYPE
  5
1F9
100
AcDbSymbolTableRecord
100
AcDbLinetypeTableRecord
  2
DASHED
 70
64
  3
- - - - - - - - - - - - - - - - - - - -
 72
65
 73
2
 40
0.2
 49
0.1
 74
0
 49
-0.1
 74
0
  0
ENDTAB
  0
TABLE
  2
LAYER
  5
2
100
AcDbSymbolTable
 70
36
  0
LAYER
  5
10
100
AcDbSymbolTableRecord
100
AcDbLayerTableRecord
  2
0
 70
0
 62
7
  6
CONTINUOUS
370
-3
390
F
  0
LAYER
  5
1FA
100
AcDbSymbolTableRecord
100
AcDbLayerTableRecord
  2
DEFAULT_1
 70
0
 62
7
  6
CENTER
370
-3
390
F
  0
LAYER
  5
1FB
100
AcDbSymbolTableRecord
100
AcDbLayerTableRecord
  2
DEFAULT_2
 70
0
 62
8
  6
HIDDEN
370
-3
390
F
  0
LAYER
  5
1FC
100
AcDbSymbolTableRecord
100
AcDbLayerTableRecord
  2
DEFAULT_3
 70
0
 62
7
  6
PHANTOM
370
-3
390
F
  0
LAYER
  5
1FD
100
AcDbSymbolTableRecord
100
AcDbLayerTableRecord
  2
00_COMPONENTS
 70
0
 62
7
  6
CONTINUOUS
370
-3
390
F
  0
LAYER
  5
1FE
100
AcDbSymbolTableRecord
100
AcDbLayerTableRecord
  2
01_1_DEFAULT_DATUMS
 70
0
 62
7
  6
CONTINUOUS
370
-3
390
F
  0
LAYER
  5
1FF
100
AcDbSymbolTableRecord
100
AcDbLayerTableRecord
  2
01_PLANES
 70
0
 62
7
  6
CONTINUOUS
370
-3
390
F
  0
LAYER
  5
200
100
AcDbSymbolTableRecord
100
AcDbLayerTableRecord
  2
02_COORD_SYS
 70
0
 62
7
  6
CONTINUOUS
370
-3
390
F
  0
LAYER
  5
201
100
AcDbSymbolTableRecord
100
AcDbLayerTableRecord
  2
03_AXES
 70
0
 62
7
  6
CONTINUOUS
370
-3
390
F
  0
LAYER
  5
202
100
AcDbSymbolTableRecord
100
AcDbLayerTableRecord
  2
04_POINTS
 70
0
 62
7
  6
CONTINUOUS
370
-3
390
F
  0
LAYER
  5
203
100
AcDbSymbolTableRecord
100
AcDbLayerTableRecord
  2
05_CURVES
 70
0
 62
7
  6
CONTINUOUS
370
-3
390
F
  0
LAYER
  5
204
100
AcDbSymbolTableRecord
100
AcDbLayerTableRecord
  2
06_SURFS
 70
0
 62
7
  6
CONTINUOUS
370
-3
390
F
  0
LAYER
  5
205
100
AcDbSymbolTableRecord
100
AcDbLayerTableRecord
  2
07_COSMETICS
 70
0
 62
7
  6
CONTINUOUS
370
-3
390
F
  0
LAYER
  5
206
100
AcDbSymbolTableRecord
100
AcDbLayerTableRecord
  2
10_NOTES
 70
0
 62
7
  6
CONTINUOUS
370
-3
390
F
  0
LAYER
  5
207
100
AcDbSymbolTableRecord
100
AcDbLayerTableRecord
  2
11_NOTES_PUB
 70
0
 62
7
  6
CONTINUOUS
370
-3
390
F
  0
LAYER
  5
208
100
AcDbSymbolTableRecord
100
AcDbLayerTableRecord
  2
13_REF_GTOL
 70
0
 62
7
  6
CONTINUOUS
370
-3
390
F
  0
LAYER
  5
209
100
AcDbSymbolTableRecord
100
AcDbLayerTableRecord
  2
16_MISC
 70
0
 62
7
  6
CONTINUOUS
370
-3
390
F
  0
LAYER
  5
20A
100
AcDbSymbolTableRecord
100
AcDbLayerTableRecord
  2
17_NO_PRINT
 70
0
 62
7
  6
CONTINUOUS
370
-3
390
F
  0
LAYER
  5
20B
100
AcDbSymbolTableRecord
100
AcDbLayerTableRecord
  2
18_DATUM_CAMS_JOINTS
 70
0
 62
7
  6
CONTINUOUS
370
-3
390
F
  0
LAYER
  5
20C
100
AcDbSymbolTableRecord
100
AcDbLayerTableRecord
  2
19_DATUM_FUNCTIONAL
 70
0
 62
7
  6
CONTINUOUS
370
-3
390
F
  0
LAYER
  5
20D
100
AcDbSymbolTableRecord
100
AcDbLayerTableRecord
  2
20_DATUM_KINEMATIC_SCHEME
 70
0
 62
7
  6
CONTINUOUS
370
-3
390
F
  0
ENDTAB
  0
TABLE
  2
STYLE
  5
3
100
AcDbSymbolTable
 70
1
  0
STYLE
  5
11
100
AcDbSymbolTableRecord
100
AcDbTextStyleTableRecord
  2
STANDARD
 70
0
 40
0.0
 41
0.8
 50
0.0
 71
0
 42
0.2
  3
txt
  4

  0
STYLE
  5
20E
100
AcDbSymbolTableRecord
100
AcDbTextStyleTableRecord
  2
TEXTSTYLE_1
 70
0
 40
0.0
 41
0.8
 50
0.0
 71
0
 42
0.2
  3
gdt
  4

  0
ENDTAB
  0
TABLE
  2
VIEW
  5
6
100
AcDbSymbolTable
 70
0
  0
ENDTAB
  0
TABLE
  2
UCS
  5
7
100
AcDbSymbolTable
 70
0
  0
ENDTAB
  0
TABLE
  2
APPID
  5
9
100
AcDbSymbolTable
 70
1
  0
APPID
  5
20F
100
AcDbSymbolTableRecord
100
AcDbRegAppTableRecord
  2
ACAD
 70
0
  0
ENDTAB
  0
TABLE
  2
BLOCK_RECORD
  5
1
100
AcDbSymbolTable
 70
0
  0
BLOCK_RECORD
  5
210
100
AcDbSymbolTableRecord
100
AcDbBlockTableRecord
  2
*Model_Space
  0
BLOCK_RECORD
  5
211
100
AcDbSymbolTableRecord
100
AcDbBlockTableRecord
  2
*Paper_Space
  0
BLOCK_RECORD
  5
212
100
AcDbSymbolTableRecord
100
AcDbBlockTableRecord
  2
_FILLED
  0
ENDTAB
  0
TABLE
  2
DIMSTYLE
  5
A
100
AcDbSymbolTable
 70
1
100
AcDbDimStyleTable
 71
0
  0
DIMSTYLE
105
213
100
AcDbSymbolTableRecord
100
AcDbDimStyleTableRecord
  2
STANDARD
 70
0
  3

  4

 40
1.0
 41
1.3751981954
 42
1.0
 43
0.38
 44
1.0
 45
0.0
 46
0.0
 47
0.01
 48
0.01
140
1.9252774735
141
0.09
142
0.0
143
25.4
144
1.0
145
0.0
146
1.0
147
0.625
 71
1
 72
0
 73
0
 74
0
 75
0
 76
0
 77
1
 78
8
 79
2
170
0
171
1
172
0
173
0
174
0
175
0
176
0
177
0
178
0
270
2
179
2
271
2
272
2
273
2
274
2
275
0
280
0
281
0
282
0
283
1
284
8
285
0
286
0
287
3
288
0
340
11
278
46
341
212
342
212
343
212
344
212
  0
ENDTAB
  0
ENDSEC
  0
SECTION
  2
BLOCKS
  0
BLOCK
  5
20
100
AcDbEntity
  8
0
100
AcDbBlockBegin
  2
*Model_Space
 70
0
 10
0.0
 20
0.0
 30
0.0
  3
*Model_Space
  1

  0
ENDBLK
  5
21
100
AcDbEntity
  8
0
100
AcDbBlockEnd
  0
BLOCK
  5
1C
100
AcDbEntity
  8
0
100
AcDbBlockBegin
  2
*Paper_Space
 70
0
 10
0.0
 20
0.0
 30
0.0
  3
*Paper_Space
  1

  0
ENDBLK
  5
1D
100
AcDbEntity
  8
0
100
AcDbBlockEnd
  0
BLOCK
  5
214
100
AcDbEntity
  8
0
100
AcDbBlockBegin
  2
_FILLED
 70
64
 10
0.0
 20
0.0
  3
_FILLED
  1

  0
SOLID
  5
215
100
AcDbEntity
  8
0
  6
BYBLOCK
 62
0
100
AcDbTrace
 10
0.0
 20
0.0
 11
-1.0
 21
0.25
 12
-1.0
 22
-0.25
 13
-1.0
 23
-0.25
  0
ENDBLK
  5
216
100
AcDbEntity
  8
0
  6
BYBLOCK
 62
0
100
AcDbBlockEnd
  0
ENDSEC
  0
SECTION
  2
ENTITIES
  0
LINE
  5
217
100
AcDbEntity
  8
0
100
AcDbLine
 62
7
  6
CONTINUOUS
 10
16.0758490864
 20
56.546918216
 11
14.7406384992
 21
57.749159638
  0
LINE
  5
218
100
AcDbEntity
  8
0
100
AcDbLine
 62
7
  6
CONTINUOUS
 10
15.0765137373
 20
57.5053347341
 11
16.2846412245
 21
56.4175206305
  0
LINE
  5
219
100
AcDbEntity
  8
0
100
AcDbLine
 62
7
  6
CONTINUOUS
 10
31.5018608819
 20
116.0791823297
 11
65.1526496533
 21
135.5073583148
  0
LINE
  5
21A
100
AcDbEntity
  8
0
100
AcDbLine
 62
7
  6
CONTINUOUS
 10
61.3063038122
 20
131.4495911259
 11
45.0429155563
 21
122.0599755869
  0
LINE
  5
21B
100
AcDbEntity
  8
0
100
AcDbLine
 62
7
  6
CONTINUOUS
 10
50.4324711687
 20
36.6941086206
 11
16.1924470703
 21
56.462148538
  0
LINE
  5
21C
100
AcDbEntity
  8
0
100
AcDbLine
 62
7
  6
CONTINUOUS
 10
16.2846412245
 20
56.4175206305
 11
50.2259080316
 21
36.8219644135
  0
LINE
  5
21D
100
AcDbEntity
  8
0
100
AcDbLine
 62
7
  6
CONTINUOUS
 10
49.0177805443
 20
37.9097785172
 11
15.0765137373
 21
57.5053347341
  0
LINE
  5
21E
100
AcDbEntity
  8
0
100
AcDbLine
 62
7
  6
CONTINUOUS
 10
14.0459112863
 20
58.5094523083
 11
49.754660188
 21
37.8934629135
  0
LINE
  5
21F
100
AcDbEntity
  8
0
100
AcDbLine
 62
7
  6
CONTINUOUS
 10
14.9329487009
 20
58.9150176213
 11
49.157059398
 21
39.1561651026
  0
LINE
  5
220
100
AcDbEntity
  8
0
100
AcDbLine
 62
7
  6
CONTINUOUS
 10
50.2259080316
 20
36.8219644135
 11
50.432441033
 21
36.694126084
  0
LINE
  5
221
100
AcDbEntity
  8
0
100
AcDbLine
 62
7
  6
CONTINUOUS
 10
32.4173000636
 20
49.593498032
 11
32.6188180477
 21
49.447195132
  0
LINE
  5
222
100
AcDbEntity
  8
0
100
AcDbLine
 62
7
  6
CONTINUOUS
 10
14.7240769578
 20
59.0672160502
 11
14.9329487009
 21
58.9150176213
  0
LINE
  5
223
100
AcDbEntity
  8
0
100
AcDbLine
 62
7
  6
CONTINUOUS
 10
14.4138082073
 20
61.3582372766
 11
14.8468588026
 21
60.9683127445
  0
LINE
  5
224
100
AcDbEntity
  8
0
100
AcDbLine
 62
7
  6
CONTINUOUS
 10
16.6298220279
 20
63.6064450934
 11
16.1944477834
 21
63.9984618702
  0
LINE
  5
225
100
AcDbEntity
  8
0
100
AcDbLine
 62
7
  6
CONTINUOUS
 10
18.2266918373
 20
70.0263384097
 11
18.2266918373
 21
67.8788993399
  0
LINE
  5
226
100
AcDbEntity
  8
0
100
AcDbLine
 62
7
  6
CONTINUOUS
 10
18.2266918373
 20
67.1310234578
 11
18.2266918373
 21
64.983584388
  0
LINE
  5
227
100
AcDbEntity
  8
0
100
AcDbLine
 62
7
  6
CONTINUOUS
 10
19.3396748818
 20
75.5914428355
 11
19.3396748818
 21
92.7273345405
  0
LINE
  5
228
100
AcDbEntity
  8
0
100
AcDbLine
 62
7
  6
CONTINUOUS
 10
19.3396972559
 20
63.9054494573
 11
19.3396972249
 21
68.0018177889
  0
LINE
  5
229
100
AcDbEntity
  8
0
100
AcDbLine
 62
7
  6
CONTINUOUS
 10
19.3750527422
 20
63.8850374196
 11
19.3750527422
 21
67.9814057332
  0
LINE
  5
22A
100
AcDbEntity
  8
0
100
AcDbLine
 62
7
  6
CONTINUOUS
 10
63.3569049402
 20
132.2252479636
 11
65.4782164518
 21
133.4499804252
  0
LINE
  5
22B
100
AcDbEntity
  8
0
100
AcDbLine
 62
7
  6
CONTINUOUS
 10
46.3157077624
 20
122.0599786463
 11
61.3063091114
 21
130.7147547083
  0
LINE
  5
22C
100
AcDbEntity
  8
0
100
AcDbLine
 62
7
  6
CONTINUOUS
 10
47.0228297068
 20
121.6517308371
 11
61.3063091114
 21
129.8982522912
  0
LINE
  5
22D
100
AcDbEntity
  8
0
100
AcDbLine
 62
7
  6
CONTINUOUS
 10
52.2553847054
 20
124.0195391949
 11
55.5787727403
 21
125.9382867181
  0
LINE
  5
22E
100
AcDbEntity
  8
0
100
AcDbLine
 62
7
  6
CONTINUOUS
 10
51.6897110563
 20
122.3865680184
 11
52.2553941261
 21
122.7131633415
  0
LINE
  5
22F
100
AcDbEntity
  8
0
100
AcDbLine
 62
7
  6
CONTINUOUS
 10
68.6015941067
 20
131.7423528675
 11
70.1377732156
 21
132.6292609954
  0
LINE
  5
230
100
AcDbEntity
  8
0
100
AcDbLine
 62
7
  6
CONTINUOUS
 10
68.6015941067
 20
130.2222211598
 11
70.3699040812
 21
131.2431493054
  0
LINE
  5
231
100
AcDbEntity
  8
0
100
AcDbLine
 62
7
  6
CONTINUOUS
 10
16.1921417513
 20
56.462324875
 11
16.2846412245
 21
56.4175206305
  0
LINE
  5
232
100
AcDbEntity
  8
0
100
AcDbLine
 62
7
  6
CONTINUOUS
 10
69.0493872872
 20
28.2649024772
 11
54.285480218
 21
36.7886553648
  0
LINE
  5
233
100
AcDbEntity
  8
0
100
AcDbLine
 62
7
  6
CONTINUOUS
 10
55.191497545
 20
37.8757192398
 11
57.3014259285
 21
36.6575790776
  0
LINE
  5
234
100
AcDbEntity
  8
0
100
AcDbLine
 62
7
  6
CONTINUOUS
 10
13.8158100345
 20
61.9334535477
 11
14.5229197597
 21
61.5252127931
  0
LINE
  5
235
100
AcDbEntity
  8
0
100
AcDbLine
 62
7
  6
CONTINUOUS
 10
51.2926254673
 20
40.2966935581
 11
51.9997351924
 21
39.8884528036
  0
LINE
  5
236
100
AcDbEntity
  8
0
100
AcDbLine
 62
7
  6
CONTINUOUS
 10
55.5203427503
 20
38.3622896646
 11
56.8872012871
 21
37.5731513732
  0
LINE
  5
237
100
AcDbEntity
  8
0
100
AcDbLine
 62
7
  6
CONTINUOUS
 10
16.6298220279
 20
63.6064450934
 11
52.8957718575
 21
42.6687628705
  0
LINE
  5
238
100
AcDbEntity
  8
0
100
AcDbLine
 62
7
  6
CONTINUOUS
 10
33.0364707664
 20
49.8433777378
 11
33.1708107747
 21
49.745836559
  0
LINE
  5
239
100
AcDbEntity
  8
0
100
AcDbLine
 62
7
  6
CONTINUOUS
 10
34.8261696604
 20
52.2687911245
 11
34.6246516762
 21
52.4150940245
  0
LINE
  5
23A
100
AcDbEntity
  8
0
100
AcDbLine
 62
7
  6
CONTINUOUS
 10
32.9531236525
 20
49.9418449475
 11
32.8188316953
 21
50.0394396091
  0
LINE
  5
23B
100
AcDbEntity
  8
0
100
AcDbLine
 62
7
  6
CONTINUOUS
 10
34.2903460715
 20
51.9204442091
 11
34.4246380287
 21
51.8228495475
  0
LINE
  5
23C
100
AcDbEntity
  8
0
100
AcDbLine
 62
7
  6
CONTINUOUS
 10
33.0364606795
 20
49.8433665206
 11
32.8187735572
 21
50.039374909
  0
LINE
  5
23D
100
AcDbEntity
  8
0
100
AcDbLine
 62
7
  6
CONTINUOUS
 10
50.2259080316
 20
36.8219644135
 11
49.0177805443
 21
37.9097785172
  0
LINE
  5
23E
100
AcDbEntity
  8
0
100
AcDbLine
 62
7
  6
CONTINUOUS
 10
34.642383289
 20
51.6269058592
 11
34.4246961667
 21
51.8229142476
  0
LINE
  5
23F
100
AcDbEntity
  8
0
100
AcDbLine
 62
7
  6
CONTINUOUS
 10
22.0620473236
 20
74.8330711153
 11
22.4499824573
 21
72.5165529537
  0
LINE
  5
240
100
AcDbEntity
  8
0
100
AcDbLine
 62
7
  6
CONTINUOUS
 10
22.0620473236
 20
74.8330711153
 11
22.0620473236
 21
74.0197159306
  0
LINE
  5
241
100
AcDbEntity
  8
0
100
AcDbLine
 62
7
  6
CONTINUOUS
 10
26.4461499936
 20
59.8026298744
 11
26.4461499936
 21
63.898998188
  0
LINE
  5
242
100
AcDbEntity
  8
0
100
AcDbLine
 62
7
  6
CONTINUOUS
 10
26.4815054799
 20
59.7822178366
 11
26.4815054799
 21
63.8785861503
  0
LINE
  5
243
100
AcDbEntity
  8
0
100
AcDbLine
 62
7
  6
CONTINUOUS
 10
35.709791127
 20
110.1381437031
 11
35.1441080572
 21
109.81154838
  0
LINE
  5
244
100
AcDbEntity
  8
0
100
AcDbLine
 62
7
  6
CONTINUOUS
 10
71.1705615038
 20
130.2861801244
 11
72.6833682261
 21
131.1595942792
  0
LINE
  5
245
100
AcDbEntity
  8
0
100
AcDbLine
 62
7
  6
CONTINUOUS
 10
56.2152085869
 20
120.4270151162
 11
55.6495255171
 21
120.1004197931
  0
LINE
  5
246
100
AcDbEntity
  8
0
100
AcDbLine
 62
7
  6
CONTINUOUS
 10
71.1705615038
 20
128.8182093797
 11
70.166206683
 21
128.2383483149
  0
LINE
  5
247
100
AcDbEntity
  8
0
100
AcDbLine
 62
7
  6
CONTINUOUS
 10
37.5995716413
 20
108.9032818687
 11
37.4418133151
 21
108.8122006003
  0
LINE
  5
248
100
AcDbEntity
  8
0
100
AcDbLine
 62
7
  6
CONTINUOUS
 10
68.6602502529
 20
126.4690508613
 11
53.669648904
 21
117.8142747993
  0
LINE
  5
249
100
AcDbEntity
  8
0
100
AcDbLine
 62
7
  6
CONTINUOUS
 10
53.6696542031
 20
117.0794383817
 11
69.933042459
 21
126.4690539207
  0
LINE
  5
24A
100
AcDbEntity
  8
0
100
AcDbLine
 62
7
  6
CONTINUOUS
 10
74.1049550984
 20
128.4694432199
 11
71.9836435868
 21
127.2447107583
  0
LINE
  5
24B
100
AcDbEntity
  8
0
100
AcDbLine
 62
7
  6
CONTINUOUS
 10
69.933042459
 20
126.0608027122
 11
53.6696542031
 21
116.6711871731
  0
LINE
  5
24C
100
AcDbEntity
  8
0
100
AcDbLine
 62
7
  6
CONTINUOUS
 10
45.851508457
 20
49.1735950258
 11
44.4067370124
 21
49.4333147096
  0
LINE
  5
24D
100
AcDbEntity
  8
0
100
AcDbLine
 62
7
  6
CONTINUOUS
 10
16.1944477834
 20
63.9984618702
 11
52.9641534911
 21
42.7699426351
  0
LINE
  5
24E
100
AcDbEntity
  8
0
100
AcDbLine
 62
7
  6
CONTINUOUS
 10
56.8872012871
 20
40.8435256315
 11
56.7281297512
 21
40.9353635479
  0
LINE
  5
24F
100
AcDbEntity
  8
0
100
AcDbLine
 62
7
  6
CONTINUOUS
 10
54.2284392241
 20
43.1861182396
 11
16.0445140662
 21
65.2311189837
  0
LINE
  5
250
100
AcDbEntity
  8
0
100
AcDbLine
 62
7
  6
CONTINUOUS
 10
19.3396972559
 20
63.9054494573
 11
19.3750527422
 21
63.8850374196
  0
LINE
  5
251
100
AcDbEntity
  8
0
100
AcDbLine
 62
7
  6
CONTINUOUS
 10
26.4461499936
 20
59.8026298744
 11
26.4815054799
 21
59.7822178366
  0
LINE
  5
252
100
AcDbEntity
  8
0
100
AcDbLine
 62
7
  6
CONTINUOUS
 10
31.855539391
 20
56.6795881023
 11
31.8908948773
 21
56.6591760646
  0
LINE
  5
253
100
AcDbEntity
  8
0
100
AcDbLine
 62
7
  6
CONTINUOUS
 10
38.9619921287
 20
52.5767685194
 11
38.997347615
 21
52.5563564816
  0
LINE
  5
254
100
AcDbEntity
  8
0
100
AcDbLine
 62
7
  6
CONTINUOUS
 10
44.3713815261
 20
49.4537267473
 11
44.4067370124
 21
49.4333147096
  0
LINE
  5
255
100
AcDbEntity
  8
0
100
AcDbLine
 62
7
  6
CONTINUOUS
 10
51.4778342638
 20
45.3509071644
 11
51.5131897501
 21
45.3304951266
  0
LINE
  5
256
100
AcDbEntity
  8
0
100
AcDbLine
 62
7
  6
CONTINUOUS
 10
51.4778342638
 20
47.620145776
 11
46.6897561253
 21
50.3844814406
  0
LINE
  5
257
100
AcDbEntity
  8
0
100
AcDbLine
 62
7
  6
CONTINUOUS
 10
38.9619921287
 20
54.846007131
 11
34.1739139902
 21
57.6103427956
  0
LINE
  5
258
100
AcDbEntity
  8
0
100
AcDbLine
 62
7
  6
CONTINUOUS
 10
26.4461499936
 20
62.071868486
 11
21.6580718551
 21
64.8362041506
  0
LINE
  5
259
100
AcDbEntity
  8
0
100
AcDbLine
 62
7
  6
CONTINUOUS
 10
51.9997351924
 20
39.8884528036
 11
54.8296677819
 21
37.3403437541
  0
LINE
  5
25A
100
AcDbEntity
  8
0
100
AcDbLine
 62
7
  6
CONTINUOUS
 10
29.1331445751
 20
70.7506635701
 11
29.1331445751
 21
69.9373083854
  0
LINE
  5
25B
100
AcDbEntity
  8
0
100
AcDbLine
 62
7
  6
CONTINUOUS
 10
30.7425339724
 20
62.8004770547
 11
30.7425339724
 21
60.6530379848
  0
LINE
  5
25C
100
AcDbEntity
  8
0
100
AcDbLine
 62
7
  6
CONTINUOUS
 10
30.7425339724
 20
59.9051621028
 11
30.7425339724
 21
57.757723033
  0
LINE
  5
25D
100
AcDbEntity
  8
0
100
AcDbLine
 62
7
  6
CONTINUOUS
 10
44.017703017
 20
108.8533209747
 11
77.6684917884
 21
128.2814969598
  0
LINE
  5
25E
100
AcDbEntity
  8
0
100
AcDbLine
 62
7
  6
CONTINUOUS
 10
20.7538825562
 20
95.1768276825
 11
31.5018608819
 21
101.3821388214
  0
LINE
  5
25F
100
AcDbEntity
  8
0
100
AcDbLine
 62
7
  6
CONTINUOUS
 10
73.8221459473
 20
124.2237297709
 11
57.5587576914
 21
114.8341142318
  0
LINE
  5
260
100
AcDbEntity
  8
0
100
AcDbLine
 62
7
  6
CONTINUOUS
 10
75.8727470753
 20
124.9993866085
 11
77.9940585869
 21
126.2241190702
  0
LINE
  5
261
100
AcDbEntity
  8
0
100
AcDbLine
 62
7
  6
CONTINUOUS
 10
58.8315498975
 20
114.8341172913
 11
73.8221512465
 21
123.4888933533
  0
LINE
  5
262
100
AcDbEntity
  8
0
100
AcDbLine
 62
7
  6
CONTINUOUS
 10
39.8097727718
 20
103.0367247947
 11
39.244089702
 21
102.7101294716
  0
LINE
  5
263
100
AcDbEntity
  8
0
100
AcDbLine
 62
7
  6
CONTINUOUS
 10
59.5386718419
 20
114.4258694821
 11
73.8221512465
 21
122.6723909362
  0
LINE
  5
264
100
AcDbEntity
  8
0
100
AcDbLine
 62
7
  6
CONTINUOUS
 10
33.3356663219
 20
56.3994563808
 11
31.8908948773
 21
56.6591760646
  0
LINE
  5
265
100
AcDbEntity
  8
0
100
AcDbLine
 62
7
  6
CONTINUOUS
 10
51.4778342638
 20
49.2864426765
 11
47.0734429458
 21
51.8292616633
  0
LINE
  5
266
100
AcDbEntity
  8
0
100
AcDbLine
 62
7
  6
CONTINUOUS
 10
38.9619921287
 20
56.5123040315
 11
34.5576008107
 21
59.0551230183
  0
LINE
  5
267
100
AcDbEntity
  8
0
100
AcDbLine
 62
7
  6
CONTINUOUS
 10
26.4461499936
 20
63.7381653865
 11
22.0417586756
 21
66.2809843733
  0
LINE
  5
268
100
AcDbEntity
  8
0
100
AcDbLine
 62
7
  6
CONTINUOUS
 10
51.5131897501
 20
49.4268634403
 11
51.4778342638
 21
49.447275478
  0
LINE
  5
269
100
AcDbEntity
  8
0
100
AcDbLine
 62
7
  6
CONTINUOUS
 10
44.4067370124
 20
53.5296830232
 11
44.3713814951
 21
53.5500950788
  0
LINE
  5
26A
100
AcDbEntity
  8
0
100
AcDbLine
 62
7
  6
CONTINUOUS
 10
38.997347615
 20
56.6527247953
 11
38.9619921287
 21
56.673136833
  0
LINE
  5
26B
100
AcDbEntity
  8
0
100
AcDbLine
 62
7
  6
CONTINUOUS
 10
31.8908948773
 20
60.7555443782
 11
31.85553936
 21
60.7759564339
  0
LINE
  5
26C
100
AcDbEntity
  8
0
100
AcDbLine
 62
7
  6
CONTINUOUS
 10
26.4815054799
 20
63.8785861503
 11
26.4461499936
 21
63.898998188
  0
LINE
  5
26D
100
AcDbEntity
  8
0
100
AcDbLine
 62
7
  6
CONTINUOUS
 10
19.3750527422
 20
67.9814057332
 11
19.3396972249
 21
68.0018177889
  0
LINE
  5
26E
100
AcDbEntity
  8
0
100
AcDbLine
 62
7
  6
CONTINUOUS
 10
54.2284392241
 20
43.1861182396
 11
57.0583718136
 21
40.6380091902
  0
LINE
  5
26F
100
AcDbEntity
  8
0
100
AcDbLine
 62
7
  6
CONTINUOUS
 10
31.5018608819
 20
101.3821388214
 11
31.5018608819
 21
116.0791823297
  0
LINE
  5
270
100
AcDbEntity
  8
0
100
AcDbLine
 62
7
  6
CONTINUOUS
 10
31.8555170169
 20
68.3655814805
 11
31.8555170169
 21
85.5014731855
  0
LINE
  5
271
100
AcDbEntity
  8
0
100
AcDbLine
 62
7
  6
CONTINUOUS
 10
31.855539391
 20
56.6795881023
 11
31.85553936
 21
60.7759564339
  0
LINE
  5
272
100
AcDbEntity
  8
0
100
AcDbLine
 62
7
  6
CONTINUOUS
 10
31.8908948773
 20
56.6591760646
 11
31.8908948773
 21
60.7555443782
  0
LINE
  5
273
100
AcDbEntity
  8
0
100
AcDbLine
 62
7
  6
CONTINUOUS
 10
34.5778894587
 20
67.6072097603
 11
34.5778894587
 21
66.7938545756
  0
LINE
  5
274
100
AcDbEntity
  8
0
100
AcDbLine
 62
7
  6
CONTINUOUS
 10
13.8158100345
 20
61.9334535477
 11
16.0445140662
 21
65.2311189837
  0
LINE
  5
275
100
AcDbEntity
  8
0
100
AcDbLine
 62
7
  6
CONTINUOUS
 10
16.1944477834
 20
63.9984618702
 11
14.5229197597
 21
61.5252127931
  0
LINE
  5
276
100
AcDbEntity
  8
0
100
AcDbLine
 62
7
  6
CONTINUOUS
 10
14.8468588026
 20
60.9683127445
 11
16.6298220279
 21
63.6064450934
  0
LINE
  5
277
100
AcDbEntity
  8
0
100
AcDbLine
 62
7
  6
CONTINUOUS
 10
64.7712268405
 20
116.7936778399
 11
68.0946148754
 21
118.7124253631
  0
LINE
  5
278
100
AcDbEntity
  8
0
100
AcDbLine
 62
7
  6
CONTINUOUS
 10
64.2055531914
 20
115.1607066634
 11
64.7712362612
 21
115.4873019865
  0
LINE
  5
279
100
AcDbEntity
  8
0
100
AcDbLine
 62
7
  6
CONTINUOUS
 10
81.1174362418
 20
124.5164915125
 11
82.6536153507
 21
125.4033996404
  0
LINE
  5
27A
100
AcDbEntity
  8
0
100
AcDbLine
 62
7
  6
CONTINUOUS
 10
81.1174362418
 20
122.9963598047
 11
82.8857462163
 21
124.0172879504
  0
LINE
  5
27B
100
AcDbEntity
  8
0
100
AcDbLine
 62
7
  6
CONTINUOUS
 10
48.2256332621
 20
102.9122823481
 11
47.6599501923
 21
102.585687025
  0
LINE
  5
27C
100
AcDbEntity
  8
0
100
AcDbLine
 62
7
  6
CONTINUOUS
 10
83.6864036389
 20
123.0603187694
 11
85.1992103612
 21
123.9337329242
  0
LINE
  5
27D
100
AcDbEntity
  8
0
100
AcDbLine
 62
7
  6
CONTINUOUS
 10
20.8198241868
 20
63.6253177358
 11
19.3750527422
 21
63.8850374196
  0
LINE
  5
27E
100
AcDbEntity
  8
0
100
AcDbLine
 62
7
  6
CONTINUOUS
 10
22.4499824573
 20
72.5165529537
 11
28.9373682767
 21
68.771143737
  0
LINE
  5
27F
100
AcDbEntity
  8
0
100
AcDbLine
 62
7
  6
CONTINUOUS
 10
34.9658245924
 20
65.2906915986
 11
41.4532104118
 21
61.545282382
  0
LINE
  5
280
100
AcDbEntity
  8
0
100
AcDbLine
 62
7
  6
CONTINUOUS
 10
47.4816667275
 20
58.0648302436
 11
53.9690525469
 21
54.3194210269
  0
LINE
  5
281
100
AcDbEntity
  8
0
100
AcDbLine
 62
7
  6
CONTINUOUS
 10
19.3396748818
 20
75.5914428355
 11
22.0620473236
 21
74.0197159306
  0
LINE
  5
282
100
AcDbEntity
  8
0
100
AcDbLine
 62
7
  6
CONTINUOUS
 10
29.1331445751
 20
69.9373083854
 11
34.5778894587
 21
66.7938545756
  0
LINE
  5
283
100
AcDbEntity
  8
0
100
AcDbLine
 62
7
  6
CONTINUOUS
 10
41.6489867102
 20
62.7114470304
 11
47.0937315938
 21
59.5679932206
  0
LINE
  5
284
100
AcDbEntity
  8
0
100
AcDbLine
 62
7
  6
CONTINUOUS
 10
54.1648288453
 20
55.4855856754
 11
56.8872012871
 21
53.9138587705
  0
LINE
  5
285
100
AcDbEntity
  8
0
100
AcDbLine
 62
7
  6
CONTINUOUS
 10
54.1648288453
 20
56.2989408601
 11
47.0937315938
 21
60.3813484053
  0
LINE
  5
286
100
AcDbEntity
  8
0
100
AcDbLine
 62
7
  6
CONTINUOUS
 10
41.6489867102
 20
63.5248022151
 11
34.5778894587
 21
67.6072097603
  0
LINE
  5
287
100
AcDbEntity
  8
0
100
AcDbLine
 62
7
  6
CONTINUOUS
 10
29.1331445751
 20
70.7506635701
 11
22.0620473236
 21
74.8330711153
  0
LINE
  5
288
100
AcDbEntity
  8
0
100
AcDbLine
 62
7
  6
CONTINUOUS
 10
34.5778894587
 20
67.6072097603
 11
34.9658245924
 21
65.2906915986
  0
LINE
  5
289
100
AcDbEntity
  8
0
100
AcDbLine
 62
7
  6
CONTINUOUS
 10
38.9619921287
 20
52.5767685194
 11
38.9619921287
 21
56.673136833
  0
LINE
  5
28A
100
AcDbEntity
  8
0
100
AcDbLine
 62
7
  6
CONTINUOUS
 10
38.997347615
 20
52.5563564816
 11
38.997347615
 21
56.6527247953
  0
LINE
  5
28B
100
AcDbEntity
  8
0
100
AcDbLine
 62
7
  6
CONTINUOUS
 10
20.2745747205
 20
62.7889475756
 11
21.6580718551
 21
64.8362041506
  0
LINE
  5
28C
100
AcDbEntity
  8
0
100
AcDbLine
 62
7
  6
CONTINUOUS
 10
68.731050722
 20
113.2011537612
 11
68.1653676522
 21
112.8745584381
  0
LINE
  5
28D
100
AcDbEntity
  8
0
100
AcDbLine
 62
7
  6
CONTINUOUS
 10
83.6864036389
 20
121.5923480247
 11
82.6820488181
 21
121.0124869598
  0
LINE
  5
28E
100
AcDbEntity
  8
0
100
AcDbLine
 62
7
  6
CONTINUOUS
 10
50.1154137764
 20
101.6774205137
 11
49.9576554502
 21
101.5863392453
  0
LINE
  5
28F
100
AcDbEntity
  8
0
100
AcDbLine
 62
7
  6
CONTINUOUS
 10
81.176092388
 20
119.2431895063
 11
66.1854910391
 21
110.5884134442
  0
LINE
  5
290
100
AcDbEntity
  8
0
100
AcDbLine
 62
7
  6
CONTINUOUS
 10
66.1854963382
 20
109.8535770267
 11
82.4488845941
 21
119.2431925657
  0
LINE
  5
291
100
AcDbEntity
  8
0
100
AcDbLine
 62
7
  6
CONTINUOUS
 10
86.6207972335
 20
121.2435818649
 11
84.4994857219
 21
120.0188494033
  0
LINE
  5
292
100
AcDbEntity
  8
0
100
AcDbLine
 62
7
  6
CONTINUOUS
 10
82.4488845941
 20
118.8349413572
 11
66.1854963382
 21
109.4453258181
  0
LINE
  5
293
100
AcDbEntity
  8
0
100
AcDbLine
 62
7
  6
CONTINUOUS
 10
56.5335451521
 20
101.6274596197
 11
90.1843339235
 21
121.0556356048
  0
LINE
  5
294
100
AcDbEntity
  8
0
100
AcDbLine
 62
7
  6
CONTINUOUS
 10
41.6489867102
 20
63.5248022151
 11
41.6489867102
 21
62.7114470304
  0
LINE
  5
295
100
AcDbEntity
  8
0
100
AcDbLine
 62
7
  6
CONTINUOUS
 10
43.2583761075
 20
55.5746156997
 11
43.2583761075
 21
53.4271766298
  0
LINE
  5
296
100
AcDbEntity
  8
0
100
AcDbLine
 62
7
  6
CONTINUOUS
 10
43.2583761075
 20
52.6793007478
 11
43.2583761075
 21
50.531861678
  0
LINE
  5
297
100
AcDbEntity
  8
0
100
AcDbLine
 62
7
  6
CONTINUOUS
 10
44.017703017
 20
94.1562774664
 11
44.017703017
 21
108.8533209747
  0
LINE
  5
298
100
AcDbEntity
  8
0
100
AcDbLine
 62
7
  6
CONTINUOUS
 10
44.371359152
 20
61.1397201255
 11
44.371359152
 21
78.2756118305
  0
LINE
  5
299
100
AcDbEntity
  8
0
100
AcDbLine
 62
7
  6
CONTINUOUS
 10
44.3713815261
 20
49.4537267473
 11
44.3713814951
 21
53.5500950788
  0
LINE
  5
29A
100
AcDbEntity
  8
0
100
AcDbLine
 62
7
  6
CONTINUOUS
 10
44.4067370124
 20
49.4333147096
 11
44.4067370124
 21
53.5296830232
  0
LINE
  5
29B
100
AcDbEntity
  8
0
100
AcDbLine
 62
7
  6
CONTINUOUS
 10
45.0429155563
 20
122.0599755869
 11
45.0429155563
 21
121.6517243783
  0
LINE
  5
29C
100
AcDbEntity
  8
0
100
AcDbLine
 62
7
  6
CONTINUOUS
 10
26.9214061369
 20
58.9514844831
 11
27.230773131
 21
59.4092762608
  0
LINE
  5
29D
100
AcDbEntity
  8
0
100
AcDbLine
 62
7
  6
CONTINUOUS
 10
33.2697246913
 20
87.9509663275
 11
44.017703017
 21
94.1562774664
  0
LINE
  5
29E
100
AcDbEntity
  8
0
100
AcDbLine
 62
7
  6
CONTINUOUS
 10
86.3379880824
 20
116.9978684159
 11
70.0745998265
 21
107.6082528768
  0
LINE
  5
29F
100
AcDbEntity
  8
0
100
AcDbLine
 62
7
  6
CONTINUOUS
 10
88.3885892104
 20
117.7735252535
 11
90.509900722
 21
118.9982577152
  0
LINE
  5
2A0
100
AcDbEntity
  8
0
100
AcDbLine
 62
7
  6
CONTINUOUS
 10
71.3473920326
 20
107.6082559362
 11
86.3379933816
 21
116.2630319983
  0
LINE
  5
2A1
100
AcDbEntity
  8
0
100
AcDbLine
 62
7
  6
CONTINUOUS
 10
52.3256149069
 20
95.8108634397
 11
51.7599318371
 21
95.4842681166
  0
LINE
  5
2A2
100
AcDbEntity
  8
0
100
AcDbLine
 62
7
  6
CONTINUOUS
 10
72.054513977
 20
107.2000081271
 11
86.3379933816
 21
115.4465295812
  0
LINE
  5
2A3
100
AcDbEntity
  8
0
100
AcDbLine
 62
7
  6
CONTINUOUS
 10
77.2870689756
 20
109.5678164849
 11
80.6104570105
 21
111.4865640081
  0
LINE
  5
2A4
100
AcDbEntity
  8
0
100
AcDbLine
 62
7
  6
CONTINUOUS
 10
76.7213953265
 20
107.9348453084
 11
77.2870783963
 21
108.2614406315
  0
LINE
  5
2A5
100
AcDbEntity
  8
0
100
AcDbLine
 62
7
  6
CONTINUOUS
 10
102.6368195548
 20
64.7540604008
 11
103.9096064618
 21
64.7538844019
  0
LINE
  5
2A6
100
AcDbEntity
  8
0
100
AcDbLine
 62
7
  6
CONTINUOUS
 10
101.18723402
 20
66.3256113068
 11
100.5154927345
 21
66.3257041941
  0
LINE
  5
2A7
100
AcDbEntity
  8
0
100
AcDbLine
 62
7
  6
CONTINUOUS
 10
47.0937315938
 20
60.3813484053
 11
47.4816667275
 21
58.0648302436
  0
LINE
  5
2A8
100
AcDbEntity
  8
0
100
AcDbLine
 62
7
  6
CONTINUOUS
 10
47.0937315938
 20
60.3813484053
 11
47.0937315938
 21
59.5679932206
  0
LINE
  5
2A9
100
AcDbEntity
  8
0
100
AcDbLine
 62
7
  6
CONTINUOUS
 10
28.7916610992
 20
58.5066922105
 11
28.4829462783
 21
58.0499492576
  0
LINE
  5
2AA
100
AcDbEntity
  8
0
100
AcDbLine
 62
7
  6
CONTINUOUS
 10
93.6332783769
 20
117.2906301575
 11
95.1694574858
 21
118.1775382854
  0
LINE
  5
2AB
100
AcDbEntity
  8
0
100
AcDbLine
 62
7
  6
CONTINUOUS
 10
93.6332783769
 20
115.7704984497
 11
95.4015883514
 21
116.7914265954
  0
LINE
  5
2AC
100
AcDbEntity
  8
0
100
AcDbLine
 62
7
  6
CONTINUOUS
 10
60.7414753972
 20
95.6864209931
 11
60.1757923274
 21
95.35982567
  0
LINE
  5
2AD
100
AcDbEntity
  8
0
100
AcDbLine
 62
7
  6
CONTINUOUS
 10
96.202245774
 20
115.8344574144
 11
97.7150524963
 21
116.7078715691
  0
LINE
  5
2AE
100
AcDbEntity
  8
0
100
AcDbLine
 62
7
  6
CONTINUOUS
 10
81.2468928571
 20
105.9752924062
 11
80.6812097873
 21
105.6486970831
  0
LINE
  5
2AF
100
AcDbEntity
  8
0
100
AcDbLine
 62
7
  6
CONTINUOUS
 10
96.202245774
 20
114.3664866697
 11
95.1978909532
 21
113.7866256048
  0
LINE
  5
2B0
100
AcDbEntity
  8
0
100
AcDbLine
 62
7
  6
CONTINUOUS
 10
62.6312559115
 20
94.4515591587
 11
62.4734975853
 21
94.3604778903
  0
LINE
  5
2B1
100
AcDbEntity
  8
0
100
AcDbLine
 62
7
  6
CONTINUOUS
 10
56.8872012871
 20
71.0497504755
 11
19.3396748818
 21
92.7273345405
  0
LINE
  5
2B2
100
AcDbEntity
  8
0
100
AcDbLine
 62
7
  6
CONTINUOUS
 10
51.4778342638
 20
45.3509071644
 11
51.4778342638
 21
49.447275478
  0
LINE
  5
2B3
100
AcDbEntity
  8
0
100
AcDbLine
 62
7
  6
CONTINUOUS
 10
51.5131897501
 20
45.3304951266
 11
51.5131897501
 21
49.4268634403
  0
LINE
  5
2B4
100
AcDbEntity
  8
0
100
AcDbLine
 62
7
  6
CONTINUOUS
 10
52.2553847054
 20
124.0195391949
 11
52.2553941261
 21
122.0599781343
  0
LINE
  5
2B5
100
AcDbEntity
  8
0
100
AcDbLine
 62
7
  6
CONTINUOUS
 10
53.6696542031
 20
117.0794383817
 11
53.6696542031
 21
116.6711871731
  0
LINE
  5
2B6
100
AcDbEntity
  8
0
100
AcDbLine
 62
7
  6
CONTINUOUS
 10
54.1648288453
 20
56.2989408601
 11
54.1648288453
 21
55.4855856754
  0
LINE
  5
2B7
100
AcDbEntity
  8
0
100
AcDbLine
 62
7
  6
CONTINUOUS
 10
32.7904168556
 20
55.5630862206
 11
34.1739139902
 21
57.6103427956
  0
LINE
  5
2B8
100
AcDbEntity
  8
0
100
AcDbLine
 62
7
  6
CONTINUOUS
 10
93.6919345231
 20
112.0173281513
 11
78.7013331742
 21
103.3625520892
  0
LINE
  5
2B9
100
AcDbEntity
  8
0
100
AcDbLine
 62
7
  6
CONTINUOUS
 10
78.7013384733
 20
102.6277156717
 11
94.9647267292
 21
112.0173312107
  0
LINE
  5
2BA
100
AcDbEntity
  8
0
100
AcDbLine
 62
7
  6
CONTINUOUS
 10
99.1366393686
 20
114.0177205099
 11
97.015327857
 21
112.7929880483
  0
LINE
  5
2BB
100
AcDbEntity
  8
0
100
AcDbLine
 62
7
  6
CONTINUOUS
 10
94.9647267292
 20
111.6090800022
 11
78.7013384733
 21
102.2194644631
  0
LINE
  5
2BC
100
AcDbEntity
  8
0
100
AcDbLine
 62
7
  6
CONTINUOUS
 10
69.0493872872
 20
94.4015982647
 11
102.7001760586
 21
113.8297742498
  0
LINE
  5
2BD
100
AcDbEntity
  8
0
100
AcDbLine
 62
7
  6
CONTINUOUS
 10
45.7855668264
 20
80.7251049725
 11
56.5335451521
 21
86.9304161114
  0
LINE
  5
2BE
100
AcDbEntity
  8
0
100
AcDbLine
 62
7
  6
CONTINUOUS
 10
20.7538825562
 20
95.1768276825
 11
58.3014089615
 21
73.4992436175
  0
LINE
  5
2BF
100
AcDbEntity
  8
0
100
AcDbLine
 62
7
  6
CONTINUOUS
 10
55.5787727403
 20
120.1412680037
 11
55.5787727403
 21
125.9382867181
  0
LINE
  5
2C0
100
AcDbEntity
  8
0
100
AcDbLine
 62
7
  6
CONTINUOUS
 10
56.5335451521
 20
35.4907638322
 11
56.5335451521
 21
37.1009052212
  0
LINE
  5
2C1
100
AcDbEntity
  8
0
100
AcDbLine
 62
7
  6
CONTINUOUS
 10
56.5335451521
 20
86.9304161114
 11
56.5335451521
 21
101.6274596197
  0
LINE
  5
2C2
100
AcDbEntity
  8
0
100
AcDbLine
 62
7
  6
CONTINUOUS
 10
56.8872012871
 20
37.5731513732
 11
56.8872012871
 21
40.3847395227
  0
LINE
  5
2C3
100
AcDbEntity
  8
0
100
AcDbLine
 62
7
  6
CONTINUOUS
 10
56.8872012871
 20
40.7921334153
 11
56.8872012871
 21
71.0497504755
  0
LINE
  5
2C4
100
AcDbEntity
  8
0
100
AcDbLine
 62
7
  6
CONTINUOUS
 10
57.5587576914
 20
114.8341142318
 11
57.5587576914
 21
114.4258630233
  0
LINE
  5
2C5
100
AcDbEntity
  8
0
100
AcDbLine
 62
7
  6
CONTINUOUS
 10
58.407199865
 20
125.9382935168
 11
58.407199865
 21
120.5494847949
  0
LINE
  5
2C6
100
AcDbEntity
  8
0
100
AcDbLine
 62
7
  6
CONTINUOUS
 10
64.841457042
 20
88.5850020847
 11
64.2757739722
 21
88.2584067616
  0
LINE
  5
2C7
100
AcDbEntity
  8
0
100
AcDbLine
 62
7
  6
CONTINUOUS
 10
61.3063091114
 20
129.8982522912
 11
61.3063091114
 21
130.7147547083
  0
LINE
  5
2C8
100
AcDbEntity
  8
0
100
AcDbLine
 62
7
  6
CONTINUOUS
 10
61.8013265457
 20
122.5090730505
 11
61.8013265457
 21
123.9787378951
  0
LINE
  5
2C9
100
AcDbEntity
  8
0
100
AcDbLine
 62
7
  6
CONTINUOUS
 10
39.437248272
 20
51.7256231281
 11
39.7466152661
 21
52.1834149058
  0
LINE
  5
2CA
100
AcDbEntity
  8
0
100
AcDbLine
 62
7
  6
CONTINUOUS
 10
41.3075032343
 20
51.2808308555
 11
40.9987884134
 21
50.8240879025
  0
LINE
  5
2CB
100
AcDbEntity
  8
0
100
AcDbLine
 62
7
  6
CONTINUOUS
 10
69.0493872872
 20
79.7045547564
 11
31.5018608819
 21
101.3821388214
  0
LINE
  5
2CC
100
AcDbEntity
  8
0
100
AcDbLine
 62
7
  6
CONTINUOUS
 10
64.7712268405
 20
116.7936778399
 11
64.7712362612
 21
114.8341167793
  0
LINE
  5
2CD
100
AcDbEntity
  8
0
100
AcDbLine
 62
7
  6
CONTINUOUS
 10
65.4782164518
 20
130.9164921352
 11
65.4782164518
 21
133.4499804252
  0
LINE
  5
2CE
100
AcDbEntity
  8
0
100
AcDbLine
 62
7
  6
CONTINUOUS
 10
66.1854963382
 20
109.8535770267
 11
66.1854963382
 21
109.4453258181
  0
LINE
  5
2CF
100
AcDbEntity
  8
0
100
AcDbLine
 62
7
  6
CONTINUOUS
 10
68.0946148754
 20
112.9154066487
 11
68.0946148754
 21
118.7124253631
  0
LINE
  5
2D0
100
AcDbEntity
  8
0
100
AcDbLine
 62
7
  6
CONTINUOUS
 10
68.6015941067
 20
130.2222211598
 11
68.6015941067
 21
131.7423528675
  0
LINE
  5
2D1
100
AcDbEntity
  8
0
100
AcDbLine
 62
7
  6
CONTINUOUS
 10
45.3062589907
 20
48.3372248656
 11
46.6897561253
 21
50.3844814406
  0
LINE
  5
2D2
100
AcDbEntity
  8
0
100
AcDbLine
 62
7
  6
CONTINUOUS
 10
58.3014089615
 20
73.4992436175
 11
69.0493872872
 21
79.7045547564
  0
LINE
  5
2D3
100
AcDbEntity
  8
0
100
AcDbLine
 62
7
  6
CONTINUOUS
 10
102.6368195548
 20
63.5782969201
 11
101.0811911129
 21
64.4764191016
  0
LINE
  5
2D4
100
AcDbEntity
  8
0
100
AcDbLine
 62
7
  6
CONTINUOUS
 10
101.0811911129
 20
64.7214158244
 11
100.0205353571
 21
65.3337718572
  0
LINE
  5
2D5
100
AcDbEntity
  8
0
100
AcDbLine
 62
7
  6
CONTINUOUS
 10
102.6368195548
 20
64.7540604008
 11
100.5154927345
 21
65.9787813046
  0
LINE
  5
2D6
100
AcDbEntity
  8
0
100
AcDbLine
 62
7
  6
CONTINUOUS
 10
100.0205353571
 20
66.9667536922
 11
100.5154927345
 21
66.6809817466
  0
LINE
  5
2D7
100
AcDbEntity
  8
0
100
AcDbLine
 62
7
  6
CONTINUOUS
 10
103.9096064618
 20
64.7538844019
 11
101.18723402
 21
66.3256113068
  0
LINE
  5
2D8
100
AcDbEntity
  8
0
100
AcDbLine
 62
7
  6
CONTINUOUS
 10
100.0205353571
 20
68.5997271641
 11
101.0104565887
 21
68.0281795334
  0
LINE
  5
2D9
100
AcDbEntity
  8
0
100
AcDbLine
 62
7
  6
CONTINUOUS
 10
69.0493872872
 20
28.2649024772
 11
69.0493872872
 21
42.9619459855
  0
LINE
  5
2DA
100
AcDbEntity
  8
0
100
AcDbLine
 62
7
  6
CONTINUOUS
 10
69.0493872872
 20
79.7045547564
 11
69.0493872872
 21
94.4015982647
  0
LINE
  5
2DB
100
AcDbEntity
  8
0
100
AcDbLine
 62
7
  6
CONTINUOUS
 10
69.933042459
 20
126.4690539207
 11
69.933042459
 21
126.0608027122
  0
LINE
  5
2DC
100
AcDbEntity
  8
0
100
AcDbLine
 62
7
  6
CONTINUOUS
 10
70.0745998265
 20
107.6082528768
 11
70.0745998265
 21
107.2000016683
  0
LINE
  5
2DD
100
AcDbEntity
  8
0
100
AcDbLine
 62
7
  6
CONTINUOUS
 10
70.9230420001
 20
118.7124321618
 11
70.9230420001
 21
113.3236234399
  0
LINE
  5
2DE
100
AcDbEntity
  8
0
100
AcDbLine
 62
7
  6
CONTINUOUS
 10
71.1705615038
 20
127.6892427762
 11
71.1705615038
 21
130.2861801244
  0
LINE
  5
2DF
100
AcDbEntity
  8
0
100
AcDbLine
 62
7
  6
CONTINUOUS
 10
100.5862184269
 20
93.8297319334
 11
100.0205353571
 21
93.5031366103
  0
LINE
  5
2E0
100
AcDbEntity
  8
0
100
AcDbLine
 62
7
  6
CONTINUOUS
 10
102.6129194451
 20
93.1218857678
 11
101.7250091567
 21
92.6092535838
  0
LINE
  5
2E1
100
AcDbEntity
  8
0
100
AcDbLine
 62
7
  6
CONTINUOUS
 10
63.0446039822
 20
94.0307569176
 11
62.4734975853
 21
94.3604778903
  0
LINE
  5
2E2
100
AcDbEntity
  8
0
100
AcDbLine
 62
7
  6
CONTINUOUS
 10
50.5287618471
 20
101.2566182726
 11
49.9576554502
 21
101.5863392453
  0
LINE
  5
2E3
100
AcDbEntity
  8
0
100
AcDbLine
 62
7
  6
CONTINUOUS
 10
38.012919712
 20
108.4824796276
 11
37.4418133151
 21
108.8122006003
  0
LINE
  5
2E4
100
AcDbEntity
  8
0
100
AcDbLine
 62
7
  6
CONTINUOUS
 10
73.8221512465
 20
122.6723909362
 11
73.8221512465
 21
123.4888933533
  0
LINE
  5
2E5
100
AcDbEntity
  8
0
100
AcDbLine
 62
7
  6
CONTINUOUS
 10
74.3171686808
 20
115.2832116955
 11
74.3171686808
 21
116.7528765401
  0
LINE
  5
2E6
100
AcDbEntity
  8
0
100
AcDbLine
 62
7
  6
CONTINUOUS
 10
77.2870689756
 20
109.5678164849
 11
77.2870783963
 21
107.6082554242
  0
LINE
  5
2E7
100
AcDbEntity
  8
0
100
AcDbLine
 62
7
  6
CONTINUOUS
 10
51.9530904071
 20
44.4997617731
 11
52.2624574012
 21
44.9575535508
  0
LINE
  5
2E8
100
AcDbEntity
  8
0
100
AcDbLine
 62
7
  6
CONTINUOUS
 10
52.9641534911
 20
42.7699426351
 11
51.2926254673
 21
40.2966935581
  0
LINE
  5
2E9
100
AcDbEntity
  8
0
100
AcDbLine
 62
7
  6
CONTINUOUS
 10
51.9997351924
 20
39.8884528036
 11
54.2284392241
 21
43.1861182396
  0
LINE
  5
2EA
100
AcDbEntity
  8
0
100
AcDbLine
 62
7
  6
CONTINUOUS
 10
53.8233453694
 20
44.0549695005
 11
53.5146305485
 21
43.5982265475
  0
LINE
  5
2EB
100
AcDbEntity
  8
0
100
AcDbLine
 62
7
  6
CONTINUOUS
 10
69.0493872872
 20
94.4015982647
 11
31.5018608819
 21
116.0791823297
  0
LINE
  5
2EC
100
AcDbEntity
  8
0
100
AcDbLine
 62
7
  6
CONTINUOUS
 10
77.9940585869
 20
123.6906307802
 11
77.9940585869
 21
126.2241190702
  0
LINE
  5
2ED
100
AcDbEntity
  8
0
100
AcDbLine
 62
7
  6
CONTINUOUS
 10
78.7013384733
 20
102.6277156717
 11
78.7013384733
 21
102.2194644631
  0
LINE
  5
2EE
100
AcDbEntity
  8
0
100
AcDbLine
 62
7
  6
CONTINUOUS
 10
80.6104570105
 20
105.6895452937
 11
80.6104570105
 21
111.4865640081
  0
LINE
  5
2EF
100
AcDbEntity
  8
0
100
AcDbLine
 62
7
  6
CONTINUOUS
 10
81.1174362418
 20
122.9963598047
 11
81.1174362418
 21
124.5164915125
  0
LINE
  5
2F0
100
AcDbEntity
  8
0
100
AcDbLine
 62
7
  6
CONTINUOUS
 10
82.4488845941
 20
119.2431925657
 11
82.4488845941
 21
118.8349413572
  0
LINE
  5
2F1
100
AcDbEntity
  8
0
100
AcDbLine
 62
7
  6
CONTINUOUS
 10
57.0583718136
 20
40.6380091902
 11
54.8296677819
 21
37.3403437541
  0
LINE
  5
2F2
100
AcDbEntity
  8
0
100
AcDbLine
 62
7
  6
CONTINUOUS
 10
70.1377732156
 20
132.6292609954
 11
70.3699040812
 21
131.2431493054
  0
LINE
  5
2F3
100
AcDbEntity
  8
0
100
AcDbLine
 62
7
  6
CONTINUOUS
 10
83.4388841352
 20
111.4865708068
 11
83.4388841352
 21
106.0977620849
  0
LINE
  5
2F4
100
AcDbEntity
  8
0
100
AcDbLine
 62
7
  6
CONTINUOUS
 10
83.6864036389
 20
120.4633814212
 11
83.6864036389
 21
123.0603187694
  0
LINE
  5
2F5
100
AcDbEntity
  8
0
100
AcDbLine
 62
7
  6
CONTINUOUS
 10
86.3379933816
 20
115.4465295812
 11
86.3379933816
 21
116.2630319983
  0
LINE
  5
2F6
100
AcDbEntity
  8
0
100
AcDbLine
 62
7
  6
CONTINUOUS
 10
86.8330108159
 20
108.0573503405
 11
86.8330108159
 21
109.5270151851
  0
LINE
  5
2F7
100
AcDbEntity
  8
0
100
AcDbLine
 62
7
  6
CONTINUOUS
 10
81.2468928571
 20
105.9752924062
 11
83.226767406
 21
105.9752971652
  0
LINE
  5
2F8
100
AcDbEntity
  8
0
100
AcDbLine
 62
7
  6
CONTINUOUS
 10
78.7013384733
 20
102.2194644631
 11
70.0745998265
 21
107.2000016683
  0
LINE
  5
2F9
100
AcDbEntity
  8
0
100
AcDbLine
 62
7
  6
CONTINUOUS
 10
66.1854963382
 20
109.4453258181
 11
57.5587576914
 21
114.4258630233
  0
LINE
  5
2FA
100
AcDbEntity
  8
0
100
AcDbLine
 62
7
  6
CONTINUOUS
 10
53.6696542031
 20
116.6711871731
 11
45.0429155563
 21
121.6517243783
  0
LINE
  5
2FB
100
AcDbEntity
  8
0
100
AcDbLine
 62
7
  6
CONTINUOUS
 10
45.0429155563
 20
122.0599755869
 11
53.6696542031
 21
117.0794383817
  0
LINE
  5
2FC
100
AcDbEntity
  8
0
100
AcDbLine
 62
7
  6
CONTINUOUS
 10
57.5587576914
 20
114.8341142318
 11
66.1854963382
 21
109.8535770267
  0
LINE
  5
2FD
100
AcDbEntity
  8
0
100
AcDbLine
 62
7
  6
CONTINUOUS
 10
70.0745998265
 20
107.6082528768
 11
78.7013384733
 21
102.6277156717
  0
LINE
  5
2FE
100
AcDbEntity
  8
0
100
AcDbLine
 62
7
  6
CONTINUOUS
 10
78.7013331742
 20
103.3625520892
 11
71.3473920326
 21
107.6082559362
  0
LINE
  5
2FF
100
AcDbEntity
  8
0
100
AcDbLine
 62
7
  6
CONTINUOUS
 10
66.1854910391
 20
110.5884134442
 11
58.8315498975
 21
114.8341172913
  0
LINE
  5
300
100
AcDbEntity
  8
0
100
AcDbLine
 62
7
  6
CONTINUOUS
 10
53.669648904
 20
117.8142747993
 11
46.3157077624
 21
122.0599786463
  0
LINE
  5
301
100
AcDbEntity
  8
0
100
AcDbLine
 62
7
  6
CONTINUOUS
 10
90.509900722
 20
116.4647694252
 11
90.509900722
 21
118.9982577152
  0
LINE
  5
302
100
AcDbEntity
  8
0
100
AcDbLine
 62
7
  6
CONTINUOUS
 10
68.731050722
 20
113.2011537612
 11
70.7109252709
 21
113.2011585202
  0
LINE
  5
303
100
AcDbEntity
  8
0
100
AcDbLine
 62
7
  6
CONTINUOUS
 10
101.7250091567
 20
92.6092535838
 11
100.0986286846
 21
93.5482235448
  0
LINE
  5
304
100
AcDbEntity
  8
0
100
AcDbLine
 62
7
  6
CONTINUOUS
 10
80.6812097873
 20
105.6486970831
 11
76.7213953265
 21
107.9348453084
  0
LINE
  5
305
100
AcDbEntity
  8
0
100
AcDbLine
 62
7
  6
CONTINUOUS
 10
68.1653676522
 20
112.8745584381
 11
64.2055531914
 21
115.1607066634
  0
LINE
  5
306
100
AcDbEntity
  8
0
100
AcDbLine
 62
7
  6
CONTINUOUS
 10
55.6495255171
 20
120.1004197931
 11
51.6897110563
 21
122.3865680184
  0
LINE
  5
307
100
AcDbEntity
  8
0
100
AcDbLine
 62
7
  6
CONTINUOUS
 10
82.6536153507
 20
125.4033996404
 11
82.8857462163
 21
124.0172879504
  0
LINE
  5
308
100
AcDbEntity
  8
0
100
AcDbLine
 62
7
  6
CONTINUOUS
 10
93.6332783769
 20
115.7704984497
 11
93.6332783769
 21
117.2906301575
  0
LINE
  5
309
100
AcDbEntity
  8
0
100
AcDbLine
 62
7
  6
CONTINUOUS
 10
94.9647267292
 20
112.0173312107
 11
94.9647267292
 21
111.6090800022
  0
LINE
  5
30A
100
AcDbEntity
  8
0
100
AcDbLine
 62
7
  6
CONTINUOUS
 10
96.202245774
 20
113.2375200662
 11
96.202245774
 21
115.8344574144
  0
LINE
  5
30B
100
AcDbEntity
  8
0
100
AcDbLine
 62
7
  6
CONTINUOUS
 10
100.0205353571
 20
64.1090495936
 11
101.0811911129
 21
64.7214158244
  0
LINE
  5
30C
100
AcDbEntity
  8
0
100
AcDbLine
 62
7
  6
CONTINUOUS
 10
101.0811911129
 20
62.6801597816
 11
102.6368195548
 21
63.5782969201
  0
LINE
  5
30D
100
AcDbEntity
  8
0
100
AcDbLine
 62
7
  6
CONTINUOUS
 10
58.407199865
 20
125.9382935168
 11
61.8013265457
 21
123.9787378951
  0
LINE
  5
30E
100
AcDbEntity
  8
0
100
AcDbLine
 62
7
  6
CONTINUOUS
 10
70.9230420001
 20
118.7124321618
 11
74.3171686808
 21
116.7528765401
  0
LINE
  5
30F
100
AcDbEntity
  8
0
100
AcDbLine
 62
7
  6
CONTINUOUS
 10
83.4388841352
 20
111.4865708068
 11
86.8330108159
 21
109.5270151851
  0
LINE
  5
310
100
AcDbEntity
  8
0
100
AcDbLine
 62
7
  6
CONTINUOUS
 10
100.0205353571
 20
93.5031366103
 11
100.0205353571
 21
64.1090495936
  0
LINE
  5
311
100
AcDbEntity
  8
0
100
AcDbLine
 62
7
  6
CONTINUOUS
 10
100.5154927345
 20
65.0480145468
 11
100.5154927345
 21
66.6809817466
  0
LINE
  5
312
100
AcDbEntity
  8
0
100
AcDbLine
 62
7
  6
CONTINUOUS
 10
101.0104565887
 20
66.3256357513
 11
101.0104565887
 21
68.0281795334
  0
LINE
  5
313
100
AcDbEntity
  8
0
100
AcDbLine
 62
7
  6
CONTINUOUS
 10
101.0811911129
 20
64.7214158244
 11
101.0811911129
 21
62.6801597816
  0
LINE
  5
314
100
AcDbEntity
  8
0
100
AcDbLine
 62
7
  6
CONTINUOUS
 10
103.9096064618
 20
102.3621490353
 11
102.6129194451
 21
93.1218857678
  0
LINE
  5
315
100
AcDbEntity
  8
0
100
AcDbLine
 62
7
  6
CONTINUOUS
 10
69.0493872872
 20
42.9619459855
 11
58.3014089615
 21
36.7566348467
  0
LINE
  5
316
100
AcDbEntity
  8
0
100
AcDbLine
 62
7
  6
CONTINUOUS
 10
56.2152085869
 20
120.4270151162
 11
58.1950831358
 21
120.4270198752
  0
LINE
  5
317
100
AcDbEntity
  8
0
100
AcDbLine
 62
7
  6
CONTINUOUS
 10
101.7250091567
 20
92.6092535838
 11
100.5862184269
 21
93.8297319334
  0
LINE
  5
318
100
AcDbEntity
  8
0
100
AcDbLine
 62
7
  6
CONTINUOUS
 10
95.1694574858
 20
118.1775382854
 11
95.4015883514
 21
116.7914265954
  0
LINE
  5
319
100
AcDbEntity
  8
0
100
AcDbLine
 62
7
  6
CONTINUOUS
 10
102.6368195548
 20
63.5782969201
 11
102.6368195548
 21
64.7540604008
  0
LINE
  5
31A
100
AcDbEntity
  8
0
100
AcDbLine
 62
7
  6
CONTINUOUS
 10
103.9096064618
 20
106.6079616044
 11
103.9096064618
 21
102.3621490353
  0
LINE
  5
31B
100
AcDbEntity
  8
0
100
AcDbLine
 62
7
  6
CONTINUOUS
 10
103.9096064618
 20
64.7538844019
 11
103.9096064618
 21
48.3913392631
  0
LINE
  5
31C
100
AcDbEntity
  8
0
100
AcDbLine
 62
7
  6
CONTINUOUS
 10
64.841457042
 20
34.2059411038
 11
64.2757739722
 21
33.8793457807
  0
LINE
  5
31D
100
AcDbEntity
  8
0
100
AcDbLine
 62
7
  6
CONTINUOUS
 10
92.1488273267
 20
115.4536238512
 11
97.015327857
 21
112.7929880483
  0
LINE
  5
31E
100
AcDbEntity
  8
0
100
AcDbLine
 62
7
  6
CONTINUOUS
 10
79.6329851916
 20
122.6794852062
 11
84.4994857219
 21
120.0188494033
  0
LINE
  5
31F
100
AcDbEntity
  8
0
100
AcDbLine
 62
7
  6
CONTINUOUS
 10
67.1171430565
 20
129.9053465612
 11
71.9836435868
 21
127.2447107583
  0
LINE
  5
320
100
AcDbEntity
  8
0
100
AcDbLine
 62
7
  6
CONTINUOUS
 10
61.3063091114
 20
129.8982522912
 11
67.9531283085
 21
126.0607962533
  0
LINE
  5
321
100
AcDbEntity
  8
0
100
AcDbLine
 62
7
  6
CONTINUOUS
 10
73.8221512465
 20
122.6723909362
 11
80.4689704436
 21
118.8349348983
  0
LINE
  5
322
100
AcDbEntity
  8
0
100
AcDbLine
 62
7
  6
CONTINUOUS
 10
86.3379933816
 20
115.4465295812
 11
92.9848125787
 21
111.6090735433
  0
LINE
  5
323
100
AcDbEntity
  8
0
100
AcDbLine
 62
7
  6
CONTINUOUS
 10
61.3063091114
 20
130.7147547083
 11
68.6602502529
 21
126.4690508613
  0
LINE
  5
324
100
AcDbEntity
  8
0
100
AcDbLine
 62
7
  6
CONTINUOUS
 10
73.8221512465
 20
123.4888933533
 11
81.176092388
 21
119.2431895063
  0
LINE
  5
325
100
AcDbEntity
  8
0
100
AcDbLine
 62
7
  6
CONTINUOUS
 10
86.3379933816
 20
116.2630319983
 11
93.6919345231
 21
112.0173281513
  0
LINE
  5
326
100
AcDbEntity
  8
0
100
AcDbLine
 62
7
  6
CONTINUOUS
 10
94.9647267292
 20
112.0173312107
 11
86.3379880824
 21
116.9978684159
  0
LINE
  5
327
100
AcDbEntity
  8
0
100
AcDbLine
 62
7
  6
CONTINUOUS
 10
82.4488845941
 20
119.2431925657
 11
73.8221459473
 21
124.2237297709
  0
LINE
  5
328
100
AcDbEntity
  8
0
100
AcDbLine
 62
7
  6
CONTINUOUS
 10
69.933042459
 20
126.4690539207
 11
61.3063038122
 21
131.4495911259
  0
LINE
  5
329
100
AcDbEntity
  8
0
100
AcDbLine
 62
7
  6
CONTINUOUS
 10
63.3569049402
 20
132.2252479636
 11
67.1171430565
 21
129.9053465612
  0
LINE
  5
32A
100
AcDbEntity
  8
0
100
AcDbLine
 62
7
  6
CONTINUOUS
 10
75.8727470753
 20
124.9993866085
 11
79.6329851916
 21
122.6794852062
  0
LINE
  5
32B
100
AcDbEntity
  8
0
100
AcDbLine
 62
7
  6
CONTINUOUS
 10
88.3885892104
 20
117.7735252535
 11
92.1488273267
 21
115.4536238512
  0
LINE
  5
32C
100
AcDbEntity
  8
0
100
AcDbLine
 62
7
  6
CONTINUOUS
 10
103.9096064618
 20
48.3913392631
 11
69.0493872872
 21
28.2649024772
  0
LINE
  5
32D
100
AcDbEntity
  8
0
100
AcDbLine
 62
7
  6
CONTINUOUS
 10
93.6332783769
 20
117.2906301575
 11
90.509900722
 21
118.9982577152
  0
LINE
  5
32E
100
AcDbEntity
  8
0
100
AcDbLine
 62
7
  6
CONTINUOUS
 10
81.1174362418
 20
124.5164915125
 11
77.9940585869
 21
126.2241190702
  0
LINE
  5
32F
100
AcDbEntity
  8
0
100
AcDbLine
 62
7
  6
CONTINUOUS
 10
68.6015941067
 20
131.7423528675
 11
65.4782164518
 21
133.4499804252
  0
LINE
  5
330
100
AcDbEntity
  8
0
100
AcDbLine
 62
7
  6
CONTINUOUS
 10
102.7001760586
 20
113.8297742498
 11
97.7150524963
 21
116.7078715691
  0
LINE
  5
331
100
AcDbEntity
  8
0
100
AcDbLine
 62
7
  6
CONTINUOUS
 10
95.1694574858
 20
118.1775382854
 11
85.1992103612
 21
123.9337329242
  0
LINE
  5
332
100
AcDbEntity
  8
0
100
AcDbLine
 62
7
  6
CONTINUOUS
 10
82.6536153507
 20
125.4033996404
 11
72.6833682261
 21
131.1595942792
  0
LINE
  5
333
100
AcDbEntity
  8
0
100
AcDbLine
 62
7
  6
CONTINUOUS
 10
70.1377732156
 20
132.6292609954
 11
65.1526496533
 21
135.5073583148
  0
LINE
  5
334
100
AcDbEntity
  8
0
100
AcDbLine
 62
7
  6
CONTINUOUS
 10
74.1049550984
 20
128.4694432199
 11
71.1705615038
 21
130.2861801244
  0
LINE
  5
335
100
AcDbEntity
  8
0
100
AcDbLine
 62
7
  6
CONTINUOUS
 10
86.6207972335
 20
121.2435818649
 11
83.6864036389
 21
123.0603187694
  0
LINE
  5
336
100
AcDbEntity
  8
0
100
AcDbLine
 62
7
  6
CONTINUOUS
 10
99.1366393686
 20
114.0177205099
 11
96.202245774
 21
115.8344574144
  0
LINE
  5
337
100
AcDbEntity
  8
0
100
AcDbLine
 62
7
  6
CONTINUOUS
 10
102.7001760586
 20
113.8297742498
 11
103.9096064618
 21
106.6079616044
  0
ARC
  5
338
100
AcDbEntity
  8
0
100
AcDbCircle
 62
7
  6
CONTINUOUS
 10
56.6243881337
 20
36.6934708196
 40
6.4351307084
100
AcDbArc
 50
145.9490430747
 51
147.7250662419
  0
ARC
  5
339
100
AcDbEntity
  8
0
100
AcDbCircle
 62
7
  6
CONTINUOUS
 10
19.854682426
 20
57.9219900546
 40
6.4351307083
100
AcDbArc
 50
145.9490430747
 51
147.7250662419
  0
ARC
  5
33A
100
AcDbEntity
  8
0
100
AcDbCircle
 62
7
  6
CONTINUOUS
 10
17.2658776986
 20
60.8128832507
 40
3.9665087602
100
AcDbArc
 50
228.0347325116
 51
236.49824914
  0
ARC
  5
33B
100
AcDbEntity
  8
0
100
AcDbCircle
 62
7
  6
CONTINUOUS
 10
15.6847650068
 20
62.7546789597
 40
3.6220422262
100
AcDbArc
 50
17.6830028836
 51
22.4316177286
  0
ARC
  5
33C
100
AcDbEntity
  8
0
100
AcDbCircle
 62
7
  6
CONTINUOUS
 10
28.2006071419
 20
55.5288176047
 40
3.6220422262
100
AcDbArc
 50
17.6830028836
 51
22.4316177286
  0
ARC
  5
33D
100
AcDbEntity
  8
0
100
AcDbCircle
 62
7
  6
CONTINUOUS
 10
40.7164492769
 20
48.3029562496
 40
3.6220422262
100
AcDbArc
 50
17.6830028836
 51
22.4316177286
  0
ARC
  5
33E
100
AcDbEntity
  8
0
100
AcDbCircle
 62
7
  6
CONTINUOUS
 10
35.1950466605
 20
85.202445903
 40
3.3798354822
100
AcDbArc
 50
149.9420545346
 51
158.7315729342
  0
ARC
  5
33F
100
AcDbEntity
  8
0
100
AcDbCircle
 62
7
  6
CONTINUOUS
 10
47.7108887956
 20
77.9765845479
 40
3.3798354822
100
AcDbArc
 50
149.9420545307
 51
158.7315729342
  0
ARC
  5
340
100
AcDbEntity
  8
0
100
AcDbCircle
 62
7
  6
CONTINUOUS
 10
32.3364143458
 20
54.6691562773
 40
1.9981149308
100
AcDbArc
 50
59.5286631092
 51
59.9934751816
  0
ARC
  5
341
100
AcDbEntity
  8
0
100
AcDbCircle
 62
7
  6
CONTINUOUS
 10
44.8522564814
 20
47.4432949231
 40
1.9981149298
100
AcDbArc
 50
59.5286631091
 51
59.9934751817
  0
ARC
  5
342
100
AcDbEntity
  8
0
100
AcDbCircle
 62
7
  6
CONTINUOUS
 10
19.8205722113
 20
61.8950176333
 40
1.9981149296
100
AcDbArc
 50
59.528663109
 51
59.9934751817
  0
ARC
  5
343
100
AcDbEntity
  8
0
100
AcDbCircle
 62
7
  6
CONTINUOUS
 10
34.241214741
 20
51.1778474233
 40
1.2023007728
100
AcDbArc
 50
60.0014487991
 51
61.2311765646
  0
ARC
  5
344
100
AcDbEntity
  8
0
100
AcDbCircle
 62
7
  6
CONTINUOUS
 10
15.7169245492
 20
59.7840759247
 40
1.1966244343
100
AcDbArc
 50
216.3313937385
 51
222.4836323658
  0
ARC
  5
345
100
AcDbEntity
  8
0
100
AcDbCircle
 62
7
  6
CONTINUOUS
 10
34.2441062084
 20
51.1828865491
 40
1.1964910279
100
AcDbArc
 50
57.2492840895
 51
60.0007146156
  0
ARC
  5
346
100
AcDbEntity
  8
0
100
AcDbCircle
 62
7
  6
CONTINUOUS
 10
33.4351644619
 20
50.2847102696
 40
1.1948064565
100
AcDbArc
 50
214.1280157327
 51
222.9810057973
  0
ARC
  5
347
100
AcDbEntity
  8
0
100
AcDbCircle
 62
7
  6
CONTINUOUS
 10
15.7056731778
 20
59.7741102306
 40
1.1815962822
100
AcDbArc
 50
222.4957327363
 51
224.1279674074
  0
ARC
  5
348
100
AcDbEntity
  8
0
100
AcDbCircle
 62
7
  6
CONTINUOUS
 10
33.3625247998
 20
50.6521612989
 40
0.819852803
100
AcDbArc
 50
240.0423772641
 51
246.88245046
  0
ARC
  5
349
100
AcDbEntity
  8
0
100
AcDbCircle
 62
7
  6
CONTINUOUS
 10
16.5376015671
 20
57.0594921409
 40
0.6898931499
100
AcDbArc
 50
227.9861142769
 51
239.9800520834
  0
SPLINE
  5
34A
100
AcDbEntity
  8
0
100
AcDbSpline
 62
7
  6
CONTINUOUS
 70
0
 71
3
 72
15
 73
11
 74
0
 42
0.0000001
 43
0.0000001
 44
0.0000000001
 40
0.0
 40
0.0
 40
0.0
 40
0.0
 40
0.1146295927
 40
0.2349206653
 40
0.3596906811
 40
0.4875742636
 40
0.6170873098
 40
0.7466851977
 40
0.8748222205
 40
1.0
 40
1.0
 40
1.0
 40
1.0
 10
64.7112775831
 20
36.2568132152
 30
0.0
 10
64.5949109156
 20
36.3384497504
 30
0.0
 10
64.3652979554
 20
36.51865866
 30
0.0
 10
64.0413331636
 20
36.8260500694
 30
0.0
 10
63.734102221
 20
37.172452867
 30
0.0
 10
63.4490896731
 20
37.551695921
 30
0.0
 10
63.1913348946
 20
37.9570597538
 30
0.0
 10
62.9654124351
 20
38.3813548609
 30
0.0
 10
62.7753560764
 20
38.8169995817
 30
0.0
 10
62.6732042037
 20
39.1145055834
 30
0.0
 10
62.6292256247
 20
39.2633724908
 30
0.0
  0
SPLINE
  5
34B
100
AcDbEntity
  8
0
100
AcDbSpline
 62
7
  6
CONTINUOUS
 70
0
 71
3
 72
15
 73
11
 74
0
 42
0.0000001
 43
0.0000001
 44
0.0000000001
 40
0.0
 40
0.0
 40
0.0
 40
0.0
 40
0.1161909264
 40
0.2389910484
 40
0.3665720293
 40
0.4968288494
 40
0.6275105587
 40
0.7563456548
 40
0.8811547941
 40
1.0
 40
1.0
 40
1.0
 40
1.0
 10
39.6795933129
 20
105.0875969061
 30
0.0
 10
39.5383511979
 20
105.1866847045
 30
0.0
 10
39.2609063969
 20
105.4095552062
 30
0.0
 10
38.8761339014
 20
105.7958877724
 30
0.0
 10
38.5190273517
 20
106.2351828808
 30
0.0
 10
38.1988381167
 20
106.7161011883
 30
0.0
 10
37.9237683056
 20
107.2262846388
 30
0.0
 10
37.7009066837
 20
107.7526280019
 30
0.0
 10
37.5359809171
 20
108.2815107469
 30
0.0
 10
37.4654193025
 20
108.6373119109
 30
0.0
 10
37.4418133151
 20
108.8122006003
 30
0.0
  0
SPLINE
  5
34C
100
AcDbEntity
  8
0
100
AcDbSpline
 62
7
  6
CONTINUOUS
 70
0
 71
3
 72
15
 73
11
 74
0
 42
0.0000001
 43
0.0000001
 44
0.0000000001
 40
0.0
 40
0.0
 40
0.0
 40
0.0
 40
0.1161909264
 40
0.2389910484
 40
0.3665720293
 40
0.4968288494
 40
0.6275105587
 40
0.7563456548
 40
0.8811547941
 40
1.0
 40
1.0
 40
1.0
 40
1.0
 10
52.195435448
 20
97.8617355511
 30
0.0
 10
52.054193333
 20
97.9608233495
 30
0.0
 10
51.776748532
 20
98.1836938512
 30
0.0
 10
51.3919760365
 20
98.5700264174
 30
0.0
 10
51.0348694868
 20
99.0093215258
 30
0.0
 10
50.7146802518
 20
99.4902398333
 30
0.0
 10
50.4396104407
 20
100.0004232837
 30
0.0
 10
50.2167488188
 20
100.5267666469
 30
0.0
 10
50.0518230522
 20
101.0556493919
 30
0.0
 10
49.9812614376
 20
101.4114505559
 30
0.0
 10
49.9576554502
 20
101.5863392453
 30
0.0
  0
SPLINE
  5
34D
100
AcDbEntity
  8
0
100
AcDbSpline
 62
7
  6
CONTINUOUS
 70
0
 71
3
 72
15
 73
11
 74
0
 42
0.0000001
 43
0.0000001
 44
0.0000000001
 40
0.0
 40
0.0
 40
0.0
 40
0.0
 40
0.1161909264
 40
0.2389910484
 40
0.3665720293
 40
0.4968288494
 40
0.6275105587
 40
0.7563456548
 40
0.8811547941
 40
1.0
 40
1.0
 40
1.0
 40
1.0
 10
64.7112775831
 20
90.635874196
 30
0.0
 10
64.5700354681
 20
90.7349619945
 30
0.0
 10
64.2925906671
 20
90.9578324962
 30
0.0
 10
63.9078181716
 20
91.3441650624
 30
0.0
 10
63.5507116219
 20
91.7834601708
 30
0.0
 10
63.2305223869
 20
92.2643784783
 30
0.0
 10
62.9554525758
 20
92.7745619287
 30
0.0
 10
62.7325909539
 20
93.3009052919
 30
0.0
 10
62.5676651873
 20
93.8297880369
 30
0.0
 10
62.4971035727
 20
94.1855892009
 30
0.0
 10
62.4734975853
 20
94.3604778903
 30
0.0
  0
SPLINE
  5
34E
100
AcDbEntity
  8
0
100
AcDbSpline
 62
7
  6
CONTINUOUS
 70
0
 71
3
 72
13
 73
9
 74
0
 42
0.0000001
 43
0.0000001
 44
0.0000000001
 40
0.0
 40
0.0
 40
0.0
 40
0.0
 40
0.1037879628
 40
0.2156427566
 40
0.3349596997
 40
0.4608181357
 40
0.7264254317
 40
1.0
 40
1.0
 40
1.0
 40
1.0
 10
22.0417586756
 20
66.2809843733
 30
0.0
 10
22.0526063856
 20
66.2291774403
 30
0.0
 10
22.0666444221
 20
66.1196605577
 30
0.0
 10
22.0662886478
 20
65.94845974
 30
0.0
 10
22.0453942782
 20
65.7672233991
 30
0.0
 10
21.9897426161
 20
65.5123800208
 30
0.0
 10
21.8719273945
 20
65.1924642691
 30
0.0
 10
21.7361911157
 20
64.9518026335
 30
0.0
 10
21.6580718551
 20
64.8362041506
 30
0.0
  0
SPLINE
  5
34F
100
AcDbEntity
  8
0
100
AcDbSpline
 62
7
  6
CONTINUOUS
 70
0
 71
3
 72
13
 73
9
 74
0
 42
0.0000001
 43
0.0000001
 44
0.0000000001
 40
0.0
 40
0.0
 40
0.0
 40
0.0
 40
0.1037879628
 40
0.2156427566
 40
0.3349596997
 40
0.4608181357
 40
0.7264254317
 40
1.0
 40
1.0
 40
1.0
 40
1.0
 10
34.5576008107
 20
59.0551230183
 30
0.0
 10
34.5684485207
 20
59.0033160853
 30
0.0
 10
34.5824865572
 20
58.8937992027
 30
0.0
 10
34.5821307829
 20
58.722598385
 30
0.0
 10
34.5612364133
 20
58.5413620441
 30
0.0
 10
34.5055847512
 20
58.2865186658
 30
0.0
 10
34.3877695296
 20
57.9666029141
 30
0.0
 10
34.2520332508
 20
57.7259412785
 30
0.0
 10
34.1739139902
 20
57.6103427956
 30
0.0
  0
SPLINE
  5
350
100
AcDbEntity
  8
0
100
AcDbSpline
 62
7
  6
CONTINUOUS
 70
0
 71
3
 72
13
 73
9
 74
0
 42
0.0000001
 43
0.0000001
 44
0.0000000001
 40
0.0
 40
0.0
 40
0.0
 40
0.0
 40
0.1037879628
 40
0.2156427566
 40
0.3349596997
 40
0.4608181357
 40
0.7264254317
 40
1.0
 40
1.0
 40
1.0
 40
1.0
 10
47.0734429458
 20
51.8292616633
 30
0.0
 10
47.0842906558
 20
51.7774547303
 30
0.0
 10
47.0983286923
 20
51.6679378476
 30
0.0
 10
47.097972918
 20
51.49673703
 30
0.0
 10
47.0770785484
 20
51.3155006891
 30
0.0
 10
47.0214268864
 20
51.0606573108
 30
0.0
 10
46.9036116647
 20
50.7407415591
 30
0.0
 10
46.7678753859
 20
50.5000799235
 30
0.0
 10
46.6897561253
 20
50.3844814406
 30
0.0
  0
SPLINE
  5
351
100
AcDbEntity
  8
0
100
AcDbSpline
 62
7
  6
CONTINUOUS
 70
0
 71
3
 72
20
 73
16
 74
0
 42
0.0000001
 43
0.0000001
 44
0.0000000001
 40
0.0
 40
0.0
 40
0.0
 40
0.0
 40
0.0556921044
 40
0.112301835
 40
0.1706714919
 40
0.231283802
 40
0.2942914752
 40
0.3595277404
 40
0.4942912575
 40
0.6305085981
 40
0.7620387428
 40
0.8248618534
 40
0.8852751865
 40
0.9435126547
 40
1.0
 40
1.0
 40
1.0
 40
1.0
 10
32.8187942
 20
50.0393979552
 30
0.0
 10
32.7739907207
 20
50.0797225457
 30
0.0
 10
32.6927675273
 20
50.1718383544
 30
0.0
 10
32.6042681383
 20
50.3356264154
 30
0.0
 10
32.5512692529
 20
50.5195826294
 30
0.0
 10
32.5353332363
 20
50.7171179674
 30
0.0
 10
32.5566759161
 20
50.9215179437
 30
0.0
 10
32.6342395643
 20
51.1965898273
 30
0.0
 10
32.8171409929
 20
51.5185378829
 30
0.0
 10
33.1377497261
 20
51.8222625042
 30
0.0
 10
33.4655039689
 20
51.9823411812
 30
0.0
 10
33.7373537778
 20
52.035777923
 30
0.0
 10
33.935038399
 20
52.037484237
 30
0.0
 10
34.1223557612
 20
52.0008674357
 30
0.0
 10
34.237398178
 20
51.9510129981
 30
0.0
 10
34.2903460715
 20
51.9204442091
 30
0.0
  0
SPLINE
  5
352
100
AcDbEntity
  8
0
100
AcDbSpline
 62
7
  6
CONTINUOUS
 70
0
 71
3
 72
16
 73
12
 74
0
 42
0.0000001
 43
0.0000001
 44
0.0000000001
 40
0.0
 40
0.0
 40
0.0
 40
0.0
 40
0.1148511053
 40
0.2249585028
 40
0.3359469347
 40
0.4527508365
 40
0.5143505526
 40
0.5782727045
 40
0.7127713413
 40
0.854629937
 40
1.0
 40
1.0
 40
1.0
 40
1.0
 10
49.157059398
 20
39.1561651026
 30
0.0
 10
49.2393362508
 20
39.108663614
 30
0.0
 10
49.4137748799
 20
39.0358610003
 30
0.0
 10
49.6941041112
 20
39.0077669095
 30
0.0
 10
49.9721713264
 20
39.0580992706
 30
0.0
 10
50.1932948641
 20
39.154221204
 30
0.0
 10
50.3650609586
 20
39.2578472819
 30
0.0
 10
50.5399576186
 20
39.383402517
 30
0.0
 10
50.750262299
 20
39.5718026604
 30
0.0
 10
50.9815632043
 20
39.8337914715
 30
0.0
 10
51.1193000778
 20
40.0280490557
 30
0.0
 10
51.1835139512
 20
40.1297180982
 30
0.0
  0
SPLINE
  5
353
100
AcDbEntity
  8
0
100
AcDbSpline
 62
7
  6
CONTINUOUS
 70
0
 71
3
 72
14
 73
10
 74
0
 42
0.0000001
 43
0.0000001
 44
0.0000000001
 40
0.0
 40
0.0
 40
0.0
 40
0.0
 40
0.1241040949
 40
0.2490434667
 40
0.4991586217
 40
0.6245286082
 40
0.7498239038
 40
0.8749888833
 40
1.0
 40
1.0
 40
1.0
 40
1.0
 10
14.0459112863
 20
58.5094523083
 30
0.0
 10
13.9614595569
 20
58.6337878247
 30
0.0
 10
13.8065974169
 20
58.8936491098
 30
0.0
 10
13.5581814711
 20
59.4456002517
 30
0.0
 10
13.4093296461
 20
60.0415901287
 30
0.0
 10
13.3900831986
 20
60.6497562942
 30
0.0
 10
13.4484661111
 20
61.1034422222
 30
0.0
 10
13.5857352485
 20
61.5395380757
 30
0.0
 10
13.7310315814
 20
61.8080124973
 30
0.0
 10
13.8158100345
 20
61.9334535477
 30
0.0
  0
SPLINE
  5
354
100
AcDbEntity
  8
0
100
AcDbSpline
 62
7
  6
CONTINUOUS
 70
0
 71
3
 72
14
 73
10
 74
0
 42
0.0000001
 43
0.0000001
 44
0.0000000001
 40
0.0
 40
0.0
 40
0.0
 40
0.0
 40
0.2503903165
 40
0.3757877056
 40
0.5009295394
 40
0.6258304106
 40
0.7505708234
 40
0.8752572455
 40
1.0
 40
1.0
 40
1.0
 40
1.0
 10
51.5604246687
 20
36.2675284897
 30
0.0
 10
51.8587760313
 20
36.2114084098
 30
0.0
 10
52.3170890598
 20
36.1712401523
 30
0.0
 10
52.9235513199
 20
36.2202392014
 30
0.0
 10
53.3704743067
 20
36.3138218266
 30
0.0
 10
53.7991920135
 20
36.4694681271
 30
0.0
 10
54.1975765371
 20
36.6914595125
 30
0.0
 10
54.550440125
 20
36.9805234959
 30
0.0
 10
54.7449787154
 20
37.2150349632
 30
0.0
 10
54.8296677819
 20
37.3403437541
 30
0.0
  0
SPLINE
  5
355
100
AcDbEntity
  8
0
100
AcDbSpline
 62
7
  6
CONTINUOUS
 70
0
 71
3
 72
9
 73
5
 74
0
 42
0.0000001
 43
0.0000001
 44
0.0000000001
 40
0.0
 40
0.0
 40
0.0
 40
0.0
 40
0.2506565743
 40
1.0
 40
1.0
 40
1.0
 40
1.0
 10
50.4324707693
 20
36.6941075493
 30
0.0
 10
50.5199521458
 20
36.6436021907
 30
0.0
 10
50.8764125102
 20
36.4556211806
 30
0.0
 10
51.2636463812
 20
36.3233526731
 30
0.0
 10
51.5604246687
 20
36.2675284897
 30
0.0
  0
SPLINE
  5
356
100
AcDbEntity
  8
0
100
AcDbSpline
 62
7
  6
CONTINUOUS
 70
0
 71
3
 72
9
 73
5
 74
0
 42
0.0000001
 43
0.0000001
 44
0.0000000001
 40
0.0
 40
0.0
 40
0.0
 40
0.0
 40
0.2511583443
 40
1.0
 40
1.0
 40
1.0
 40
1.0
 10
14.6135526545
 20
57.8635844179
 30
0.0
 10
14.5599824708
 20
57.9118134278
 30
0.0
 10
14.3521271465
 20
58.1097303459
 30
0.0
 10
14.1666663934
 20
58.3316685178
 30
0.0
 10
14.0459112863
 20
58.5094523083
 30
0.0
  0
SPLINE
  5
357
100
AcDbEntity
  8
0
100
AcDbSpline
 62
7
  6
CONTINUOUS
 70
0
 71
3
 72
21
 73
17
 74
0
 42
0.0000001
 43
0.0000001
 44
0.0000000001
 40
0.0
 40
0.0
 40
0.0
 40
0.0
 40
0.0564733901
 40
0.1146748608
 40
0.1750636813
 40
0.2378589262
 40
0.3693355001
 40
0.437396596
 40
0.5058919076
 40
0.6406062778
 40
0.7058174865
 40
0.7688043634
 40
0.8293955664
 40
0.8877462572
 40
0.9443377219
 40
1.0
 40
1.0
 40
1.0
 40
1.0
 10
32.6188180477
 20
49.447195132
 30
0.0
 10
32.6982514147
 20
49.4013352937
 30
0.0
 10
32.8707990932
 20
49.3265324782
 30
0.0
 10
33.1517706583
 20
49.2716398386
 30
0.0
 10
33.4482819144
 20
49.2742132751
 30
0.0
 10
33.8559691628
 20
49.3542634096
 30
0.0
 10
34.2468463902
 20
49.5452123791
 30
0.0
 10
34.5857650251
 20
49.8203113807
 30
0.0
 10
34.8835778605
 20
50.1467461573
 30
0.0
 10
35.1030003682
 20
50.5330230561
 30
0.0
 10
35.2193043395
 20
50.9455503324
 30
0.0
 10
35.2513508824
 20
51.2521755992
 30
0.0
 10
35.2274573864
 20
51.548495923
 30
0.0
 10
35.1479114339
 20
51.8244360458
 30
0.0
 10
35.0151686174
 20
52.0701158897
 30
0.0
 10
34.8933531902
 20
52.2082995354
 30
0.0
 10
34.82615653
 20
52.2687765375
 30
0.0
  0
SPLINE
  5
358
100
AcDbEntity
  8
0
100
AcDbSpline
 62
7
  6
CONTINUOUS
 70
0
 71
3
 72
14
 73
10
 74
0
 42
0.0000001
 43
0.0000001
 44
0.0000000001
 40
0.0
 40
0.0
 40
0.0
 40
0.0
 40
0.1292441628
 40
0.2582072465
 40
0.3866361055
 40
0.5142529432
 40
0.6405218602
 40
0.7646698475
 40
1.0
 40
1.0
 40
1.0
 40
1.0
 10
14.4138082436
 20
61.3582373333
 30
0.0
 10
14.3565031762
 20
61.2675069192
 30
0.0
 10
14.2596715702
 20
61.0744150391
 30
0.0
 10
14.1727262681
 20
60.7635402873
 30
0.0
 10
14.1432352959
 20
60.4435554569
 30
0.0
 10
14.1678960614
 20
60.1256850394
 30
0.0
 10
14.242656394
 20
59.819272596
 30
0.0
 10
14.3983408326
 20
59.446476778
 30
0.0
 10
14.5790935797
 20
59.1984734684
 30
0.0
 10
14.7243281578
 20
59.067758403
 30
0.0
  0
SPLINE
  5
359
100
AcDbEntity
  8
0
100
AcDbSpline
 62
7
  6
CONTINUOUS
 70
0
 71
3
 72
13
 73
9
 74
0
 42
0.0000001
 43
0.0000001
 44
0.0000000001
 40
0.0
 40
0.0
 40
0.0
 40
0.0
 40
0.1133660451
 40
0.2293595877
 40
0.3488104663
 40
0.4721883782
 40
0.7299662283
 40
1.0
 40
1.0
 40
1.0
 40
1.0
 10
14.7529193781
 20
59.0751301815
 30
0.0
 10
14.7078399437
 20
59.1364095495
 30
0.0
 10
14.6282498533
 20
59.2693649501
 30
0.0
 10
14.5458819049
 20
59.4896964155
 30
0.0
 10
14.5011806151
 20
59.7274722861
 30
0.0
 10
14.4928547447
 20
60.0645431913
 30
0.0
 10
14.5825121167
 20
60.4986873324
 30
0.0
 10
14.7453917737
 20
60.8181787162
 30
0.0
 10
14.8468588026
 20
60.9683127445
 30
0.0
  0
SPLINE
  5
35A
100
AcDbEntity
  8
0
100
AcDbSpline
 62
7
  6
CONTINUOUS
 70
0
 71
3
 72
13
 73
9
 74
0
 42
0.0000001
 43
0.0000001
 44
0.0000000001
 40
0.0
 40
0.0
 40
0.0
 40
0.0
 40
0.2959614177
 40
0.4364547399
 40
0.5679685826
 40
0.6894263905
 40
0.8009479203
 40
1.0
 40
1.0
 40
1.0
 40
1.0
 10
51.9997351924
 20
39.8884528036
 30
0.0
 10
51.8307465598
 20
39.6384115396
 30
0.0
 10
51.5621368693
 20
39.2821476681
 30
0.0
 10
51.176281454
 20
38.8498978143
 30
0.0
 10
50.8908790242
 20
38.567571722
 30
0.0
 10
50.6073168883
 20
38.3262076967
 30
0.0
 10
50.2473767111
 20
38.0729907027
 30
0.0
 10
49.9531828132
 20
37.9357326346
 30
0.0
 10
49.754660188
 20
37.8934629135
 30
0.0
  0
SPLINE
  5
35B
100
AcDbEntity
  8
0
100
AcDbSpline
 62
7
  6
CONTINUOUS
 70
0
 71
3
 72
19
 73
15
 74
0
 42
0.0000001
 43
0.0000001
 44
0.0000000001
 40
0.0
 40
0.0
 40
0.0
 40
0.0
 40
0.0555067059
 40
0.1118665946
 40
0.1698790692
 40
0.2300205572
 40
0.3566668177
 40
0.490466974
 40
0.6264746284
 40
0.7588852256
 40
0.8224809928
 40
0.8837834203
 40
0.9428363779
 40
1.0
 40
1.0
 40
1.0
 40
1.0
 10
34.424675524
 20
51.8228912014
 30
0.0
 10
34.4679768424
 20
51.7839186045
 30
0.0
 10
34.5467278011
 20
51.6953068918
 30
0.0
 10
34.6339014649
 20
51.5382821242
 30
0.0
 10
34.6880691617
 20
51.3619698197
 30
0.0
 10
34.7147855213
 20
51.105054141
 30
0.0
 10
34.6566181616
 20
50.7665051377
 30
0.0
 10
34.4611731251
 20
50.3924888227
 30
0.0
 10
34.1640318893
 20
50.0847402262
 30
0.0
 10
33.8549328315
 20
49.911151717
 30
0.0
 10
33.5933875389
 20
49.8395286523
 30
0.0
 10
33.4001007394
 20
49.821255186
 30
0.0
 10
33.2134797609
 20
49.8386773605
 30
0.0
 10
33.0958079204
 20
49.874573097
 30
0.0
 10
33.0406351458
 20
49.8981416246
 30
0.0
  0
SPLINE
  5
35C
100
AcDbEntity
  8
0
100
AcDbSpline
 62
7
  6
CONTINUOUS
 70
0
 71
3
 72
20
 73
16
 74
0
 42
0.0000001
 43
0.0000001
 44
0.0000000001
 40
0.0
 40
0.0
 40
0.0
 40
0.0
 40
0.0564868073
 40
0.1147213062
 40
0.1751309015
 40
0.2379499917
 40
0.3694746748
 40
0.5056922196
 40
0.640455835
 40
0.7056928522
 40
0.7687027749
 40
0.8293185973
 40
0.8876919495
 40
0.944305227
 40
1.0
 40
1.0
 40
1.0
 40
1.0
 10
33.1708107747
 20
49.745836559
 30
0.0
 10
33.223758163
 20
49.7152680617
 30
0.0
 10
33.338796763
 20
49.6654146923
 30
0.0
 10
33.526106043
 20
49.6287973256
 30
0.0
 10
33.7237786319
 20
49.6305022011
 30
0.0
 10
33.9956168847
 20
49.6839231693
 30
0.0
 10
34.3233640036
 20
49.8439929356
 30
0.0
 10
34.6439842431
 20
50.1476971562
 30
0.0
 10
34.8268921104
 20
50.4696425572
 30
0.0
 10
34.9044732684
 20
50.744712809
 30
0.0
 10
34.9258222715
 20
50.9491196973
 30
0.0
 10
34.909890577
 20
51.1466652896
 30
0.0
 10
34.8568984016
 20
51.3306358589
 30
0.0
 10
34.768394655
 20
51.4944343345
 30
0.0
 10
34.6871678689
 20
51.5865559459
 30
0.0
 10
34.6423623474
 20
51.6268825834
 30
0.0
  0
SPLINE
  5
35D
100
AcDbEntity
  8
0
100
AcDbSpline
 62
7
  6
CONTINUOUS
 70
0
 71
3
 72
19
 73
15
 74
0
 42
0.0000001
 43
0.0000001
 44
0.0000000001
 40
0.0
 40
0.0
 40
0.0
 40
0.0
 40
0.0561773921
 40
0.1139694663
 40
0.1737997849
 40
0.2358357658
 40
0.3655400624
 40
0.5002988244
 40
0.6349906083
 40
0.7645131273
 40
0.8264439501
 40
0.8861591759
 40
0.9438791504
 40
1.0
 40
1.0
 40
1.0
 40
1.0
 10
32.4461202828
 20
49.6143714893
 30
0.0
 10
32.398194183
 20
49.6849854716
 30
0.0
 10
32.315927042
 20
49.8389601543
 30
0.0
 10
32.2397148569
 20
50.0933712537
 30
0.0
 10
32.2111708616
 20
50.3663441722
 30
0.0
 10
32.2376559781
 20
50.7491932615
 30
0.0
 10
32.3930834618
 20
51.2291310635
 30
0.0
 10
32.739635569
 20
51.7359618453
 30
0.0
 10
33.2100414625
 20
52.1301168362
 30
0.0
 10
33.6721792072
 20
52.3311902395
 30
0.0
 10
34.0501268964
 20
52.3942031446
 30
0.0
 10
34.3241413173
 20
52.3918525459
 30
0.0
 10
34.5842731296
 20
52.3401324519
 30
0.0
 10
34.7451220174
 20
52.2727794969
 30
0.0
 10
34.8198541793
 20
52.2317466352
 30
0.0
  0
SPLINE
  5
35E
100
AcDbEntity
  8
0
100
AcDbSpline
 62
7
  6
CONTINUOUS
 70
0
 71
3
 72
18
 73
14
 74
0
 42
0.0000001
 43
0.0000001
 44
0.0000000001
 40
0.0
 40
0.0
 40
0.0
 40
0.0
 40
0.0554015731
 40
0.1121764156
 40
0.1706472497
 40
0.2310798693
 40
0.357379425
 40
0.4895513097
 40
0.6237974508
 40
0.7557053471
 40
0.8815599181
 40
0.9417486432
 40
1.0
 40
1.0
 40
1.0
 40
1.0
 10
34.6246516762
 20
52.4150940245
 30
0.0
 10
34.5577470876
 20
52.4537205329
 30
0.0
 10
34.4143805591
 20
52.5189613352
 30
0.0
 10
34.1822855098
 20
52.5766502383
 30
0.0
 10
33.9366975189
 20
52.5937173571
 30
0.0
 10
33.5950091805
 20
52.5617358315
 30
0.0
 10
33.1670051399
 20
52.4180827914
 30
0.0
 10
32.7081383629
 20
52.1085284131
 30
0.0
 10
32.3356986269
 20
51.6884636494
 30
0.0
 10
32.0839863182
 20
51.1965783699
 30
0.0
 10
31.9937469044
 20
50.7554552969
 30
0.0
 10
32.0042802669
 20
50.4137521845
 30
0.0
 10
32.0364643242
 20
50.2507752412
 30
0.0
 10
32.0592138406
 20
50.1727978211
 30
0.0
  0
SPLINE
  5
35F
100
AcDbEntity
  8
0
100
AcDbSpline
 62
7
  6
CONTINUOUS
 70
0
 71
3
 72
9
 73
5
 74
0
 42
0.0000001
 43
0.0000001
 44
0.0000000001
 40
0.0
 40
0.0
 40
0.0
 40
0.0
 40
0.5064216573
 40
1.0
 40
1.0
 40
1.0
 40
1.0
 10
32.0592138406
 20
50.1727978211
 30
0.0
 10
32.0917264625
 20
50.0613558751
 30
0.0
 10
32.1844281796
 20
49.848275976
 30
0.0
 10
32.3332141414
 20
49.6692017762
 30
0.0
 10
32.417313194
 20
49.5935126191
 30
0.0
  0
SPLINE
  5
360
100
AcDbEntity
  8
0
100
AcDbSpline
 62
7
  6
CONTINUOUS
 70
0
 71
3
 72
11
 73
7
 74
0
 42
0.0000001
 43
0.0000001
 44
0.0000000001
 40
0.0
 40
0.0
 40
0.0
 40
0.0
 40
0.29342634
 40
0.5532813035
 40
0.786150935
 40
1.0
 40
1.0
 40
1.0
 40
1.0
 10
49.754660188
 20
37.8934629135
 30
0.0
 10
49.6831986689
 20
37.8782472247
 30
0.0
 10
49.5471487101
 20
37.8549954626
 30
0.0
 10
49.3511596738
 20
37.8440786576
 30
0.0
 10
49.1752191154
 20
37.8599817676
 30
0.0
 10
49.0672351804
 20
37.8900388476
 30
0.0
 10
49.0177805443
 20
37.9097785172
 30
0.0
  0
SPLINE
  5
361
100
AcDbEntity
  8
0
100
AcDbSpline
 62
7
  6
CONTINUOUS
 70
0
 71
3
 72
15
 73
11
 74
0
 42
0.0000001
 43
0.0000001
 44
0.0000000001
 40
0.0
 40
0.0
 40
0.0
 40
0.0
 40
0.0869252176
 40
0.1863952294
 40
0.3037887542
 40
0.4375985707
 40
0.5820955914
 40
0.7293795809
 40
0.8712014596
 40
1.0
 40
1.0
 40
1.0
 40
1.0
 10
20.8863792474
 20
67.2099171395
 30
0.0
 10
20.8514029823
 20
67.2300772949
 30
0.0
 10
20.763591694
 20
67.2527145468
 30
0.0
 10
20.6221820654
 20
67.2243714757
 30
0.0
 10
20.4777407443
 20
67.1454639959
 30
0.0
 10
20.3392216052
 20
67.0228110499
 30
0.0
 10
20.2169697365
 20
66.8662689016
 30
0.0
 10
20.1206276861
 20
66.6883281149
 30
0.0
 10
20.0582010504
 20
66.5035892145
 30
0.0
 10
20.0414273984
 20
66.3777683929
 30
0.0
 10
20.0414273984
 20
66.317950867
 30
0.0
  0
SPLINE
  5
362
100
AcDbEntity
  8
0
100
AcDbSpline
 62
7
  6
CONTINUOUS
 70
0
 71
3
 72
13
 73
9
 74
0
 42
0.0000001
 43
0.0000001
 44
0.0000000001
 40
0.0
 40
0.0
 40
0.0
 40
0.0
 40
0.1142247162
 40
0.2375579183
 40
0.4999983243
 40
0.7624396433
 40
0.8857739388
 40
1.0
 40
1.0
 40
1.0
 40
1.0
 10
20.7538825562
 20
95.1768276825
 30
0.0
 10
20.6570956735
 20
95.1209480833
 30
0.0
 10
20.4658556615
 20
94.986859988
 30
0.0
 10
20.1077969589
 20
94.6517977746
 30
0.0
 10
19.7296265037
 20
94.1351929541
 30
0.0
 10
19.4713214278
 20
93.5493831227
 30
0.0
 10
19.3601788694
 20
93.0717606406
 30
0.0
 10
19.3396748818
 20
92.8390955553
 30
0.0
 10
19.3396748818
 20
92.7273345405
 30
0.0
  0
SPLINE
  5
363
100
AcDbEntity
  8
0
100
AcDbSpline
 62
7
  6
CONTINUOUS
 70
0
 71
3
 72
11
 73
7
 74
0
 42
0.0000001
 43
0.0000001
 44
0.0000000001
 40
0.0
 40
0.0
 40
0.0
 40
0.0
 40
0.237491771
 40
0.5002292608
 40
0.7627409579
 40
1.0
 40
1.0
 40
1.0
 40
1.0
 10
26.4815054799
 20
59.7822178366
 30
0.0
 10
26.7671208119
 20
59.6173214783
 30
0.0
 10
27.3969014375
 20
59.3191477357
 30
0.0
 10
28.3899498406
 20
58.9500766182
 30
0.0
 10
29.387207196
 20
58.5957467985
 30
0.0
 10
30.0235895003
 20
58.3116770346
 30
0.0
 10
30.3089179819
 20
58.1469302056
 30
0.0
  0
SPLINE
  5
364
100
AcDbEntity
  8
0
100
AcDbSpline
 62
7
  6
CONTINUOUS
 70
0
 71
3
 72
11
 73
7
 74
0
 42
0.0000001
 43
0.0000001
 44
0.0000000001
 40
0.0
 40
0.0
 40
0.0
 40
0.0
 40
0.2638355508
 40
0.5199971867
 40
0.7654886877
 40
1.0
 40
1.0
 40
1.0
 40
1.0
 10
29.216908793
 20
60.783854244
 30
0.0
 10
29.1767556453
 20
60.8070401499
 30
0.0
 10
29.1008792384
 20
60.8588349069
 30
0.0
 10
29.0049252908
 20
60.9544648417
 30
0.0
 10
28.9368575399
 20
61.0664394035
 30
0.0
 10
28.9190625778
 20
61.1513486164
 30
0.0
 10
28.9190625778
 20
61.1925617582
 30
0.0
  0
SPLINE
  5
365
100
AcDbEntity
  8
0
100
AcDbSpline
 62
7
  6
CONTINUOUS
 70
0
 71
3
 72
11
 73
7
 74
0
 42
0.0000001
 43
0.0000001
 44
0.0000000001
 40
0.0
 40
0.0
 40
0.0
 40
0.0
 40
0.217780887
 40
0.450925738
 40
0.7102608723
 40
1.0
 40
1.0
 40
1.0
 40
1.0
 10
38.9940800774
 20
103.1431614204
 30
0.0
 10
39.1128429869
 20
103.2117008262
 30
0.0
 10
39.3350146482
 20
103.3985234168
 30
0.0
 10
39.5715443608
 20
103.7852393941
 30
0.0
 10
39.7120799741
 20
104.2618507049
 30
0.0
 10
39.7396938902
 20
104.6087437334
 30
0.0
 10
39.7396938902
 20
104.7911722095
 30
0.0
  0
SPLINE
  5
366
100
AcDbEntity
  8
0
100
AcDbSpline
 62
7
  6
CONTINUOUS
 70
0
 71
3
 72
19
 73
15
 74
0
 42
0.0000001
 43
0.0000001
 44
0.0000000001
 40
0.0
 40
0.0
 40
0.0
 40
0.0
 40
0.042839705
 40
0.0874493521
 40
0.1352602838
 40
0.187202934
 40
0.2436832239
 40
0.3046765908
 40
0.3698148695
 40
0.4384632367
 40
0.5827429692
 40
0.7298372898
 40
0.8713630645
 40
1.0
 40
1.0
 40
1.0
 40
1.0
 10
39.2440776735
 20
102.7101503124
 30
0.0
 10
39.1429903716
 20
102.6518110436
 30
0.0
 10
38.9202000788
 20
102.559151735
 30
0.0
 10
38.5523876217
 20
102.5053325556
 30
0.0
 10
38.1574245178
 20
102.5343188658
 30
0.0
 10
37.7440800747
 20
102.6441911766
 30
0.0
 10
37.3204558581
 20
102.8314013853
 30
0.0
 10
36.8949772067
 20
103.091663361
 30
0.0
 10
36.4763153182
 20
103.4194636546
 30
0.0
 10
35.9299038507
 20
103.9457408286
 30
0.0
 10
35.3227889056
 20
104.7232332359
 30
0.0
 10
34.7589690168
 20
105.7653014226
 30
0.0
 10
34.392982893
 20
106.8472913822
 30
0.0
 10
34.2949490065
 20
107.5841636031
 30
0.0
 10
34.2949490065
 20
107.9346260193
 30
0.0
  0
SPLINE
  5
367
100
AcDbEntity
  8
0
100
AcDbSpline
 62
7
  6
CONTINUOUS
 70
0
 71
3
 72
9
 73
5
 74
0
 42
0.0000001
 43
0.0000001
 44
0.0000000001
 40
0.0
 40
0.0
 40
0.0
 40
0.0
 40
0.4778694176
 40
1.0
 40
1.0
 40
1.0
 40
1.0
 10
28.4894141445
 20
59.019434947
 30
0.0
 10
28.6164729802
 20
58.857840151
 30
0.0
 10
28.8374715539
 20
58.4831822334
 30
0.0
 10
28.9705998077
 20
58.070927037
 30
0.0
 10
29.02106981
 20
57.852066507
 30
0.0
  0
SPLINE
  5
368
100
AcDbEntity
  8
0
100
AcDbSpline
 62
7
  6
CONTINUOUS
 70
0
 71
3
 72
13
 73
9
 74
0
 42
0.0000001
 43
0.0000001
 44
0.0000000001
 40
0.0
 40
0.0
 40
0.0
 40
0.0
 40
0.0523238355
 40
0.1263755453
 40
0.2227252239
 40
0.3406726626
 40
0.6358632859
 40
1.0
 40
1.0
 40
1.0
 40
1.0
 10
18.2266920315
 20
64.9835839133
 30
0.0
 10
18.2266895855
 20
64.955919645
 30
0.0
 10
18.243709217
 20
64.8897247932
 30
0.0
 10
18.2969547
 20
64.7844981051
 30
0.0
 10
18.385100714
 20
64.6594347866
 30
0.0
 10
18.5640861894
 20
64.4576414809
 30
0.0
 10
18.8791584152
 20
64.1907251466
 30
0.0
 10
19.1729659413
 20
64.0017096496
 30
0.0
 10
19.3396972559
 20
63.9054494573
 30
0.0
  0
SPLINE
  5
369
100
AcDbEntity
  8
0
100
AcDbSpline
 62
7
  6
CONTINUOUS
 70
0
 71
3
 72
9
 73
5
 74
0
 42
0.0000001
 43
0.0000001
 44
0.0000000001
 40
0.0
 40
0.0
 40
0.0
 40
0.0
 40
0.2550593862
 40
1.0
 40
1.0
 40
1.0
 40
1.0
 10
18.2266927161
 20
67.878900109
 30
0.0
 10
18.2266938564
 20
67.834856781
 30
0.0
 10
18.2285662264
 20
67.6621817949
 30
0.0
 10
18.2348894704
 20
67.4895678215
 30
0.0
 10
18.2348894704
 20
67.3609324306
 30
0.0
  0
SPLINE
  5
36A
100
AcDbEntity
  8
0
100
AcDbSpline
 62
7
  6
CONTINUOUS
 70
0
 71
3
 72
13
 73
9
 74
0
 42
0.0000001
 43
0.0000001
 44
0.0000000001
 40
0.0
 40
0.0
 40
0.0
 40
0.0
 40
0.1203723328
 40
0.2487426158
 40
0.3811964772
 40
0.5137525978
 40
0.7683434311
 40
1.0
 40
1.0
 40
1.0
 40
1.0
 10
18.2266920288
 20
70.0263386452
 30
0.0
 10
18.2266961087
 20
70.2546886664
 30
0.0
 10
18.2724640563
 20
70.7266088067
 30
0.0
 10
18.425310785
 20
71.4340091201
 30
0.0
 10
18.6263181162
 20
72.1528983853
 30
0.0
 10
18.9081800225
 20
73.0973210527
 30
0.0
 10
19.2169188879
 20
74.2307147516
 30
0.0
 10
19.3341994073
 20
75.1520173047
 30
0.0
 10
19.3396748818
 20
75.5914428355
 30
0.0
  0
SPLINE
  5
36B
100
AcDbEntity
  8
0
100
AcDbSpline
 62
7
  6
CONTINUOUS
 70
0
 71
3
 72
11
 73
7
 74
0
 42
0.0000001
 43
0.0000001
 44
0.0000000001
 40
0.0
 40
0.0
 40
0.0
 40
0.0
 40
0.4236423403
 40
0.7269646022
 40
0.9139677959
 40
1.0
 40
1.0
 40
1.0
 40
1.0
 10
18.2348894704
 20
67.3609324306
 30
0.0
 10
18.2348894704
 20
67.3284372394
 30
0.0
 10
18.2343851028
 20
67.2726709765
 30
0.0
 10
18.231418436
 20
67.2026090085
 30
0.0
 10
18.2288057565
 20
67.1584974488
 30
0.0
 10
18.2266950881
 20
67.1376197248
 30
0.0
 10
18.2266927047
 20
67.1310206849
 30
0.0
  0
SPLINE
  5
36C
100
AcDbEntity
  8
0
100
AcDbSpline
 62
7
  6
CONTINUOUS
 70
0
 71
3
 72
17
 73
13
 74
0
 42
0.0000001
 43
0.0000001
 44
0.0000000001
 40
0.0
 40
0.0
 40
0.0
 40
0.0
 40
0.0550371015
 40
0.1112117813
 40
0.1695852903
 40
0.2303354867
 40
0.3577081533
 40
0.490628771
 40
0.6256552915
 40
0.7586937636
 40
0.8848622352
 40
1.0
 40
1.0
 40
1.0
 40
1.0
 10
28.9190625778
 20
61.1925617582
 30
0.0
 10
28.9190625778
 20
61.2248824995
 30
0.0
 10
28.9297450138
 20
61.2906099154
 30
0.0
 10
28.9743893934
 20
61.3808691389
 30
0.0
 10
29.0402285437
 20
61.4608783675
 30
0.0
 10
29.1501190002
 20
61.5558394345
 30
0.0
 10
29.3146162931
 20
61.6509196787
 30
0.0
 10
29.532053939
 20
61.7340334478
 30
0.0
 10
29.7618946503
 20
61.7883890507
 30
0.0
 10
29.9933221648
 20
61.8100990913
 30
0.0
 10
30.213710612
 20
61.7927385879
 30
0.0
 10
30.3504584625
 20
61.7459845924
 30
0.0
 10
30.4090146234
 20
61.712176682
 30
0.0
  0
SPLINE
  5
36D
100
AcDbEntity
  8
0
100
AcDbSpline
 62
7
  6
CONTINUOUS
 70
0
 71
3
 72
12
 73
8
 74
0
 42
0.0000001
 43
0.0000001
 44
0.0000000001
 40
0.0
 40
0.0
 40
0.0
 40
0.0
 40
0.1116892651
 40
0.2303690147
 40
0.4827733111
 40
0.7442969319
 40
1.0
 40
1.0
 40
1.0
 40
1.0
 10
29.1331445751
 20
69.9373083854
 30
0.0
 10
29.1300151558
 20
69.6861618004
 30
0.0
 10
29.0899412317
 20
69.1681983054
 30
0.0
 10
28.8882211369
 20
68.0998317518
 30
0.0
 10
28.4168391342
 20
66.7480546916
 30
0.0
 10
27.5758922212
 20
65.2273200277
 30
0.0
 10
26.8462447849
 20
64.312006704
 30
0.0
 10
26.4461499936
 20
63.898998188
 30
0.0
  0
SPLINE
  5
36E
100
AcDbEntity
  8
0
100
AcDbSpline
 62
7
  6
CONTINUOUS
 70
0
 71
3
 72
11
 73
7
 74
0
 42
0.0000001
 43
0.0000001
 44
0.0000000001
 40
0.0
 40
0.0
 40
0.0
 40
0.0
 40
0.2893975675
 40
0.5491290883
 40
0.7823145228
 40
1.0
 40
1.0
 40
1.0
 40
1.0
 10
20.0414273984
 20
66.317950867
 30
0.0
 10
20.0414273984
 20
66.2825215208
 30
0.0
 10
20.0468724257
 20
66.215078246
 30
0.0
 10
20.0740855835
 20
66.1223625267
 30
0.0
 10
20.1201246185
 20
66.0471387652
 30
0.0
 10
20.1633317759
 20
66.0108348852
 30
0.0
 10
20.1864209214
 20
65.9975264099
 30
0.0
  0
SPLINE
  5
36F
100
AcDbEntity
  8
0
100
AcDbSpline
 62
7
  6
CONTINUOUS
 70
0
 71
3
 72
9
 73
5
 74
0
 42
0.0000001
 43
0.0000001
 44
0.0000000001
 40
0.0
 40
0.0
 40
0.0
 40
0.0
 40
0.2577061349
 40
1.0
 40
1.0
 40
1.0
 40
1.0
 10
19.2530175329
 20
63.3940681082
 30
0.0
 10
19.245208939
 20
63.4341757111
 30
0.0
 10
19.2127226118
 20
63.5893722479
 30
0.0
 10
19.1714646142
 20
63.7427559121
 30
0.0
 10
19.1356716506
 20
63.854875862
 30
0.0
  0
SPLINE
  5
370
100
AcDbEntity
  8
0
100
AcDbSpline
 62
7
  6
CONTINUOUS
 70
0
 71
3
 72
12
 73
8
 74
0
 42
0.0000001
 43
0.0000001
 44
0.0000000001
 40
0.0
 40
0.0
 40
0.0
 40
0.0
 40
0.2895258967
 40
0.5486616352
 40
0.7816280864
 40
0.8918375912
 40
1.0
 40
1.0
 40
1.0
 40
1.0
 10
34.2949490065
 20
107.9346260193
 30
0.0
 10
34.2949490065
 20
108.142396614
 30
0.0
 10
34.3265010783
 20
108.5375230104
 30
0.0
 10
34.4861474125
 20
109.0801307995
 30
0.0
 10
34.7158655433
 20
109.4544395825
 30
0.0
 10
34.9476483382
 20
109.6825125974
 30
0.0
 10
35.0768925201
 20
109.7727293227
 30
0.0
 10
35.1441200858
 20
109.8115275391
 30
0.0
  0
SPLINE
  5
371
100
AcDbEntity
  8
0
100
AcDbSpline
 62
7
  6
CONTINUOUS
 70
0
 71
3
 72
18
 73
14
 74
0
 42
0.0000001
 43
0.0000001
 44
0.0000000001
 40
0.0
 40
0.0
 40
0.0
 40
0.0
 40
0.1286588258
 40
0.270205714
 40
0.4173228637
 40
0.5616291861
 40
0.6952642398
 40
0.7562695549
 40
0.8127601245
 40
0.8647125387
 40
0.9125325604
 40
0.9571509054
 40
1.0
 40
1.0
 40
1.0
 40
1.0
 10
39.7396938902
 20
104.7911722095
 30
0.0
 10
39.7396938902
 20
105.0988927784
 30
0.0
 10
39.6536095045
 20
105.745904837
 30
0.0
 10
39.3323101467
 20
106.6958539649
 30
0.0
 10
38.8370979639
 20
107.6111101199
 30
0.0
 10
38.2084471279
 20
108.4159683889
 30
0.0
 10
37.5967210456
 20
108.9577580695
 30
0.0
 10
37.0832014464
 20
109.2720515729
 30
0.0
 10
36.7112069781
 20
109.4364169275
 30
0.0
 10
36.3482766653
 20
109.5329031986
 30
0.0
 10
36.0014732898
 20
109.5583576367
 30
0.0
 10
35.678510361
 20
109.5110975581
 30
0.0
 10
35.4828811325
 20
109.4297428131
 30
0.0
 10
35.3941176819
 20
109.3785164312
 30
0.0
  0
SPLINE
  5
372
100
AcDbEntity
  8
0
100
AcDbSpline
 62
7
  6
CONTINUOUS
 70
0
 71
3
 72
9
 73
5
 74
0
 42
0.0000001
 43
0.0000001
 44
0.0000000001
 40
0.0
 40
0.0
 40
0.0
 40
0.0
 40
0.5170164673
 40
1.0
 40
1.0
 40
1.0
 40
1.0
 10
62.234881699
 20
122.7203874587
 30
0.0
 10
62.2824147963
 20
122.7866499395
 30
0.0
 10
62.3590116311
 20
122.9273743934
 30
0.0
 10
62.3871089057
 20
123.0860693331
 30
0.0
 10
62.3871088916
 20
123.1622495874
 30
0.0
  0
SPLINE
  5
373
100
AcDbEntity
  8
0
100
AcDbSpline
 62
7
  6
CONTINUOUS
 70
0
 71
3
 72
12
 73
8
 74
0
 42
0.0000001
 43
0.0000001
 44
0.0000000001
 40
0.0
 40
0.0
 40
0.0
 40
0.0
 40
0.1081629533
 40
0.218373036
 40
0.4513408185
 40
0.7104797491
 40
1.0
 40
1.0
 40
1.0
 40
1.0
 10
39.8097604645
 20
103.0367461116
 30
0.0
 10
39.8769885164
 20
103.075544116
 30
0.0
 10
40.0062282935
 20
103.1657681547
 30
0.0
 10
40.2380181504
 20
103.3938350621
 30
0.0
 10
40.4677346869
 20
103.7681506311
 30
0.0
 10
40.6273794423
 20
104.3107564589
 30
0.0
 10
40.6589318225
 20
104.7058808144
 30
0.0
 10
40.6589318225
 20
104.9136471554
 30
0.0
  0
SPLINE
  5
374
100
AcDbEntity
  8
0
100
AcDbSpline
 62
7
  6
CONTINUOUS
 70
0
 71
3
 72
19
 73
15
 74
0
 42
0.0000001
 43
0.0000001
 44
0.0000000001
 40
0.0
 40
0.0
 40
0.0
 40
0.0
 40
0.042839705
 40
0.0874493521
 40
0.1352602838
 40
0.187202934
 40
0.2436832239
 40
0.3046765908
 40
0.3698148695
 40
0.4384632367
 40
0.5827429692
 40
0.7298372898
 40
0.8713630645
 40
1.0
 40
1.0
 40
1.0
 40
1.0
 10
35.1441200858
 20
109.8115275391
 30
0.0
 10
35.2452073877
 20
109.869866808
 30
0.0
 10
35.4679976805
 20
109.9625261166
 30
0.0
 10
35.8358101376
 20
110.016345296
 30
0.0
 10
36.2307732415
 20
109.9873589858
 30
0.0
 10
36.6441176845
 20
109.877486675
 30
0.0
 10
37.0677419012
 20
109.6902764663
 30
0.0
 10
37.4932205526
 20
109.4300144906
 30
0.0
 10
37.9118824411
 20
109.102214197
 30
0.0
 10
38.4582939086
 20
108.575937023
 30
0.0
 10
39.0654088537
 20
107.7984446157
 30
0.0
 10
39.6292287425
 20
106.7563764289
 30
0.0
 10
39.9952148662
 20
105.6743864694
 30
0.0
 10
40.0932487527
 20
104.9375142485
 30
0.0
 10
40.0932487527
 20
104.5870518323
 30
0.0
  0
SPLINE
  5
375
100
AcDbEntity
  8
0
100
AcDbSpline
 62
7
  6
CONTINUOUS
 70
0
 71
3
 72
9
 73
5
 74
0
 42
0.0000001
 43
0.0000001
 44
0.0000000001
 40
0.0
 40
0.0
 40
0.0
 40
0.0
 40
0.2590845794
 40
1.0
 40
1.0
 40
1.0
 40
1.0
 10
30.3089179819
 20
58.1469302056
 30
0.0
 10
30.3494201539
 20
58.1235445121
 30
0.0
 10
30.504360472
 20
58.0309327286
 30
0.0
 10
30.6533654605
 20
57.9281381377
 30
0.0
 10
30.7584678399
 20
57.8454238424
 30
0.0
  0
SPLINE
  5
376
100
AcDbEntity
  8
0
100
AcDbSpline
 62
7
  6
CONTINUOUS
 70
0
 71
3
 72
9
 73
5
 74
0
 42
0.0000001
 43
0.0000001
 44
0.0000000001
 40
0.0
 40
0.0
 40
0.0
 40
0.0
 40
0.2480968732
 40
1.0
 40
1.0
 40
1.0
 40
1.0
 10
31.5057886935
 20
56.9397714937
 30
0.0
 10
31.5192961099
 20
56.9127402156
 30
0.0
 10
31.5719041839
 20
56.8028739147
 30
0.0
 10
31.6172210408
 20
56.6895478962
 30
0.0
 10
31.6473829154
 20
56.6030753903
 30
0.0
  0
SPLINE
  5
377
100
AcDbEntity
  8
0
100
AcDbSpline
 62
7
  6
CONTINUOUS
 70
0
 71
3
 72
9
 73
5
 74
0
 42
0.0000001
 43
0.0000001
 44
0.0000000001
 40
0.0
 40
0.0
 40
0.0
 40
0.0
 40
0.2459432893
 40
1.0
 40
1.0
 40
1.0
 40
1.0
 10
31.6473829154
 20
56.6030753903
 30
0.0
 10
31.6595150152
 20
56.5682932991
 30
0.0
 10
31.7062984239
 20
56.4259876638
 30
0.0
 10
31.7431492602
 20
56.2804764815
 30
0.0
 10
31.7659796525
 20
56.1698658978
 30
0.0
  0
SPLINE
  5
378
100
AcDbEntity
  8
0
100
AcDbSpline
 62
7
  6
CONTINUOUS
 70
0
 71
3
 72
19
 73
15
 74
0
 42
0.0000001
 43
0.0000001
 44
0.0000000001
 40
0.0
 40
0.0
 40
0.0
 40
0.0
 40
0.1286354559
 40
0.2701568332
 40
0.4172477214
 40
0.5615289143
 40
0.6301789618
 40
0.6953186487
 40
0.7563132909
 40
0.8127939179
 40
0.8647369797
 40
0.9125483695
 40
0.9571586848
 40
1.0
 40
1.0
 40
1.0
 40
1.0
 10
40.6589318225
 20
104.9136471554
 30
0.0
 10
40.6589318225
 20
105.2641055274
 30
0.0
 10
40.5609014877
 20
106.0009617021
 30
0.0
 10
40.1949301104
 20
107.082929359
 30
0.0
 10
39.6311288169
 20
108.12498738
 30
0.0
 10
39.0240232498
 20
108.9024863194
 30
0.0
 10
38.4776056566
 20
109.4287753301
 30
0.0
 10
38.0589360577
 20
109.7565844236
 30
0.0
 10
37.6334558123
 20
110.0168602643
 30
0.0
 10
37.2098249523
 20
110.2040689616
 30
0.0
 10
36.7964803529
 20
110.3139515023
 30
0.0
 10
36.4015123581
 20
110.3429417644
 30
0.0
 10
36.033693729
 20
110.289118057
 30
0.0
 10
35.8108948525
 20
110.1964632898
 30
0.0
 10
35.7098034343
 20
110.1381223862
 30
0.0
  0
SPLINE
  5
379
100
AcDbEntity
  8
0
100
AcDbSpline
 62
7
  6
CONTINUOUS
 70
0
 71
3
 72
11
 73
7
 74
0
 42
0.0000001
 43
0.0000001
 44
0.0000000001
 40
0.0
 40
0.0
 40
0.0
 40
0.0
 40
0.2502305522
 40
0.4917491617
 40
0.7372516354
 40
1.0
 40
1.0
 40
1.0
 40
1.0
 10
19.3396972249
 20
68.0018177889
 30
0.0
 10
19.1645701087
 20
68.1029251908
 30
0.0
 10
18.8418512074
 20
68.3436988284
 30
0.0
 10
18.4761211791
 20
68.8245666082
 30
0.0
 10
18.2640768191
 20
69.4009042255
 30
0.0
 10
18.226688235
 20
69.8140044222
 30
0.0
 10
18.2266920288
 20
70.0263386452
 30
0.0
  0
SPLINE
  5
37A
100
AcDbEntity
  8
0
100
AcDbSpline
 62
7
  6
CONTINUOUS
 70
0
 71
3
 72
12
 73
8
 74
0
 42
0.0000001
 43
0.0000001
 44
0.0000000001
 40
0.0
 40
0.0
 40
0.0
 40
0.0
 40
0.2895258967
 40
0.5486616352
 40
0.7816280864
 40
0.8918375912
 40
1.0
 40
1.0
 40
1.0
 40
1.0
 10
40.0932487527
 20
104.5870518323
 30
0.0
 10
40.0932487527
 20
104.3792812376
 30
0.0
 10
40.0616966809
 20
103.9841548412
 30
0.0
 10
39.9020503468
 20
103.4415470521
 30
0.0
 10
39.672332216
 20
103.0672382691
 30
0.0
 10
39.4405494211
 20
102.8391652542
 30
0.0
 10
39.3113052391
 20
102.7489485289
 30
0.0
 10
39.2440776735
 20
102.7101503124
 30
0.0
  0
SPLINE
  5
37B
100
AcDbEntity
  8
0
100
AcDbSpline
 62
7
  6
CONTINUOUS
 70
0
 71
3
 72
18
 73
14
 74
0
 42
0.0000001
 43
0.0000001
 44
0.0000000001
 40
0.0
 40
0.0
 40
0.0
 40
0.0
 40
0.1286588258
 40
0.270205714
 40
0.4173228637
 40
0.5616291861
 40
0.6952642398
 40
0.7562695549
 40
0.8127601245
 40
0.8647125387
 40
0.9125325604
 40
0.9571509054
 40
1.0
 40
1.0
 40
1.0
 40
1.0
 10
34.6485038691
 20
107.7305056421
 30
0.0
 10
34.6485038691
 20
107.4227850732
 30
0.0
 10
34.7345882548
 20
106.7757730146
 30
0.0
 10
35.0558876126
 20
105.8258238867
 30
0.0
 10
35.5510997954
 20
104.9105677317
 30
0.0
 10
36.1797506314
 20
104.1057094627
 30
0.0
 10
36.7914767136
 20
103.5639197821
 30
0.0
 10
37.3049963128
 20
103.2496262786
 30
0.0
 10
37.6769907811
 20
103.0852609241
 30
0.0
 10
38.0399210939
 20
102.988774653
 30
0.0
 10
38.3867244695
 20
102.9633202149
 30
0.0
 10
38.7096873982
 20
103.0105802935
 30
0.0
 10
38.9053166267
 20
103.0919350385
 30
0.0
 10
38.9940800774
 20
103.1431614204
 30
0.0
  0
SPLINE
  5
37C
100
AcDbEntity
  8
0
100
AcDbSpline
 62
7
  6
CONTINUOUS
 70
0
 71
3
 72
10
 73
6
 74
0
 42
0.0000001
 43
0.0000001
 44
0.0000000001
 40
0.0
 40
0.0
 40
0.0
 40
0.0
 40
0.2280013718
 40
0.4756449711
 40
1.0
 40
1.0
 40
1.0
 40
1.0
 10
68.6015941067
 20
130.222093283
 30
0.0
 10
68.6015941067
 20
130.1056545748
 30
0.0
 10
68.6270773967
 20
129.862402676
 30
0.0
 10
68.7621782573
 20
129.3685913165
 30
0.0
 10
68.9476167919
 20
129.0132063097
 30
0.0
 10
69.1010400079
 20
128.793730049
 30
0.0
  0
SPLINE
  5
37D
100
AcDbEntity
  8
0
100
AcDbSpline
 62
7
  6
CONTINUOUS
 70
0
 71
3
 72
11
 73
7
 74
0
 42
0.0000001
 43
0.0000001
 44
0.0000000001
 40
0.0
 40
0.0
 40
0.0
 40
0.0
 40
0.253919027
 40
0.499153869
 40
0.7448439518
 40
1.0
 40
1.0
 40
1.0
 40
1.0
 10
30.4090146234
 20
61.712176682
 30
0.0
 10
30.4409055902
 20
61.693764154
 30
0.0
 10
30.5000325857
 20
61.6505883839
 30
0.0
 10
30.5685453699
 20
61.5653283467
 30
0.0
 10
30.6105641344
 20
61.464099723
 30
0.0
 10
30.6193074029
 20
61.3910253212
 30
0.0
 10
30.6193074029
 20
61.3540212705
 30
0.0
  0
SPLINE
  5
37E
100
AcDbEntity
  8
0
100
AcDbSpline
 62
7
  6
CONTINUOUS
 70
0
 71
3
 72
15
 73
11
 74
0
 42
0.0000001
 43
0.0000001
 44
0.0000000001
 40
0.0
 40
0.0
 40
0.0
 40
0.0
 40
0.1115736528
 40
0.2334452179
 40
0.3615900135
 40
0.4917658654
 40
0.6214621656
 40
0.7496935693
 40
0.8760676252
 40
1.0
 40
1.0
 40
1.0
 40
1.0
 10
30.6193074029
 20
61.3540212705
 30
0.0
 10
30.6193074029
 20
61.2875781795
 30
0.0
 10
30.5892661105
 20
61.1479602011
 30
0.0
 10
30.4761923966
 20
60.961076755
 30
0.0
 10
30.3068620995
 20
60.8063878686
 30
0.0
 10
30.0992124988
 20
60.6994636068
 30
0.0
 10
29.8722934648
 20
60.6457054244
 30
0.0
 10
29.6416789381
 20
60.643339566
 30
0.0
 10
29.4191942844
 20
60.6877608178
 30
0.0
 10
29.2808215134
 20
60.7469486861
 30
0.0
 10
29.216908793
 20
60.783854244
 30
0.0
  0
SPLINE
  5
37F
100
AcDbEntity
  8
0
100
AcDbSpline
 62
7
  6
CONTINUOUS
 70
0
 71
3
 72
15
 73
11
 74
0
 42
0.0000001
 43
0.0000001
 44
0.0000000001
 40
0.0
 40
0.0
 40
0.0
 40
0.0
 40
0.0869252176
 40
0.1863952294
 40
0.3037887542
 40
0.4375985707
 40
0.5820955914
 40
0.7293795809
 40
0.8712014596
 40
1.0
 40
1.0
 40
1.0
 40
1.0
 10
20.1864209214
 20
65.9975264099
 30
0.0
 10
20.2213971865
 20
65.9773662546
 30
0.0
 10
20.3092084748
 20
65.9547290027
 30
0.0
 10
20.4506181034
 20
65.9830720738
 30
0.0
 10
20.5950594245
 20
66.0619795535
 30
0.0
 10
20.7335785636
 20
66.1846324996
 30
0.0
 10
20.8558304323
 20
66.3411746478
 30
0.0
 10
20.9521724827
 20
66.5191154345
 30
0.0
 10
21.0145991184
 20
66.7038543349
 30
0.0
 10
21.0313727705
 20
66.8296751566
 30
0.0
 10
21.0313727705
 20
66.8894926824
 30
0.0
  0
SPLINE
  5
380
100
AcDbEntity
  8
0
100
AcDbSpline
 62
7
  6
CONTINUOUS
 70
0
 71
3
 72
13
 73
9
 74
0
 42
0.0000001
 43
0.0000001
 44
0.0000000001
 40
0.0
 40
0.0
 40
0.0
 40
0.0
 40
0.1142253587
 40
0.237559206
 40
0.5000004539
 40
0.7624414493
 40
0.885775028
 40
1.0
 40
1.0
 40
1.0
 40
1.0
 10
58.407199865
 20
125.9382935168
 30
0.0
 10
58.3104121523
 20
125.9941726647
 30
0.0
 10
58.0986666149
 20
126.0927455743
 30
0.0
 10
57.6294625922
 20
126.2352998128
 30
0.0
 10
56.9929842612
 20
126.3045015422
 30
0.0
 10
56.3565064604
 20
126.2352969427
 30
0.0
 10
55.88730407
 20
126.0927403537
 30
0.0
 10
55.6755597224
 20
125.9941663748
 30
0.0
 10
55.5787727403
 20
125.9382867181
 30
0.0
  0
SPLINE
  5
381
100
AcDbEntity
  8
0
100
AcDbSpline
 62
7
  6
CONTINUOUS
 70
0
 71
3
 72
18
 73
14
 74
0
 42
0.0000001
 43
0.0000001
 44
0.0000000001
 40
0.0
 40
0.0
 40
0.0
 40
0.0
 40
0.1156430495
 40
0.2393371125
 40
0.3681081426
 40
0.4992731318
 40
0.5652626855
 40
0.6310931192
 40
0.6964523603
 40
0.7609367923
 40
0.8240531074
 40
0.8852737332
 40
1.0
 40
1.0
 40
1.0
 40
1.0
 10
31.8555170169
 20
68.3655814805
 30
0.0
 10
31.8514541238
 20
68.0395204307
 30
0.0
 10
31.7871834489
 20
67.3646340471
 30
0.0
 10
31.5349780797
 20
66.353542892
 30
0.0
 10
31.0931377878
 20
65.3589319512
 30
0.0
 10
30.5342500447
 20
64.6148856702
 30
0.0
 10
29.9697626036
 20
64.1299306966
 30
0.0
 10
29.4942980189
 20
63.836934602
 30
0.0
 10
28.9809105001
 20
63.6278344397
 30
0.0
 10
28.4475719211
 20
63.5084586988
 30
0.0
 10
27.9133807012
 20
63.4784492085
 30
0.0
 10
27.2413374854
 20
63.5483406675
 30
0.0
 10
26.7616673639
 20
63.7168382704
 30
0.0
 10
26.4815054799
 20
63.8785861503
 30
0.0
  0
SPLINE
  5
382
100
AcDbEntity
  8
0
100
AcDbSpline
 62
7
  6
CONTINUOUS
 70
0
 71
3
 72
11
 73
7
 74
0
 42
0.0000001
 43
0.0000001
 44
0.0000000001
 40
0.0
 40
0.0
 40
0.0
 40
0.0
 40
0.2893975675
 40
0.5491290883
 40
0.7823145228
 40
1.0
 40
1.0
 40
1.0
 40
1.0
 10
21.0313727705
 20
66.8894926824
 30
0.0
 10
21.0313727705
 20
66.9249220287
 30
0.0
 10
21.0259277431
 20
66.9923653034
 30
0.0
 10
20.9987145853
 20
67.0850810227
 30
0.0
 10
20.9526755503
 20
67.1603047842
 30
0.0
 10
20.9094683929
 20
67.1966086642
 30
0.0
 10
20.8863792474
 20
67.2099171395
 30
0.0
  0
SPLINE
  5
383
100
AcDbEntity
  8
0
100
AcDbSpline
 62
7
  6
CONTINUOUS
 70
0
 71
3
 72
9
 73
5
 74
0
 42
0.0000001
 43
0.0000001
 44
0.0000000001
 40
0.0
 40
0.0
 40
0.0
 40
0.0
 40
0.4773773815
 40
1.0
 40
1.0
 40
1.0
 40
1.0
 10
31.8555170169
 20
85.5014731855
 30
0.0
 10
31.8555170169
 20
85.6526681213
 30
0.0
 10
31.8929622303
 20
85.9696820843
 30
0.0
 10
31.9854697268
 20
86.2741479832
 30
0.0
 10
32.0454075269
 20
86.428439873
 30
0.0
  0
SPLINE
  5
384
100
AcDbEntity
  8
0
100
AcDbSpline
 62
7
  6
CONTINUOUS
 70
0
 71
3
 72
9
 73
5
 74
0
 42
0.0000001
 43
0.0000001
 44
0.0000000001
 40
0.0
 40
0.0
 40
0.0
 40
0.0
 40
0.2518834874
 40
1.0
 40
1.0
 40
1.0
 40
1.0
 10
32.2697338489
 20
86.8953229927
 30
0.0
 10
32.2914905624
 20
86.9330069281
 30
0.0
 10
32.3806972715
 20
87.0809587839
 30
0.0
 10
32.4809714167
 20
87.2222739025
 30
0.0
 10
32.5619006861
 20
87.3230372327
 30
0.0
  0
SPLINE
  5
385
100
AcDbEntity
  8
0
100
AcDbSpline
 62
7
  6
CONTINUOUS
 70
0
 71
3
 72
9
 73
5
 74
0
 42
0.0000001
 43
0.0000001
 44
0.0000000001
 40
0.0
 40
0.0
 40
0.0
 40
0.0
 40
0.5226236696
 40
1.0
 40
1.0
 40
1.0
 40
1.0
 10
32.5619006861
 20
87.3230372327
 30
0.0
 10
32.6655512657
 20
87.452090388
 30
0.0
 10
32.8829699877
 20
87.6844359751
 30
0.0
 10
33.1387872706
 20
87.8753700237
 30
0.0
 10
33.2697246913
 20
87.9509663275
 30
0.0
  0
SPLINE
  5
386
100
AcDbEntity
  8
0
100
AcDbSpline
 62
7
  6
CONTINUOUS
 70
0
 71
3
 72
11
 73
7
 74
0
 42
0.0000001
 43
0.0000001
 44
0.0000000001
 40
0.0
 40
0.0
 40
0.0
 40
0.0
 40
0.2177817009
 40
0.4509079353
 40
0.7102947134
 40
1.0
 40
1.0
 40
1.0
 40
1.0
 10
62.3871088916
 20
123.1622495874
 30
0.0
 10
62.3871088774
 20
123.2384264149
 30
0.0
 10
62.3589577669
 20
123.3972030361
 30
0.0
 10
62.2385886392
 20
123.6184296723
 30
0.0
 10
62.0483021631
 20
123.8184094739
 30
0.0
 10
61.8890854121
 20
123.9280714362
 30
0.0
 10
61.8013265457
 20
123.9787378951
 30
0.0
  0
SPLINE
  5
387
100
AcDbEntity
  8
0
100
AcDbSpline
 62
7
  6
CONTINUOUS
 70
0
 71
3
 72
11
 73
7
 74
0
 42
0.0000001
 43
0.0000001
 44
0.0000000001
 40
0.0
 40
0.0
 40
0.0
 40
0.0
 40
0.217780887
 40
0.450925738
 40
0.7102608723
 40
1.0
 40
1.0
 40
1.0
 40
1.0
 10
35.3941176819
 20
109.3785164312
 30
0.0
 10
35.2753547723
 20
109.3099770254
 30
0.0
 10
35.053183111
 20
109.1231544348
 30
0.0
 10
34.8166533985
 20
108.7364384574
 30
0.0
 10
34.6761177852
 20
108.2598271467
 30
0.0
 10
34.6485038691
 20
107.9129341182
 30
0.0
 10
34.6485038691
 20
107.7305056421
 30
0.0
  0
SPLINE
  5
388
100
AcDbEntity
  8
0
100
AcDbSpline
 62
7
  6
CONTINUOUS
 70
0
 71
3
 72
12
 73
8
 74
0
 42
0.0000001
 43
0.0000001
 44
0.0000000001
 40
0.0
 40
0.0
 40
0.0
 40
0.0
 40
0.2557030333
 40
0.5172266459
 40
0.7696309528
 40
0.8883107231
 40
1.0
 40
1.0
 40
1.0
 40
1.0
 10
19.3750527422
 20
67.9814057332
 30
0.0
 10
19.7751474789
 20
68.3944141929
 30
0.0
 10
20.5047948668
 20
69.3097274287
 30
0.0
 10
21.3457417766
 20
70.8304620087
 30
0.0
 10
21.8171238448
 20
72.1822391038
 30
0.0
 10
22.0188439552
 20
73.2506057527
 30
0.0
 10
22.058917904
 20
73.7685693191
 30
0.0
 10
22.0620473236
 20
74.0197159306
 30
0.0
  0
SPLINE
  5
389
100
AcDbEntity
  8
0
100
AcDbSpline
 62
7
  6
CONTINUOUS
 70
0
 71
3
 72
15
 73
11
 74
0
 42
0.0000001
 43
0.0000001
 44
0.0000000001
 40
0.0
 40
0.0
 40
0.0
 40
0.0
 40
0.0869252176
 40
0.1863952294
 40
0.3037887542
 40
0.4375985707
 40
0.5820955914
 40
0.7293795809
 40
0.8712014596
 40
1.0
 40
1.0
 40
1.0
 40
1.0
 10
33.4022213825
 20
59.9840557845
 30
0.0
 10
33.3672451174
 20
60.0042159399
 30
0.0
 10
33.2794338291
 20
60.0268531917
 30
0.0
 10
33.1380242005
 20
59.9985101206
 30
0.0
 10
32.9935828794
 20
59.9196026409
 30
0.0
 10
32.8550637403
 20
59.7969496948
 30
0.0
 10
32.7328118716
 20
59.6404075466
 30
0.0
 10
32.6364698212
 20
59.4624667599
 30
0.0
 10
32.5740431855
 20
59.2777278595
 30
0.0
 10
32.5572695335
 20
59.1519070379
 30
0.0
 10
32.5572695335
 20
59.092089512
 30
0.0
  0
SPLINE
  5
38A
100
AcDbEntity
  8
0
100
AcDbSpline
 62
7
  6
CONTINUOUS
 70
0
 71
3
 72
13
 73
9
 74
0
 42
0.0000001
 43
0.0000001
 44
0.0000000001
 40
0.0
 40
0.0
 40
0.0
 40
0.0
 40
0.1142247162
 40
0.2375579183
 40
0.4999983243
 40
0.7624396433
 40
0.8857739388
 40
1.0
 40
1.0
 40
1.0
 40
1.0
 10
33.2697246913
 20
87.9509663275
 30
0.0
 10
33.1729378086
 20
87.8950867283
 30
0.0
 10
32.9816977966
 20
87.760998633
 30
0.0
 10
32.623639094
 20
87.4259364196
 30
0.0
 10
32.2454686388
 20
86.9093315991
 30
0.0
 10
31.9871635629
 20
86.3235217677
 30
0.0
 10
31.8760210045
 20
85.8458992856
 30
0.0
 10
31.8555170169
 20
85.6132342003
 30
0.0
 10
31.8555170169
 20
85.5014731855
 30
0.0
  0
SPLINE
  5
38B
100
AcDbEntity
  8
0
100
AcDbSpline
 62
7
  6
CONTINUOUS
 70
0
 71
3
 72
11
 73
7
 74
0
 42
0.0000001
 43
0.0000001
 44
0.0000000001
 40
0.0
 40
0.0
 40
0.0
 40
0.0
 40
0.237491771
 40
0.5002292608
 40
0.7627409579
 40
1.0
 40
1.0
 40
1.0
 40
1.0
 10
38.997347615
 20
52.5563564816
 30
0.0
 10
39.282962947
 20
52.3914601233
 30
0.0
 10
39.9127435726
 20
52.0932863807
 30
0.0
 10
40.9057919757
 20
51.7242152631
 30
0.0
 10
41.9030493311
 20
51.3698854435
 30
0.0
 10
42.5394316354
 20
51.0858156796
 30
0.0
 10
42.824760117
 20
50.9210688506
 30
0.0
  0
SPLINE
  5
38C
100
AcDbEntity
  8
0
100
AcDbSpline
 62
7
  6
CONTINUOUS
 70
0
 71
3
 72
11
 73
7
 74
0
 42
0.0000001
 43
0.0000001
 44
0.0000000001
 40
0.0
 40
0.0
 40
0.0
 40
0.0
 40
0.2638355508
 40
0.5199971867
 40
0.7654886877
 40
1.0
 40
1.0
 40
1.0
 40
1.0
 10
41.7327509281
 20
53.557992889
 30
0.0
 10
41.6925977804
 20
53.5811787949
 30
0.0
 10
41.6167213735
 20
53.6329735519
 30
0.0
 10
41.5207674259
 20
53.7286034867
 30
0.0
 10
41.452699675
 20
53.8405780485
 30
0.0
 10
41.4349047129
 20
53.9254872614
 30
0.0
 10
41.4349047129
 20
53.9667004032
 30
0.0
  0
SPLINE
  5
38D
100
AcDbEntity
  8
0
100
AcDbSpline
 62
7
  6
CONTINUOUS
 70
0
 71
3
 72
11
 73
7
 74
0
 42
0.0000001
 43
0.0000001
 44
0.0000000001
 40
0.0
 40
0.0
 40
0.0
 40
0.0
 40
0.217780887
 40
0.450925738
 40
0.7102608723
 40
1.0
 40
1.0
 40
1.0
 40
1.0
 10
51.5099222125
 20
95.9173000654
 30
0.0
 10
51.628685122
 20
95.9858394712
 30
0.0
 10
51.8508567833
 20
96.1726620618
 30
0.0
 10
52.0873864959
 20
96.5593780391
 30
0.0
 10
52.2279221092
 20
97.0359893499
 30
0.0
 10
52.2555360253
 20
97.3828823784
 30
0.0
 10
52.2555360253
 20
97.5653108545
 30
0.0
  0
SPLINE
  5
38E
100
AcDbEntity
  8
0
100
AcDbSpline
 62
7
  6
CONTINUOUS
 70
0
 71
3
 72
19
 73
15
 74
0
 42
0.0000001
 43
0.0000001
 44
0.0000000001
 40
0.0
 40
0.0
 40
0.0
 40
0.0
 40
0.042839705
 40
0.0874493521
 40
0.1352602838
 40
0.187202934
 40
0.2436832239
 40
0.3046765908
 40
0.3698148695
 40
0.4384632367
 40
0.5827429692
 40
0.7298372898
 40
0.8713630645
 40
1.0
 40
1.0
 40
1.0
 40
1.0
 10
51.7599198086
 20
95.4842889574
 30
0.0
 10
51.6588325067
 20
95.4259496886
 30
0.0
 10
51.4360422139
 20
95.33329038
 30
0.0
 10
51.0682297568
 20
95.2794712005
 30
0.0
 10
50.6732666529
 20
95.3084575108
 30
0.0
 10
50.2599222099
 20
95.4183298216
 30
0.0
 10
49.8362979932
 20
95.6055400303
 30
0.0
 10
49.4108193418
 20
95.865802006
 30
0.0
 10
48.9921574533
 20
96.1936022996
 30
0.0
 10
48.4457459858
 20
96.7198794735
 30
0.0
 10
47.8386310407
 20
97.4973718809
 30
0.0
 10
47.2748111519
 20
98.5394400676
 30
0.0
 10
46.9088250281
 20
99.6214300272
 30
0.0
 10
46.8107911416
 20
100.3583022481
 30
0.0
 10
46.8107911416
 20
100.7087646643
 30
0.0
  0
SPLINE
  5
38F
100
AcDbEntity
  8
0
100
AcDbSpline
 62
7
  6
CONTINUOUS
 70
0
 71
3
 72
9
 73
5
 74
0
 42
0.0000001
 43
0.0000001
 44
0.0000000001
 40
0.0
 40
0.0
 40
0.0
 40
0.0
 40
0.4778694176
 40
1.0
 40
1.0
 40
1.0
 40
1.0
 10
41.0052562796
 20
51.793573592
 30
0.0
 10
41.1323151153
 20
51.631978796
 30
0.0
 10
41.3533136891
 20
51.2573208784
 30
0.0
 10
41.4864419428
 20
50.845065682
 30
0.0
 10
41.5369119451
 20
50.626205152
 30
0.0
  0
SPLINE
  5
390
100
AcDbEntity
  8
0
100
AcDbSpline
 62
7
  6
CONTINUOUS
 70
0
 71
3
 72
13
 73
9
 74
0
 42
0.0000001
 43
0.0000001
 44
0.0000000001
 40
0.0
 40
0.0
 40
0.0
 40
0.0
 40
0.0523238355
 40
0.1263755453
 40
0.2227252239
 40
0.3406726626
 40
0.6358632859
 40
1.0
 40
1.0
 40
1.0
 40
1.0
 10
30.7425341666
 20
57.7577225583
 30
0.0
 10
30.7425317206
 20
57.73005829
 30
0.0
 10
30.7595513521
 20
57.6638634382
 30
0.0
 10
30.8127968351
 20
57.55863675
 30
0.0
 10
30.9009428491
 20
57.4335734316
 30
0.0
 10
31.0799283245
 20
57.2317801259
 30
0.0
 10
31.3950005503
 20
56.9648637915
 30
0.0
 10
31.6888080764
 20
56.7758482946
 30
0.0
 10
31.855539391
 20
56.6795881023
 30
0.0
  0
SPLINE
  5
391
100
AcDbEntity
  8
0
100
AcDbSpline
 62
7
  6
CONTINUOUS
 70
0
 71
3
 72
9
 73
5
 74
0
 42
0.0000001
 43
0.0000001
 44
0.0000000001
 40
0.0
 40
0.0
 40
0.0
 40
0.0
 40
0.2550593862
 40
1.0
 40
1.0
 40
1.0
 40
1.0
 10
30.7425348512
 20
60.653038754
 30
0.0
 10
30.7425359915
 20
60.608995426
 30
0.0
 10
30.7444083615
 20
60.4363204399
 30
0.0
 10
30.7507316055
 20
60.2637064665
 30
0.0
 10
30.7507316055
 20
60.1350710756
 30
0.0
  0
SPLINE
  5
392
100
AcDbEntity
  8
0
100
AcDbSpline
 62
7
  6
CONTINUOUS
 70
0
 71
3
 72
13
 73
9
 74
0
 42
0.0000001
 43
0.0000001
 44
0.0000000001
 40
0.0
 40
0.0
 40
0.0
 40
0.0
 40
0.1203723328
 40
0.2487426158
 40
0.3811964772
 40
0.5137525978
 40
0.7683434311
 40
1.0
 40
1.0
 40
1.0
 40
1.0
 10
30.7425341639
 20
62.8004772902
 30
0.0
 10
30.7425382438
 20
63.0288273114
 30
0.0
 10
30.7883061914
 20
63.5007474517
 30
0.0
 10
30.9411529201
 20
64.2081477651
 30
0.0
 10
31.1421602513
 20
64.9270370302
 30
0.0
 10
31.4240221576
 20
65.8714596977
 30
0.0
 10
31.732761023
 20
67.0048533966
 30
0.0
 10
31.8500415424
 20
67.9261559497
 30
0.0
 10
31.8555170169
 20
68.3655814805
 30
0.0
  0
SPLINE
  5
393
100
AcDbEntity
  8
0
100
AcDbSpline
 62
7
  6
CONTINUOUS
 70
0
 71
3
 72
11
 73
7
 74
0
 42
0.0000001
 43
0.0000001
 44
0.0000000001
 40
0.0
 40
0.0
 40
0.0
 40
0.0
 40
0.4236423403
 40
0.7269646022
 40
0.9139677959
 40
1.0
 40
1.0
 40
1.0
 40
1.0
 10
30.7507316055
 20
60.1350710756
 30
0.0
 10
30.7507316055
 20
60.1025758844
 30
0.0
 10
30.7502272379
 20
60.0468096215
 30
0.0
 10
30.7472605711
 20
59.9767476535
 30
0.0
 10
30.7446478916
 20
59.9326360938
 30
0.0
 10
30.7425372232
 20
59.9117583698
 30
0.0
 10
30.7425348398
 20
59.9051593299
 30
0.0
  0
SPLINE
  5
394
100
AcDbEntity
  8
0
100
AcDbSpline
 62
7
  6
CONTINUOUS
 70
0
 71
3
 72
17
 73
13
 74
0
 42
0.0000001
 43
0.0000001
 44
0.0000000001
 40
0.0
 40
0.0
 40
0.0
 40
0.0
 40
0.0550371015
 40
0.1112117813
 40
0.1695852903
 40
0.2303354867
 40
0.3577081533
 40
0.490628771
 40
0.6256552915
 40
0.7586937636
 40
0.8848622352
 40
1.0
 40
1.0
 40
1.0
 40
1.0
 10
41.4349047129
 20
53.9667004032
 30
0.0
 10
41.4349047129
 20
53.9990211445
 30
0.0
 10
41.4455871489
 20
54.0647485604
 30
0.0
 10
41.4902315285
 20
54.1550077839
 30
0.0
 10
41.5560706788
 20
54.2350170125
 30
0.0
 10
41.6659611353
 20
54.3299780794
 30
0.0
 10
41.8304584282
 20
54.4250583237
 30
0.0
 10
42.0478960741
 20
54.5081720928
 30
0.0
 10
42.2777367854
 20
54.5625276957
 30
0.0
 10
42.5091642999
 20
54.5842377362
 30
0.0
 10
42.7295527471
 20
54.5668772329
 30
0.0
 10
42.8663005976
 20
54.5201232374
 30
0.0
 10
42.9248567585
 20
54.486315327
 30
0.0
  0
SPLINE
  5
395
100
AcDbEntity
  8
0
100
AcDbSpline
 62
7
  6
CONTINUOUS
 70
0
 71
3
 72
12
 73
8
 74
0
 42
0.0000001
 43
0.0000001
 44
0.0000000001
 40
0.0
 40
0.0
 40
0.0
 40
0.0
 40
0.1116892651
 40
0.2303690147
 40
0.4827733111
 40
0.7442969319
 40
1.0
 40
1.0
 40
1.0
 40
1.0
 10
41.6489867102
 20
62.7114470304
 30
0.0
 10
41.6458572909
 20
62.4603004454
 30
0.0
 10
41.6057833668
 20
61.9423369504
 30
0.0
 10
41.404063272
 20
60.8739703968
 30
0.0
 10
40.9326812693
 20
59.5221933366
 30
0.0
 10
40.0917343563
 20
58.0014586727
 30
0.0
 10
39.36208692
 20
57.086145349
 30
0.0
 10
38.9619921287
 20
56.673136833
 30
0.0
  0
SPLINE
  5
396
100
AcDbEntity
  8
0
100
AcDbSpline
 62
7
  6
CONTINUOUS
 70
0
 71
3
 72
11
 73
7
 74
0
 42
0.0000001
 43
0.0000001
 44
0.0000000001
 40
0.0
 40
0.0
 40
0.0
 40
0.0
 40
0.2893975675
 40
0.5491290883
 40
0.7823145228
 40
1.0
 40
1.0
 40
1.0
 40
1.0
 10
32.5572695335
 20
59.092089512
 30
0.0
 10
32.5572695335
 20
59.0566601658
 30
0.0
 10
32.5627145608
 20
58.989216891
 30
0.0
 10
32.5899277186
 20
58.8965011717
 30
0.0
 10
32.6359667537
 20
58.8212774102
 30
0.0
 10
32.679173911
 20
58.7849735302
 30
0.0
 10
32.7022630565
 20
58.7716650549
 30
0.0
  0
SPLINE
  5
397
100
AcDbEntity
  8
0
100
AcDbSpline
 62
7
  6
CONTINUOUS
 70
0
 71
3
 72
9
 73
5
 74
0
 42
0.0000001
 43
0.0000001
 44
0.0000000001
 40
0.0
 40
0.0
 40
0.0
 40
0.0
 40
0.2577061349
 40
1.0
 40
1.0
 40
1.0
 40
1.0
 10
31.768859668
 20
56.1682067532
 30
0.0
 10
31.7610510741
 20
56.2083143561
 30
0.0
 10
31.7285647469
 20
56.3635108929
 30
0.0
 10
31.6873067493
 20
56.5168945571
 30
0.0
 10
31.6515137857
 20
56.629014507
 30
0.0
  0
SPLINE
  5
398
100
AcDbEntity
  8
0
100
AcDbSpline
 62
7
  6
CONTINUOUS
 70
0
 71
3
 72
12
 73
8
 74
0
 42
0.0000001
 43
0.0000001
 44
0.0000000001
 40
0.0
 40
0.0
 40
0.0
 40
0.0
 40
0.2895258967
 40
0.5486616352
 40
0.7816280864
 40
0.8918375912
 40
1.0
 40
1.0
 40
1.0
 40
1.0
 10
46.8107911416
 20
100.7087646643
 30
0.0
 10
46.8107911416
 20
100.916535259
 30
0.0
 10
46.8423432134
 20
101.3116616554
 30
0.0
 10
47.0019895476
 20
101.8542694445
 30
0.0
 10
47.2317076784
 20
102.2285782274
 30
0.0
 10
47.4634904733
 20
102.4566512424
 30
0.0
 10
47.5927346552
 20
102.5468679676
 30
0.0
 10
47.6599622209
 20
102.5856661841
 30
0.0
  0
SPLINE
  5
399
100
AcDbEntity
  8
0
100
AcDbSpline
 62
7
  6
CONTINUOUS
 70
0
 71
3
 72
18
 73
14
 74
0
 42
0.0000001
 43
0.0000001
 44
0.0000000001
 40
0.0
 40
0.0
 40
0.0
 40
0.0
 40
0.1286588258
 40
0.270205714
 40
0.4173228637
 40
0.5616291861
 40
0.6952642398
 40
0.7562695549
 40
0.8127601245
 40
0.8647125387
 40
0.9125325604
 40
0.9571509054
 40
1.0
 40
1.0
 40
1.0
 40
1.0
 10
52.2555360253
 20
97.5653108545
 30
0.0
 10
52.2555360253
 20
97.8730314234
 30
0.0
 10
52.1694516396
 20
98.520043482
 30
0.0
 10
51.8481522818
 20
99.4699926099
 30
0.0
 10
51.352940099
 20
100.3852487649
 30
0.0
 10
50.724289263
 20
101.1901070339
 30
0.0
 10
50.1125631807
 20
101.7318967145
 30
0.0
 10
49.5990435815
 20
102.0461902179
 30
0.0
 10
49.2270491132
 20
102.2105555725
 30
0.0
 10
48.8641188004
 20
102.3070418436
 30
0.0
 10
48.5173154249
 20
102.3324962817
 30
0.0
 10
48.1943524961
 20
102.2852362031
 30
0.0
 10
47.9987232676
 20
102.2038814581
 30
0.0
 10
47.909959817
 20
102.1526550762
 30
0.0
  0
SPLINE
  5
39A
100
AcDbEntity
  8
0
100
AcDbSpline
 62
7
  6
CONTINUOUS
 70
0
 71
3
 72
9
 73
5
 74
0
 42
0.0000001
 43
0.0000001
 44
0.0000000001
 40
0.0
 40
0.0
 40
0.0
 40
0.0
 40
0.5170164673
 40
1.0
 40
1.0
 40
1.0
 40
1.0
 10
74.7507238341
 20
115.4945261037
 30
0.0
 10
74.7982569314
 20
115.5607885844
 30
0.0
 10
74.8748537662
 20
115.7015130384
 30
0.0
 10
74.9029510408
 20
115.8602079781
 30
0.0
 10
74.9029510267
 20
115.9363882324
 30
0.0
  0
SPLINE
  5
39B
100
AcDbEntity
  8
0
100
AcDbSpline
 62
7
  6
CONTINUOUS
 70
0
 71
3
 72
12
 73
8
 74
0
 42
0.0000001
 43
0.0000001
 44
0.0000000001
 40
0.0
 40
0.0
 40
0.0
 40
0.0
 40
0.1081629533
 40
0.218373036
 40
0.4513408185
 40
0.7104797491
 40
1.0
 40
1.0
 40
1.0
 40
1.0
 10
52.3256025996
 20
95.8108847566
 30
0.0
 10
52.3928306515
 20
95.849682761
 30
0.0
 10
52.5220704286
 20
95.9399067997
 30
0.0
 10
52.7538602855
 20
96.1679737071
 30
0.0
 10
52.983576822
 20
96.5422892761
 30
0.0
 10
53.1432215774
 20
97.0848951039
 30
0.0
 10
53.1747739576
 20
97.4800194594
 30
0.0
 10
53.1747739576
 20
97.6877858003
 30
0.0
  0
SPLINE
  5
39C
100
AcDbEntity
  8
0
100
AcDbSpline
 62
7
  6
CONTINUOUS
 70
0
 71
3
 72
19
 73
15
 74
0
 42
0.0000001
 43
0.0000001
 44
0.0000000001
 40
0.0
 40
0.0
 40
0.0
 40
0.0
 40
0.042839705
 40
0.0874493521
 40
0.1352602838
 40
0.187202934
 40
0.2436832239
 40
0.3046765908
 40
0.3698148695
 40
0.4384632367
 40
0.5827429692
 40
0.7298372898
 40
0.8713630645
 40
1.0
 40
1.0
 40
1.0
 40
1.0
 10
47.6599622209
 20
102.5856661841
 30
0.0
 10
47.7610495228
 20
102.644005453
 30
0.0
 10
47.9838398156
 20
102.7366647615
 30
0.0
 10
48.3516522727
 20
102.790483941
 30
0.0
 10
48.7466153766
 20
102.7614976308
 30
0.0
 10
49.1599598196
 20
102.65162532
 30
0.0
 10
49.5835840363
 20
102.4644151113
 30
0.0
 10
50.0090626877
 20
102.2041531355
 30
0.0
 10
50.4277245762
 20
101.876352842
 30
0.0
 10
50.9741360437
 20
101.350075668
 30
0.0
 10
51.5812509888
 20
100.5725832607
 30
0.0
 10
52.1450708776
 20
99.5305150739
 30
0.0
 10
52.5110570013
 20
98.4485251144
 30
0.0
 10
52.6090908878
 20
97.7116528935
 30
0.0
 10
52.6090908878
 20
97.3611904772
 30
0.0
  0
SPLINE
  5
39D
100
AcDbEntity
  8
0
100
AcDbSpline
 62
7
  6
CONTINUOUS
 70
0
 71
3
 72
9
 73
5
 74
0
 42
0.0000001
 43
0.0000001
 44
0.0000000001
 40
0.0
 40
0.0
 40
0.0
 40
0.0
 40
0.2590845794
 40
1.0
 40
1.0
 40
1.0
 40
1.0
 10
42.824760117
 20
50.9210688506
 30
0.0
 10
42.865262289
 20
50.8976831571
 30
0.0
 10
43.0202026071
 20
50.8050713736
 30
0.0
 10
43.1692075956
 20
50.7022767827
 30
0.0
 10
43.274309975
 20
50.6195624874
 30
0.0
  0
SPLINE
  5
39E
100
AcDbEntity
  8
0
100
AcDbSpline
 62
7
  6
CONTINUOUS
 70
0
 71
3
 72
9
 73
5
 74
0
 42
0.0000001
 43
0.0000001
 44
0.0000000001
 40
0.0
 40
0.0
 40
0.0
 40
0.0
 40
0.2480968732
 40
1.0
 40
1.0
 40
1.0
 40
1.0
 10
44.0216308286
 20
49.7139101386
 30
0.0
 10
44.035138245
 20
49.6868788606
 30
0.0
 10
44.087746319
 20
49.5770125597
 30
0.0
 10
44.1330631759
 20
49.4636865412
 30
0.0
 10
44.1632250505
 20
49.3772140353
 30
0.0
  0
SPLINE
  5
39F
100
AcDbEntity
  8
0
100
AcDbSpline
 62
7
  6
CONTINUOUS
 70
0
 71
3
 72
9
 73
5
 74
0
 42
0.0000001
 43
0.0000001
 44
0.0000000001
 40
0.0
 40
0.0
 40
0.0
 40
0.0
 40
0.2459432893
 40
1.0
 40
1.0
 40
1.0
 40
1.0
 10
44.1632250505
 20
49.3772140353
 30
0.0
 10
44.1753571503
 20
49.3424319441
 30
0.0
 10
44.222140559
 20
49.2001263088
 30
0.0
 10
44.2589913953
 20
49.0546151265
 30
0.0
 10
44.2818217876
 20
48.9440045428
 30
0.0
  0
SPLINE
  5
3A0
100
AcDbEntity
  8
0
100
AcDbSpline
 62
7
  6
CONTINUOUS
 70
0
 71
3
 72
19
 73
15
 74
0
 42
0.0000001
 43
0.0000001
 44
0.0000000001
 40
0.0
 40
0.0
 40
0.0
 40
0.0
 40
0.1286354559
 40
0.2701568332
 40
0.4172477214
 40
0.5615289143
 40
0.6301789618
 40
0.6953186487
 40
0.7563132909
 40
0.8127939179
 40
0.8647369797
 40
0.9125483695
 40
0.9571586848
 40
1.0
 40
1.0
 40
1.0
 40
1.0
 10
53.1747739576
 20
97.6877858003
 30
0.0
 10
53.1747739576
 20
98.0382441723
 30
0.0
 10
53.0767436228
 20
98.7751003471
 30
0.0
 10
52.7107722455
 20
99.857068004
 30
0.0
 10
52.146970952
 20
100.899126025
 30
0.0
 10
51.5398653849
 20
101.6766249644
 30
0.0
 10
50.9934477917
 20
102.2029139751
 30
0.0
 10
50.5747781928
 20
102.5307230686
 30
0.0
 10
50.1492979474
 20
102.7909989093
 30
0.0
 10
49.7256670874
 20
102.9782076066
 30
0.0
 10
49.312322488
 20
103.0880901473
 30
0.0
 10
48.9173544932
 20
103.1170804094
 30
0.0
 10
48.5495358641
 20
103.063256702
 30
0.0
 10
48.3267369876
 20
102.9706019348
 30
0.0
 10
48.2256455694
 20
102.9122610312
 30
0.0
  0
SPLINE
  5
3A1
100
AcDbEntity
  8
0
100
AcDbSpline
 62
7
  6
CONTINUOUS
 70
0
 71
3
 72
11
 73
7
 74
0
 42
0.0000001
 43
0.0000001
 44
0.0000000001
 40
0.0
 40
0.0
 40
0.0
 40
0.0
 40
0.2502305522
 40
0.4917491617
 40
0.7372516354
 40
1.0
 40
1.0
 40
1.0
 40
1.0
 10
31.85553936
 20
60.7759564339
 30
0.0
 10
31.6804122438
 20
60.8770638358
 30
0.0
 10
31.3576933425
 20
61.1178374734
 30
0.0
 10
30.9919633142
 20
61.5987052532
 30
0.0
 10
30.7799189542
 20
62.1750428705
 30
0.0
 10
30.7425303701
 20
62.5881430672
 30
0.0
 10
30.7425341639
 20
62.8004772902
 30
0.0
  0
SPLINE
  5
3A2
100
AcDbEntity
  8
0
100
AcDbSpline
 62
7
  6
CONTINUOUS
 70
0
 71
3
 72
12
 73
8
 74
0
 42
0.0000001
 43
0.0000001
 44
0.0000000001
 40
0.0
 40
0.0
 40
0.0
 40
0.0
 40
0.2895258967
 40
0.5486616352
 40
0.7816280864
 40
0.8918375912
 40
1.0
 40
1.0
 40
1.0
 40
1.0
 10
52.6090908878
 20
97.3611904772
 30
0.0
 10
52.6090908878
 20
97.1534198826
 30
0.0
 10
52.577538816
 20
96.7582934861
 30
0.0
 10
52.4178924819
 20
96.2156856971
 30
0.0
 10
52.1881743511
 20
95.8413769141
 30
0.0
 10
51.9563915562
 20
95.6133038992
 30
0.0
 10
51.8271473742
 20
95.5230871739
 30
0.0
 10
51.7599198086
 20
95.4842889574
 30
0.0
  0
SPLINE
  5
3A3
100
AcDbEntity
  8
0
100
AcDbSpline
 62
7
  6
CONTINUOUS
 70
0
 71
3
 72
18
 73
14
 74
0
 42
0.0000001
 43
0.0000001
 44
0.0000000001
 40
0.0
 40
0.0
 40
0.0
 40
0.0
 40
0.1286588258
 40
0.270205714
 40
0.4173228637
 40
0.5616291861
 40
0.6952642398
 40
0.7562695549
 40
0.8127601245
 40
0.8647125387
 40
0.9125325604
 40
0.9571509054
 40
1.0
 40
1.0
 40
1.0
 40
1.0
 10
47.1643460042
 20
100.5046442871
 30
0.0
 10
47.1643460042
 20
100.1969237182
 30
0.0
 10
47.2504303899
 20
99.5499116596
 30
0.0
 10
47.5717297477
 20
98.5999625317
 30
0.0
 10
48.0669419305
 20
97.6847063767
 30
0.0
 10
48.6955927665
 20
96.8798481077
 30
0.0
 10
49.3073188487
 20
96.3380584271
 30
0.0
 10
49.8208384479
 20
96.0237649236
 30
0.0
 10
50.1928329162
 20
95.8593995691
 30
0.0
 10
50.555763229
 20
95.762913298
 30
0.0
 10
50.9025666046
 20
95.7374588599
 30
0.0
 10
51.2255295334
 20
95.7847189385
 30
0.0
 10
51.4211587618
 20
95.8660736835
 30
0.0
 10
51.5099222125
 20
95.9173000654
 30
0.0
  0
SPLINE
  5
3A4
100
AcDbEntity
  8
0
100
AcDbSpline
 62
7
  6
CONTINUOUS
 70
0
 71
3
 72
10
 73
6
 74
0
 42
0.0000001
 43
0.0000001
 44
0.0000000001
 40
0.0
 40
0.0
 40
0.0
 40
0.0
 40
0.2280013718
 40
0.4756449711
 40
1.0
 40
1.0
 40
1.0
 40
1.0
 10
81.1174362418
 20
122.996231928
 30
0.0
 10
81.1174362418
 20
122.8797932198
 30
0.0
 10
81.1429195318
 20
122.6365413209
 30
0.0
 10
81.2780203924
 20
122.1427299615
 30
0.0
 10
81.463458927
 20
121.7873449547
 30
0.0
 10
81.616882143
 20
121.5678686939
 30
0.0
  0
SPLINE
  5
3A5
100
AcDbEntity
  8
0
100
AcDbSpline
 62
7
  6
CONTINUOUS
 70
0
 71
3
 72
11
 73
7
 74
0
 42
0.0000001
 43
0.0000001
 44
0.0000000001
 40
0.0
 40
0.0
 40
0.0
 40
0.0
 40
0.253919027
 40
0.499153869
 40
0.7448439518
 40
1.0
 40
1.0
 40
1.0
 40
1.0
 10
42.9248567585
 20
54.486315327
 30
0.0
 10
42.9567477253
 20
54.467902799
 30
0.0
 10
43.0158747208
 20
54.4247270288
 30
0.0
 10
43.084387505
 20
54.3394669916
 30
0.0
 10
43.1264062695
 20
54.238238368
 30
0.0
 10
43.135149538
 20
54.1651639662
 30
0.0
 10
43.135149538
 20
54.1281599155
 30
0.0
  0
SPLINE
  5
3A6
100
AcDbEntity
  8
0
100
AcDbSpline
 62
7
  6
CONTINUOUS
 70
0
 71
3
 72
15
 73
11
 74
0
 42
0.0000001
 43
0.0000001
 44
0.0000000001
 40
0.0
 40
0.0
 40
0.0
 40
0.0
 40
0.1115736528
 40
0.2334452179
 40
0.3615900135
 40
0.4917658654
 40
0.6214621656
 40
0.7496935693
 40
0.8760676252
 40
1.0
 40
1.0
 40
1.0
 40
1.0
 10
43.135149538
 20
54.1281599155
 30
0.0
 10
43.135149538
 20
54.0617168245
 30
0.0
 10
43.1051082456
 20
53.9220988461
 30
0.0
 10
42.9920345317
 20
53.7352154
 30
0.0
 10
42.8227042346
 20
53.5805265136
 30
0.0
 10
42.6150546339
 20
53.4736022518
 30
0.0
 10
42.3881355999
 20
53.4198440694
 30
0.0
 10
42.1575210732
 20
53.417478211
 30
0.0
 10
41.9350364195
 20
53.4618994628
 30
0.0
 10
41.7966636485
 20
53.5210873311
 30
0.0
 10
41.7327509281
 20
53.557992889
 30
0.0
  0
SPLINE
  5
3A7
100
AcDbEntity
  8
0
100
AcDbSpline
 62
7
  6
CONTINUOUS
 70
0
 71
3
 72
15
 73
11
 74
0
 42
0.0000001
 43
0.0000001
 44
0.0000000001
 40
0.0
 40
0.0
 40
0.0
 40
0.0
 40
0.0869252176
 40
0.1863952294
 40
0.3037887542
 40
0.4375985707
 40
0.5820955914
 40
0.7293795809
 40
0.8712014596
 40
1.0
 40
1.0
 40
1.0
 40
1.0
 10
32.7022630565
 20
58.7716650549
 30
0.0
 10
32.7372393216
 20
58.7515048996
 30
0.0
 10
32.8250506099
 20
58.7288676477
 30
0.0
 10
32.9664602385
 20
58.7572107188
 30
0.0
 10
33.1109015596
 20
58.8361181985
 30
0.0
 10
33.2494206987
 20
58.9587711446
 30
0.0
 10
33.3716725674
 20
59.1153132928
 30
0.0
 10
33.4680146178
 20
59.2932540795
 30
0.0
 10
33.5304412535
 20
59.4779929799
 30
0.0
 10
33.5472149056
 20
59.6038138016
 30
0.0
 10
33.5472149056
 20
59.6636313274
 30
0.0
  0
SPLINE
  5
3A8
100
AcDbEntity
  8
0
100
AcDbSpline
 62
7
  6
CONTINUOUS
 70
0
 71
3
 72
13
 73
9
 74
0
 42
0.0000001
 43
0.0000001
 44
0.0000000001
 40
0.0
 40
0.0
 40
0.0
 40
0.0
 40
0.1142253587
 40
0.237559206
 40
0.5000004539
 40
0.7624414493
 40
0.885775028
 40
1.0
 40
1.0
 40
1.0
 40
1.0
 10
70.9230420001
 20
118.7124321618
 30
0.0
 10
70.8262542874
 20
118.7683113097
 30
0.0
 10
70.61450875
 20
118.8668842193
 30
0.0
 10
70.1453047274
 20
119.0094384578
 30
0.0
 10
69.5088263963
 20
119.0786401872
 30
0.0
 10
68.8723485955
 20
119.0094355877
 30
0.0
 10
68.4031462051
 20
118.8668789987
 30
0.0
 10
68.1914018575
 20
118.7683050198
 30
0.0
 10
68.0946148754
 20
118.7124253631
 30
0.0
  0
SPLINE
  5
3A9
100
AcDbEntity
  8
0
100
AcDbSpline
 62
7
  6
CONTINUOUS
 70
0
 71
3
 72
18
 73
14
 74
0
 42
0.0000001
 43
0.0000001
 44
0.0000000001
 40
0.0
 40
0.0
 40
0.0
 40
0.0
 40
0.1156430495
 40
0.2393371125
 40
0.3681081426
 40
0.4992731318
 40
0.5652626855
 40
0.6310931192
 40
0.6964523603
 40
0.7609367923
 40
0.8240531074
 40
0.8852737332
 40
1.0
 40
1.0
 40
1.0
 40
1.0
 10
44.371359152
 20
61.1397201255
 30
0.0
 10
44.3672962589
 20
60.8136590757
 30
0.0
 10
44.303025584
 20
60.1387726921
 30
0.0
 10
44.0508202148
 20
59.127681537
 30
0.0
 10
43.6089799229
 20
58.1330705962
 30
0.0
 10
43.0500921798
 20
57.3890243152
 30
0.0
 10
42.4856047387
 20
56.9040693416
 30
0.0
 10
42.010140154
 20
56.611073247
 30
0.0
 10
41.4967526352
 20
56.4019730847
 30
0.0
 10
40.9634140562
 20
56.2825973438
 30
0.0
 10
40.4292228363
 20
56.2525878535
 30
0.0
 10
39.7571796205
 20
56.3224793125
 30
0.0
 10
39.277509499
 20
56.4909769154
 30
0.0
 10
38.997347615
 20
56.6527247953
 30
0.0
  0
SPLINE
  5
3AA
100
AcDbEntity
  8
0
100
AcDbSpline
 62
7
  6
CONTINUOUS
 70
0
 71
3
 72
11
 73
7
 74
0
 42
0.0000001
 43
0.0000001
 44
0.0000000001
 40
0.0
 40
0.0
 40
0.0
 40
0.0
 40
0.2893975675
 40
0.5491290883
 40
0.7823145228
 40
1.0
 40
1.0
 40
1.0
 40
1.0
 10
33.5472149056
 20
59.6636313274
 30
0.0
 10
33.5472149056
 20
59.6990606737
 30
0.0
 10
33.5417698782
 20
59.7665039484
 30
0.0
 10
33.5145567204
 20
59.8592196677
 30
0.0
 10
33.4685176854
 20
59.9344434292
 30
0.0
 10
33.425310528
 20
59.9707473092
 30
0.0
 10
33.4022213825
 20
59.9840557845
 30
0.0
  0
SPLINE
  5
3AB
100
AcDbEntity
  8
0
100
AcDbSpline
 62
7
  6
CONTINUOUS
 70
0
 71
3
 72
9
 73
5
 74
0
 42
0.0000001
 43
0.0000001
 44
0.0000000001
 40
0.0
 40
0.0
 40
0.0
 40
0.0
 40
0.4773773815
 40
1.0
 40
1.0
 40
1.0
 40
1.0
 10
44.371359152
 20
78.2756118305
 30
0.0
 10
44.371359152
 20
78.4268067663
 30
0.0
 10
44.4088043654
 20
78.7438207293
 30
0.0
 10
44.5013118619
 20
79.0482866282
 30
0.0
 10
44.561249662
 20
79.202578518
 30
0.0
  0
SPLINE
  5
3AC
100
AcDbEntity
  8
0
100
AcDbSpline
 62
7
  6
CONTINUOUS
 70
0
 71
3
 72
9
 73
5
 74
0
 42
0.0000001
 43
0.0000001
 44
0.0000000001
 40
0.0
 40
0.0
 40
0.0
 40
0.0
 40
0.2518834874
 40
1.0
 40
1.0
 40
1.0
 40
1.0
 10
44.7855759841
 20
79.6694616379
 30
0.0
 10
44.8073326976
 20
79.7071455733
 30
0.0
 10
44.8965394067
 20
79.855097429
 30
0.0
 10
44.9968135519
 20
79.9964125476
 30
0.0
 10
45.0777428212
 20
80.0971758777
 30
0.0
  0
SPLINE
  5
3AD
100
AcDbEntity
  8
0
100
AcDbSpline
 62
7
  6
CONTINUOUS
 70
0
 71
3
 72
9
 73
5
 74
0
 42
0.0000001
 43
0.0000001
 44
0.0000000001
 40
0.0
 40
0.0
 40
0.0
 40
0.0
 40
0.5226236696
 40
1.0
 40
1.0
 40
1.0
 40
1.0
 10
45.0777428212
 20
80.0971758777
 30
0.0
 10
45.1813934008
 20
80.226229033
 30
0.0
 10
45.3988121228
 20
80.4585746201
 30
0.0
 10
45.6546294057
 20
80.6495086687
 30
0.0
 10
45.7855668264
 20
80.7251049725
 30
0.0
  0
SPLINE
  5
3AE
100
AcDbEntity
  8
0
100
AcDbSpline
 62
7
  6
CONTINUOUS
 70
0
 71
3
 72
11
 73
7
 74
0
 42
0.0000001
 43
0.0000001
 44
0.0000000001
 40
0.0
 40
0.0
 40
0.0
 40
0.0
 40
0.2177817009
 40
0.4509079353
 40
0.7102947134
 40
1.0
 40
1.0
 40
1.0
 40
1.0
 10
74.9029510267
 20
115.9363882324
 30
0.0
 10
74.9029510125
 20
116.0125650599
 30
0.0
 10
74.874799902
 20
116.1713416811
 30
0.0
 10
74.7544307744
 20
116.3925683173
 30
0.0
 10
74.5641442982
 20
116.5925481189
 30
0.0
 10
74.4049275472
 20
116.7022100812
 30
0.0
 10
74.3171686808
 20
116.7528765401
 30
0.0
  0
SPLINE
  5
3AF
100
AcDbEntity
  8
0
100
AcDbSpline
 62
7
  6
CONTINUOUS
 70
0
 71
3
 72
11
 73
7
 74
0
 42
0.0000001
 43
0.0000001
 44
0.0000000001
 40
0.0
 40
0.0
 40
0.0
 40
0.0
 40
0.217780887
 40
0.450925738
 40
0.7102608723
 40
1.0
 40
1.0
 40
1.0
 40
1.0
 10
47.909959817
 20
102.1526550762
 30
0.0
 10
47.7911969074
 20
102.0841156704
 30
0.0
 10
47.5690252461
 20
101.8972930798
 30
0.0
 10
47.3324955336
 20
101.5105771024
 30
0.0
 10
47.1919599203
 20
101.0339657917
 30
0.0
 10
47.1643460042
 20
100.6870727632
 30
0.0
 10
47.1643460042
 20
100.5046442871
 30
0.0
  0
SPLINE
  5
3B0
100
AcDbEntity
  8
0
100
AcDbSpline
 62
7
  6
CONTINUOUS
 70
0
 71
3
 72
12
 73
8
 74
0
 42
0.0000001
 43
0.0000001
 44
0.0000000001
 40
0.0
 40
0.0
 40
0.0
 40
0.0
 40
0.2557030333
 40
0.5172266459
 40
0.7696309528
 40
0.8883107231
 40
1.0
 40
1.0
 40
1.0
 40
1.0
 10
31.8908948773
 20
60.7555443782
 30
0.0
 10
32.290989614
 20
61.1685528379
 30
0.0
 10
33.0206370019
 20
62.0838660737
 30
0.0
 10
33.8615839117
 20
63.6046006537
 30
0.0
 10
34.3329659799
 20
64.9563777488
 30
0.0
 10
34.5346860903
 20
66.0247443976
 30
0.0
 10
34.5747600391
 20
66.5427079641
 30
0.0
 10
34.5778894587
 20
66.7938545756
 30
0.0
  0
SPLINE
  5
3B1
100
AcDbEntity
  8
0
100
AcDbSpline
 62
7
  6
CONTINUOUS
 70
0
 71
3
 72
15
 73
11
 74
0
 42
0.0000001
 43
0.0000001
 44
0.0000000001
 40
0.0
 40
0.0
 40
0.0
 40
0.0
 40
0.0869252176
 40
0.1863952294
 40
0.3037887542
 40
0.4375985707
 40
0.5820955914
 40
0.7293795809
 40
0.8712014596
 40
1.0
 40
1.0
 40
1.0
 40
1.0
 10
45.9180635176
 20
52.7581944295
 30
0.0
 10
45.8830872525
 20
52.7783545849
 30
0.0
 10
45.7952759642
 20
52.8009918367
 30
0.0
 10
45.6538663356
 20
52.7726487656
 30
0.0
 10
45.5094250145
 20
52.6937412859
 30
0.0
 10
45.3709058754
 20
52.5710883398
 30
0.0
 10
45.2486540067
 20
52.4145461916
 30
0.0
 10
45.1523119563
 20
52.2366054049
 30
0.0
 10
45.0898853206
 20
52.0518665045
 30
0.0
 10
45.0731116686
 20
51.9260456829
 30
0.0
 10
45.0731116686
 20
51.866228157
 30
0.0
  0
SPLINE
  5
3B2
100
AcDbEntity
  8
0
100
AcDbSpline
 62
7
  6
CONTINUOUS
 70
0
 71
3
 72
13
 73
9
 74
0
 42
0.0000001
 43
0.0000001
 44
0.0000000001
 40
0.0
 40
0.0
 40
0.0
 40
0.0
 40
0.1142247162
 40
0.2375579183
 40
0.4999983243
 40
0.7624396433
 40
0.8857739388
 40
1.0
 40
1.0
 40
1.0
 40
1.0
 10
45.7855668264
 20
80.7251049725
 30
0.0
 10
45.6887799437
 20
80.6692253733
 30
0.0
 10
45.4975399317
 20
80.535137278
 30
0.0
 10
45.1394812291
 20
80.2000750646
 30
0.0
 10
44.7613107739
 20
79.6834702441
 30
0.0
 10
44.503005698
 20
79.0976604127
 30
0.0
 10
44.3918631396
 20
78.6200379306
 30
0.0
 10
44.371359152
 20
78.3873728453
 30
0.0
 10
44.371359152
 20
78.2756118305
 30
0.0
  0
SPLINE
  5
3B3
100
AcDbEntity
  8
0
100
AcDbSpline
 62
7
  6
CONTINUOUS
 70
0
 71
3
 72
11
 73
7
 74
0
 42
0.0000001
 43
0.0000001
 44
0.0000000001
 40
0.0
 40
0.0
 40
0.0
 40
0.0
 40
0.289702809
 40
0.549088757
 40
0.7822160314
 40
1.0
 40
1.0
 40
1.0
 40
1.0
 10
58.3014089615
 20
36.7566348467
 30
0.0
 10
58.2136525588
 20
36.7059689664
 30
0.0
 10
58.0390768
 20
36.6229182082
 30
0.0
 10
57.7707500954
 20
36.5581197383
 30
0.0
 10
57.5189808628
 20
36.5644923377
 30
0.0
 10
57.3674020296
 20
36.6195001355
 30
0.0
 10
57.3014309183
 20
36.6575877203
 30
0.0
  0
SPLINE
  5
3B4
100
AcDbEntity
  8
0
100
AcDbSpline
 62
7
  6
CONTINUOUS
 70
0
 71
3
 72
11
 73
7
 74
0
 42
0.0000001
 43
0.0000001
 44
0.0000000001
 40
0.0
 40
0.0
 40
0.0
 40
0.0
 40
0.237491771
 40
0.5002292608
 40
0.7627409579
 40
1.0
 40
1.0
 40
1.0
 40
1.0
 10
51.5131897501
 20
45.3304951266
 30
0.0
 10
51.7988050821
 20
45.1655987682
 30
0.0
 10
52.4285857077
 20
44.8674250257
 30
0.0
 10
53.4216341108
 20
44.4983539081
 30
0.0
 10
54.4188914662
 20
44.1440240885
 30
0.0
 10
55.0552737705
 20
43.8599543246
 30
0.0
 10
55.3406022521
 20
43.6952074956
 30
0.0
  0
SPLINE
  5
3B5
100
AcDbEntity
  8
0
100
AcDbSpline
 62
7
  6
CONTINUOUS
 70
0
 71
3
 72
11
 73
7
 74
0
 42
0.0000001
 43
0.0000001
 44
0.0000000001
 40
0.0
 40
0.0
 40
0.0
 40
0.0
 40
0.2638355508
 40
0.5199971867
 40
0.7654886877
 40
1.0
 40
1.0
 40
1.0
 40
1.0
 10
54.2485930632
 20
46.332131534
 30
0.0
 10
54.2084399155
 20
46.3553174399
 30
0.0
 10
54.1325635086
 20
46.4071121969
 30
0.0
 10
54.036609561
 20
46.5027421317
 30
0.0
 10
53.9685418101
 20
46.6147166934
 30
0.0
 10
53.950746848
 20
46.6996259064
 30
0.0
 10
53.950746848
 20
46.7408390482
 30
0.0
  0
SPLINE
  5
3B6
100
AcDbEntity
  8
0
100
AcDbSpline
 62
7
  6
CONTINUOUS
 70
0
 71
3
 72
11
 73
7
 74
0
 42
0.0000001
 43
0.0000001
 44
0.0000000001
 40
0.0
 40
0.0
 40
0.0
 40
0.0
 40
0.217780887
 40
0.450925738
 40
0.7102608723
 40
1.0
 40
1.0
 40
1.0
 40
1.0
 10
64.0257643476
 20
34.3123777295
 30
0.0
 10
64.1445272571
 20
34.3809171353
 30
0.0
 10
64.3666989184
 20
34.5677397259
 30
0.0
 10
64.603228631
 20
34.9544557033
 30
0.0
 10
64.7437642443
 20
35.431067014
 30
0.0
 10
64.7713781604
 20
35.7779600425
 30
0.0
 10
64.7713781604
 20
35.9603885187
 30
0.0
  0
SPLINE
  5
3B7
100
AcDbEntity
  8
0
100
AcDbSpline
 62
7
  6
CONTINUOUS
 70
0
 71
3
 72
17
 73
13
 74
0
 42
0.0000001
 43
0.0000001
 44
0.0000000001
 40
0.0
 40
0.0
 40
0.0
 40
0.0
 40
0.0433433288
 40
0.0878912418
 40
0.1842011328
 40
0.237581099
 40
0.2947188903
 40
0.4198746862
 40
0.5576570398
 40
0.7038623112
 40
0.8531999583
 40
1.0
 40
1.0
 40
1.0
 40
1.0
 10
64.2757619437
 20
33.8793666216
 30
0.0
 10
64.1936093169
 20
33.8319548885
 30
0.0
 10
64.0163728926
 20
33.753092282
 30
0.0
 10
63.6202675423
 20
33.6666922288
 30
0.0
 10
63.1868673291
 20
33.6986803714
 30
0.0
 10
62.7519882182
 20
33.8261425062
 30
0.0
 10
62.2778893172
 20
34.0325923685
 30
0.0
 10
61.6877993984
 20
34.4192083561
 30
0.0
 10
61.0321233108
 20
35.0340684104
 30
0.0
 10
60.4422713651
 20
35.7808131545
 30
0.0
 10
59.9508418696
 20
36.6180577635
 30
0.0
 10
59.7013012001
 20
37.2189987981
 30
0.0
 10
59.6009124561
 20
37.5241666236
 30
0.0
  0
SPLINE
  5
3B8
100
AcDbEntity
  8
0
100
AcDbSpline
 62
7
  6
CONTINUOUS
 70
0
 71
3
 72
11
 73
7
 74
0
 42
0.0000001
 43
0.0000001
 44
0.0000000001
 40
0.0
 40
0.0
 40
0.0
 40
0.0
 40
0.217780887
 40
0.450925738
 40
0.7102608723
 40
1.0
 40
1.0
 40
1.0
 40
1.0
 10
64.0257643476
 20
88.6914387104
 30
0.0
 10
64.1445272571
 20
88.7599781161
 30
0.0
 10
64.3666989184
 20
88.9468007068
 30
0.0
 10
64.603228631
 20
89.3335166841
 30
0.0
 10
64.7437642443
 20
89.8101279949
 30
0.0
 10
64.7713781604
 20
90.1570210233
 30
0.0
 10
64.7713781604
 20
90.3394494995
 30
0.0
  0
SPLINE
  5
3B9
100
AcDbEntity
  8
0
100
AcDbSpline
 62
7
  6
CONTINUOUS
 70
0
 71
3
 72
19
 73
15
 74
0
 42
0.0000001
 43
0.0000001
 44
0.0000000001
 40
0.0
 40
0.0
 40
0.0
 40
0.0
 40
0.042839705
 40
0.0874493521
 40
0.1352602838
 40
0.187202934
 40
0.2436832239
 40
0.3046765908
 40
0.3698148695
 40
0.4384632367
 40
0.5827429692
 40
0.7298372898
 40
0.8713630645
 40
1.0
 40
1.0
 40
1.0
 40
1.0
 10
64.2757619437
 20
88.2584276024
 30
0.0
 10
64.1746746418
 20
88.2000883336
 30
0.0
 10
63.951884349
 20
88.107429025
 30
0.0
 10
63.5840718919
 20
88.0536098455
 30
0.0
 10
63.189108788
 20
88.0825961558
 30
0.0
 10
62.775764345
 20
88.1924684665
 30
0.0
 10
62.3521401283
 20
88.3796786753
 30
0.0
 10
61.9266614769
 20
88.639940651
 30
0.0
 10
61.5079995884
 20
88.9677409446
 30
0.0
 10
60.9615881209
 20
89.4940181185
 30
0.0
 10
60.3544731758
 20
90.2715105259
 30
0.0
 10
59.790653287
 20
91.3135787126
 30
0.0
 10
59.4246671632
 20
92.3955686722
 30
0.0
 10
59.3266332767
 20
93.1324408931
 30
0.0
 10
59.3266332767
 20
93.4829033093
 30
0.0
  0
SPLINE
  5
3BA
100
AcDbEntity
  8
0
100
AcDbSpline
 62
7
  6
CONTINUOUS
 70
0
 71
3
 72
9
 73
5
 74
0
 42
0.0000001
 43
0.0000001
 44
0.0000000001
 40
0.0
 40
0.0
 40
0.0
 40
0.0
 40
0.4778694176
 40
1.0
 40
1.0
 40
1.0
 40
1.0
 10
53.5210984147
 20
44.567712237
 30
0.0
 10
53.6481572504
 20
44.406117441
 30
0.0
 10
53.8691558242
 20
44.0314595234
 30
0.0
 10
54.0022840779
 20
43.619204327
 30
0.0
 10
54.0527540802
 20
43.400343797
 30
0.0
  0
SPLINE
  5
3BB
100
AcDbEntity
  8
0
100
AcDbSpline
 62
7
  6
CONTINUOUS
 70
0
 71
3
 72
13
 73
9
 74
0
 42
0.0000001
 43
0.0000001
 44
0.0000000001
 40
0.0
 40
0.0
 40
0.0
 40
0.0
 40
0.0523238355
 40
0.1263755453
 40
0.2227252239
 40
0.3406726626
 40
0.6358632859
 40
1.0
 40
1.0
 40
1.0
 40
1.0
 10
43.2583763017
 20
50.5318612033
 30
0.0
 10
43.2583738557
 20
50.504196935
 30
0.0
 10
43.2753934872
 20
50.4380020832
 30
0.0
 10
43.3286389702
 20
50.332775395
 30
0.0
 10
43.4167849842
 20
50.2077120766
 30
0.0
 10
43.5957704596
 20
50.0059187709
 30
0.0
 10
43.9108426854
 20
49.7390024365
 30
0.0
 10
44.2046502115
 20
49.5499869396
 30
0.0
 10
44.3713815261
 20
49.4537267473
 30
0.0
  0
SPLINE
  5
3BC
100
AcDbEntity
  8
0
100
AcDbSpline
 62
7
  6
CONTINUOUS
 70
0
 71
3
 72
9
 73
5
 74
0
 42
0.0000001
 43
0.0000001
 44
0.0000000001
 40
0.0
 40
0.0
 40
0.0
 40
0.0
 40
0.2550593862
 40
1.0
 40
1.0
 40
1.0
 40
1.0
 10
43.2583769863
 20
53.427177399
 30
0.0
 10
43.2583781266
 20
53.383134071
 30
0.0
 10
43.2602504966
 20
53.2104590849
 30
0.0
 10
43.2665737406
 20
53.0378451115
 30
0.0
 10
43.2665737406
 20
52.9092097206
 30
0.0
  0
SPLINE
  5
3BD
100
AcDbEntity
  8
0
100
AcDbSpline
 62
7
  6
CONTINUOUS
 70
0
 71
3
 72
13
 73
9
 74
0
 42
0.0000001
 43
0.0000001
 44
0.0000000001
 40
0.0
 40
0.0
 40
0.0
 40
0.0
 40
0.1203723328
 40
0.2487426158
 40
0.3811964772
 40
0.5137525978
 40
0.7683434311
 40
1.0
 40
1.0
 40
1.0
 40
1.0
 10
43.258376299
 20
55.5746159352
 30
0.0
 10
43.2583803789
 20
55.8029659564
 30
0.0
 10
43.3041483265
 20
56.2748860967
 30
0.0
 10
43.4569950552
 20
56.9822864101
 30
0.0
 10
43.6580023864
 20
57.7011756752
 30
0.0
 10
43.9398642927
 20
58.6455983427
 30
0.0
 10
44.2486031581
 20
59.7789920416
 30
0.0
 10
44.3658836775
 20
60.7002945947
 30
0.0
 10
44.371359152
 20
61.1397201255
 30
0.0
  0
SPLINE
  5
3BE
100
AcDbEntity
  8
0
100
AcDbSpline
 62
7
  6
CONTINUOUS
 70
0
 71
3
 72
11
 73
7
 74
0
 42
0.0000001
 43
0.0000001
 44
0.0000000001
 40
0.0
 40
0.0
 40
0.0
 40
0.0
 40
0.4236423403
 40
0.7269646022
 40
0.9139677959
 40
1.0
 40
1.0
 40
1.0
 40
1.0
 10
43.2665737406
 20
52.9092097206
 30
0.0
 10
43.2665737406
 20
52.8767145294
 30
0.0
 10
43.266069373
 20
52.8209482665
 30
0.0
 10
43.2631027062
 20
52.7508862985
 30
0.0
 10
43.2604900267
 20
52.7067747388
 30
0.0
 10
43.2583793583
 20
52.6858970148
 30
0.0
 10
43.2583769749
 20
52.6792979749
 30
0.0
  0
SPLINE
  5
3BF
100
AcDbEntity
  8
0
100
AcDbSpline
 62
7
  6
CONTINUOUS
 70
0
 71
3
 72
17
 73
13
 74
0
 42
0.0000001
 43
0.0000001
 44
0.0000000001
 40
0.0
 40
0.0
 40
0.0
 40
0.0
 40
0.0550371015
 40
0.1112117813
 40
0.1695852903
 40
0.2303354867
 40
0.3577081533
 40
0.490628771
 40
0.6256552915
 40
0.7586937636
 40
0.8848622352
 40
1.0
 40
1.0
 40
1.0
 40
1.0
 10
53.950746848
 20
46.7408390482
 30
0.0
 10
53.950746848
 20
46.7731597895
 30
0.0
 10
53.961429284
 20
46.8388872054
 30
0.0
 10
54.0060736636
 20
46.9291464289
 30
0.0
 10
54.0719128139
 20
47.0091556575
 30
0.0
 10
54.1818032704
 20
47.1041167244
 30
0.0
 10
54.3463005633
 20
47.1991969687
 30
0.0
 10
54.5637382092
 20
47.2823107378
 30
0.0
 10
54.7935789205
 20
47.3366663406
 30
0.0
 10
55.025006435
 20
47.3583763812
 30
0.0
 10
55.2453948822
 20
47.3410158779
 30
0.0
 10
55.3821427327
 20
47.2942618824
 30
0.0
 10
55.4406988936
 20
47.2604539719
 30
0.0
  0
SPLINE
  5
3C0
100
AcDbEntity
  8
0
100
AcDbSpline
 62
7
  6
CONTINUOUS
 70
0
 71
3
 72
12
 73
8
 74
0
 42
0.0000001
 43
0.0000001
 44
0.0000000001
 40
0.0
 40
0.0
 40
0.0
 40
0.0
 40
0.1116892651
 40
0.2303690147
 40
0.4827733111
 40
0.7442969319
 40
1.0
 40
1.0
 40
1.0
 40
1.0
 10
54.1648288453
 20
55.4855856754
 30
0.0
 10
54.161699426
 20
55.2344390904
 30
0.0
 10
54.1216255019
 20
54.7164755954
 30
0.0
 10
53.9199054071
 20
53.6481090418
 30
0.0
 10
53.4485234044
 20
52.2963319815
 30
0.0
 10
52.6075764914
 20
50.7755973177
 30
0.0
 10
51.8779290551
 20
49.860283994
 30
0.0
 10
51.4778342638
 20
49.447275478
 30
0.0
  0
SPLINE
  5
3C1
100
AcDbEntity
  8
0
100
AcDbSpline
 62
7
  6
CONTINUOUS
 70
0
 71
3
 72
11
 73
7
 74
0
 42
0.0000001
 43
0.0000001
 44
0.0000000001
 40
0.0
 40
0.0
 40
0.0
 40
0.0
 40
0.2893975675
 40
0.5491290883
 40
0.7823145228
 40
1.0
 40
1.0
 40
1.0
 40
1.0
 10
45.0731116686
 20
51.866228157
 30
0.0
 10
45.0731116686
 20
51.8307988108
 30
0.0
 10
45.0785566959
 20
51.763355536
 30
0.0
 10
45.1057698537
 20
51.6706398167
 30
0.0
 10
45.1518088888
 20
51.5954160552
 30
0.0
 10
45.1950160461
 20
51.5591121752
 30
0.0
 10
45.2181051916
 20
51.5458036999
 30
0.0
  0
SPLINE
  5
3C2
100
AcDbEntity
  8
0
100
AcDbSpline
 62
7
  6
CONTINUOUS
 70
0
 71
3
 72
9
 73
5
 74
0
 42
0.0000001
 43
0.0000001
 44
0.0000000001
 40
0.0
 40
0.0
 40
0.0
 40
0.0
 40
0.2577061349
 40
1.0
 40
1.0
 40
1.0
 40
1.0
 10
44.2847018031
 20
48.9423453981
 30
0.0
 10
44.2768932092
 20
48.9824530011
 30
0.0
 10
44.244406882
 20
49.1376495378
 30
0.0
 10
44.2031488844
 20
49.2910332021
 30
0.0
 10
44.1673559208
 20
49.403153152
 30
0.0
  0
SPLINE
  5
3C3
100
AcDbEntity
  8
0
100
AcDbSpline
 62
7
  6
CONTINUOUS
 70
0
 71
3
 72
12
 73
8
 74
0
 42
0.0000001
 43
0.0000001
 44
0.0000000001
 40
0.0
 40
0.0
 40
0.0
 40
0.0
 40
0.2895258967
 40
0.5486616352
 40
0.7816280864
 40
0.8918375912
 40
1.0
 40
1.0
 40
1.0
 40
1.0
 10
59.3266332767
 20
93.4829033093
 30
0.0
 10
59.3266332767
 20
93.6906739039
 30
0.0
 10
59.3581853485
 20
94.0858003004
 30
0.0
 10
59.5178316827
 20
94.6284080895
 30
0.0
 10
59.7475498135
 20
95.0027168724
 30
0.0
 10
59.9793326084
 20
95.2307898874
 30
0.0
 10
60.1085767903
 20
95.3210066126
 30
0.0
 10
60.175804356
 20
95.3598048291
 30
0.0
  0
SPLINE
  5
3C4
100
AcDbEntity
  8
0
100
AcDbSpline
 62
7
  6
CONTINUOUS
 70
0
 71
3
 72
18
 73
14
 74
0
 42
0.0000001
 43
0.0000001
 44
0.0000000001
 40
0.0
 40
0.0
 40
0.0
 40
0.0
 40
0.1286588258
 40
0.270205714
 40
0.4173228637
 40
0.5616291861
 40
0.6952642398
 40
0.7562695549
 40
0.8127601245
 40
0.8647125387
 40
0.9125325604
 40
0.9571509054
 40
1.0
 40
1.0
 40
1.0
 40
1.0
 10
64.7713781604
 20
90.3394494995
 30
0.0
 10
64.7713781604
 20
90.6471700684
 30
0.0
 10
64.6852937747
 20
91.294182127
 30
0.0
 10
64.3639944169
 20
92.2441312549
 30
0.0
 10
63.8687822341
 20
93.1593874099
 30
0.0
 10
63.2401313981
 20
93.9642456789
 30
0.0
 10
62.6284053158
 20
94.5060353595
 30
0.0
 10
62.1148857166
 20
94.8203288629
 30
0.0
 10
61.7428912483
 20
94.9846942175
 30
0.0
 10
61.3799609355
 20
95.0811804886
 30
0.0
 10
61.03315756
 20
95.1066349267
 30
0.0
 10
60.7101946312
 20
95.0593748481
 30
0.0
 10
60.5145654027
 20
94.9780201031
 30
0.0
 10
60.4258019521
 20
94.9267937212
 30
0.0
  0
SPLINE
  5
3C5
100
AcDbEntity
  8
0
100
AcDbSpline
 62
7
  6
CONTINUOUS
 70
0
 71
3
 72
11
 73
7
 74
0
 42
0.0000001
 43
0.0000001
 44
0.0000000001
 40
0.0
 40
0.0
 40
0.0
 40
0.0
 40
0.229231491
 40
0.4815309993
 40
0.7435375368
 40
1.0
 40
1.0
 40
1.0
 40
1.0
 10
64.7713781604
 20
35.9603885187
 30
0.0
 10
64.7713781604
 20
36.2716132769
 30
0.0
 10
64.6833555027
 20
36.9261160569
 30
0.0
 10
64.3554081009
 20
37.8860511987
 30
0.0
 10
63.8511026838
 20
38.8084349014
 30
0.0
 10
63.4114590155
 20
39.3638531566
 30
0.0
 10
63.1699530604
 20
39.6146823153
 30
0.0
  0
SPLINE
  5
3C6
100
AcDbEntity
  8
0
100
AcDbSpline
 62
7
  6
CONTINUOUS
 70
0
 71
3
 72
9
 73
5
 74
0
 42
0.0000001
 43
0.0000001
 44
0.0000000001
 40
0.0
 40
0.0
 40
0.0
 40
0.0
 40
0.5170164673
 40
1.0
 40
1.0
 40
1.0
 40
1.0
 10
87.2665659692
 20
108.2686647487
 30
0.0
 10
87.3140990665
 20
108.3349272294
 30
0.0
 10
87.3906959013
 20
108.4756516834
 30
0.0
 10
87.4187931759
 20
108.6343466231
 30
0.0
 10
87.4187931618
 20
108.7105268774
 30
0.0
  0
SPLINE
  5
3C7
100
AcDbEntity
  8
0
100
AcDbSpline
 62
7
  6
CONTINUOUS
 70
0
 71
3
 72
12
 73
8
 74
0
 42
0.0000001
 43
0.0000001
 44
0.0000000001
 40
0.0
 40
0.0
 40
0.0
 40
0.0
 40
0.1081629533
 40
0.218373036
 40
0.4513408185
 40
0.7104797491
 40
1.0
 40
1.0
 40
1.0
 40
1.0
 10
64.8414447347
 20
88.5850234016
 30
0.0
 10
64.9086727866
 20
88.623821406
 30
0.0
 10
65.0379125637
 20
88.7140454447
 30
0.0
 10
65.2697024206
 20
88.9421123521
 30
0.0
 10
65.4994189571
 20
89.3164279211
 30
0.0
 10
65.6590637125
 20
89.8590337488
 30
0.0
 10
65.6906160927
 20
90.2541581044
 30
0.0
 10
65.6906160927
 20
90.4619244453
 30
0.0
  0
SPLINE
  5
3C8
100
AcDbEntity
  8
0
100
AcDbSpline
 62
7
  6
CONTINUOUS
 70
0
 71
3
 72
19
 73
15
 74
0
 42
0.0000001
 43
0.0000001
 44
0.0000000001
 40
0.0
 40
0.0
 40
0.0
 40
0.0
 40
0.042839705
 40
0.0874493521
 40
0.1352602838
 40
0.187202934
 40
0.2436832239
 40
0.3046765908
 40
0.3698148695
 40
0.4384632367
 40
0.5827429692
 40
0.7298372898
 40
0.8713630645
 40
1.0
 40
1.0
 40
1.0
 40
1.0
 10
60.175804356
 20
95.3598048291
 30
0.0
 10
60.2768916579
 20
95.4181440979
 30
0.0
 10
60.4996819507
 20
95.5108034065
 30
0.0
 10
60.8674944078
 20
95.564622586
 30
0.0
 10
61.2624575117
 20
95.5356362758
 30
0.0
 10
61.6758019547
 20
95.425763965
 30
0.0
 10
62.0994261714
 20
95.2385537563
 30
0.0
 10
62.5249048228
 20
94.9782917805
 30
0.0
 10
62.9435667113
 20
94.650491487
 30
0.0
 10
63.4899781788
 20
94.124214313
 30
0.0
 10
64.0970931239
 20
93.3467219057
 30
0.0
 10
64.6609130127
 20
92.3046537189
 30
0.0
 10
65.0268991364
 20
91.2226637594
 30
0.0
 10
65.1249330229
 20
90.4857915385
 30
0.0
 10
65.1249330229
 20
90.1353291222
 30
0.0
  0
SPLINE
  5
3C9
100
AcDbEntity
  8
0
100
AcDbSpline
 62
7
  6
CONTINUOUS
 70
0
 71
3
 72
11
 73
7
 74
0
 42
0.0000001
 43
0.0000001
 44
0.0000000001
 40
0.0
 40
0.0
 40
0.0
 40
0.0
 40
0.2177825102
 40
0.4509091639
 40
0.7102957096
 40
1.0
 40
1.0
 40
1.0
 40
1.0
 10
57.3014309183
 20
36.6575877203
 30
0.0
 10
57.2354576357
 20
36.6956765588
 30
0.0
 10
57.1120241647
 20
36.7994458654
 30
0.0
 10
56.98061478
 20
37.0143057557
 30
0.0
 10
56.902565378
 20
37.2790937944
 30
0.0
 10
56.8872012871
 20
37.471814627
 30
0.0
 10
56.8872012871
 20
37.5731513732
 30
0.0
  0
SPLINE
  5
3CA
100
AcDbEntity
  8
0
100
AcDbSpline
 62
7
  6
CONTINUOUS
 70
0
 71
3
 72
15
 73
11
 74
0
 42
0.0000001
 43
0.0000001
 44
0.0000000001
 40
0.0
 40
0.0
 40
0.0
 40
0.0
 40
0.1350379582
 40
0.2604360265
 40
0.3795848205
 40
0.4964311031
 40
0.6146110002
 40
0.7369076271
 40
0.8650988806
 40
1.0
 40
1.0
 40
1.0
 40
1.0
 10
55.3406022521
 20
43.6952074956
 30
0.0
 10
55.4738755049
 20
43.6182563771
 30
0.0
 10
55.7239092943
 20
43.4568519318
 30
0.0
 10
56.0540361686
 20
43.1750072902
 30
0.0
 10
56.323527707
 20
42.861236272
 30
0.0
 10
56.5350074131
 20
42.5154829787
 30
0.0
 10
56.6931261405
 20
42.1387162088
 30
0.0
 10
56.8030408357
 20
41.7321020963
 30
0.0
 10
56.8690462764
 20
41.2971141998
 30
0.0
 10
56.8852578252
 20
40.997250983
 30
0.0
 10
56.8872012871
 20
40.8435256315
 30
0.0
  0
SPLINE
  5
3CB
100
AcDbEntity
  8
0
100
AcDbSpline
 62
7
  6
CONTINUOUS
 70
0
 71
3
 72
19
 73
15
 74
0
 42
0.0000001
 43
0.0000001
 44
0.0000000001
 40
0.0
 40
0.0
 40
0.0
 40
0.0
 40
0.1286354559
 40
0.2701568332
 40
0.4172477214
 40
0.5615289143
 40
0.6301789618
 40
0.6953186487
 40
0.7563132909
 40
0.8127939179
 40
0.8647369797
 40
0.9125483695
 40
0.9571586848
 40
1.0
 40
1.0
 40
1.0
 40
1.0
 10
65.6906160927
 20
90.4619244453
 30
0.0
 10
65.6906160927
 20
90.8123828173
 30
0.0
 10
65.5925857579
 20
91.5492389921
 30
0.0
 10
65.2266143806
 20
92.631206649
 30
0.0
 10
64.6628130871
 20
93.67326467
 30
0.0
 10
64.05570752
 20
94.4507636094
 30
0.0
 10
63.5092899268
 20
94.9770526201
 30
0.0
 10
63.0906203279
 20
95.3048617136
 30
0.0
 10
62.6651400825
 20
95.5651375543
 30
0.0
 10
62.2415092225
 20
95.7523462516
 30
0.0
 10
61.8281646232
 20
95.8622287923
 30
0.0
 10
61.4331966283
 20
95.8912190544
 30
0.0
 10
61.0653779992
 20
95.837395347
 30
0.0
 10
60.8425791227
 20
95.7447405798
 30
0.0
 10
60.7414877045
 20
95.6863996762
 30
0.0
  0
SPLINE
  5
3CC
100
AcDbEntity
  8
0
100
AcDbSpline
 62
7
  6
CONTINUOUS
 70
0
 71
3
 72
11
 73
7
 74
0
 42
0.0000001
 43
0.0000001
 44
0.0000000001
 40
0.0
 40
0.0
 40
0.0
 40
0.0
 40
0.2502305522
 40
0.4917491617
 40
0.7372516354
 40
1.0
 40
1.0
 40
1.0
 40
1.0
 10
44.3713814951
 20
53.5500950788
 30
0.0
 10
44.1962543789
 20
53.6512024808
 30
0.0
 10
43.8735354776
 20
53.8919761184
 30
0.0
 10
43.5078054493
 20
54.3728438982
 30
0.0
 10
43.2957610893
 20
54.9491815155
 30
0.0
 10
43.2583725052
 20
55.3622817122
 30
0.0
 10
43.258376299
 20
55.5746159352
 30
0.0
  0
SPLINE
  5
3CD
100
AcDbEntity
  8
0
100
AcDbSpline
 62
7
  6
CONTINUOUS
 70
0
 71
3
 72
12
 73
8
 74
0
 42
0.0000001
 43
0.0000001
 44
0.0000000001
 40
0.0
 40
0.0
 40
0.0
 40
0.0
 40
0.2895258967
 40
0.5486616352
 40
0.7816280864
 40
0.8918375912
 40
1.0
 40
1.0
 40
1.0
 40
1.0
 10
65.1249330229
 20
90.1353291222
 30
0.0
 10
65.1249330229
 20
89.9275585276
 30
0.0
 10
65.0933809511
 20
89.5324321311
 30
0.0
 10
64.933734617
 20
88.9898243421
 30
0.0
 10
64.7040164862
 20
88.6155155591
 30
0.0
 10
64.4722336913
 20
88.3874425442
 30
0.0
 10
64.3429895093
 20
88.2972258189
 30
0.0
 10
64.2757619437
 20
88.2584276024
 30
0.0
  0
SPLINE
  5
3CE
100
AcDbEntity
  8
0
100
AcDbSpline
 62
7
  6
CONTINUOUS
 70
0
 71
3
 72
18
 73
14
 74
0
 42
0.0000001
 43
0.0000001
 44
0.0000000001
 40
0.0
 40
0.0
 40
0.0
 40
0.0
 40
0.1286588258
 40
0.270205714
 40
0.4173228637
 40
0.5616291861
 40
0.6952642398
 40
0.7562695549
 40
0.8127601245
 40
0.8647125387
 40
0.9125325604
 40
0.9571509054
 40
1.0
 40
1.0
 40
1.0
 40
1.0
 10
59.6801881393
 20
93.278782932
 30
0.0
 10
59.6801881393
 20
92.9710623632
 30
0.0
 10
59.766272525
 20
92.3240503046
 30
0.0
 10
60.0875718828
 20
91.3741011767
 30
0.0
 10
60.5827840656
 20
90.4588450217
 30
0.0
 10
61.2114349016
 20
89.6539867527
 30
0.0
 10
61.8231609838
 20
89.1121970721
 30
0.0
 10
62.336680583
 20
88.7979035686
 30
0.0
 10
62.7086750513
 20
88.633538214
 30
0.0
 10
63.0716053641
 20
88.537051943
 30
0.0
 10
63.4184087397
 20
88.5115975049
 30
0.0
 10
63.7413716685
 20
88.5588575835
 30
0.0
 10
63.9370008969
 20
88.6402123285
 30
0.0
 10
64.0257643476
 20
88.6914387104
 30
0.0
  0
SPLINE
  5
3CF
100
AcDbEntity
  8
0
100
AcDbSpline
 62
7
  6
CONTINUOUS
 70
0
 71
3
 72
17
 73
13
 74
0
 42
0.0000001
 43
0.0000001
 44
0.0000000001
 40
0.0
 40
0.0
 40
0.0
 40
0.0
 40
0.1449418762
 40
0.2936275921
 40
0.4400857006
 40
0.5786421827
 40
0.7046761817
 40
0.8155861143
 40
0.8655621909
 40
0.9123709473
 40
0.9568184643
 40
1.0
 40
1.0
 40
1.0
 40
1.0
 10
59.8657061342
 20
37.6910522309
 30
0.0
 10
59.946099121
 20
37.4149834823
 30
0.0
 10
60.1542273327
 20
36.8681709244
 30
0.0
 10
60.5784981862
 20
36.1020855593
 30
0.0
 10
61.0985559904
 20
35.412901412
 30
0.0
 10
61.6845205017
 20
34.8406305976
 30
0.0
 10
62.3030008697
 20
34.4180188821
 30
0.0
 10
62.8379705522
 20
34.2037766926
 30
0.0
 10
63.2466598296
 20
34.1398205422
 30
0.0
 10
63.5283655522
 20
34.1438629629
 30
0.0
 10
63.7911110647
 20
34.1987298056
 30
0.0
 10
63.95156978
 20
34.2695592133
 30
0.0
 10
64.0257643476
 20
34.3123777295
 30
0.0
  0
SPLINE
  5
3D0
100
AcDbEntity
  8
0
100
AcDbSpline
 62
7
  6
CONTINUOUS
 70
0
 71
3
 72
12
 73
8
 74
0
 42
0.0000001
 43
0.0000001
 44
0.0000000001
 40
0.0
 40
0.0
 40
0.0
 40
0.0
 40
0.2895258967
 40
0.5486616352
 40
0.7816280864
 40
0.8918375912
 40
1.0
 40
1.0
 40
1.0
 40
1.0
 10
65.1249330229
 20
35.7562681414
 30
0.0
 10
65.1249330229
 20
35.5484975468
 30
0.0
 10
65.0933809511
 20
35.1533711503
 30
0.0
 10
64.933734617
 20
34.6107633612
 30
0.0
 10
64.7040164862
 20
34.2364545783
 30
0.0
 10
64.4722336913
 20
34.0083815633
 30
0.0
 10
64.3429895093
 20
33.9181648381
 30
0.0
 10
64.2757619437
 20
33.8793666216
 30
0.0
  0
SPLINE
  5
3D1
100
AcDbEntity
  8
0
100
AcDbSpline
 62
7
  6
CONTINUOUS
 70
0
 71
3
 72
10
 73
6
 74
0
 42
0.0000001
 43
0.0000001
 44
0.0000000001
 40
0.0
 40
0.0
 40
0.0
 40
0.0
 40
0.2280013718
 40
0.4756449711
 40
1.0
 40
1.0
 40
1.0
 40
1.0
 10
93.6332783769
 20
115.770370573
 30
0.0
 10
93.6332783769
 20
115.6539318648
 30
0.0
 10
93.6587616669
 20
115.4106799659
 30
0.0
 10
93.7938625275
 20
114.9168686065
 30
0.0
 10
93.9793010621
 20
114.5614835996
 30
0.0
 10
94.1327242781
 20
114.3420073389
 30
0.0
  0
SPLINE
  5
3D2
100
AcDbEntity
  8
0
100
AcDbSpline
 62
7
  6
CONTINUOUS
 70
0
 71
3
 72
11
 73
7
 74
0
 42
0.0000001
 43
0.0000001
 44
0.0000000001
 40
0.0
 40
0.0
 40
0.0
 40
0.0
 40
0.253919027
 40
0.499153869
 40
0.7448439518
 40
1.0
 40
1.0
 40
1.0
 40
1.0
 10
55.4406988936
 20
47.2604539719
 30
0.0
 10
55.4725898604
 20
47.242041444
 30
0.0
 10
55.5317168559
 20
47.1988656738
 30
0.0
 10
55.6002296401
 20
47.1136056366
 30
0.0
 10
55.6422484046
 20
47.0123770129
 30
0.0
 10
55.6509916731
 20
46.9393026111
 30
0.0
 10
55.6509916731
 20
46.9022985605
 30
0.0
  0
SPLINE
  5
3D3
100
AcDbEntity
  8
0
100
AcDbSpline
 62
7
  6
CONTINUOUS
 70
0
 71
3
 72
15
 73
11
 74
0
 42
0.0000001
 43
0.0000001
 44
0.0000000001
 40
0.0
 40
0.0
 40
0.0
 40
0.0
 40
0.1115736528
 40
0.2334452179
 40
0.3615900135
 40
0.4917658654
 40
0.6214621656
 40
0.7496935693
 40
0.8760676252
 40
1.0
 40
1.0
 40
1.0
 40
1.0
 10
55.6509916731
 20
46.9022985605
 30
0.0
 10
55.6509916731
 20
46.8358554695
 30
0.0
 10
55.6209503807
 20
46.6962374911
 30
0.0
 10
55.5078766668
 20
46.509354045
 30
0.0
 10
55.3385463697
 20
46.3546651586
 30
0.0
 10
55.130896769
 20
46.2477408968
 30
0.0
 10
54.903977735
 20
46.1939827144
 30
0.0
 10
54.6733632083
 20
46.191616856
 30
0.0
 10
54.4508785546
 20
46.2360381078
 30
0.0
 10
54.3125057836
 20
46.2952259761
 30
0.0
 10
54.2485930632
 20
46.332131534
 30
0.0
  0
SPLINE
  5
3D4
100
AcDbEntity
  8
0
100
AcDbSpline
 62
7
  6
CONTINUOUS
 70
0
 71
3
 72
15
 73
11
 74
0
 42
0.0000001
 43
0.0000001
 44
0.0000000001
 40
0.0
 40
0.0
 40
0.0
 40
0.0
 40
0.0869252176
 40
0.1863952294
 40
0.3037887542
 40
0.4375985707
 40
0.5820955914
 40
0.7293795809
 40
0.8712014596
 40
1.0
 40
1.0
 40
1.0
 40
1.0
 10
45.2181051916
 20
51.5458036999
 30
0.0
 10
45.2530814567
 20
51.5256435446
 30
0.0
 10
45.340892745
 20
51.5030062927
 30
0.0
 10
45.4823023736
 20
51.5313493638
 30
0.0
 10
45.6267436947
 20
51.6102568435
 30
0.0
 10
45.7652628338
 20
51.7329097896
 30
0.0
 10
45.8875147025
 20
51.8894519378
 30
0.0
 10
45.9838567529
 20
52.0673927245
 30
0.0
 10
46.0462833886
 20
52.2521316249
 30
0.0
 10
46.0630570407
 20
52.3779524466
 30
0.0
 10
46.0630570407
 20
52.4377699724
 30
0.0
  0
SPLINE
  5
3D5
100
AcDbEntity
  8
0
100
AcDbSpline
 62
7
  6
CONTINUOUS
 70
0
 71
3
 72
13
 73
9
 74
0
 42
0.0000001
 43
0.0000001
 44
0.0000000001
 40
0.0
 40
0.0
 40
0.0
 40
0.0
 40
0.1142253587
 40
0.237559206
 40
0.5000004539
 40
0.7624414493
 40
0.885775028
 40
1.0
 40
1.0
 40
1.0
 40
1.0
 10
83.4388841352
 20
111.4865708068
 30
0.0
 10
83.3420964225
 20
111.5424499547
 30
0.0
 10
83.1303508851
 20
111.6410228643
 30
0.0
 10
82.6611468625
 20
111.7835771028
 30
0.0
 10
82.0246685314
 20
111.8527788322
 30
0.0
 10
81.3881907306
 20
111.7835742327
 30
0.0
 10
80.9189883402
 20
111.6410176437
 30
0.0
 10
80.7072439926
 20
111.5424436647
 30
0.0
 10
80.6104570105
 20
111.4865640081
 30
0.0
  0
SPLINE
  5
3D6
100
AcDbEntity
  8
0
100
AcDbSpline
 62
7
  6
CONTINUOUS
 70
0
 71
3
 72
11
 73
7
 74
0
 42
0.0000001
 43
0.0000001
 44
0.0000000001
 40
0.0
 40
0.0
 40
0.0
 40
0.0
 40
0.2286605152
 40
0.4798766495
 40
0.7416256393
 40
1.0
 40
1.0
 40
1.0
 40
1.0
 10
65.6906160927
 20
36.0828634645
 30
0.0
 10
65.6906160927
 20
36.4208332316
 30
0.0
 10
65.5994021551
 20
37.1309154111
 30
0.0
 10
65.2564751333
 20
38.1773084454
 30
0.0
 10
64.7259728388
 20
39.1918806759
 30
0.0
 10
64.2623262256
 20
39.8104690872
 30
0.0
 10
64.0067991176
 20
40.0942725298
 30
0.0
  0
SPLINE
  5
3D7
100
AcDbEntity
  8
0
100
AcDbSpline
 62
7
  6
CONTINUOUS
 70
0
 71
3
 72
18
 73
14
 74
0
 42
0.0000001
 43
0.0000001
 44
0.0000000001
 40
0.0
 40
0.0
 40
0.0
 40
0.0
 40
0.1156430495
 40
0.2393371125
 40
0.3681081426
 40
0.4992731318
 40
0.5652626855
 40
0.6310931192
 40
0.6964523603
 40
0.7609367923
 40
0.8240531074
 40
0.8852737332
 40
1.0
 40
1.0
 40
1.0
 40
1.0
 10
56.8872012871
 20
53.9138587705
 30
0.0
 10
56.883138394
 20
53.5877977207
 30
0.0
 10
56.8188677191
 20
52.9129113371
 30
0.0
 10
56.5666623499
 20
51.901820182
 30
0.0
 10
56.124822058
 20
50.9072092412
 30
0.0
 10
55.5659343149
 20
50.1631629602
 30
0.0
 10
55.0014468738
 20
49.6782079866
 30
0.0
 10
54.5259822891
 20
49.385211892
 30
0.0
 10
54.0125947703
 20
49.1761117297
 30
0.0
 10
53.4792561913
 20
49.0567359888
 30
0.0
 10
52.9450649714
 20
49.0267264985
 30
0.0
 10
52.2730217556
 20
49.0966179575
 30
0.0
 10
51.7933516341
 20
49.2651155604
 30
0.0
 10
51.5131897501
 20
49.4268634403
 30
0.0
  0
SPLINE
  5
3D8
100
AcDbEntity
  8
0
100
AcDbSpline
 62
7
  6
CONTINUOUS
 70
0
 71
3
 72
12
 73
8
 74
0
 42
0.0000001
 43
0.0000001
 44
0.0000000001
 40
0.0
 40
0.0
 40
0.0
 40
0.0
 40
0.1081629533
 40
0.218373036
 40
0.4513408185
 40
0.7104797491
 40
1.0
 40
1.0
 40
1.0
 40
1.0
 10
64.8414447347
 20
34.2059624207
 30
0.0
 10
64.9086727866
 20
34.2447604252
 30
0.0
 10
65.0379125637
 20
34.3349844639
 30
0.0
 10
65.2697024206
 20
34.5630513713
 30
0.0
 10
65.4994189571
 20
34.9373669403
 30
0.0
 10
65.6590637125
 20
35.479972768
 30
0.0
 10
65.6906160927
 20
35.8750971236
 30
0.0
 10
65.6906160927
 20
36.0828634645
 30
0.0
  0
SPLINE
  5
3D9
100
AcDbEntity
  8
0
100
AcDbSpline
 62
7
  6
CONTINUOUS
 70
0
 71
3
 72
11
 73
7
 74
0
 42
0.0000001
 43
0.0000001
 44
0.0000000001
 40
0.0
 40
0.0
 40
0.0
 40
0.0
 40
0.2893975675
 40
0.5491290883
 40
0.7823145228
 40
1.0
 40
1.0
 40
1.0
 40
1.0
 10
46.0630570407
 20
52.4377699724
 30
0.0
 10
46.0630570407
 20
52.4731993187
 30
0.0
 10
46.0576120133
 20
52.5406425934
 30
0.0
 10
46.0303988555
 20
52.6333583127
 30
0.0
 10
45.9843598205
 20
52.7085820742
 30
0.0
 10
45.9411526631
 20
52.7448859542
 30
0.0
 10
45.9180635176
 20
52.7581944295
 30
0.0
  0
SPLINE
  5
3DA
100
AcDbEntity
  8
0
100
AcDbSpline
 62
7
  6
CONTINUOUS
 70
0
 71
3
 72
11
 73
7
 74
0
 42
0.0000001
 43
0.0000001
 44
0.0000000001
 40
0.0
 40
0.0
 40
0.0
 40
0.0
 40
0.2583756121
 40
0.5201261344
 40
0.7713424335
 40
1.0
 40
1.0
 40
1.0
 40
1.0
 10
63.4415891725
 20
39.7671479458
 30
0.0
 10
63.6970460295
 20
39.4833607896
 30
0.0
 10
64.160563374
 20
38.8648267395
 30
0.0
 10
64.6909221063
 20
37.8503823408
 30
0.0
 10
65.033748832
 20
36.8041442272
 30
0.0
 10
65.1249330229
 20
36.0941796047
 30
0.0
 10
65.1249330229
 20
35.7562681414
 30
0.0
  0
SPLINE
  5
3DB
100
AcDbEntity
  8
0
100
AcDbSpline
 62
7
  6
CONTINUOUS
 70
0
 71
3
 72
13
 73
9
 74
0
 42
0.0000001
 43
0.0000001
 44
0.0000000001
 40
0.0
 40
0.0
 40
0.0
 40
0.0
 40
0.1142260229
 40
0.2375602528
 40
0.5000015383
 40
0.7624419778
 40
0.8857752456
 40
1.0
 40
1.0
 40
1.0
 40
1.0
 10
56.8872012871
 20
71.0497504755
 30
0.0
 10
56.8872012871
 20
71.1615114528
 30
0.0
 10
56.9077052311
 20
71.3941764393
 30
0.0
 10
57.0188477629
 20
71.8717987907
 30
0.0
 10
57.2771527351
 20
72.4576085877
 30
0.0
 10
57.6553231681
 20
72.9742135153
 30
0.0
 10
58.0133819705
 20
73.3092758171
 30
0.0
 10
58.2046220464
 20
73.4433639996
 30
0.0
 10
58.3014089615
 20
73.4992436175
 30
0.0
  0
SPLINE
  5
3DC
100
AcDbEntity
  8
0
100
AcDbSpline
 62
7
  6
CONTINUOUS
 70
0
 71
3
 72
11
 73
7
 74
0
 42
0.0000001
 43
0.0000001
 44
0.0000000001
 40
0.0
 40
0.0
 40
0.0
 40
0.0
 40
0.2177817009
 40
0.4509079353
 40
0.7102947134
 40
1.0
 40
1.0
 40
1.0
 40
1.0
 10
87.4187931618
 20
108.7105268774
 30
0.0
 10
87.4187931476
 20
108.7867037049
 30
0.0
 10
87.3906420371
 20
108.9454803261
 30
0.0
 10
87.2702729095
 20
109.1667069623
 30
0.0
 10
87.0799864333
 20
109.3666867638
 30
0.0
 10
86.9207696823
 20
109.4763487262
 30
0.0
 10
86.8330108159
 20
109.5270151851
 30
0.0
  0
SPLINE
  5
3DD
100
AcDbEntity
  8
0
100
AcDbSpline
 62
7
  6
CONTINUOUS
 70
0
 71
3
 72
11
 73
7
 74
0
 42
0.0000001
 43
0.0000001
 44
0.0000000001
 40
0.0
 40
0.0
 40
0.0
 40
0.0
 40
0.217780887
 40
0.450925738
 40
0.7102608723
 40
1.0
 40
1.0
 40
1.0
 40
1.0
 10
60.4258019521
 20
94.9267937212
 30
0.0
 10
60.3070390425
 20
94.8582543154
 30
0.0
 10
60.0848673812
 20
94.6714317248
 30
0.0
 10
59.8483376687
 20
94.2847157474
 30
0.0
 10
59.7078020554
 20
93.8081044367
 30
0.0
 10
59.6801881393
 20
93.4612114082
 30
0.0
 10
59.6801881393
 20
93.278782932
 30
0.0
  0
SPLINE
  5
3DE
100
AcDbEntity
  8
0
100
AcDbSpline
 62
7
  6
CONTINUOUS
 70
0
 71
3
 72
12
 73
8
 74
0
 42
0.0000001
 43
0.0000001
 44
0.0000000001
 40
0.0
 40
0.0
 40
0.0
 40
0.0
 40
0.2557030333
 40
0.5172266459
 40
0.7696309528
 40
0.8883107231
 40
1.0
 40
1.0
 40
1.0
 40
1.0
 10
44.4067370124
 20
53.5296830232
 30
0.0
 10
44.8068317491
 20
53.9426914829
 30
0.0
 10
45.536479137
 20
54.8580047187
 30
0.0
 10
46.3774260468
 20
56.3787392987
 30
0.0
 10
46.848808115
 20
57.7305163937
 30
0.0
 10
47.0505282254
 20
58.7988830426
 30
0.0
 10
47.0906021742
 20
59.3168466091
 30
0.0
 10
47.0937315938
 20
59.5679932206
 30
0.0
  0
ELLIPSE
  5
3DF
100
AcDbEntity
  8
0
100
AcDbEllipse
 62
7
  6
CONTINUOUS
 10
71.6427015864
 20
130.5083159472
 30
0.0
 11
-1.1022032659
 21
1.4381845897
 31
0.0
 40
0.4692929977
 41
7.0071677847
 42
8.0258654176
  0
ELLIPSE
  5
3E0
100
AcDbEntity
  8
0
100
AcDbEllipse
 62
7
  6
CONTINUOUS
 10
84.1585437215
 20
123.2824545922
 30
0.0
 11
-1.1022032659
 21
1.4381845897
 31
0.0
 40
0.4692929977
 41
7.0071677847
 42
8.0258654176
  0
ELLIPSE
  5
3E1
100
AcDbEntity
  8
0
100
AcDbEllipse
 62
7
  6
CONTINUOUS
 10
96.6743858566
 20
116.0565932372
 30
0.0
 11
-1.1022032659
 21
1.4381845897
 31
0.0
 40
0.4692929977
 41
7.0071677847
 42
8.0258654176
  0
ENDSEC
  0
SECTION
  2
OBJECTS
  0
DICTIONARY
  5
C
100
AcDbDictionary
280
0
281
1
  3
ACAD_GROUP
350
D
  3
ACAD_MLINESTYLE
350
17
  3
ACAD_LAYOUT
350
1A
  3
ACAD_PLOTSETTINGS
350
19
  3
ACAD_PLOTSTYLENAME
350
E
  0
DICTIONARY
  5
D
102
{ACAD_REACTORS
330
C
102
}
100
AcDbDictionary
280
0
281
1
  0
ACDBDICTIONARYWDFLT
  5
E
102
{ACAD_REACTORS
330
C
102
}
100
AcDbDictionary
281
1
  3
Normal
350
F
100
AcDbDictionaryWithDefault
340
F
  0
DICTIONARY
  5
17
102
{ACAD_REACTORS
330
C
102
}
100
AcDbDictionary
280
0
281
1
  3
Standard
350
18
  0
DICTIONARY
  5
19
102
{ACAD_REACTORS
330
C
102
}
100
AcDbDictionary
281
1
  0
DICTIONARY
  5
1A
102
{ACAD_REACTORS
330
C
102
}
100
AcDbDictionary
281
1
  3
Model
350
3E2
  3
Layout1
350
3E3
  0
ACDBPLACEHOLDER
  5
F
102
{ACAD_REACTORS
330
E
102
}
  0
MLINESTYLE
  5
18
102
{ACAD_REACTORS
330
17
102
}
100
AcDbMlineStyle
  2
STANDARD
 70
0
  3

 62
256
 51
90.0
 52
90.0
 71
2
 49
0.5
 62
256
  6
BYLAYER
 49
-0.5
 62
256
  6
BYLAYER
  0
LAYOUT
  5
3E2
102
{ACAD_REACTORS
330
1A
102
}
100
AcDbPlotSettings
  1

  2
none_device
  4

  6

 40
0.0
 41
0.0
 42
0.0
 43
0.0
 44
210.0
 45
297.0
 46
0.0
 47
0.0
 48
0.0
 49
0.0
140
0.0
141
0.0
142
1.0
143
1.0
 70
1024
 72
1
 73
0
 74
0
  7

 75
0
147
1.0
148
0.0
149
0.0
100
AcDbLayout
  1
Model
 70
0
 71
0
 10
0.0
 20
0.0
 11
210.0
 21
297.0
 12
0.0
 22
0.0
 32
0.0
 14
0.0
 24
0.0
 34
0.0
 15
0.0
 25
0.0
 35
0.0
146
0.0
 13
0.0
 23
0.0
 33
0.0
 16
1.0
 26
0.0
 36
0.0
 17
0.0
 27
1.0
 37
0.0
 76
0
330
210
345
0
346
0
  0
LAYOUT
  5
3E3
102
{ACAD_REACTORS
330
1A
102
}
100
AcDbPlotSettings
  1

  2
none_device
  4

  6

 40
0.0
 41
0.0
 42
0.0
 43
0.0
 44
210.0
 45
297.0
 46
0.0
 47
0.0
 48
0.0
 49
0.0
140
0.0
141
0.0
142
1.0
143
1.0
 70
0
 72
1
 73
0
 74
0
  7

 75
0
147
1.0
148
0.0
149
0.0
100
AcDbLayout
  1
Layout1
 70
0
 71
1
 10
0.0
 20
0.0
 11
210.0
 21
297.0
 12
0.0
 22
0.0
 32
0.0
 14
0.0
 24
0.0
 34
0.0
 15
0.0
 25
0.0
 35
0.0
146
0.0
 13
0.0
 23
0.0
 33
0.0
 16
1.0
 26
0.0
 36
0.0
 17
0.0
 27
1.0
 37
0.0
 76
0
330
211
345
0
346
0
  0
ENDSEC
  0
EOF
