999
DXF file: C:\Users\sesa63760\Dev\_Creo\CAD\MCADFD0002198_3D-CAD\drw0001_1.dxf
999
Pro/ENGINEER 2019471 by Parametric Technology Corporation
  0
SECTION
  2
HEADER
  9
$ACADVER
  1
AC1024
  9
$DWGCODEPAGE
  3
ANSI_1252
  9
$EXTMAX
 10
131.4933286243
 20
185.9691361972
 30
0.0
  9
$EXTMIN
 10
0.0
 20
0.0
 30
0.0
  9
$LIMMIN
 10
0.0
 20
0.0
  9
$LIMMAX
 10
131.4933286243
 20
185.9691361972
  9
$VIEWCTR
 10
65.7466643122
 20
92.9845680986
  9
$VIEWSIZE
 40
185.9691361972
  9
$CLAYER
  8
0
  9
$LTSCALE
 40
12.1224325817
  9
$CELTYPE
  6
BYLAYER
  9
$DIMSCALE
 40
1.0
  9
$DIMASZ
 40
1.5653967693
  9
$DIMEXO
 40
1.0
  9
$DIMDLI
 40
8.3754988747
  9
$DIMEXE
 40
1.0
  9
$DIMCEN
 40
1.9836707861
  9
$DIMLFAC
 40
1.0
  9
$DIMBLK
  1
_FILLED
  9
$DIMALT
 70
0
  9
$DIMALTF
 40
0.0393700787
  9
$DIMTXT
 40
2.1915554771
  9
$DIMTOL
 70
1
  9
$DIMLIM
 70
0
  9
$DIMTFAC
 40
1.0
  9
$DIMTP
 40
0.01
  9
$DIMTM
 40
0.01
  9
$DIMGAP
 40
0.625
  9
$DIMDSEP
 70
46
  9
$AUNITS
 70
0
  9
$PDMODE
 70
3
  9
$PDSIZE
 40
0.3125
  9
$HANDSEED
  5
456
  9
$TILEMODE
 70
1
  9
$MEASUREMENT
 70
1
  9
$INSUNITS
 70
4
  0
ENDSEC
  0
SECTION
  2
CLASSES
  0
CLASS
  1
ACDBDICTIONARYWDFLT
  2
AcDbDictionaryWithDefault
  3
AutoCAD 2000
 90
0
 91
1
280
0
281
0
  0
CLASS
  1
ACDBPLACEHOLDER
  2
AcDbPlaceHolder
  3
AutoCAD 2000
 90
0
 91
1
280
0
281
0
  0
CLASS
  1
LAYOUT
  2
AcDbLayout
  3
AutoCAD 2000
 90
0
 91
0
280
0
281
0
  0
ENDSEC
  0
SECTION
  2
TABLES
  0
TABLE
  2
VPORT
  5
8
100
AcDbSymbolTable
 70
2
  0
VPORT
  5
1F4
100
AcDbSymbolTableRecord
100
AcDbViewportTableRecord
  2
*ACTIVE
 70
0
 10
0.0
 20
0.0
 11
1.0
 21
1.0
 12
65.7466643122
 22
92.9845680986
 13
0.0
 23
0.0
 14
1.0
 24
1.0
 15
0.0
 25
0.0
 16
0.0
 26
0.0
 36
1.0
 17
0.0
 27
0.0
 37
0.0
 40
185.9691361972
 41
0.7070707071
 42
50.0
 43
0.0
 44
0.0
 50
0.0
 51
0.0
 71
0
 72
100
 73
1
 74
1
 75
0
 76
0
 77
0
 78
0
  0
ENDTAB
  0
TABLE
  2
LTYPE
  5
5
100
AcDbSymbolTable
 70
6
  0
LTYPE
  5
14
100
AcDbSymbolTableRecord
100
AcDbLinetypeTableRecord
  2
BYBLOCK
 70
0
  3

 72
65
 73
0
 40
0.0
  0
LTYPE
  5
15
100
AcDbSymbolTableRecord
100
AcDbLinetypeTableRecord
  2
BYLAYER
 70
0
  3

 72
65
 73
0
 40
0.0
  0
LTYPE
  5
16
100
AcDbSymbolTableRecord
100
AcDbLinetypeTableRecord
  2
CONTINUOUS
 70
64
  3
Solid line
 72
65
 73
0
 40
0.0
  0
LTYPE
  5
1F5
100
AcDbSymbolTableRecord
100
AcDbLinetypeTableRecord
  2
CENTER
 70
64
  3
____ _ ____ _ ____ _ ____ _ ____ _ ____ _ ____
 72
65
 73
4
 40
0.6
 49
0.375
 74
0
 49
-0.075
 74
0
 49
0.075
 74
0
 49
-0.075
 74
0
  0
LTYPE
  5
1F6
100
AcDbSymbolTableRecord
100
AcDbLinetypeTableRecord
  2
HIDDEN
 70
64
  3
- - - - - - - - - - - - - - - - - - - -
 72
65
 73
2
 40
0.2
 49
0.1
 74
0
 49
-0.1
 74
0
  0
LTYPE
  5
1F7
100
AcDbSymbolTableRecord
100
AcDbLinetypeTableRecord
  2
PHANTOM
 70
64
  3
_____ _ _ _____ _ _ _____ _ _ _____
 72
65
 73
6
 40
0.8
 49
0.45
 74
0
 49
-0.05
 74
0
 49
0.1
 74
0
 49
-0.05
 74
0
 49
0.1
 74
0
 49
-0.05
 74
0
  0
LTYPE
  5
1F8
100
AcDbSymbolTableRecord
100
AcDbLinetypeTableRecord
  2
DOT
 70
64
  3
. . . . . . . . . . . . . . . . . . . .
 72
65
 73
2
 40
0.2
 49
0.1
 74
0
 49
-0.1
 74
0
  0
LTYPE
  5
1F9
100
AcDbSymbolTableRecord
100
AcDbLinetypeTableRecord
  2
DASHED
 70
64
  3
- - - - - - - - - - - - - - - - - - - -
 72
65
 73
2
 40
0.2
 49
0.1
 74
0
 49
-0.1
 74
0
  0
ENDTAB
  0
TABLE
  2
LAYER
  5
2
100
AcDbSymbolTable
 70
36
  0
LAYER
  5
10
100
AcDbSymbolTableRecord
100
AcDbLayerTableRecord
  2
0
 70
0
 62
7
  6
CONTINUOUS
370
-3
390
F
  0
LAYER
  5
1FA
100
AcDbSymbolTableRecord
100
AcDbLayerTableRecord
  2
DEFAULT_1
 70
0
 62
7
  6
CENTER
370
-3
390
F
  0
LAYER
  5
1FB
100
AcDbSymbolTableRecord
100
AcDbLayerTableRecord
  2
DEFAULT_2
 70
0
 62
8
  6
HIDDEN
370
-3
390
F
  0
LAYER
  5
1FC
100
AcDbSymbolTableRecord
100
AcDbLayerTableRecord
  2
DEFAULT_3
 70
0
 62
7
  6
PHANTOM
370
-3
390
F
  0
LAYER
  5
1FD
100
AcDbSymbolTableRecord
100
AcDbLayerTableRecord
  2
00_COMPONENTS
 70
0
 62
7
  6
CONTINUOUS
370
-3
390
F
  0
LAYER
  5
1FE
100
AcDbSymbolTableRecord
100
AcDbLayerTableRecord
  2
01_1_DEFAULT_DATUMS
 70
0
 62
7
  6
CONTINUOUS
370
-3
390
F
  0
LAYER
  5
1FF
100
AcDbSymbolTableRecord
100
AcDbLayerTableRecord
  2
01_PLANES
 70
0
 62
7
  6
CONTINUOUS
370
-3
390
F
  0
LAYER
  5
200
100
AcDbSymbolTableRecord
100
AcDbLayerTableRecord
  2
02_COORD_SYS
 70
0
 62
7
  6
CONTINUOUS
370
-3
390
F
  0
LAYER
  5
201
100
AcDbSymbolTableRecord
100
AcDbLayerTableRecord
  2
03_AXES
 70
0
 62
7
  6
CONTINUOUS
370
-3
390
F
  0
LAYER
  5
202
100
AcDbSymbolTableRecord
100
AcDbLayerTableRecord
  2
04_POINTS
 70
0
 62
7
  6
CONTINUOUS
370
-3
390
F
  0
LAYER
  5
203
100
AcDbSymbolTableRecord
100
AcDbLayerTableRecord
  2
05_CURVES
 70
0
 62
7
  6
CONTINUOUS
370
-3
390
F
  0
LAYER
  5
204
100
AcDbSymbolTableRecord
100
AcDbLayerTableRecord
  2
06_SURFS
 70
0
 62
7
  6
CONTINUOUS
370
-3
390
F
  0
LAYER
  5
205
100
AcDbSymbolTableRecord
100
AcDbLayerTableRecord
  2
07_COSMETICS
 70
0
 62
7
  6
CONTINUOUS
370
-3
390
F
  0
LAYER
  5
206
100
AcDbSymbolTableRecord
100
AcDbLayerTableRecord
  2
10_NOTES
 70
0
 62
7
  6
CONTINUOUS
370
-3
390
F
  0
LAYER
  5
207
100
AcDbSymbolTableRecord
100
AcDbLayerTableRecord
  2
11_NOTES_PUB
 70
0
 62
7
  6
CONTINUOUS
370
-3
390
F
  0
LAYER
  5
208
100
AcDbSymbolTableRecord
100
AcDbLayerTableRecord
  2
13_REF_GTOL
 70
0
 62
7
  6
CONTINUOUS
370
-3
390
F
  0
LAYER
  5
209
100
AcDbSymbolTableRecord
100
AcDbLayerTableRecord
  2
16_MISC
 70
0
 62
7
  6
CONTINUOUS
370
-3
390
F
  0
LAYER
  5
20A
100
AcDbSymbolTableRecord
100
AcDbLayerTableRecord
  2
17_NO_PRINT
 70
0
 62
7
  6
CONTINUOUS
370
-3
390
F
  0
LAYER
  5
20B
100
AcDbSymbolTableRecord
100
AcDbLayerTableRecord
  2
18_DATUM_CAMS_JOINTS
 70
0
 62
7
  6
CONTINUOUS
370
-3
390
F
  0
LAYER
  5
20C
100
AcDbSymbolTableRecord
100
AcDbLayerTableRecord
  2
19_DATUM_FUNCTIONAL
 70
0
 62
7
  6
CONTINUOUS
370
-3
390
F
  0
LAYER
  5
20D
100
AcDbSymbolTableRecord
100
AcDbLayerTableRecord
  2
20_DATUM_KINEMATIC_SCHEME
 70
0
 62
7
  6
CONTINUOUS
370
-3
390
F
  0
ENDTAB
  0
TABLE
  2
STYLE
  5
3
100
AcDbSymbolTable
 70
1
  0
STYLE
  5
11
100
AcDbSymbolTableRecord
100
AcDbTextStyleTableRecord
  2
STANDARD
 70
0
 40
0.0
 41
0.8
 50
0.0
 71
0
 42
0.2
  3
txt
  4

  0
STYLE
  5
20E
100
AcDbSymbolTableRecord
100
AcDbTextStyleTableRecord
  2
TEXTSTYLE_1
 70
0
 40
0.0
 41
0.8
 50
0.0
 71
0
 42
0.2
  3
gdt
  4

  0
ENDTAB
  0
TABLE
  2
VIEW
  5
6
100
AcDbSymbolTable
 70
0
  0
ENDTAB
  0
TABLE
  2
UCS
  5
7
100
AcDbSymbolTable
 70
0
  0
ENDTAB
  0
TABLE
  2
APPID
  5
9
100
AcDbSymbolTable
 70
1
  0
APPID
  5
20F
100
AcDbSymbolTableRecord
100
AcDbRegAppTableRecord
  2
ACAD
 70
0
  0
ENDTAB
  0
TABLE
  2
BLOCK_RECORD
  5
1
100
AcDbSymbolTable
 70
0
  0
BLOCK_RECORD
  5
210
100
AcDbSymbolTableRecord
100
AcDbBlockTableRecord
  2
*Model_Space
  0
BLOCK_RECORD
  5
211
100
AcDbSymbolTableRecord
100
AcDbBlockTableRecord
  2
*Paper_Space
  0
BLOCK_RECORD
  5
212
100
AcDbSymbolTableRecord
100
AcDbBlockTableRecord
  2
_FILLED
  0
ENDTAB
  0
TABLE
  2
DIMSTYLE
  5
A
100
AcDbSymbolTable
 70
1
100
AcDbDimStyleTable
 71
0
  0
DIMSTYLE
105
213
100
AcDbSymbolTableRecord
100
AcDbDimStyleTableRecord
  2
STANDARD
 70
0
  3

  4

 40
1.0
 41
1.5653967693
 42
1.0
 43
0.38
 44
1.0
 45
0.0
 46
0.0
 47
0.01
 48
0.01
140
2.1915554771
141
0.09
142
0.0
143
25.4
144
1.0
145
0.0
146
1.0
147
0.625
 71
1
 72
0
 73
0
 74
0
 75
0
 76
0
 77
1
 78
8
 79
2
170
0
171
1
172
0
173
0
174
0
175
0
176
0
177
0
178
0
270
2
179
2
271
2
272
2
273
2
274
2
275
0
280
0
281
0
282
0
283
1
284
8
285
0
286
0
287
3
288
0
340
11
278
46
341
212
342
212
343
212
344
212
  0
ENDTAB
  0
ENDSEC
  0
SECTION
  2
BLOCKS
  0
BLOCK
  5
20
100
AcDbEntity
  8
0
100
AcDbBlockBegin
  2
*Model_Space
 70
0
 10
0.0
 20
0.0
 30
0.0
  3
*Model_Space
  1

  0
ENDBLK
  5
21
100
AcDbEntity
  8
0
100
AcDbBlockEnd
  0
BLOCK
  5
1C
100
AcDbEntity
  8
0
100
AcDbBlockBegin
  2
*Paper_Space
 70
0
 10
0.0
 20
0.0
 30
0.0
  3
*Paper_Space
  1

  0
ENDBLK
  5
1D
100
AcDbEntity
  8
0
100
AcDbBlockEnd
  0
BLOCK
  5
214
100
AcDbEntity
  8
0
100
AcDbBlockBegin
  2
_FILLED
 70
64
 10
0.0
 20
0.0
  3
_FILLED
  1

  0
SOLID
  5
215
100
AcDbEntity
  8
0
  6
BYBLOCK
 62
0
100
AcDbTrace
 10
0.0
 20
0.0
 11
-1.0
 21
0.25
 12
-1.0
 22
-0.25
 13
-1.0
 23
-0.25
  0
ENDBLK
  5
216
100
AcDbEntity
  8
0
  6
BYBLOCK
 62
0
100
AcDbBlockEnd
  0
ENDSEC
  0
SECTION
  2
ENTITIES
  0
LINE
  5
217
100
AcDbEntity
  8
0
100
AcDbLine
 62
7
  6
CONTINUOUS
 10
20.0822028908
 20
84.9646367913
 11
20.0822028908
 21
82.8171977214
  0
LINE
  5
218
100
AcDbEntity
  8
0
100
AcDbLine
 62
7
  6
CONTINUOUS
 10
20.0822028908
 20
82.0693218394
 11
20.0822028908
 21
79.9218827696
  0
LINE
  5
219
100
AcDbEntity
  8
0
100
AcDbLine
 62
7
  6
CONTINUOUS
 10
21.1951859352
 20
90.5297412171
 11
21.1951859352
 21
107.6656329221
  0
LINE
  5
21A
100
AcDbEntity
  8
0
100
AcDbLine
 62
7
  6
CONTINUOUS
 10
21.1952083094
 20
78.8437478389
 11
21.1952082784
 21
82.9401161704
  0
LINE
  5
21B
100
AcDbEntity
  8
0
100
AcDbLine
 62
7
  6
CONTINUOUS
 10
21.2305637956
 20
78.8233358012
 11
21.2305637956
 21
82.9197041148
  0
LINE
  5
21C
100
AcDbEntity
  8
0
100
AcDbLine
 62
7
  6
CONTINUOUS
 10
33.3573719353
 20
131.0174807113
 11
67.0081607068
 21
150.4456566964
  0
LINE
  5
21D
100
AcDbEntity
  8
0
100
AcDbLine
 62
7
  6
CONTINUOUS
 10
63.1618148657
 20
146.3878895075
 11
46.8984266098
 21
136.9982739684
  0
LINE
  5
21E
100
AcDbEntity
  8
0
100
AcDbLine
 62
7
  6
CONTINUOUS
 10
65.2124159936
 20
147.1635463451
 11
67.3337275052
 21
148.3882788067
  0
LINE
  5
21F
100
AcDbEntity
  8
0
100
AcDbLine
 62
7
  6
CONTINUOUS
 10
48.1712188159
 20
136.9982770278
 11
63.1618201648
 21
145.6530530899
  0
LINE
  5
220
100
AcDbEntity
  8
0
100
AcDbLine
 62
7
  6
CONTINUOUS
 10
48.8783407603
 20
136.5900292187
 11
63.1618201648
 21
144.8365506728
  0
LINE
  5
221
100
AcDbEntity
  8
0
100
AcDbLine
 62
7
  6
CONTINUOUS
 10
54.1108957588
 20
138.9578375765
 11
57.4342837937
 21
140.8765850997
  0
LINE
  5
222
100
AcDbEntity
  8
0
100
AcDbLine
 62
7
  6
CONTINUOUS
 10
17.9313601399
 20
71.4852165976
 11
16.5961495526
 21
72.6874580195
  0
LINE
  5
223
100
AcDbEntity
  8
0
100
AcDbLine
 62
7
  6
CONTINUOUS
 10
16.9320247907
 20
72.4436331157
 11
18.140152278
 21
71.355819012
  0
LINE
  5
224
100
AcDbEntity
  8
0
100
AcDbLine
 62
7
  6
CONTINUOUS
 10
16.2693192608
 20
76.2965356581
 11
16.7023698561
 21
75.9066111261
  0
LINE
  5
225
100
AcDbEntity
  8
0
100
AcDbLine
 62
7
  6
CONTINUOUS
 10
23.917558377
 20
89.7713694969
 11
23.917558377
 21
88.9580143122
  0
LINE
  5
226
100
AcDbEntity
  8
0
100
AcDbLine
 62
7
  6
CONTINUOUS
 10
53.5452221098
 20
137.3248664
 11
54.1109051795
 21
137.6514617231
  0
LINE
  5
227
100
AcDbEntity
  8
0
100
AcDbLine
 62
7
  6
CONTINUOUS
 10
70.4571051602
 20
146.6806512491
 11
71.9932842691
 21
147.567559377
  0
LINE
  5
228
100
AcDbEntity
  8
0
100
AcDbLine
 62
7
  6
CONTINUOUS
 10
70.4571051602
 20
145.1605195413
 11
72.2254151346
 21
146.1814476869
  0
LINE
  5
229
100
AcDbEntity
  8
0
100
AcDbLine
 62
7
  6
CONTINUOUS
 10
37.5653021805
 20
125.0764420847
 11
36.9996191107
 21
124.7498467616
  0
LINE
  5
22A
100
AcDbEntity
  8
0
100
AcDbLine
 62
7
  6
CONTINUOUS
 10
73.0260725573
 20
145.2244785059
 11
74.5388792796
 21
146.0978926607
  0
LINE
  5
22B
100
AcDbEntity
  8
0
100
AcDbLine
 62
7
  6
CONTINUOUS
 10
58.0707196404
 20
135.3653134978
 11
57.5050365706
 21
135.0387181747
  0
LINE
  5
22C
100
AcDbEntity
  8
0
100
AcDbLine
 62
7
  6
CONTINUOUS
 10
73.0260725573
 20
143.7565077613
 11
72.0217177364
 21
143.1766466964
  0
LINE
  5
22D
100
AcDbEntity
  8
0
100
AcDbLine
 62
7
  6
CONTINUOUS
 10
18.0476501791
 20
71.4006247736
 11
18.140152278
 21
71.355819012
  0
LINE
  5
22E
100
AcDbEntity
  8
0
100
AcDbLine
 62
7
  6
CONTINUOUS
 10
65.0159572748
 20
44.2840734208
 11
18.0479581237
 21
71.4004469196
  0
LINE
  5
22F
100
AcDbEntity
  8
0
100
AcDbLine
 62
7
  6
CONTINUOUS
 10
18.140152278
 20
71.355819012
 11
64.8093941377
 21
44.4119292137
  0
LINE
  5
230
100
AcDbEntity
  8
0
100
AcDbLine
 62
7
  6
CONTINUOUS
 10
63.6012666504
 20
45.4997433174
 11
16.9320247907
 21
72.4436331157
  0
LINE
  5
231
100
AcDbEntity
  8
0
100
AcDbLine
 62
7
  6
CONTINUOUS
 10
15.9014223398
 20
73.4477506899
 11
64.3381462941
 21
45.4834277137
  0
LINE
  5
232
100
AcDbEntity
  8
0
100
AcDbLine
 62
7
  6
CONTINUOUS
 10
16.7884597543
 20
73.8533160029
 11
63.7405455041
 21
46.7461299028
  0
LINE
  5
233
100
AcDbEntity
  8
0
100
AcDbLine
 62
7
  6
CONTINUOUS
 10
83.4207404757
 20
35.9773395038
 11
68.8759607846
 21
44.3745820027
  0
LINE
  5
234
100
AcDbEntity
  8
0
100
AcDbLine
 62
7
  6
CONTINUOUS
 10
64.8093941377
 20
44.4119292137
 11
65.015926878
 21
44.2840910361
  0
LINE
  5
235
100
AcDbEntity
  8
0
100
AcDbLine
 62
7
  6
CONTINUOUS
 10
40.636806615
 20
60.8576384911
 11
40.8383166275
 21
60.7113267229
  0
LINE
  5
236
100
AcDbEntity
  8
0
100
AcDbLine
 62
7
  6
CONTINUOUS
 10
41.2560392124
 20
61.1075871261
 11
41.3903093545
 21
61.0099681499
  0
LINE
  5
237
100
AcDbEntity
  8
0
100
AcDbLine
 62
7
  6
CONTINUOUS
 10
41.1726222322
 20
61.2059765384
 11
41.0384121676
 21
61.3036624942
  0
LINE
  5
238
100
AcDbEntity
  8
0
100
AcDbLine
 62
7
  6
CONTINUOUS
 10
16.7884597543
 20
73.8533160029
 11
16.5797891427
 21
74.0060448206
  0
LINE
  5
239
100
AcDbEntity
  8
0
100
AcDbLine
 62
7
  6
CONTINUOUS
 10
18.4853330814
 20
78.5447434749
 11
18.0499588369
 21
78.9367602518
  0
LINE
  5
23A
100
AcDbEntity
  8
0
100
AcDbLine
 62
7
  6
CONTINUOUS
 10
41.2559592593
 20
61.1074981115
 11
41.038272137
 21
61.3035064999
  0
LINE
  5
23B
100
AcDbEntity
  8
0
100
AcDbLine
 62
7
  6
CONTINUOUS
 10
23.917558377
 20
89.7713694969
 11
24.3054935108
 21
87.4548513352
  0
LINE
  5
23C
100
AcDbEntity
  8
0
100
AcDbLine
 62
7
  6
CONTINUOUS
 10
28.3016610471
 20
74.7409282559
 11
28.3016610471
 21
78.8372965696
  0
LINE
  5
23D
100
AcDbEntity
  8
0
100
AcDbLine
 62
7
  6
CONTINUOUS
 10
28.3370165334
 20
74.7205162182
 11
28.3370165334
 21
78.8168845319
  0
LINE
  5
23E
100
AcDbEntity
  8
0
100
AcDbLine
 62
7
  6
CONTINUOUS
 10
30.9886556285
 20
85.6889619517
 11
30.9886556285
 21
84.875606767
  0
LINE
  5
23F
100
AcDbEntity
  8
0
100
AcDbLine
 62
7
  6
CONTINUOUS
 10
39.4550826948
 20
123.8415802503
 11
39.2973243686
 21
123.7504989819
  0
LINE
  5
240
100
AcDbEntity
  8
0
100
AcDbLine
 62
7
  6
CONTINUOUS
 10
70.5157613064
 20
141.4073492429
 11
55.5251599574
 21
132.7525731808
  0
LINE
  5
241
100
AcDbEntity
  8
0
100
AcDbLine
 62
7
  6
CONTINUOUS
 10
55.5251652566
 20
132.0177367633
 11
71.7885535125
 21
141.4073523023
  0
LINE
  5
242
100
AcDbEntity
  8
0
100
AcDbLine
 62
7
  6
CONTINUOUS
 10
75.9604661519
 20
143.4077416015
 11
73.8391546402
 21
142.1830091399
  0
LINE
  5
243
100
AcDbEntity
  8
0
100
AcDbLine
 62
7
  6
CONTINUOUS
 10
71.7885535125
 20
140.9991010938
 11
55.5251652566
 21
131.6094855547
  0
LINE
  5
244
100
AcDbEntity
  8
0
100
AcDbLine
 62
7
  6
CONTINUOUS
 10
45.8732140704
 20
123.7916193563
 11
79.5240028419
 21
143.2197953414
  0
LINE
  5
245
100
AcDbEntity
  8
0
100
AcDbLine
 62
7
  6
CONTINUOUS
 10
22.6093936097
 20
110.1151260641
 11
33.3573719353
 21
116.320437203
  0
LINE
  5
246
100
AcDbEntity
  8
0
100
AcDbLine
 62
7
  6
CONTINUOUS
 10
75.6776570008
 20
139.1620281525
 11
59.4142687449
 21
129.7724126134
  0
LINE
  5
247
100
AcDbEntity
  8
0
100
AcDbLine
 62
7
  6
CONTINUOUS
 10
60.2228616456
 20
56.8860320524
 11
58.7780902009
 21
57.1457517361
  0
LINE
  5
248
100
AcDbEntity
  8
0
100
AcDbLine
 62
7
  6
CONTINUOUS
 10
69.7749836511
 20
45.46568404
 11
71.6727791171
 21
44.3700161041
  0
LINE
  5
249
100
AcDbEntity
  8
0
100
AcDbLine
 62
7
  6
CONTINUOUS
 10
15.671321088
 20
76.8717519292
 11
16.3784308131
 21
76.4635111747
  0
LINE
  5
24A
100
AcDbEntity
  8
0
100
AcDbLine
 62
7
  6
CONTINUOUS
 10
65.8761115734
 20
47.8866583583
 11
66.5832212985
 21
47.4784176038
  0
LINE
  5
24B
100
AcDbEntity
  8
0
100
AcDbLine
 62
7
  6
CONTINUOUS
 10
70.1038288564
 20
45.9522544649
 11
71.2585544756
 21
45.2855883998
  0
LINE
  5
24C
100
AcDbEntity
  8
0
100
AcDbLine
 62
7
  6
CONTINUOUS
 10
18.4853330814
 20
78.5447434749
 11
67.4792579636
 21
50.2587276707
  0
LINE
  5
24D
100
AcDbEntity
  8
0
100
AcDbLine
 62
7
  6
CONTINUOUS
 10
18.0499588369
 20
78.9367602518
 11
67.5476395972
 21
50.3599074354
  0
LINE
  5
24E
100
AcDbEntity
  8
0
100
AcDbLine
 62
7
  6
CONTINUOUS
 10
68.8119253302
 20
50.7760830399
 11
17.9000251196
 21
80.1694173653
  0
LINE
  5
24F
100
AcDbEntity
  8
0
100
AcDbLine
 62
7
  6
CONTINUOUS
 10
43.0456602685
 20
63.5329138473
 11
42.844150256
 21
63.6792256154
  0
LINE
  5
250
100
AcDbEntity
  8
0
100
AcDbLine
 62
7
  6
CONTINUOUS
 10
42.5098446512
 20
63.1845758
 11
42.6440547158
 21
63.0868898442
  0
LINE
  5
251
100
AcDbEntity
  8
0
100
AcDbLine
 62
7
  6
CONTINUOUS
 10
42.8618818688
 20
62.89103745
 11
42.6441947465
 21
63.0870458385
  0
LINE
  5
252
100
AcDbEntity
  8
0
100
AcDbLine
 62
7
  6
CONTINUOUS
 10
64.8093941377
 20
44.4119292137
 11
63.6012666504
 21
45.4997433174
  0
LINE
  5
253
100
AcDbEntity
  8
0
100
AcDbLine
 62
7
  6
CONTINUOUS
 10
32.5980450259
 20
77.7387754362
 11
32.5980450259
 21
75.5913363664
  0
LINE
  5
254
100
AcDbEntity
  8
0
100
AcDbLine
 62
7
  6
CONTINUOUS
 10
32.5980450259
 20
74.8434604844
 11
32.5980450259
 21
72.6960214146
  0
LINE
  5
255
100
AcDbEntity
  8
0
100
AcDbLine
 62
7
  6
CONTINUOUS
 10
33.3573719353
 20
116.320437203
 11
33.3573719353
 21
131.0174807113
  0
LINE
  5
256
100
AcDbEntity
  8
0
100
AcDbLine
 62
7
  6
CONTINUOUS
 10
33.7110280703
 20
83.3038798621
 11
33.7110280703
 21
100.4397715671
  0
LINE
  5
257
100
AcDbEntity
  8
0
100
AcDbLine
 62
7
  6
CONTINUOUS
 10
33.7110504445
 20
71.6178864839
 11
33.7110504135
 21
75.7142548154
  0
LINE
  5
258
100
AcDbEntity
  8
0
100
AcDbLine
 62
7
  6
CONTINUOUS
 10
33.7464059307
 20
71.5974744461
 11
33.7464059307
 21
75.6938427598
  0
LINE
  5
259
100
AcDbEntity
  8
0
100
AcDbLine
 62
7
  6
CONTINUOUS
 10
36.4334005121
 20
82.5455081418
 11
36.4334005121
 21
81.7321529572
  0
LINE
  5
25A
100
AcDbEntity
  8
0
100
AcDbLine
 62
7
  6
CONTINUOUS
 10
15.671321088
 20
76.8717519292
 11
17.9000251196
 21
80.1694173653
  0
LINE
  5
25B
100
AcDbEntity
  8
0
100
AcDbLine
 62
7
  6
CONTINUOUS
 10
18.0499588369
 20
78.9367602518
 11
16.3784308131
 21
76.4635111747
  0
LINE
  5
25C
100
AcDbEntity
  8
0
100
AcDbLine
 62
7
  6
CONTINUOUS
 10
16.7023698561
 20
75.9066111261
 11
18.4853330814
 21
78.5447434749
  0
LINE
  5
25D
100
AcDbEntity
  8
0
100
AcDbLine
 62
7
  6
CONTINUOUS
 10
77.7282581287
 20
139.9376849901
 11
79.8495696404
 21
141.1624174517
  0
LINE
  5
25E
100
AcDbEntity
  8
0
100
AcDbLine
 62
7
  6
CONTINUOUS
 10
60.687060951
 20
129.7724156728
 11
75.6776622999
 21
138.4271917349
  0
LINE
  5
25F
100
AcDbEntity
  8
0
100
AcDbLine
 62
7
  6
CONTINUOUS
 10
41.6652838253
 20
117.9750231763
 11
41.0996007555
 21
117.6484278532
  0
LINE
  5
260
100
AcDbEntity
  8
0
100
AcDbLine
 62
7
  6
CONTINUOUS
 10
61.3941828954
 20
129.3641678637
 11
75.6776622999
 21
137.6106893178
  0
LINE
  5
261
100
AcDbEntity
  8
0
100
AcDbLine
 62
7
  6
CONTINUOUS
 10
66.6267378939
 20
131.7319762215
 11
69.9501259288
 21
133.6507237447
  0
LINE
  5
262
100
AcDbEntity
  8
0
100
AcDbLine
 62
7
  6
CONTINUOUS
 10
66.0610642449
 20
130.099005045
 11
66.6267473146
 21
130.4256003681
  0
LINE
  5
263
100
AcDbEntity
  8
0
100
AcDbLine
 62
7
  6
CONTINUOUS
 10
82.9729472953
 20
139.4547898941
 11
84.5091264042
 21
140.341698022
  0
LINE
  5
264
100
AcDbEntity
  8
0
100
AcDbLine
 62
7
  6
CONTINUOUS
 10
82.9729472953
 20
137.9346581863
 11
84.7412572697
 21
138.9555863319
  0
LINE
  5
265
100
AcDbEntity
  8
0
100
AcDbLine
 62
7
  6
CONTINUOUS
 10
47.7070195105
 20
64.1118934074
 11
46.2622480658
 21
64.3716130911
  0
LINE
  5
266
100
AcDbEntity
  8
0
100
AcDbLine
 62
7
  6
CONTINUOUS
 10
21.1952083094
 20
78.8437478389
 11
21.2305637956
 21
78.8233358012
  0
LINE
  5
267
100
AcDbEntity
  8
0
100
AcDbLine
 62
7
  6
CONTINUOUS
 10
28.3016610471
 20
74.7409282559
 11
28.3370165334
 21
74.7205162182
  0
LINE
  5
268
100
AcDbEntity
  8
0
100
AcDbLine
 62
7
  6
CONTINUOUS
 10
33.7110504445
 20
71.6178864839
 11
33.7464059307
 21
71.5974744461
  0
LINE
  5
269
100
AcDbEntity
  8
0
100
AcDbLine
 62
7
  6
CONTINUOUS
 10
40.8175031822
 20
67.5150669009
 11
40.8528586685
 21
67.4946548632
  0
LINE
  5
26A
100
AcDbEntity
  8
0
100
AcDbLine
 62
7
  6
CONTINUOUS
 10
46.2268925796
 20
64.3920251289
 11
46.2622480658
 21
64.3716130911
  0
LINE
  5
26B
100
AcDbEntity
  8
0
100
AcDbLine
 62
7
  6
CONTINUOUS
 10
53.3333453173
 20
60.2892055459
 11
53.3687008036
 21
60.2687935082
  0
LINE
  5
26C
100
AcDbEntity
  8
0
100
AcDbLine
 62
7
  6
CONTINUOUS
 10
58.7427347147
 20
57.1661637739
 11
58.7780902009
 21
57.1457517361
  0
LINE
  5
26D
100
AcDbEntity
  8
0
100
AcDbLine
 62
7
  6
CONTINUOUS
 10
65.8491874524
 20
53.0633441909
 11
65.8845429387
 21
53.0429321532
  0
LINE
  5
26E
100
AcDbEntity
  8
0
100
AcDbLine
 62
7
  6
CONTINUOUS
 10
65.8491874524
 20
55.3325828026
 11
61.0611093139
 21
58.0969184671
  0
LINE
  5
26F
100
AcDbEntity
  8
0
100
AcDbLine
 62
7
  6
CONTINUOUS
 10
53.3333453173
 20
62.5584441576
 11
48.5452671788
 21
65.3227798221
  0
LINE
  5
270
100
AcDbEntity
  8
0
100
AcDbLine
 62
7
  6
CONTINUOUS
 10
40.8175031822
 20
69.7843055126
 11
36.0294250437
 21
72.5486411772
  0
LINE
  5
271
100
AcDbEntity
  8
0
100
AcDbLine
 62
7
  6
CONTINUOUS
 10
28.3016610471
 20
77.0101668676
 11
23.5135829086
 21
79.7745025322
  0
LINE
  5
272
100
AcDbEntity
  8
0
100
AcDbLine
 62
7
  6
CONTINUOUS
 10
65.8491874524
 20
56.998879703
 11
61.4447961344
 21
59.5416986898
  0
LINE
  5
273
100
AcDbEntity
  8
0
100
AcDbLine
 62
7
  6
CONTINUOUS
 10
53.3333453173
 20
64.224741058
 11
48.9289539993
 21
66.7675600448
  0
LINE
  5
274
100
AcDbEntity
  8
0
100
AcDbLine
 62
7
  6
CONTINUOUS
 10
40.8175031822
 20
71.450602413
 11
36.4131118642
 21
73.9934213999
  0
LINE
  5
275
100
AcDbEntity
  8
0
100
AcDbLine
 62
7
  6
CONTINUOUS
 10
28.3016610471
 20
78.676463768
 11
23.8972697291
 21
81.2192827549
  0
LINE
  5
276
100
AcDbEntity
  8
0
100
AcDbLine
 62
7
  6
CONTINUOUS
 10
65.8845429387
 20
57.1393004669
 11
65.8491874524
 21
57.1597125046
  0
LINE
  5
277
100
AcDbEntity
  8
0
100
AcDbLine
 62
7
  6
CONTINUOUS
 10
58.7780902009
 20
61.2421200498
 11
58.7427346837
 21
61.2625321054
  0
LINE
  5
278
100
AcDbEntity
  8
0
100
AcDbLine
 62
7
  6
CONTINUOUS
 10
53.3687008036
 20
64.3651618219
 11
53.3333453173
 21
64.3855738596
  0
LINE
  5
279
100
AcDbEntity
  8
0
100
AcDbLine
 62
7
  6
CONTINUOUS
 10
46.2622480658
 20
68.4679814048
 11
46.2268925486
 21
68.4883934604
  0
LINE
  5
27A
100
AcDbEntity
  8
0
100
AcDbLine
 62
7
  6
CONTINUOUS
 10
40.8528586685
 20
71.5910231769
 11
40.8175031822
 21
71.6114352146
  0
LINE
  5
27B
100
AcDbEntity
  8
0
100
AcDbLine
 62
7
  6
CONTINUOUS
 10
33.7464059307
 20
75.6938427598
 11
33.7110504135
 21
75.7142548154
  0
LINE
  5
27C
100
AcDbEntity
  8
0
100
AcDbLine
 62
7
  6
CONTINUOUS
 10
28.3370165334
 20
78.8168845319
 11
28.3016610471
 21
78.8372965696
  0
LINE
  5
27D
100
AcDbEntity
  8
0
100
AcDbLine
 62
7
  6
CONTINUOUS
 10
21.2305637956
 20
82.9197041148
 11
21.1952082784
 21
82.9401161704
  0
LINE
  5
27E
100
AcDbEntity
  8
0
100
AcDbLine
 62
7
  6
CONTINUOUS
 10
66.5832212985
 20
47.4784176038
 11
69.413153888
 21
44.9303085543
  0
LINE
  5
27F
100
AcDbEntity
  8
0
100
AcDbLine
 62
7
  6
CONTINUOUS
 10
68.8119253302
 20
50.7760830399
 11
71.6418579197
 21
48.2279739904
  0
LINE
  5
280
100
AcDbEntity
  8
0
100
AcDbLine
 62
7
  6
CONTINUOUS
 10
36.4334005121
 20
82.5455081419
 11
36.8213356459
 21
80.2289899802
  0
LINE
  5
281
100
AcDbEntity
  8
0
100
AcDbLine
 62
7
  6
CONTINUOUS
 10
40.8175031822
 20
67.5150669009
 11
40.8175031822
 21
71.6114352146
  0
LINE
  5
282
100
AcDbEntity
  8
0
100
AcDbLine
 62
7
  6
CONTINUOUS
 10
40.8528586685
 20
67.4946548632
 11
40.8528586685
 21
71.5910231769
  0
LINE
  5
283
100
AcDbEntity
  8
0
100
AcDbLine
 62
7
  6
CONTINUOUS
 10
22.130085774
 20
77.7272459571
 11
23.5135829086
 21
79.7745025322
  0
LINE
  5
284
100
AcDbEntity
  8
0
100
AcDbLine
 62
7
  6
CONTINUOUS
 10
50.0811443156
 20
117.8505807296
 11
49.5154612458
 21
117.5239854065
  0
LINE
  5
285
100
AcDbEntity
  8
0
100
AcDbLine
 62
7
  6
CONTINUOUS
 10
85.5419146924
 20
137.9986171509
 11
87.0547214147
 21
138.8720313057
  0
LINE
  5
286
100
AcDbEntity
  8
0
100
AcDbLine
 62
7
  6
CONTINUOUS
 10
70.5865617755
 20
128.1394521428
 11
70.0208787057
 21
127.8128568197
  0
LINE
  5
287
100
AcDbEntity
  8
0
100
AcDbLine
 62
7
  6
CONTINUOUS
 10
85.5419146924
 20
136.5306464063
 11
84.5375598715
 21
135.9507853414
  0
LINE
  5
288
100
AcDbEntity
  8
0
100
AcDbLine
 62
7
  6
CONTINUOUS
 10
51.9709248299
 20
116.6157188953
 11
51.8131665037
 21
116.5246376269
  0
LINE
  5
289
100
AcDbEntity
  8
0
100
AcDbLine
 62
7
  6
CONTINUOUS
 10
83.0316034415
 20
134.1814878879
 11
68.0410020925
 21
125.5267118258
  0
LINE
  5
28A
100
AcDbEntity
  8
0
100
AcDbLine
 62
7
  6
CONTINUOUS
 10
68.0410073917
 20
124.7918754083
 11
84.3043956476
 21
134.1814909473
  0
LINE
  5
28B
100
AcDbEntity
  8
0
100
AcDbLine
 62
7
  6
CONTINUOUS
 10
88.476308287
 20
136.1818802465
 11
86.3549967753
 21
134.9571477849
  0
LINE
  5
28C
100
AcDbEntity
  8
0
100
AcDbLine
 62
7
  6
CONTINUOUS
 10
84.3043956476
 20
133.7732397388
 11
68.0410073917
 21
124.3836241997
  0
LINE
  5
28D
100
AcDbEntity
  8
0
100
AcDbLine
 62
7
  6
CONTINUOUS
 10
35.1911773754
 20
71.3377547624
 11
33.7464059307
 21
71.5974744461
  0
LINE
  5
28E
100
AcDbEntity
  8
0
100
AcDbLine
 62
7
  6
CONTINUOUS
 10
24.3054935108
 20
87.4548513352
 11
30.7928793302
 21
83.7094421185
  0
LINE
  5
28F
100
AcDbEntity
  8
0
100
AcDbLine
 62
7
  6
CONTINUOUS
 10
36.8213356459
 20
80.2289899802
 11
43.3087214653
 21
76.4835807635
  0
LINE
  5
290
100
AcDbEntity
  8
0
100
AcDbLine
 62
7
  6
CONTINUOUS
 10
49.337177781
 20
73.0031286252
 11
55.8245636004
 21
69.2577194085
  0
LINE
  5
291
100
AcDbEntity
  8
0
100
AcDbLine
 62
7
  6
CONTINUOUS
 10
61.8530199161
 20
65.7772672702
 11
68.3404057355
 21
62.0318580535
  0
LINE
  5
292
100
AcDbEntity
  8
0
100
AcDbLine
 62
7
  6
CONTINUOUS
 10
21.1951859352
 20
90.5297412171
 11
23.917558377
 21
88.9580143122
  0
LINE
  5
293
100
AcDbEntity
  8
0
100
AcDbLine
 62
7
  6
CONTINUOUS
 10
30.9886556285
 20
84.875606767
 11
36.4334005121
 21
81.7321529572
  0
LINE
  5
294
100
AcDbEntity
  8
0
100
AcDbLine
 62
7
  6
CONTINUOUS
 10
43.5044977636
 20
77.649745412
 11
48.9492426472
 21
74.5062916022
  0
LINE
  5
295
100
AcDbEntity
  8
0
100
AcDbLine
 62
7
  6
CONTINUOUS
 10
56.0203398987
 20
70.423884057
 11
61.4650847824
 21
67.2804302472
  0
LINE
  5
296
100
AcDbEntity
  8
0
100
AcDbLine
 62
7
  6
CONTINUOUS
 10
68.5361820338
 20
63.198022702
 11
71.2585544756
 21
61.6262957971
  0
LINE
  5
297
100
AcDbEntity
  8
0
100
AcDbLine
 62
7
  6
CONTINUOUS
 10
43.5044977636
 20
78.4631005967
 11
43.5044977636
 21
77.649745412
  0
LINE
  5
298
100
AcDbEntity
  8
0
100
AcDbLine
 62
7
  6
CONTINUOUS
 10
45.113887161
 20
70.5129140812
 11
45.113887161
 21
68.3654750114
  0
LINE
  5
299
100
AcDbEntity
  8
0
100
AcDbLine
 62
7
  6
CONTINUOUS
 10
45.113887161
 20
67.6175991294
 11
45.113887161
 21
65.4701600596
  0
LINE
  5
29A
100
AcDbEntity
  8
0
100
AcDbLine
 62
7
  6
CONTINUOUS
 10
45.8732140704
 20
109.094575848
 11
45.8732140704
 21
123.7916193563
  0
LINE
  5
29B
100
AcDbEntity
  8
0
100
AcDbLine
 62
7
  6
CONTINUOUS
 10
46.2268702054
 20
76.0780185071
 11
46.2268702054
 21
93.2139102121
  0
LINE
  5
29C
100
AcDbEntity
  8
0
100
AcDbLine
 62
7
  6
CONTINUOUS
 10
46.2268925796
 20
64.3920251289
 11
46.2268925486
 21
68.4883934604
  0
LINE
  5
29D
100
AcDbEntity
  8
0
100
AcDbLine
 62
7
  6
CONTINUOUS
 10
46.2622480658
 20
64.3716130911
 11
46.2622480658
 21
68.4679814048
  0
LINE
  5
29E
100
AcDbEntity
  8
0
100
AcDbLine
 62
7
  6
CONTINUOUS
 10
46.8984266098
 20
136.9982739684
 11
46.8984266098
 21
136.5900227599
  0
LINE
  5
29F
100
AcDbEntity
  8
0
100
AcDbLine
 62
7
  6
CONTINUOUS
 10
28.7769171904
 20
73.8897828647
 11
29.0862841845
 21
74.3475746424
  0
LINE
  5
2A0
100
AcDbEntity
  8
0
100
AcDbLine
 62
7
  6
CONTINUOUS
 10
58.3890562055
 20
116.5657580013
 11
92.039844977
 21
135.9939339864
  0
LINE
  5
2A1
100
AcDbEntity
  8
0
100
AcDbLine
 62
7
  6
CONTINUOUS
 10
35.1252357448
 20
102.8892647091
 11
45.8732140704
 21
109.094575848
  0
LINE
  5
2A2
100
AcDbEntity
  8
0
100
AcDbLine
 62
7
  6
CONTINUOUS
 10
88.1934991359
 20
131.9361667975
 11
71.93011088
 21
122.5465512584
  0
LINE
  5
2A3
100
AcDbEntity
  8
0
100
AcDbLine
 62
7
  6
CONTINUOUS
 10
90.2441002638
 20
132.7118236351
 11
92.3654117755
 21
133.9365560967
  0
LINE
  5
2A4
100
AcDbEntity
  8
0
100
AcDbLine
 62
7
  6
CONTINUOUS
 10
73.2029030861
 20
122.5465543178
 11
88.193504435
 21
131.2013303799
  0
LINE
  5
2A5
100
AcDbEntity
  8
0
100
AcDbLine
 62
7
  6
CONTINUOUS
 10
54.1811259604
 20
110.7491618213
 11
53.6154428906
 21
110.4225664982
  0
LINE
  5
2A6
100
AcDbEntity
  8
0
100
AcDbLine
 62
7
  6
CONTINUOUS
 10
73.9100250305
 20
122.1383065087
 11
88.193504435
 21
130.3848279628
  0
LINE
  5
2A7
100
AcDbEntity
  8
0
100
AcDbLine
 62
7
  6
CONTINUOUS
 10
79.142580029
 20
124.5061148665
 11
82.4659680639
 21
126.4248623897
  0
LINE
  5
2A8
100
AcDbEntity
  8
0
100
AcDbLine
 62
7
  6
CONTINUOUS
 10
117.0081727434
 20
72.4664974274
 11
118.2809596504
 21
72.4663214284
  0
LINE
  5
2A9
100
AcDbEntity
  8
0
100
AcDbLine
 62
7
  6
CONTINUOUS
 10
22.6753352403
 20
78.5636161174
 11
21.2305637956
 21
78.8233358012
  0
LINE
  5
2AA
100
AcDbEntity
  8
0
100
AcDbLine
 62
7
  6
CONTINUOUS
 10
68.5361820338
 20
64.0113778866
 11
61.4650847824
 21
68.0937854318
  0
LINE
  5
2AB
100
AcDbEntity
  8
0
100
AcDbLine
 62
7
  6
CONTINUOUS
 10
56.0203398987
 20
71.2372392416
 11
48.9492426472
 21
75.3196467868
  0
LINE
  5
2AC
100
AcDbEntity
  8
0
100
AcDbLine
 62
7
  6
CONTINUOUS
 10
43.5044977636
 20
78.4631005966
 11
36.4334005121
 21
82.5455081418
  0
LINE
  5
2AD
100
AcDbEntity
  8
0
100
AcDbLine
 62
7
  6
CONTINUOUS
 10
30.9886556285
 20
85.6889619517
 11
23.917558377
 21
89.7713694969
  0
LINE
  5
2AE
100
AcDbEntity
  8
0
100
AcDbLine
 62
7
  6
CONTINUOUS
 10
48.9492426472
 20
75.3196467868
 11
49.337177781
 21
73.0031286252
  0
LINE
  5
2AF
100
AcDbEntity
  8
0
100
AcDbLine
 62
7
  6
CONTINUOUS
 10
48.9492426472
 20
75.3196467868
 11
48.9492426472
 21
74.5062916022
  0
LINE
  5
2B0
100
AcDbEntity
  8
0
100
AcDbLine
 62
7
  6
CONTINUOUS
 10
30.6471721527
 20
73.4449905921
 11
30.3384573318
 21
72.9882476391
  0
LINE
  5
2B1
100
AcDbEntity
  8
0
100
AcDbLine
 62
7
  6
CONTINUOUS
 10
78.57690638
 20
122.87314369
 11
79.1425894497
 21
123.1997390131
  0
LINE
  5
2B2
100
AcDbEntity
  8
0
100
AcDbLine
 62
7
  6
CONTINUOUS
 10
95.4887894304
 20
132.2289285391
 11
97.0249685393
 21
133.115836667
  0
LINE
  5
2B3
100
AcDbEntity
  8
0
100
AcDbLine
 62
7
  6
CONTINUOUS
 10
95.4887894304
 20
130.7087968313
 11
97.2570994048
 21
131.7297249769
  0
LINE
  5
2B4
100
AcDbEntity
  8
0
100
AcDbLine
 62
7
  6
CONTINUOUS
 10
62.5969864507
 20
110.6247193746
 11
62.0313033809
 21
110.2981240515
  0
LINE
  5
2B5
100
AcDbEntity
  8
0
100
AcDbLine
 62
7
  6
CONTINUOUS
 10
98.0577568275
 20
130.7727557959
 11
99.5705635498
 21
131.6461699507
  0
LINE
  5
2B6
100
AcDbEntity
  8
0
100
AcDbLine
 62
7
  6
CONTINUOUS
 10
83.1024039106
 20
120.9135907878
 11
82.5367208408
 21
120.5869954647
  0
LINE
  5
2B7
100
AcDbEntity
  8
0
100
AcDbLine
 62
7
  6
CONTINUOUS
 10
98.0577568275
 20
129.3047850513
 11
97.0534020066
 21
128.7249239864
  0
LINE
  5
2B8
100
AcDbEntity
  8
0
100
AcDbLine
 62
7
  6
CONTINUOUS
 10
64.486766965
 20
109.3898575403
 11
64.3290086388
 21
109.2987762718
  0
LINE
  5
2B9
100
AcDbEntity
  8
0
100
AcDbLine
 62
7
  6
CONTINUOUS
 10
95.5474455766
 20
126.9556265329
 11
80.5568442276
 21
118.3008504708
  0
LINE
  5
2BA
100
AcDbEntity
  8
0
100
AcDbLine
 62
7
  6
CONTINUOUS
 10
115.5585872085
 20
74.0380483333
 11
114.8868459231
 21
74.0381412206
  0
LINE
  5
2BB
100
AcDbEntity
  8
0
100
AcDbLine
 62
7
  6
CONTINUOUS
 10
53.3333453173
 20
60.2892055459
 11
53.3333453173
 21
64.3855738596
  0
LINE
  5
2BC
100
AcDbEntity
  8
0
100
AcDbLine
 62
7
  6
CONTINUOUS
 10
53.3687008036
 20
60.2687935082
 11
53.3687008036
 21
64.3651618219
  0
LINE
  5
2BD
100
AcDbEntity
  8
0
100
AcDbLine
 62
7
  6
CONTINUOUS
 10
54.1108957588
 20
138.9578375765
 11
54.1109051795
 21
136.9982765158
  0
LINE
  5
2BE
100
AcDbEntity
  8
0
100
AcDbLine
 62
7
  6
CONTINUOUS
 10
55.5251652566
 20
132.0177367633
 11
55.5251652566
 21
131.6094855547
  0
LINE
  5
2BF
100
AcDbEntity
  8
0
100
AcDbLine
 62
7
  6
CONTINUOUS
 10
56.0203398987
 20
71.2372392416
 11
56.0203398987
 21
70.423884057
  0
LINE
  5
2C0
100
AcDbEntity
  8
0
100
AcDbLine
 62
7
  6
CONTINUOUS
 10
34.6459279091
 20
70.5013846021
 11
36.0294250437
 21
72.5486411772
  0
LINE
  5
2C1
100
AcDbEntity
  8
0
100
AcDbLine
 62
7
  6
CONTINUOUS
 10
80.5568495268
 20
117.5660140533
 11
96.8202377827
 21
126.9556295923
  0
LINE
  5
2C2
100
AcDbEntity
  8
0
100
AcDbLine
 62
7
  6
CONTINUOUS
 10
100.9921504221
 20
128.9560188915
 11
98.8708389104
 21
127.7312864299
  0
LINE
  5
2C3
100
AcDbEntity
  8
0
100
AcDbLine
 62
7
  6
CONTINUOUS
 10
96.8202377827
 20
126.5473783837
 11
80.5568495268
 21
117.1577628447
  0
LINE
  5
2C4
100
AcDbEntity
  8
0
100
AcDbLine
 62
7
  6
CONTINUOUS
 10
70.9048983406
 20
109.3398966463
 11
104.5556871121
 21
128.7680726314
  0
LINE
  5
2C5
100
AcDbEntity
  8
0
100
AcDbLine
 62
7
  6
CONTINUOUS
 10
47.6410778799
 20
95.6634033541
 11
58.3890562055
 21
101.868714493
  0
LINE
  5
2C6
100
AcDbEntity
  8
0
100
AcDbLine
 62
7
  6
CONTINUOUS
 10
100.709341271
 20
124.7103054424
 11
84.4459530151
 21
115.3206899034
  0
LINE
  5
2C7
100
AcDbEntity
  8
0
100
AcDbLine
 62
7
  6
CONTINUOUS
 10
102.7599423989
 20
125.4859622801
 11
104.8812539106
 21
126.7106947417
  0
LINE
  5
2C8
100
AcDbEntity
  8
0
100
AcDbLine
 62
7
  6
CONTINUOUS
 10
85.7187452212
 20
115.3206929628
 11
100.7093465701
 21
123.9754690249
  0
LINE
  5
2C9
100
AcDbEntity
  8
0
100
AcDbLine
 62
7
  6
CONTINUOUS
 10
71.2585544756
 20
78.7621875021
 11
21.1951859352
 21
107.6656329221
  0
LINE
  5
2CA
100
AcDbEntity
  8
0
100
AcDbLine
 62
7
  6
CONTINUOUS
 10
57.4342837937
 20
135.0795663853
 11
57.4342837937
 21
140.8765850997
  0
LINE
  5
2CB
100
AcDbEntity
  8
0
100
AcDbLine
 62
7
  6
CONTINUOUS
 10
57.6297292961
 20
63.2870527262
 11
57.6297292961
 21
61.1396136564
  0
LINE
  5
2CC
100
AcDbEntity
  8
0
100
AcDbLine
 62
7
  6
CONTINUOUS
 10
57.6297292961
 20
60.3917377744
 11
57.6297292961
 21
58.2442987046
  0
LINE
  5
2CD
100
AcDbEntity
  8
0
100
AcDbLine
 62
7
  6
CONTINUOUS
 10
58.3890562055
 20
101.868714493
 11
58.3890562055
 21
116.5657580013
  0
LINE
  5
2CE
100
AcDbEntity
  8
0
100
AcDbLine
 62
7
  6
CONTINUOUS
 10
58.7427123405
 20
68.8521571521
 11
58.7427123405
 21
85.9880488571
  0
LINE
  5
2CF
100
AcDbEntity
  8
0
100
AcDbLine
 62
7
  6
CONTINUOUS
 10
58.7427347147
 20
57.1661637739
 11
58.7427346837
 21
61.2625321054
  0
LINE
  5
2D0
100
AcDbEntity
  8
0
100
AcDbLine
 62
7
  6
CONTINUOUS
 10
58.7780902009
 20
57.1457517361
 11
58.7780902009
 21
61.2421200498
  0
LINE
  5
2D1
100
AcDbEntity
  8
0
100
AcDbLine
 62
7
  6
CONTINUOUS
 10
59.4142687449
 20
129.7724126134
 11
59.4142687449
 21
129.3641614049
  0
LINE
  5
2D2
100
AcDbEntity
  8
0
100
AcDbLine
 62
7
  6
CONTINUOUS
 10
60.2627109185
 20
140.8765918984
 11
60.2627109185
 21
135.4877831765
  0
LINE
  5
2D3
100
AcDbEntity
  8
0
100
AcDbLine
 62
7
  6
CONTINUOUS
 10
61.4650847824
 20
68.0937854318
 11
61.4650847824
 21
67.2804302472
  0
LINE
  5
2D4
100
AcDbEntity
  8
0
100
AcDbLine
 62
7
  6
CONTINUOUS
 10
41.2927593255
 20
66.6639215096
 11
41.6021263196
 21
67.1217132874
  0
LINE
  5
2D5
100
AcDbEntity
  8
0
100
AcDbLine
 62
7
  6
CONTINUOUS
 10
66.6969680955
 20
103.5233004663
 11
66.1312850257
 21
103.1967051432
  0
LINE
  5
2D6
100
AcDbEntity
  8
0
100
AcDbLine
 62
7
  6
CONTINUOUS
 10
86.4258671656
 20
114.9124451537
 11
100.7093465701
 21
123.1589666078
  0
LINE
  5
2D7
100
AcDbEntity
  8
0
100
AcDbLine
 62
7
  6
CONTINUOUS
 10
91.6584221641
 20
117.2802535115
 11
94.981810199
 21
119.1990010347
  0
LINE
  5
2D8
100
AcDbEntity
  8
0
100
AcDbLine
 62
7
  6
CONTINUOUS
 10
91.0927485151
 20
115.647282335
 11
91.6584315848
 21
115.9738776581
  0
LINE
  5
2D9
100
AcDbEntity
  8
0
100
AcDbLine
 62
7
  6
CONTINUOUS
 10
108.0046315655
 20
125.0030671841
 11
109.5408106744
 21
125.889975312
  0
LINE
  5
2DA
100
AcDbEntity
  8
0
100
AcDbLine
 62
7
  6
CONTINUOUS
 10
108.0046315655
 20
123.4829354763
 11
109.7729415399
 21
124.5038636219
  0
LINE
  5
2DB
100
AcDbEntity
  8
0
100
AcDbLine
 62
7
  6
CONTINUOUS
 10
75.1128285858
 20
103.3988580196
 11
74.547145516
 21
103.0722626965
  0
LINE
  5
2DC
100
AcDbEntity
  8
0
100
AcDbLine
 62
7
  6
CONTINUOUS
 10
22.6093936097
 20
110.1151260641
 11
72.6727621501
 21
81.2116806441
  0
LINE
  5
2DD
100
AcDbEntity
  8
0
100
AcDbLine
 62
7
  6
CONTINUOUS
 10
61.4650847824
 20
68.0937854318
 11
61.8530199161
 21
65.7772672702
  0
LINE
  5
2DE
100
AcDbEntity
  8
0
100
AcDbLine
 62
7
  6
CONTINUOUS
 10
63.1618201648
 20
144.8365506728
 11
63.1618201648
 21
145.6530530899
  0
LINE
  5
2DF
100
AcDbEntity
  8
0
100
AcDbLine
 62
7
  6
CONTINUOUS
 10
63.6568375992
 20
137.4473714321
 11
63.6568375992
 21
138.9170362767
  0
LINE
  5
2E0
100
AcDbEntity
  8
0
100
AcDbLine
 62
7
  6
CONTINUOUS
 10
65.8491874524
 20
53.0633441909
 11
65.8491874524
 21
57.1597125046
  0
LINE
  5
2E1
100
AcDbEntity
  8
0
100
AcDbLine
 62
7
  6
CONTINUOUS
 10
65.8845429387
 20
53.0429321532
 11
65.8845429387
 21
57.1393004669
  0
LINE
  5
2E2
100
AcDbEntity
  8
0
100
AcDbLine
 62
7
  6
CONTINUOUS
 10
66.6267378939
 20
131.7319762215
 11
66.6267473146
 21
129.7724151608
  0
LINE
  5
2E3
100
AcDbEntity
  8
0
100
AcDbLine
 62
7
  6
CONTINUOUS
 10
67.3337275053
 20
145.8547905168
 11
67.3337275053
 21
148.3882788068
  0
LINE
  5
2E4
100
AcDbEntity
  8
0
100
AcDbLine
 62
7
  6
CONTINUOUS
 10
47.1617700442
 20
63.2755232471
 11
48.5452671788
 21
65.3227798221
  0
LINE
  5
2E5
100
AcDbEntity
  8
0
100
AcDbLine
 62
7
  6
CONTINUOUS
 10
43.1630142878
 20
66.2191292371
 11
42.8542994669
 21
65.7623862841
  0
LINE
  5
2E6
100
AcDbEntity
  8
0
100
AcDbLine
 62
7
  6
CONTINUOUS
 10
110.5735989626
 20
123.5468944409
 11
112.0864056849
 21
124.4203085957
  0
LINE
  5
2E7
100
AcDbEntity
  8
0
100
AcDbLine
 62
7
  6
CONTINUOUS
 10
95.6182460457
 20
113.6877294328
 11
95.0525629759
 21
113.3611341097
  0
LINE
  5
2E8
100
AcDbEntity
  8
0
100
AcDbLine
 62
7
  6
CONTINUOUS
 10
110.5735989626
 20
122.0789236963
 11
109.5692441417
 21
121.4990626314
  0
LINE
  5
2E9
100
AcDbEntity
  8
0
100
AcDbLine
 62
7
  6
CONTINUOUS
 10
77.0026091001
 20
102.1639961852
 11
76.8448507739
 21
102.0729149168
  0
LINE
  5
2EA
100
AcDbEntity
  8
0
100
AcDbLine
 62
7
  6
CONTINUOUS
 10
108.0632877117
 20
119.7297651779
 11
93.0726863627
 21
111.0749891158
  0
LINE
  5
2EB
100
AcDbEntity
  8
0
100
AcDbLine
 62
7
  6
CONTINUOUS
 10
93.0726916619
 20
110.3401526983
 11
109.3360799178
 21
119.7297682373
  0
LINE
  5
2EC
100
AcDbEntity
  8
0
100
AcDbLine
 62
7
  6
CONTINUOUS
 10
113.5079925572
 20
121.7301575365
 11
111.3866810455
 21
120.5054250749
  0
LINE
  5
2ED
100
AcDbEntity
  8
0
100
AcDbLine
 62
7
  6
CONTINUOUS
 10
109.3360799178
 20
119.3215170287
 11
93.0726916619
 21
109.9319014897
  0
LINE
  5
2EE
100
AcDbEntity
  8
0
100
AcDbLine
 62
7
  6
CONTINUOUS
 10
83.4207404757
 20
102.1140352913
 11
117.0715292472
 21
121.5422112763
  0
LINE
  5
2EF
100
AcDbEntity
  8
0
100
AcDbLine
 62
7
  6
CONTINUOUS
 10
68.0410073917
 20
124.7918754083
 11
68.0410073917
 21
124.3836241997
  0
LINE
  5
2F0
100
AcDbEntity
  8
0
100
AcDbLine
 62
7
  6
CONTINUOUS
 10
68.5361820338
 20
64.0113778866
 11
68.5361820338
 21
63.1980227019
  0
LINE
  5
2F1
100
AcDbEntity
  8
0
100
AcDbLine
 62
7
  6
CONTINUOUS
 10
69.9501259288
 20
127.8537050303
 11
69.9501259288
 21
133.6507237447
  0
LINE
  5
2F2
100
AcDbEntity
  8
0
100
AcDbLine
 62
7
  6
CONTINUOUS
 10
70.4571051602
 20
145.1605195413
 11
70.4571051602
 21
146.6806512491
  0
LINE
  5
2F3
100
AcDbEntity
  8
0
100
AcDbLine
 62
7
  6
CONTINUOUS
 10
70.9048983406
 20
43.2032008588
 11
70.9048983406
 21
44.8133422478
  0
LINE
  5
2F4
100
AcDbEntity
  8
0
100
AcDbLine
 62
7
  6
CONTINUOUS
 10
70.9048983406
 20
94.6428531379
 11
70.9048983406
 21
109.3398966463
  0
LINE
  5
2F5
100
AcDbEntity
  8
0
100
AcDbLine
 62
7
  6
CONTINUOUS
 10
71.2585544756
 20
45.2855883998
 11
71.2585544756
 21
47.6608253242
  0
LINE
  5
2F6
100
AcDbEntity
  8
0
100
AcDbLine
 62
7
  6
CONTINUOUS
 10
71.2585544756
 20
48.5731055239
 11
71.2585544756
 21
78.7621875021
  0
LINE
  5
2F7
100
AcDbEntity
  8
0
100
AcDbLine
 62
7
  6
CONTINUOUS
 10
71.7885535125
 20
141.4073523023
 11
71.7885535125
 21
140.9991010938
  0
LINE
  5
2F8
100
AcDbEntity
  8
0
100
AcDbLine
 62
7
  6
CONTINUOUS
 10
71.93011088
 20
122.5465512584
 11
71.93011088
 21
122.1383000498
  0
LINE
  5
2F9
100
AcDbEntity
  8
0
100
AcDbLine
 62
7
  6
CONTINUOUS
 10
60.156920015
 20
88.4375419991
 11
70.9048983406
 21
94.6428531379
  0
LINE
  5
2FA
100
AcDbEntity
  8
0
100
AcDbLine
 62
7
  6
CONTINUOUS
 10
79.2128102306
 20
96.2974391112
 11
78.6471271608
 21
95.9708437881
  0
LINE
  5
2FB
100
AcDbEntity
  8
0
100
AcDbLine
 62
7
  6
CONTINUOUS
 10
83.4207404757
 20
87.4169917829
 11
33.3573719353
 21
116.320437203
  0
LINE
  5
2FC
100
AcDbEntity
  8
0
100
AcDbLine
 62
7
  6
CONTINUOUS
 10
72.7785530536
 20
133.6507305434
 11
72.7785530536
 21
128.2619218215
  0
LINE
  5
2FD
100
AcDbEntity
  8
0
100
AcDbLine
 62
7
  6
CONTINUOUS
 10
73.0260725573
 20
142.6275411578
 11
73.0260725573
 21
145.2244785059
  0
LINE
  5
2FE
100
AcDbEntity
  8
0
100
AcDbLine
 62
7
  6
CONTINUOUS
 10
75.6776622999
 20
137.6106893178
 11
75.6776622999
 21
138.4271917349
  0
LINE
  5
2FF
100
AcDbEntity
  8
0
100
AcDbLine
 62
7
  6
CONTINUOUS
 10
76.1726797343
 20
130.2215100771
 11
76.1726797343
 21
131.6911749217
  0
LINE
  5
300
100
AcDbEntity
  8
0
100
AcDbLine
 62
7
  6
CONTINUOUS
 10
53.8086014606
 20
59.4380601546
 11
54.1179684547
 21
59.8958519324
  0
LINE
  5
301
100
AcDbEntity
  8
0
100
AcDbLine
 62
7
  6
CONTINUOUS
 10
55.6788564229
 20
58.9932678821
 11
55.370141602
 21
58.5365249291
  0
LINE
  5
302
100
AcDbEntity
  8
0
100
AcDbLine
 62
7
  6
CONTINUOUS
 10
117.0081727434
 20
71.2907339467
 11
115.4525443015
 21
72.1888561281
  0
LINE
  5
303
100
AcDbEntity
  8
0
100
AcDbLine
 62
7
  6
CONTINUOUS
 10
115.4525443015
 20
72.433852851
 11
114.3918885457
 21
73.0462088838
  0
LINE
  5
304
100
AcDbEntity
  8
0
100
AcDbLine
 62
7
  6
CONTINUOUS
 10
117.0081727434
 20
72.4664974274
 11
114.8868459231
 21
73.6912183312
  0
LINE
  5
305
100
AcDbEntity
  8
0
100
AcDbLine
 62
7
  6
CONTINUOUS
 10
114.3918885457
 20
74.6791907187
 11
114.8868459231
 21
74.3934187731
  0
LINE
  5
306
100
AcDbEntity
  8
0
100
AcDbLine
 62
7
  6
CONTINUOUS
 10
118.2809596504
 20
72.4663214284
 11
115.5585872085
 21
74.0380483333
  0
LINE
  5
307
100
AcDbEntity
  8
0
100
AcDbLine
 62
7
  6
CONTINUOUS
 10
114.3918885457
 20
76.3121641906
 11
115.3818097773
 21
75.74061656
  0
LINE
  5
308
100
AcDbEntity
  8
0
100
AcDbLine
 62
7
  6
CONTINUOUS
 10
79.142580029
 20
124.5061148665
 11
79.1425894497
 21
122.5465538058
  0
LINE
  5
309
100
AcDbEntity
  8
0
100
AcDbLine
 62
7
  6
CONTINUOUS
 10
79.8495696404
 20
138.6289291618
 11
79.8495696404
 21
141.1624174517
  0
LINE
  5
30A
100
AcDbEntity
  8
0
100
AcDbLine
 62
7
  6
CONTINUOUS
 10
80.5568495268
 20
117.5660140533
 11
80.5568495268
 21
117.1577628447
  0
LINE
  5
30B
100
AcDbEntity
  8
0
100
AcDbLine
 62
7
  6
CONTINUOUS
 10
82.4659680639
 20
120.6278436753
 11
82.4659680639
 21
126.4248623897
  0
LINE
  5
30C
100
AcDbEntity
  8
0
100
AcDbLine
 62
7
  6
CONTINUOUS
 10
59.6776121793
 20
56.0496618921
 11
61.0611093139
 21
58.0969184671
  0
LINE
  5
30D
100
AcDbEntity
  8
0
100
AcDbLine
 62
7
  6
CONTINUOUS
 10
72.6727621501
 20
81.2116806441
 11
83.4207404757
 21
87.4169917829
  0
LINE
  5
30E
100
AcDbEntity
  8
0
100
AcDbLine
 62
7
  6
CONTINUOUS
 10
77.4159571708
 20
101.7431939442
 11
76.8448507739
 21
102.0729149168
  0
LINE
  5
30F
100
AcDbEntity
  8
0
100
AcDbLine
 62
7
  6
CONTINUOUS
 10
64.9001150357
 20
108.9690552992
 11
64.3290086388
 21
109.2987762718
  0
LINE
  5
310
100
AcDbEntity
  8
0
100
AcDbLine
 62
7
  6
CONTINUOUS
 10
52.3842729006
 20
116.1949166542
 11
51.8131665037
 21
116.5246376269
  0
LINE
  5
311
100
AcDbEntity
  8
0
100
AcDbLine
 62
7
  6
CONTINUOUS
 10
39.8684307655
 20
123.4207780092
 11
39.2973243686
 21
123.7504989819
  0
LINE
  5
312
100
AcDbEntity
  8
0
100
AcDbLine
 62
7
  6
CONTINUOUS
 10
83.4207404757
 20
102.1140352913
 11
33.3573719353
 21
131.0174807113
  0
LINE
  5
313
100
AcDbEntity
  8
0
100
AcDbLine
 62
7
  6
CONTINUOUS
 10
71.9932842691
 20
147.567559377
 11
72.2254151346
 21
146.1814476869
  0
LINE
  5
314
100
AcDbEntity
  8
0
100
AcDbLine
 62
7
  6
CONTINUOUS
 10
82.9729472953
 20
137.9346581863
 11
82.9729472953
 21
139.4547898941
  0
LINE
  5
315
100
AcDbEntity
  8
0
100
AcDbLine
 62
7
  6
CONTINUOUS
 10
83.4207404757
 20
35.9773395038
 11
83.4207404757
 21
50.6743830121
  0
LINE
  5
316
100
AcDbEntity
  8
0
100
AcDbLine
 62
7
  6
CONTINUOUS
 10
83.4207404757
 20
87.4169917829
 11
83.4207404757
 21
102.1140352913
  0
LINE
  5
317
100
AcDbEntity
  8
0
100
AcDbLine
 62
7
  6
CONTINUOUS
 10
84.3043956476
 20
134.1814909473
 11
84.3043956476
 21
133.7732397388
  0
LINE
  5
318
100
AcDbEntity
  8
0
100
AcDbLine
 62
7
  6
CONTINUOUS
 10
84.4459530151
 20
115.3206899034
 11
84.4459530151
 21
114.9124386948
  0
LINE
  5
319
100
AcDbEntity
  8
0
100
AcDbLine
 62
7
  6
CONTINUOUS
 10
85.2943951887
 20
126.4248691884
 11
85.2943951887
 21
121.0360604665
  0
LINE
  5
31A
100
AcDbEntity
  8
0
100
AcDbLine
 62
7
  6
CONTINUOUS
 10
85.5419146924
 20
135.4016798027
 11
85.5419146924
 21
137.9986171509
  0
LINE
  5
31B
100
AcDbEntity
  8
0
100
AcDbLine
 62
7
  6
CONTINUOUS
 10
114.9575716155
 20
101.54216896
 11
114.3918885457
 21
101.2155736369
  0
LINE
  5
31C
100
AcDbEntity
  8
0
100
AcDbLine
 62
7
  6
CONTINUOUS
 10
116.9842726337
 20
100.8343227944
 11
116.0963623453
 21
100.3216906104
  0
LINE
  5
31D
100
AcDbEntity
  8
0
100
AcDbLine
 62
7
  6
CONTINUOUS
 10
95.6182460457
 20
113.6877294328
 11
97.5981205946
 21
113.6877341918
  0
LINE
  5
31E
100
AcDbEntity
  8
0
100
AcDbLine
 62
7
  6
CONTINUOUS
 10
88.193504435
 20
130.3848279628
 11
88.193504435
 21
131.2013303799
  0
LINE
  5
31F
100
AcDbEntity
  8
0
100
AcDbLine
 62
7
  6
CONTINUOUS
 10
88.6885218694
 20
122.9956487221
 11
88.6885218694
 21
124.4653135667
  0
LINE
  5
320
100
AcDbEntity
  8
0
100
AcDbLine
 62
7
  6
CONTINUOUS
 10
91.6584221641
 20
117.2802535115
 11
91.6584315848
 21
115.3206924508
  0
LINE
  5
321
100
AcDbEntity
  8
0
100
AcDbLine
 62
7
  6
CONTINUOUS
 10
92.3654117755
 20
131.4030678068
 11
92.3654117755
 21
133.9365560967
  0
LINE
  5
322
100
AcDbEntity
  8
0
100
AcDbLine
 62
7
  6
CONTINUOUS
 10
93.0726916619
 20
110.3401526983
 11
93.0726916619
 21
109.9319014897
  0
LINE
  5
323
100
AcDbEntity
  8
0
100
AcDbLine
 62
7
  6
CONTINUOUS
 10
66.3244435957
 20
52.2121987996
 11
66.6338105898
 21
52.6699905774
  0
LINE
  5
324
100
AcDbEntity
  8
0
100
AcDbLine
 62
7
  6
CONTINUOUS
 10
67.5476395972
 20
50.3599074354
 11
65.8761115734
 21
47.8866583583
  0
LINE
  5
325
100
AcDbEntity
  8
0
100
AcDbLine
 62
7
  6
CONTINUOUS
 10
66.5832212985
 20
47.4784176038
 11
68.8119253302
 21
50.7760830399
  0
LINE
  5
326
100
AcDbEntity
  8
0
100
AcDbLine
 62
7
  6
CONTINUOUS
 10
68.194698558
 20
51.7674065271
 11
67.8859837371
 21
51.3106635741
  0
LINE
  5
327
100
AcDbEntity
  8
0
100
AcDbLine
 62
7
  6
CONTINUOUS
 10
84.5091264042
 20
140.341698022
 11
84.7412572697
 21
138.9555863319
  0
LINE
  5
328
100
AcDbEntity
  8
0
100
AcDbLine
 62
7
  6
CONTINUOUS
 10
94.981810199
 20
113.4019823203
 11
94.981810199
 21
119.1990010347
  0
LINE
  5
329
100
AcDbEntity
  8
0
100
AcDbLine
 62
7
  6
CONTINUOUS
 10
95.4887894304
 20
130.7087968313
 11
95.4887894304
 21
132.2289285391
  0
LINE
  5
32A
100
AcDbEntity
  8
0
100
AcDbLine
 62
7
  6
CONTINUOUS
 10
96.8202377827
 20
126.9556295923
 11
96.8202377827
 21
126.5473783837
  0
LINE
  5
32B
100
AcDbEntity
  8
0
100
AcDbLine
 62
7
  6
CONTINUOUS
 10
97.8102373238
 20
119.1990078334
 11
97.8102373238
 21
113.8101991115
  0
LINE
  5
32C
100
AcDbEntity
  8
0
100
AcDbLine
 62
7
  6
CONTINUOUS
 10
98.0577568275
 20
128.1758184477
 11
98.0577568275
 21
130.7727557959
  0
LINE
  5
32D
100
AcDbEntity
  8
0
100
AcDbLine
 62
7
  6
CONTINUOUS
 10
71.6418579197
 20
48.2279739904
 11
69.413153888
 21
44.9303085543
  0
LINE
  5
32E
100
AcDbEntity
  8
0
100
AcDbLine
 62
7
  6
CONTINUOUS
 10
83.1024039106
 20
120.9135907878
 11
85.0822784595
 21
120.9135955468
  0
LINE
  5
32F
100
AcDbEntity
  8
0
100
AcDbLine
 62
7
  6
CONTINUOUS
 10
93.0726916619
 20
109.9319014897
 11
84.4459530151
 21
114.9124386948
  0
LINE
  5
330
100
AcDbEntity
  8
0
100
AcDbLine
 62
7
  6
CONTINUOUS
 10
80.5568495268
 20
117.1577628447
 11
71.93011088
 21
122.1383000498
  0
LINE
  5
331
100
AcDbEntity
  8
0
100
AcDbLine
 62
7
  6
CONTINUOUS
 10
68.0410073917
 20
124.3836241997
 11
59.4142687449
 21
129.3641614049
  0
LINE
  5
332
100
AcDbEntity
  8
0
100
AcDbLine
 62
7
  6
CONTINUOUS
 10
55.5251652566
 20
131.6094855547
 11
46.8984266098
 21
136.5900227599
  0
LINE
  5
333
100
AcDbEntity
  8
0
100
AcDbLine
 62
7
  6
CONTINUOUS
 10
46.8984266098
 20
136.9982739684
 11
55.5251652566
 21
132.0177367633
  0
LINE
  5
334
100
AcDbEntity
  8
0
100
AcDbLine
 62
7
  6
CONTINUOUS
 10
59.4142687449
 20
129.7724126134
 11
68.0410073917
 21
124.7918754083
  0
LINE
  5
335
100
AcDbEntity
  8
0
100
AcDbLine
 62
7
  6
CONTINUOUS
 10
71.93011088
 20
122.5465512584
 11
80.5568495268
 21
117.5660140533
  0
LINE
  5
336
100
AcDbEntity
  8
0
100
AcDbLine
 62
7
  6
CONTINUOUS
 10
84.4459530151
 20
115.3206899034
 11
93.0726916619
 21
110.3401526983
  0
LINE
  5
337
100
AcDbEntity
  8
0
100
AcDbLine
 62
7
  6
CONTINUOUS
 10
93.0726863627
 20
111.0749891158
 11
85.7187452212
 21
115.3206929628
  0
LINE
  5
338
100
AcDbEntity
  8
0
100
AcDbLine
 62
7
  6
CONTINUOUS
 10
80.5568442276
 20
118.3008504708
 11
73.2029030861
 21
122.5465543178
  0
LINE
  5
339
100
AcDbEntity
  8
0
100
AcDbLine
 62
7
  6
CONTINUOUS
 10
68.0410020925
 20
125.5267118258
 11
60.687060951
 21
129.7724156728
  0
LINE
  5
33A
100
AcDbEntity
  8
0
100
AcDbLine
 62
7
  6
CONTINUOUS
 10
55.5251599574
 20
132.7525731808
 11
48.1712188159
 21
136.9982770278
  0
LINE
  5
33B
100
AcDbEntity
  8
0
100
AcDbLine
 62
7
  6
CONTINUOUS
 10
116.0963623453
 20
100.3216906104
 11
114.4699818732
 21
101.2606605714
  0
LINE
  5
33C
100
AcDbEntity
  8
0
100
AcDbLine
 62
7
  6
CONTINUOUS
 10
100.7093465701
 20
123.1589666078
 11
100.7093465701
 21
123.9754690249
  0
LINE
  5
33D
100
AcDbEntity
  8
0
100
AcDbLine
 62
7
  6
CONTINUOUS
 10
101.2043640045
 20
115.7697873671
 11
101.2043640045
 21
117.2394522117
  0
LINE
  5
33E
100
AcDbEntity
  8
0
100
AcDbLine
 62
7
  6
CONTINUOUS
 10
70.5865617755
 20
128.1394521428
 11
72.5664363244
 21
128.1394569018
  0
LINE
  5
33F
100
AcDbEntity
  8
0
100
AcDbLine
 62
7
  6
CONTINUOUS
 10
95.0525629759
 20
113.3611341097
 11
91.0927485151
 21
115.647282335
  0
LINE
  5
340
100
AcDbEntity
  8
0
100
AcDbLine
 62
7
  6
CONTINUOUS
 10
82.5367208408
 20
120.5869954647
 11
78.57690638
 21
122.87314369
  0
LINE
  5
341
100
AcDbEntity
  8
0
100
AcDbLine
 62
7
  6
CONTINUOUS
 10
70.0208787057
 20
127.8128568197
 11
66.0610642449
 21
130.099005045
  0
LINE
  5
342
100
AcDbEntity
  8
0
100
AcDbLine
 62
7
  6
CONTINUOUS
 10
57.5050365706
 20
135.0387181747
 11
53.5452221098
 21
137.3248664
  0
LINE
  5
343
100
AcDbEntity
  8
0
100
AcDbLine
 62
7
  6
CONTINUOUS
 10
97.0249685393
 20
133.115836667
 11
97.2570994048
 21
131.7297249769
  0
LINE
  5
344
100
AcDbEntity
  8
0
100
AcDbLine
 62
7
  6
CONTINUOUS
 10
104.8812539106
 20
124.1772064518
 11
104.8812539106
 21
126.7106947417
  0
LINE
  5
345
100
AcDbEntity
  8
0
100
AcDbLine
 62
7
  6
CONTINUOUS
 10
108.0046315655
 20
123.4829354763
 11
108.0046315655
 21
125.0030671841
  0
LINE
  5
346
100
AcDbEntity
  8
0
100
AcDbLine
 62
7
  6
CONTINUOUS
 10
60.2627109185
 20
140.8765918984
 11
63.6568375992
 21
138.9170362767
  0
LINE
  5
347
100
AcDbEntity
  8
0
100
AcDbLine
 62
7
  6
CONTINUOUS
 10
72.7785530536
 20
133.6507305434
 11
76.1726797343
 21
131.6911749217
  0
LINE
  5
348
100
AcDbEntity
  8
0
100
AcDbLine
 62
7
  6
CONTINUOUS
 10
85.2943951887
 20
126.4248691884
 11
88.6885218694
 21
124.4653135667
  0
LINE
  5
349
100
AcDbEntity
  8
0
100
AcDbLine
 62
7
  6
CONTINUOUS
 10
97.8102373238
 20
119.1990078334
 11
101.2043640045
 21
117.2394522117
  0
LINE
  5
34A
100
AcDbEntity
  8
0
100
AcDbLine
 62
7
  6
CONTINUOUS
 10
116.0963623453
 20
100.3216906104
 11
114.9575716155
 21
101.54216896
  0
LINE
  5
34B
100
AcDbEntity
  8
0
100
AcDbLine
 62
7
  6
CONTINUOUS
 10
109.3360799178
 20
119.7297682373
 11
109.3360799178
 21
119.3215170287
  0
LINE
  5
34C
100
AcDbEntity
  8
0
100
AcDbLine
 62
7
  6
CONTINUOUS
 10
110.5735989626
 20
120.9499570927
 11
110.5735989626
 21
123.5468944409
  0
LINE
  5
34D
100
AcDbEntity
  8
0
100
AcDbLine
 62
7
  6
CONTINUOUS
 10
114.3918885457
 20
71.8214866202
 11
115.4525443015
 21
72.433852851
  0
LINE
  5
34E
100
AcDbEntity
  8
0
100
AcDbLine
 62
7
  6
CONTINUOUS
 10
115.4525443015
 20
70.3925968082
 11
117.0081727434
 21
71.2907339467
  0
LINE
  5
34F
100
AcDbEntity
  8
0
100
AcDbLine
 62
7
  6
CONTINUOUS
 10
83.4207404757
 20
50.6743830121
 11
72.6727621501
 21
44.4690718733
  0
LINE
  5
350
100
AcDbEntity
  8
0
100
AcDbLine
 62
7
  6
CONTINUOUS
 10
58.0707196404
 20
135.3653134978
 11
60.0505941893
 21
135.3653182568
  0
LINE
  5
351
100
AcDbEntity
  8
0
100
AcDbLine
 62
7
  6
CONTINUOUS
 10
106.5201805153
 20
123.1660608778
 11
111.3866810455
 21
120.5054250749
  0
LINE
  5
352
100
AcDbEntity
  8
0
100
AcDbLine
 62
7
  6
CONTINUOUS
 10
94.0043383802
 20
130.3919222328
 11
98.8708389104
 21
127.7312864299
  0
LINE
  5
353
100
AcDbEntity
  8
0
100
AcDbLine
 62
7
  6
CONTINUOUS
 10
81.488496245
 20
137.6177835878
 11
86.3549967753
 21
134.9571477849
  0
LINE
  5
354
100
AcDbEntity
  8
0
100
AcDbLine
 62
7
  6
CONTINUOUS
 10
68.9726541099
 20
144.8436449428
 11
73.8391546402
 21
142.1830091399
  0
LINE
  5
355
100
AcDbEntity
  8
0
100
AcDbLine
 62
7
  6
CONTINUOUS
 10
63.1618201648
 20
144.8365506728
 11
69.808639362
 21
140.9990946349
  0
LINE
  5
356
100
AcDbEntity
  8
0
100
AcDbLine
 62
7
  6
CONTINUOUS
 10
75.6776622999
 20
137.6106893178
 11
82.3244814971
 21
133.7732332799
  0
LINE
  5
357
100
AcDbEntity
  8
0
100
AcDbLine
 62
7
  6
CONTINUOUS
 10
88.193504435
 20
130.3848279628
 11
94.8403236322
 21
126.5473719249
  0
LINE
  5
358
100
AcDbEntity
  8
0
100
AcDbLine
 62
7
  6
CONTINUOUS
 10
100.7093465701
 20
123.1589666078
 11
107.3561657673
 21
119.3215105699
  0
LINE
  5
359
100
AcDbEntity
  8
0
100
AcDbLine
 62
7
  6
CONTINUOUS
 10
63.1618201648
 20
145.6530530899
 11
70.5157613064
 21
141.4073492429
  0
LINE
  5
35A
100
AcDbEntity
  8
0
100
AcDbLine
 62
7
  6
CONTINUOUS
 10
75.6776622999
 20
138.4271917349
 11
83.0316034415
 21
134.1814878879
  0
LINE
  5
35B
100
AcDbEntity
  8
0
100
AcDbLine
 62
7
  6
CONTINUOUS
 10
88.193504435
 20
131.2013303799
 11
95.5474455766
 21
126.9556265329
  0
LINE
  5
35C
100
AcDbEntity
  8
0
100
AcDbLine
 62
7
  6
CONTINUOUS
 10
100.7093465701
 20
123.9754690249
 11
108.0632877117
 21
119.7297651779
  0
LINE
  5
35D
100
AcDbEntity
  8
0
100
AcDbLine
 62
7
  6
CONTINUOUS
 10
109.3360799178
 20
119.7297682373
 11
100.709341271
 21
124.7103054424
  0
LINE
  5
35E
100
AcDbEntity
  8
0
100
AcDbLine
 62
7
  6
CONTINUOUS
 10
96.8202377827
 20
126.9556295923
 11
88.1934991359
 21
131.9361667975
  0
LINE
  5
35F
100
AcDbEntity
  8
0
100
AcDbLine
 62
7
  6
CONTINUOUS
 10
84.3043956476
 20
134.1814909473
 11
75.6776570008
 21
139.1620281525
  0
LINE
  5
360
100
AcDbEntity
  8
0
100
AcDbLine
 62
7
  6
CONTINUOUS
 10
71.7885535125
 20
141.4073523023
 11
63.1618148657
 21
146.3878895075
  0
LINE
  5
361
100
AcDbEntity
  8
0
100
AcDbLine
 62
7
  6
CONTINUOUS
 10
65.2124159936
 20
147.1635463451
 11
68.9726541099
 21
144.8436449428
  0
LINE
  5
362
100
AcDbEntity
  8
0
100
AcDbLine
 62
7
  6
CONTINUOUS
 10
77.7282581287
 20
139.9376849901
 11
81.488496245
 21
137.6177835878
  0
LINE
  5
363
100
AcDbEntity
  8
0
100
AcDbLine
 62
7
  6
CONTINUOUS
 10
90.2441002638
 20
132.7118236351
 11
94.0043383802
 21
130.3919222328
  0
LINE
  5
364
100
AcDbEntity
  8
0
100
AcDbLine
 62
7
  6
CONTINUOUS
 10
102.7599423989
 20
125.4859622801
 11
106.5201805153
 21
123.1660608778
  0
LINE
  5
365
100
AcDbEntity
  8
0
100
AcDbLine
 62
7
  6
CONTINUOUS
 10
114.3918885457
 20
101.2155736369
 11
114.3918885457
 21
71.8214866202
  0
LINE
  5
366
100
AcDbEntity
  8
0
100
AcDbLine
 62
7
  6
CONTINUOUS
 10
114.8868459231
 20
72.7604515734
 11
114.8868459231
 21
74.3934187731
  0
LINE
  5
367
100
AcDbEntity
  8
0
100
AcDbLine
 62
7
  6
CONTINUOUS
 10
115.3818097773
 20
74.0380727778
 11
115.3818097773
 21
75.74061656
  0
LINE
  5
368
100
AcDbEntity
  8
0
100
AcDbLine
 62
7
  6
CONTINUOUS
 10
115.4525443015
 20
72.433852851
 11
115.4525443015
 21
70.3925968082
  0
LINE
  5
369
100
AcDbEntity
  8
0
100
AcDbLine
 62
7
  6
CONTINUOUS
 10
117.0081727434
 20
71.2907339467
 11
117.0081727434
 21
72.4664974274
  0
LINE
  5
36A
100
AcDbEntity
  8
0
100
AcDbLine
 62
7
  6
CONTINUOUS
 10
118.2809596504
 20
114.320398631
 11
118.2809596504
 21
110.0745860619
  0
LINE
  5
36B
100
AcDbEntity
  8
0
100
AcDbLine
 62
7
  6
CONTINUOUS
 10
118.2809596504
 20
72.4663214284
 11
118.2809596504
 21
56.1037762896
  0
LINE
  5
36C
100
AcDbEntity
  8
0
100
AcDbLine
 62
7
  6
CONTINUOUS
 10
118.2809596504
 20
110.0745860619
 11
116.9842726337
 21
100.8343227944
  0
LINE
  5
36D
100
AcDbEntity
  8
0
100
AcDbLine
 62
7
  6
CONTINUOUS
 10
79.2128102306
 20
41.9183781304
 11
78.6471271608
 21
41.5917828073
  0
LINE
  5
36E
100
AcDbEntity
  8
0
100
AcDbLine
 62
7
  6
CONTINUOUS
 10
108.0046315655
 20
125.0030671841
 11
104.8812539106
 21
126.7106947417
  0
LINE
  5
36F
100
AcDbEntity
  8
0
100
AcDbLine
 62
7
  6
CONTINUOUS
 10
95.4887894304
 20
132.2289285391
 11
92.3654117755
 21
133.9365560967
  0
LINE
  5
370
100
AcDbEntity
  8
0
100
AcDbLine
 62
7
  6
CONTINUOUS
 10
82.9729472953
 20
139.4547898941
 11
79.8495696404
 21
141.1624174517
  0
LINE
  5
371
100
AcDbEntity
  8
0
100
AcDbLine
 62
7
  6
CONTINUOUS
 10
70.4571051602
 20
146.6806512491
 11
67.3337275052
 21
148.3882788067
  0
LINE
  5
372
100
AcDbEntity
  8
0
100
AcDbLine
 62
7
  6
CONTINUOUS
 10
117.0715292472
 20
121.5422112763
 11
112.0864056849
 21
124.4203085957
  0
LINE
  5
373
100
AcDbEntity
  8
0
100
AcDbLine
 62
7
  6
CONTINUOUS
 10
109.5408106744
 20
125.889975312
 11
99.5705635498
 21
131.6461699507
  0
LINE
  5
374
100
AcDbEntity
  8
0
100
AcDbLine
 62
7
  6
CONTINUOUS
 10
97.0249685393
 20
133.115836667
 11
87.0547214147
 21
138.8720313057
  0
LINE
  5
375
100
AcDbEntity
  8
0
100
AcDbLine
 62
7
  6
CONTINUOUS
 10
84.5091264042
 20
140.341698022
 11
74.5388792796
 21
146.0978926607
  0
LINE
  5
376
100
AcDbEntity
  8
0
100
AcDbLine
 62
7
  6
CONTINUOUS
 10
71.9932842691
 20
147.567559377
 11
67.0081607068
 21
150.4456566964
  0
LINE
  5
377
100
AcDbEntity
  8
0
100
AcDbLine
 62
7
  6
CONTINUOUS
 10
75.9604661519
 20
143.4077416015
 11
73.0260725573
 21
145.2244785059
  0
LINE
  5
378
100
AcDbEntity
  8
0
100
AcDbLine
 62
7
  6
CONTINUOUS
 10
88.476308287
 20
136.1818802465
 11
85.5419146924
 21
137.9986171509
  0
LINE
  5
379
100
AcDbEntity
  8
0
100
AcDbLine
 62
7
  6
CONTINUOUS
 10
100.9921504221
 20
128.9560188915
 11
98.0577568275
 21
130.7727557959
  0
LINE
  5
37A
100
AcDbEntity
  8
0
100
AcDbLine
 62
7
  6
CONTINUOUS
 10
113.5079925572
 20
121.7301575365
 11
110.5735989626
 21
123.5468944409
  0
LINE
  5
37B
100
AcDbEntity
  8
0
100
AcDbLine
 62
7
  6
CONTINUOUS
 10
109.5408106744
 20
125.889975312
 11
109.7729415399
 21
124.5038636219
  0
LINE
  5
37C
100
AcDbEntity
  8
0
100
AcDbLine
 62
7
  6
CONTINUOUS
 10
117.0715292472
 20
121.5422112763
 11
118.2809596504
 21
114.320398631
  0
LINE
  5
37D
100
AcDbEntity
  8
0
100
AcDbLine
 62
7
  6
CONTINUOUS
 10
118.2809596504
 20
56.1037762896
 11
83.4207404757
 21
35.9773395038
  0
ARC
  5
37E
100
AcDbEntity
  8
0
100
AcDbCircle
 62
7
  6
CONTINUOUS
 10
71.2078742382
 20
44.2834356208
 40
6.4351307064
100
AcDbArc
 50
145.9490430745
 51
147.7250662422
  0
ARC
  5
37F
100
AcDbEntity
  8
0
100
AcDbCircle
 62
7
  6
CONTINUOUS
 10
21.7101934779
 20
72.8602884373
 40
6.4351307064
100
AcDbArc
 50
145.9490430745
 51
147.7250662422
  0
ARC
  5
380
100
AcDbEntity
  8
0
100
AcDbCircle
 62
7
  6
CONTINUOUS
 10
19.1173009448
 20
75.7458989453
 40
3.959847406
100
AcDbArc
 50
228.0276000024
 51
236.5053802886
  0
ARC
  5
381
100
AcDbEntity
  8
0
100
AcDbCircle
 62
7
  6
CONTINUOUS
 10
17.5402760602
 20
77.6929773412
 40
3.6220422262
100
AcDbArc
 50
17.6830028836
 51
22.4316177286
  0
ARC
  5
382
100
AcDbEntity
  8
0
100
AcDbCircle
 62
7
  6
CONTINUOUS
 10
30.0561181953
 20
70.4671159862
 40
3.6220422262
100
AcDbArc
 50
17.6830028836
 51
22.4316177286
  0
ARC
  5
383
100
AcDbEntity
  8
0
100
AcDbCircle
 62
7
  6
CONTINUOUS
 10
42.5719603304
 20
63.2412546312
 40
3.6220422262
100
AcDbArc
 50
17.6830028836
 51
22.4316177286
  0
ARC
  5
384
100
AcDbEntity
  8
0
100
AcDbCircle
 62
7
  6
CONTINUOUS
 10
55.0878024655
 20
56.0153932762
 40
3.6220422262
100
AcDbArc
 50
17.6830028836
 51
22.4316177286
  0
ARC
  5
385
100
AcDbEntity
  8
0
100
AcDbCircle
 62
7
  6
CONTINUOUS
 10
37.0505577141
 20
100.1407442845
 40
3.3798354823
100
AcDbArc
 50
149.942054521
 51
158.7315729341
  0
ARC
  5
386
100
AcDbEntity
  8
0
100
AcDbCircle
 62
7
  6
CONTINUOUS
 10
49.5663998494
 20
92.9148829294
 40
3.3798354825
100
AcDbArc
 50
149.9420544996
 51
158.731572934
  0
ARC
  5
387
100
AcDbEntity
  8
0
100
AcDbCircle
 62
7
  6
CONTINUOUS
 10
62.082241984
 20
85.6890215746
 40
3.379835482
100
AcDbArc
 50
149.9420545475
 51
158.7315729343
  0
ARC
  5
388
100
AcDbEntity
  8
0
100
AcDbCircle
 62
7
  6
CONTINUOUS
 10
46.7077675337
 20
62.3815933027
 40
1.9981149321
100
AcDbArc
 50
59.5286631094
 51
59.9934751814
  0
ARC
  5
389
100
AcDbEntity
  8
0
100
AcDbCircle
 62
7
  6
CONTINUOUS
 10
34.1919253997
 20
69.6074546596
 40
1.9981149299
100
AcDbArc
 50
59.5286631091
 51
59.9934751817
  0
ARC
  5
38A
100
AcDbEntity
  8
0
100
AcDbCircle
 62
7
  6
CONTINUOUS
 10
59.2236096702
 20
55.1557319501
 40
1.9981149293
100
AcDbArc
 50
59.5286631089
 51
59.9934751817
  0
ARC
  5
38B
100
AcDbEntity
  8
0
100
AcDbCircle
 62
7
  6
CONTINUOUS
 10
21.6760832651
 20
76.8333160154
 40
1.998114929
100
AcDbArc
 50
59.528663109
 51
59.9934751818
  0
ARC
  5
38C
100
AcDbEntity
  8
0
100
AcDbCircle
 62
7
  6
CONTINUOUS
 10
42.4617568841
 20
62.4437886689
 40
1.2002117841
100
AcDbArc
 50
60.0014000053
 51
61.1758786565
  0
ARC
  5
38D
100
AcDbEntity
  8
0
100
AcDbCircle
 62
7
  6
CONTINUOUS
 10
41.6574720014
 20
61.5512034912
 40
1.198457103
100
AcDbArc
 50
214.2329644764
 51
223.3677384336
  0
ARC
  5
38E
100
AcDbEntity
  8
0
100
AcDbCircle
 62
7
  6
CONTINUOUS
 10
42.4643925882
 20
62.4483887712
 40
1.1949101263
100
AcDbArc
 50
57.6396019364
 51
60.0005687979
  0
ARC
  5
38F
100
AcDbEntity
  8
0
100
AcDbCircle
 62
7
  6
CONTINUOUS
 10
17.569207235
 20
74.7199861241
 40
1.1926118606
100
AcDbArc
 50
215.9222122448
 51
224.0632770411
  0
ARC
  5
390
100
AcDbEntity
  8
0
100
AcDbCircle
 62
7
  6
CONTINUOUS
 10
41.5830671353
 20
61.9185117826
 40
0.822296475
100
AcDbArc
 50
240.0565720299
 51
247.7965545417
  0
ARC
  5
391
100
AcDbEntity
  8
0
100
AcDbCircle
 62
7
  6
CONTINUOUS
 10
18.3931132291
 20
71.9977912102
 40
0.6898940562
100
AcDbArc
 50
227.9861225707
 51
239.9800370411
  0
SPLINE
  5
392
100
AcDbEntity
  8
0
100
AcDbSpline
 62
7
  6
CONTINUOUS
 70
0
 71
3
 72
15
 73
11
 74
0
 42
0.0000001
 43
0.0000001
 44
0.0000000001
 40
0.0
 40
0.0
 40
0.0
 40
0.0
 40
0.1146295927
 40
0.2349206653
 40
0.3596906811
 40
0.4875742636
 40
0.6170873098
 40
0.7466851977
 40
0.8748222205
 40
1.0
 40
1.0
 40
1.0
 40
1.0
 10
79.0826307716
 20
43.9692502418
 30
0.0
 10
78.9662641042
 20
44.050886777
 30
0.0
 10
78.736651144
 20
44.2310956866
 30
0.0
 10
78.4126863522
 20
44.5384870959
 30
0.0
 10
78.1054554096
 20
44.8848898936
 30
0.0
 10
77.8204428617
 20
45.2641329476
 30
0.0
 10
77.5626880832
 20
45.6694967804
 30
0.0
 10
77.3367656236
 20
46.0937918875
 30
0.0
 10
77.146709265
 20
46.5294366083
 30
0.0
 10
77.0445573922
 20
46.82694261
 30
0.0
 10
77.0005788133
 20
46.9758095174
 30
0.0
  0
SPLINE
  5
393
100
AcDbEntity
  8
0
100
AcDbSpline
 62
7
  6
CONTINUOUS
 70
0
 71
3
 72
15
 73
11
 74
0
 42
0.0000001
 43
0.0000001
 44
0.0000000001
 40
0.0
 40
0.0
 40
0.0
 40
0.0
 40
0.1161909264
 40
0.2389910484
 40
0.3665720293
 40
0.4968288494
 40
0.6275105587
 40
0.7563456548
 40
0.8811547941
 40
1.0
 40
1.0
 40
1.0
 40
1.0
 10
41.5351043663
 20
120.0258952876
 30
0.0
 10
41.3938622514
 20
120.1249830861
 30
0.0
 10
41.1164174504
 20
120.3478535878
 30
0.0
 10
40.7316449548
 20
120.734186154
 30
0.0
 10
40.3745384051
 20
121.1734812624
 30
0.0
 10
40.0543491702
 20
121.6543995699
 30
0.0
 10
39.779279359
 20
122.1645830203
 30
0.0
 10
39.5564177372
 20
122.6909263835
 30
0.0
 10
39.3914919705
 20
123.2198091285
 30
0.0
 10
39.3209303559
 20
123.5756102925
 30
0.0
 10
39.2973243686
 20
123.7504989819
 30
0.0
  0
SPLINE
  5
394
100
AcDbEntity
  8
0
100
AcDbSpline
 62
7
  6
CONTINUOUS
 70
0
 71
3
 72
15
 73
11
 74
0
 42
0.0000001
 43
0.0000001
 44
0.0000000001
 40
0.0
 40
0.0
 40
0.0
 40
0.0
 40
0.1161909264
 40
0.2389910484
 40
0.3665720293
 40
0.4968288494
 40
0.6275105587
 40
0.7563456548
 40
0.8811547941
 40
1.0
 40
1.0
 40
1.0
 40
1.0
 10
54.0509465014
 20
112.8000339326
 30
0.0
 10
53.9097043865
 20
112.8991217311
 30
0.0
 10
53.6322595855
 20
113.1219922328
 30
0.0
 10
53.2474870899
 20
113.508324799
 30
0.0
 10
52.8903805402
 20
113.9476199074
 30
0.0
 10
52.5701913053
 20
114.4285382149
 30
0.0
 10
52.2951214941
 20
114.9387216653
 30
0.0
 10
52.0722598723
 20
115.4650650285
 30
0.0
 10
51.9073341056
 20
115.9939477735
 30
0.0
 10
51.836772491
 20
116.3497489374
 30
0.0
 10
51.8131665037
 20
116.5246376269
 30
0.0
  0
SPLINE
  5
395
100
AcDbEntity
  8
0
100
AcDbSpline
 62
7
  6
CONTINUOUS
 70
0
 71
3
 72
15
 73
11
 74
0
 42
0.0000001
 43
0.0000001
 44
0.0000000001
 40
0.0
 40
0.0
 40
0.0
 40
0.0
 40
0.1161909264
 40
0.2389910484
 40
0.3665720293
 40
0.4968288494
 40
0.6275105587
 40
0.7563456548
 40
0.8811547941
 40
1.0
 40
1.0
 40
1.0
 40
1.0
 10
66.5667886365
 20
105.5741725776
 30
0.0
 10
66.4255465216
 20
105.673260376
 30
0.0
 10
66.1481017206
 20
105.8961308778
 30
0.0
 10
65.763329225
 20
106.2824634439
 30
0.0
 10
65.4062226753
 20
106.7217585524
 30
0.0
 10
65.0860334404
 20
107.2026768598
 30
0.0
 10
64.8109636292
 20
107.7128603103
 30
0.0
 10
64.5881020074
 20
108.2392036735
 30
0.0
 10
64.4231762408
 20
108.7680864184
 30
0.0
 10
64.3526146261
 20
109.1238875824
 30
0.0
 10
64.3290086388
 20
109.2987762718
 30
0.0
  0
SPLINE
  5
396
100
AcDbEntity
  8
0
100
AcDbSpline
 62
7
  6
CONTINUOUS
 70
0
 71
3
 72
15
 73
11
 74
0
 42
0.0000001
 43
0.0000001
 44
0.0000000001
 40
0.0
 40
0.0
 40
0.0
 40
0.0
 40
0.1161909264
 40
0.2389910484
 40
0.3665720293
 40
0.4968288494
 40
0.6275105587
 40
0.7563456548
 40
0.8811547941
 40
1.0
 40
1.0
 40
1.0
 40
1.0
 10
79.0826307716
 20
98.3483112226
 30
0.0
 10
78.9413886567
 20
98.447399021
 30
0.0
 10
78.6639438557
 20
98.6702695228
 30
0.0
 10
78.2791713601
 20
99.0566020889
 30
0.0
 10
77.9220648104
 20
99.4958971973
 30
0.0
 10
77.6018755755
 20
99.9768155048
 30
0.0
 10
77.3268057643
 20
100.4869989553
 30
0.0
 10
77.1039441425
 20
101.0133423185
 30
0.0
 10
76.9390183759
 20
101.5422250634
 30
0.0
 10
76.8684567612
 20
101.8980262274
 30
0.0
 10
76.8448507739
 20
102.0729149168
 30
0.0
  0
SPLINE
  5
397
100
AcDbEntity
  8
0
100
AcDbSpline
 62
7
  6
CONTINUOUS
 70
0
 71
3
 72
13
 73
9
 74
0
 42
0.0000001
 43
0.0000001
 44
0.0000000001
 40
0.0
 40
0.0
 40
0.0
 40
0.0
 40
0.1037879628
 40
0.2156427566
 40
0.3349596997
 40
0.4608181357
 40
0.7264254317
 40
1.0
 40
1.0
 40
1.0
 40
1.0
 10
23.8972697291
 20
81.2192827549
 30
0.0
 10
23.9081174391
 20
81.1674758219
 30
0.0
 10
23.9221554755
 20
81.0579589392
 30
0.0
 10
23.9217997012
 20
80.8867581215
 30
0.0
 10
23.9009053317
 20
80.7055217807
 30
0.0
 10
23.8452536696
 20
80.4506784024
 30
0.0
 10
23.727438448
 20
80.1307626507
 30
0.0
 10
23.5917021691
 20
79.8901010151
 30
0.0
 10
23.5135829086
 20
79.7745025322
 30
0.0
  0
SPLINE
  5
398
100
AcDbEntity
  8
0
100
AcDbSpline
 62
7
  6
CONTINUOUS
 70
0
 71
3
 72
13
 73
9
 74
0
 42
0.0000001
 43
0.0000001
 44
0.0000000001
 40
0.0
 40
0.0
 40
0.0
 40
0.0
 40
0.1037879628
 40
0.2156427566
 40
0.3349596997
 40
0.4608181357
 40
0.7264254317
 40
1.0
 40
1.0
 40
1.0
 40
1.0
 10
36.4131118642
 20
73.9934213999
 30
0.0
 10
36.4239595742
 20
73.9416144669
 30
0.0
 10
36.4379976106
 20
73.8320975842
 30
0.0
 10
36.4376418363
 20
73.6608967665
 30
0.0
 10
36.4167474668
 20
73.4796604257
 30
0.0
 10
36.3610958047
 20
73.2248170474
 30
0.0
 10
36.2432805831
 20
72.9049012957
 30
0.0
 10
36.1075443042
 20
72.6642396601
 30
0.0
 10
36.0294250437
 20
72.5486411771
 30
0.0
  0
SPLINE
  5
399
100
AcDbEntity
  8
0
100
AcDbSpline
 62
7
  6
CONTINUOUS
 70
0
 71
3
 72
13
 73
9
 74
0
 42
0.0000001
 43
0.0000001
 44
0.0000000001
 40
0.0
 40
0.0
 40
0.0
 40
0.0
 40
0.1037879628
 40
0.2156427566
 40
0.3349596997
 40
0.4608181357
 40
0.7264254317
 40
1.0
 40
1.0
 40
1.0
 40
1.0
 10
48.9289539993
 20
66.7675600448
 30
0.0
 10
48.9398017093
 20
66.7157531119
 30
0.0
 10
48.9538397457
 20
66.6062362292
 30
0.0
 10
48.9534839714
 20
66.4350354115
 30
0.0
 10
48.9325896019
 20
66.2537990706
 30
0.0
 10
48.8769379398
 20
65.9989556924
 30
0.0
 10
48.7591227182
 20
65.6790399407
 30
0.0
 10
48.6233864394
 20
65.4383783051
 30
0.0
 10
48.5452671788
 20
65.3227798221
 30
0.0
  0
SPLINE
  5
39A
100
AcDbEntity
  8
0
100
AcDbSpline
 62
7
  6
CONTINUOUS
 70
0
 71
3
 72
13
 73
9
 74
0
 42
0.0000001
 43
0.0000001
 44
0.0000000001
 40
0.0
 40
0.0
 40
0.0
 40
0.0
 40
0.1037879628
 40
0.2156427566
 40
0.3349596997
 40
0.4608181357
 40
0.7264254317
 40
1.0
 40
1.0
 40
1.0
 40
1.0
 10
61.4447961344
 20
59.5416986898
 30
0.0
 10
61.4556438444
 20
59.4898917569
 30
0.0
 10
61.4696818808
 20
59.3803748742
 30
0.0
 10
61.4693261065
 20
59.2091740565
 30
0.0
 10
61.448431737
 20
59.0279377156
 30
0.0
 10
61.3927800749
 20
58.7730943374
 30
0.0
 10
61.2749648533
 20
58.4531785857
 30
0.0
 10
61.1392285745
 20
58.21251695
 30
0.0
 10
61.0611093139
 20
58.0969184671
 30
0.0
  0
SPLINE
  5
39B
100
AcDbEntity
  8
0
100
AcDbSpline
 62
7
  6
CONTINUOUS
 70
0
 71
3
 72
18
 73
14
 74
0
 42
0.0000001
 43
0.0000001
 44
0.0000000001
 40
0.0
 40
0.0
 40
0.0
 40
0.0
 40
0.0557611677
 40
0.1124291039
 40
0.17085085
 40
0.2315223091
 40
0.3594227196
 40
0.4943227502
 40
0.6306767414
 40
0.7623378669
 40
0.8851582556
 40
0.9434679317
 40
1.0
 40
1.0
 40
1.0
 40
1.0
 10
41.0383036169
 20
61.3035419138
 30
0.0
 10
40.9934923647
 20
61.3438784147
 30
0.0
 10
40.9122401254
 20
61.4359878159
 30
0.0
 10
40.8237412238
 20
61.59978598
 30
0.0
 10
40.7708006229
 20
61.7837686609
 30
0.0
 10
40.7491023049
 20
62.0514505962
 30
0.0
 10
40.8199565819
 20
62.4017671633
 30
0.0
 10
41.0365104262
 20
62.7824303208
 30
0.0
 10
41.3575882113
 20
63.0864944237
 30
0.0
 10
41.7432873587
 20
63.2753757018
 30
0.0
 10
42.0880518448
 20
63.3147168953
 30
0.0
 10
42.341834131
 20
63.2649560066
 30
0.0
 10
42.4569083994
 20
63.2151378678
 30
0.0
 10
42.5098446512
 20
63.1845758
 30
0.0
  0
SPLINE
  5
39C
100
AcDbEntity
  8
0
100
AcDbSpline
 62
7
  6
CONTINUOUS
 70
0
 71
3
 72
14
 73
10
 74
0
 42
0.0000001
 43
0.0000001
 44
0.0000000001
 40
0.0
 40
0.0
 40
0.0
 40
0.0
 40
0.2485951014
 40
0.3738493056
 40
0.4992085949
 40
0.6245658874
 40
0.7498479804
 40
0.8750001155
 40
1.0
 40
1.0
 40
1.0
 40
1.0
 10
15.9014223398
 20
73.4477506899
 30
0.0
 10
15.7322373161
 20
73.6968362612
 30
0.0
 10
15.5205262492
 20
74.1032360006
 30
0.0
 10
15.3394336498
 20
74.6812584396
 30
0.0
 10
15.2600750832
 20
75.1311940304
 30
0.0
 10
15.2455885358
 20
75.5880877953
 30
0.0
 10
15.3039745638
 20
76.0417184892
 30
0.0
 10
15.4412449326
 20
76.4778333582
 30
0.0
 10
15.5865410944
 20
76.7463085997
 30
0.0
 10
15.671321088
 20
76.8717519292
 30
0.0
  0
SPLINE
  5
39D
100
AcDbEntity
  8
0
100
AcDbSpline
 62
7
  6
CONTINUOUS
 70
0
 71
3
 72
14
 73
10
 74
0
 42
0.0000001
 43
0.0000001
 44
0.0000000001
 40
0.0
 40
0.0
 40
0.0
 40
0.0
 40
0.2503877003
 40
0.375784903
 40
0.500925378
 40
0.6258271293
 40
0.7505678584
 40
0.8752549736
 40
1.0
 40
1.0
 40
1.0
 40
1.0
 10
66.1439107748
 20
43.8574932899
 30
0.0
 10
66.4422590197
 20
43.8013737965
 30
0.0
 10
66.900568447
 20
43.7612056117
 30
0.0
 10
67.5070258317
 20
43.8102014476
 30
0.0
 10
67.9539485386
 20
43.9037823675
 30
0.0
 10
68.3826653251
 20
44.0594298102
 30
0.0
 10
68.7810553158
 20
44.2814163552
 30
0.0
 10
69.1339203348
 20
44.5704850871
 30
0.0
 10
69.3284632792
 20
44.8049974814
 30
0.0
 10
69.413153888
 20
44.9303085543
 30
0.0
  0
SPLINE
  5
39E
100
AcDbEntity
  8
0
100
AcDbSpline
 62
7
  6
CONTINUOUS
 70
0
 71
3
 72
9
 73
5
 74
0
 42
0.0000001
 43
0.0000001
 44
0.0000000001
 40
0.0
 40
0.0
 40
0.0
 40
0.0
 40
0.2506565821
 40
1.0
 40
1.0
 40
1.0
 40
1.0
 10
65.0159568754
 20
44.284072345
 30
0.0
 10
65.1034382562
 20
44.2335669876
 30
0.0
 10
65.4598986114
 20
44.0455859608
 30
0.0
 10
65.8471324906
 20
43.9133174727
 30
0.0
 10
66.1439107748
 20
43.8574932899
 30
0.0
  0
SPLINE
  5
39F
100
AcDbEntity
  8
0
100
AcDbSpline
 62
7
  6
CONTINUOUS
 70
0
 71
3
 72
9
 73
5
 74
0
 42
0.0000001
 43
0.0000001
 44
0.0000000001
 40
0.0
 40
0.0
 40
0.0
 40
0.0
 40
0.2511594379
 40
1.0
 40
1.0
 40
1.0
 40
1.0
 10
16.4690637063
 20
72.8018828095
 30
0.0
 10
16.4154932868
 20
72.8501120262
 30
0.0
 10
16.2076379361
 20
73.0480289192
 30
0.0
 10
16.0221772702
 20
73.2699671593
 30
0.0
 10
15.9014223398
 20
73.4477506899
 30
0.0
  0
SPLINE
  5
3A0
100
AcDbEntity
  8
0
100
AcDbSpline
 62
7
  6
CONTINUOUS
 70
0
 71
3
 72
20
 73
16
 74
0
 42
0.0000001
 43
0.0000001
 44
0.0000000001
 40
0.0
 40
0.0
 40
0.0
 40
0.0
 40
0.0564868073
 40
0.1147213062
 40
0.1751309015
 40
0.2379499917
 40
0.3694746748
 40
0.5056922196
 40
0.640455835
 40
0.7056928522
 40
0.7687027749
 40
0.8293185973
 40
0.8876919495
 40
0.944305227
 40
1.0
 40
1.0
 40
1.0
 40
1.0
 10
40.8383166275
 20
60.7113267229
 30
0.0
 10
40.91773771
 20
60.6654739769
 30
0.0
 10
41.0902956099
 20
60.5906939228
 30
0.0
 10
41.3712595299
 20
60.5357678728
 30
0.0
 10
41.6677684132
 20
60.5383251861
 30
0.0
 10
42.0755257924
 20
60.6184566384
 30
0.0
 10
42.5671464707
 20
60.8585612878
 30
0.0
 10
43.0480768301
 20
61.3141176186
 30
0.0
 10
43.3224386309
 20
61.7970357201
 30
0.0
 10
43.4388103679
 20
62.2096410979
 30
0.0
 10
43.4708338727
 20
62.5162514303
 30
0.0
 10
43.446936331
 20
62.8125698188
 30
0.0
 10
43.3674480679
 20
63.0885256727
 30
0.0
 10
43.2346924479
 20
63.3342233861
 30
0.0
 10
43.1128522688
 20
63.4724058032
 30
0.0
 10
43.0456439865
 20
63.5328957595
 30
0.0
  0
SPLINE
  5
3A1
100
AcDbEntity
  8
0
100
AcDbSpline
 62
7
  6
CONTINUOUS
 70
0
 71
3
 72
16
 73
12
 74
0
 42
0.0000001
 43
0.0000001
 44
0.0000000001
 40
0.0
 40
0.0
 40
0.0
 40
0.0
 40
0.145402137
 40
0.2872854981
 40
0.421781456
 40
0.4856941033
 40
0.5472770198
 40
0.6640607155
 40
0.775057759
 40
0.8851558542
 40
1.0
 40
1.0
 40
1.0
 40
1.0
 10
65.766999471
 20
47.719683337
 30
0.0
 10
65.7027714447
 20
47.6179918864
 30
0.0
 10
65.5650532228
 20
47.4236676349
 30
0.0
 10
65.333769892
 20
47.1615932174
 30
0.0
 10
65.1233359381
 20
46.9733113825
 30
0.0
 10
64.9483802773
 20
46.8478831828
 30
0.0
 10
64.7766281678
 20
46.7443115761
 30
0.0
 10
64.5555733078
 20
46.6481279906
 30
0.0
 10
64.2775457204
 20
46.5975986833
 30
0.0
 10
63.9972132379
 20
46.6257875858
 30
0.0
 10
63.822817352
 20
46.6986313038
 30
0.0
 10
63.7405455041
 20
46.7461299028
 30
0.0
  0
SPLINE
  5
3A2
100
AcDbEntity
  8
0
100
AcDbSpline
 62
7
  6
CONTINUOUS
 70
0
 71
3
 72
13
 73
9
 74
0
 42
0.0000001
 43
0.0000001
 44
0.0000000001
 40
0.0
 40
0.0
 40
0.0
 40
0.0
 40
0.2355722154
 40
0.3598318338
 40
0.4862173389
 40
0.7415371397
 40
0.8706271029
 40
1.0
 40
1.0
 40
1.0
 40
1.0
 10
16.5798201019
 20
74.0060549146
 30
0.0
 10
16.4345475183
 20
74.1367537636
 30
0.0
 10
16.2537889597
 20
74.3847480555
 30
0.0
 10
16.0982565093
 20
74.7577625926
 30
0.0
 10
15.9982986005
 20
75.1668623256
 30
0.0
 10
15.9995831423
 20
75.6003687795
 30
0.0
 10
16.1151800123
 20
76.0126337932
 30
0.0
 10
16.2120104029
 20
76.2058006088
 30
0.0
 10
16.2693187107
 20
76.2965361534
 30
0.0
  0
SPLINE
  5
3A3
100
AcDbEntity
  8
0
100
AcDbSpline
 62
7
  6
CONTINUOUS
 70
0
 71
3
 72
12
 73
8
 74
0
 42
0.0000001
 43
0.0000001
 44
0.0000000001
 40
0.0
 40
0.0
 40
0.0
 40
0.0
 40
0.1134738677
 40
0.2295851238
 40
0.4718979207
 40
0.7298541655
 40
1.0
 40
1.0
 40
1.0
 40
1.0
 10
16.6034131476
 20
74.0202970282
 30
0.0
 10
16.5589496065
 20
74.0816468539
 30
0.0
 10
16.4805312913
 20
74.2145883688
 30
0.0
 10
16.3712809792
 20
74.5116214736
 30
0.0
 10
16.3323617631
 20
74.9293272311
 30
0.0
 10
16.4391058076
 20
75.4389306942
 30
0.0
 10
16.6013654871
 20
75.757161665
 30
0.0
 10
16.7023698561
 20
75.9066111261
 30
0.0
  0
SPLINE
  5
3A4
100
AcDbEntity
  8
0
100
AcDbSpline
 62
7
  6
CONTINUOUS
 70
0
 71
3
 72
13
 73
9
 74
0
 42
0.0000001
 43
0.0000001
 44
0.0000000001
 40
0.0
 40
0.0
 40
0.0
 40
0.0
 40
0.2958940594
 40
0.436384044
 40
0.5679145294
 40
0.6893945926
 40
0.8009629266
 40
1.0
 40
1.0
 40
1.0
 40
1.0
 10
66.5832212985
 20
47.4784176038
 30
0.0
 10
66.4142706021
 20
47.2284324716
 30
0.0
 10
66.1457810337
 20
46.8721673441
 30
0.0
 10
65.7599201956
 20
46.4399867148
 30
0.0
 10
65.4744162241
 20
46.1577158723
 30
0.0
 10
65.190883268
 20
45.9161836118
 30
0.0
 10
64.8308900465
 20
45.6629325323
 30
0.0
 10
64.5366545687
 20
45.5256943793
 30
0.0
 10
64.3381462941
 20
45.4834277137
 30
0.0
  0
SPLINE
  5
3A5
100
AcDbEntity
  8
0
100
AcDbSpline
 62
7
  6
CONTINUOUS
 70
0
 71
3
 72
18
 73
14
 74
0
 42
0.0000001
 43
0.0000001
 44
0.0000000001
 40
0.0
 40
0.0
 40
0.0
 40
0.0
 40
0.0555173488
 40
0.1118690708
 40
0.16984968
 40
0.2299509415
 40
0.356495821
 40
0.4902167858
 40
0.6262406798
 40
0.7588081386
 40
0.8835040937
 40
0.9427071285
 40
1.0
 40
1.0
 40
1.0
 40
1.0
 10
42.6441632666
 20
63.0870104246
 30
0.0
 10
42.6872704994
 20
63.0482077834
 30
0.0
 10
42.7657197471
 20
62.960072236
 30
0.0
 10
42.8526971663
 20
62.8039293646
 30
0.0
 10
42.9069656909
 20
62.628642498
 30
0.0
 10
42.9343809969
 20
62.3731937445
 30
0.0
 10
42.8777816079
 20
62.0362529853
 30
0.0
 10
42.6852354621
 20
61.6632376139
 30
0.0
 10
42.3909591103
 20
61.3550477019
 30
0.0
 10
42.0292871695
 20
61.1478621673
 30
0.0
 10
41.6981872825
 20
61.0802031448
 30
0.0
 10
41.4456612178
 20
61.1004929784
 30
0.0
 10
41.3277326515
 20
61.1345543967
 30
0.0
 10
41.2723242059
 20
61.1571903495
 30
0.0
  0
SPLINE
  5
3A6
100
AcDbEntity
  8
0
100
AcDbSpline
 62
7
  6
CONTINUOUS
 70
0
 71
3
 72
18
 73
14
 74
0
 42
0.0000001
 43
0.0000001
 44
0.0000000001
 40
0.0
 40
0.0
 40
0.0
 40
0.0
 40
0.0565313584
 40
0.11483745
 40
0.2376485936
 40
0.3693031505
 40
0.5056575818
 40
0.6405578535
 40
0.7684617134
 40
0.8291372423
 40
0.8875631028
 40
0.9442356412
 40
1.0
 40
1.0
 40
1.0
 40
1.0
 10
41.3903093545
 20
61.0099681499
 30
0.0
 10
41.4432449597
 20
60.9794064554
 30
0.0
 10
41.5583144918
 20
60.9295890551
 30
0.0
 10
41.8120819122
 20
60.8798295722
 30
0.0
 10
42.1568252829
 20
60.9191549399
 30
0.0
 10
42.5425174998
 20
61.1080134448
 30
0.0
 10
42.8636007062
 20
61.4120627024
 30
0.0
 10
43.0801748077
 20
61.7927183319
 30
0.0
 10
43.1510506895
 20
62.1430406285
 30
0.0
 10
43.1293574475
 20
62.4107356632
 30
0.0
 10
43.0764230856
 20
62.5947346127
 30
0.0
 10
42.9879211198
 20
62.7585465694
 30
0.0
 10
42.9066635068
 20
62.8506626636
 30
0.0
 10
42.8618498548
 20
62.8910016869
 30
0.0
  0
SPLINE
  5
3A7
100
AcDbEntity
  8
0
100
AcDbSpline
 62
7
  6
CONTINUOUS
 70
0
 71
3
 72
17
 73
13
 74
0
 42
0.0000001
 43
0.0000001
 44
0.0000000001
 40
0.0
 40
0.0
 40
0.0
 40
0.0
 40
0.0562240358
 40
0.1140621912
 40
0.2355682921
 40
0.3653891706
 40
0.5002794824
 40
0.635105996
 40
0.7647569526
 40
0.8860514246
 40
0.9438349191
 40
1.0
 40
1.0
 40
1.0
 40
1.0
 10
40.6666391435
 20
60.8770004985
 30
0.0
 10
40.6185842415
 20
60.9475847319
 30
0.0
 10
40.5360387625
 20
61.1015484882
 30
0.0
 10
40.4323831592
 20
61.4460030348
 30
0.0
 10
40.4284825225
 20
61.9261546229
 30
0.0
 10
40.6122628511
 20
62.4921570978
 30
0.0
 10
40.9587276434
 20
62.9999106046
 30
0.0
 10
41.4299211951
 20
63.3943114205
 30
0.0
 10
41.9747784829
 20
63.6319649968
 30
0.0
 10
42.4524812424
 20
63.6743871471
 30
0.0
 10
42.8047384938
 20
63.6039338814
 30
0.0
 10
42.9656748043
 20
63.5364249616
 30
0.0
 10
43.0404060546
 20
63.4952987565
 30
0.0
  0
SPLINE
  5
3A8
100
AcDbEntity
  8
0
100
AcDbSpline
 62
7
  6
CONTINUOUS
 70
0
 71
3
 72
20
 73
16
 74
0
 42
0.0000001
 43
0.0000001
 44
0.0000000001
 40
0.0
 40
0.0
 40
0.0
 40
0.0
 40
0.0564868073
 40
0.1147213062
 40
0.1751309015
 40
0.2379499917
 40
0.3694746748
 40
0.5056922196
 40
0.640455835
 40
0.7056928522
 40
0.7687027749
 40
0.8293185973
 40
0.8876919495
 40
0.944305227
 40
1.0
 40
1.0
 40
1.0
 40
1.0
 10
42.844150256
 20
63.6792256154
 30
0.0
 10
42.7647291735
 20
63.7250783614
 30
0.0
 10
42.5921712736
 20
63.7998584156
 30
0.0
 10
42.3112073536
 20
63.8547844656
 30
0.0
 10
42.0146984703
 20
63.8522271522
 30
0.0
 10
41.6069410911
 20
63.7720957
 30
0.0
 10
41.1153204127
 20
63.5319910506
 30
0.0
 10
40.6343900534
 20
63.0764347197
 30
0.0
 10
40.3600282526
 20
62.5935166182
 30
0.0
 10
40.2436565156
 20
62.1809112404
 30
0.0
 10
40.2116330108
 20
61.874300908
 30
0.0
 10
40.2355305525
 20
61.5779825196
 30
0.0
 10
40.3150188156
 20
61.3020266656
 30
0.0
 10
40.4477744356
 20
61.0563289523
 30
0.0
 10
40.5696146147
 20
60.9181465352
 30
0.0
 10
40.636822897
 20
60.8576565788
 30
0.0
  0
SPLINE
  5
3A9
100
AcDbEntity
  8
0
100
AcDbSpline
 62
7
  6
CONTINUOUS
 70
0
 71
3
 72
10
 73
6
 74
0
 42
0.0000001
 43
0.0000001
 44
0.0000000001
 40
0.0
 40
0.0
 40
0.0
 40
0.0
 40
0.2937133484
 40
0.6728897429
 40
1.0
 40
1.0
 40
1.0
 40
1.0
 10
64.3381462941
 20
45.4834277137
 30
0.0
 10
64.2666849407
 20
45.4682120602
 30
0.0
 10
64.101456589
 20
45.4400469813
 30
0.0
 10
63.8512902427
 20
45.4317621246
 30
0.0
 10
63.6768399217
 20
45.469578473
 30
0.0
 10
63.6012666504
 20
45.4997433174
 30
0.0
  0
SPLINE
  5
3AA
100
AcDbEntity
  8
0
100
AcDbSpline
 62
7
  6
CONTINUOUS
 70
0
 71
3
 72
15
 73
11
 74
0
 42
0.0000001
 43
0.0000001
 44
0.0000000001
 40
0.0
 40
0.0
 40
0.0
 40
0.0
 40
0.0869252176
 40
0.1863952294
 40
0.3037887542
 40
0.4375985707
 40
0.5820955914
 40
0.7293795809
 40
0.8712014596
 40
1.0
 40
1.0
 40
1.0
 40
1.0
 10
22.7418903009
 20
82.1482155211
 30
0.0
 10
22.7069140358
 20
82.1683756765
 30
0.0
 10
22.6191027475
 20
82.1910129283
 30
0.0
 10
22.4776931189
 20
82.1626698572
 30
0.0
 10
22.3332517978
 20
82.0837623775
 30
0.0
 10
22.1947326587
 20
81.9611094314
 30
0.0
 10
22.07248079
 20
81.8045672832
 30
0.0
 10
21.9761387396
 20
81.6266264965
 30
0.0
 10
21.9137121038
 20
81.4418875961
 30
0.0
 10
21.8969384518
 20
81.3160667745
 30
0.0
 10
21.8969384518
 20
81.2562492486
 30
0.0
  0
SPLINE
  5
3AB
100
AcDbEntity
  8
0
100
AcDbSpline
 62
7
  6
CONTINUOUS
 70
0
 71
3
 72
13
 73
9
 74
0
 42
0.0000001
 43
0.0000001
 44
0.0000000001
 40
0.0
 40
0.0
 40
0.0
 40
0.0
 40
0.1142247162
 40
0.2375579183
 40
0.4999983243
 40
0.7624396433
 40
0.8857739388
 40
1.0
 40
1.0
 40
1.0
 40
1.0
 10
22.6093936097
 20
110.1151260641
 30
0.0
 10
22.512606727
 20
110.0592464649
 30
0.0
 10
22.321366715
 20
109.9251583696
 30
0.0
 10
21.9633080124
 20
109.5900961562
 30
0.0
 10
21.5851375572
 20
109.0734913356
 30
0.0
 10
21.3268324813
 20
108.4876815043
 30
0.0
 10
21.2156899229
 20
108.0100590222
 30
0.0
 10
21.1951859352
 20
107.7773939369
 30
0.0
 10
21.1951859352
 20
107.6656329221
 30
0.0
  0
SPLINE
  5
3AC
100
AcDbEntity
  8
0
100
AcDbSpline
 62
7
  6
CONTINUOUS
 70
0
 71
3
 72
11
 73
7
 74
0
 42
0.0000001
 43
0.0000001
 44
0.0000000001
 40
0.0
 40
0.0
 40
0.0
 40
0.0
 40
0.237491771
 40
0.5002292608
 40
0.7627409579
 40
1.0
 40
1.0
 40
1.0
 40
1.0
 10
28.3370165334
 20
74.7205162182
 30
0.0
 10
28.6226318654
 20
74.5556198598
 30
0.0
 10
29.252412491
 20
74.2574461173
 30
0.0
 10
30.245460894
 20
73.8883749997
 30
0.0
 10
31.2427182495
 20
73.5340451801
 30
0.0
 10
31.8791005537
 20
73.2499754162
 30
0.0
 10
32.1644290354
 20
73.0852285872
 30
0.0
  0
SPLINE
  5
3AD
100
AcDbEntity
  8
0
100
AcDbSpline
 62
7
  6
CONTINUOUS
 70
0
 71
3
 72
11
 73
7
 74
0
 42
0.0000001
 43
0.0000001
 44
0.0000000001
 40
0.0
 40
0.0
 40
0.0
 40
0.0
 40
0.2638355508
 40
0.5199971867
 40
0.7654886877
 40
1.0
 40
1.0
 40
1.0
 40
1.0
 10
31.0724198465
 20
75.7221526256
 30
0.0
 10
31.0322666988
 20
75.7453385314
 30
0.0
 10
30.9563902918
 20
75.7971332885
 30
0.0
 10
30.8604363443
 20
75.8927632233
 30
0.0
 10
30.7923685933
 20
76.004737785
 30
0.0
 10
30.7745736312
 20
76.089646998
 30
0.0
 10
30.7745736312
 20
76.1308601398
 30
0.0
  0
SPLINE
  5
3AE
100
AcDbEntity
  8
0
100
AcDbSpline
 62
7
  6
CONTINUOUS
 70
0
 71
3
 72
11
 73
7
 74
0
 42
0.0000001
 43
0.0000001
 44
0.0000000001
 40
0.0
 40
0.0
 40
0.0
 40
0.0
 40
0.217780887
 40
0.450925738
 40
0.7102608723
 40
1.0
 40
1.0
 40
1.0
 40
1.0
 10
40.8495911308
 20
118.081459802
 30
0.0
 10
40.9683540404
 20
118.1499992077
 30
0.0
 10
41.1905257017
 20
118.3368217984
 30
0.0
 10
41.4270554142
 20
118.7235377757
 30
0.0
 10
41.5675910275
 20
119.2001490865
 30
0.0
 10
41.5952049436
 20
119.5470421149
 30
0.0
 10
41.5952049436
 20
119.7294705911
 30
0.0
  0
SPLINE
  5
3AF
100
AcDbEntity
  8
0
100
AcDbSpline
 62
7
  6
CONTINUOUS
 70
0
 71
3
 72
18
 73
14
 74
0
 42
0.0000001
 43
0.0000001
 44
0.0000000001
 40
0.0
 40
0.0
 40
0.0
 40
0.0
 40
0.0428473451
 40
0.0874649479
 40
0.1352844062
 40
0.1872363199
 40
0.2437266825
 40
0.304730927
 40
0.4383630919
 40
0.5826685553
 40
0.7297891088
 40
0.8713401234
 40
1.0
 40
1.0
 40
1.0
 40
1.0
 10
41.099588727
 20
117.648448694
 30
0.0
 10
40.9985014251
 20
117.5901094252
 30
0.0
 10
40.7757110462
 20
117.497450077
 30
0.0
 10
40.4078989993
 20
117.4436310862
 30
0.0
 10
40.0129342251
 20
117.4726166282
 30
0.0
 10
39.5995968265
 20
117.5824921792
 30
0.0
 10
39.1759428469
 20
117.7696886979
 30
0.0
 10
38.5911027084
 20
118.1276141772
 30
0.0
 10
37.8944243957
 20
118.7446453169
 30
0.0
 10
37.1784511847
 20
119.6612792256
 30
0.0
 10
36.6144406164
 20
120.7036656516
 30
0.0
 10
36.2485039528
 20
121.7855730635
 30
0.0
 10
36.15046006
 20
122.5224619847
 30
0.0
 10
36.15046006
 20
122.8729244009
 30
0.0
  0
SPLINE
  5
3B0
100
AcDbEntity
  8
0
100
AcDbSpline
 62
7
  6
CONTINUOUS
 70
0
 71
3
 72
9
 73
5
 74
0
 42
0.0000001
 43
0.0000001
 44
0.0000000001
 40
0.0
 40
0.0
 40
0.0
 40
0.0
 40
0.4778694176
 40
1.0
 40
1.0
 40
1.0
 40
1.0
 10
30.344925198
 20
73.9577333286
 30
0.0
 10
30.4719840337
 20
73.7961385326
 30
0.0
 10
30.6929826074
 20
73.421480615
 30
0.0
 10
30.8261108612
 20
73.0092254186
 30
0.0
 10
30.8765808634
 20
72.7903648886
 30
0.0
  0
SPLINE
  5
3B1
100
AcDbEntity
  8
0
100
AcDbSpline
 62
7
  6
CONTINUOUS
 70
0
 71
3
 72
13
 73
9
 74
0
 42
0.0000001
 43
0.0000001
 44
0.0000000001
 40
0.0
 40
0.0
 40
0.0
 40
0.0
 40
0.0523238355
 40
0.1263755453
 40
0.2227252239
 40
0.3406726626
 40
0.6358632859
 40
1.0
 40
1.0
 40
1.0
 40
1.0
 10
20.0822030849
 20
79.9218822949
 30
0.0
 10
20.082200639
 20
79.8942180266
 30
0.0
 10
20.0992202704
 20
79.8280231748
 30
0.0
 10
20.1524657535
 20
79.7227964866
 30
0.0
 10
20.2406117675
 20
79.5977331682
 30
0.0
 10
20.4195972429
 20
79.3959398625
 30
0.0
 10
20.7346694687
 20
79.1290235281
 30
0.0
 10
21.0284769948
 20
78.9400080312
 30
0.0
 10
21.1952083094
 20
78.8437478389
 30
0.0
  0
SPLINE
  5
3B2
100
AcDbEntity
  8
0
100
AcDbSpline
 62
7
  6
CONTINUOUS
 70
0
 71
3
 72
9
 73
5
 74
0
 42
0.0000001
 43
0.0000001
 44
0.0000000001
 40
0.0
 40
0.0
 40
0.0
 40
0.0
 40
0.2550593862
 40
1.0
 40
1.0
 40
1.0
 40
1.0
 10
20.0822037695
 20
82.8171984906
 30
0.0
 10
20.0822049098
 20
82.7731551626
 30
0.0
 10
20.0840772799
 20
82.6004801765
 30
0.0
 10
20.0904005239
 20
82.4278662031
 30
0.0
 10
20.0904005239
 20
82.2992308122
 30
0.0
  0
SPLINE
  5
3B3
100
AcDbEntity
  8
0
100
AcDbSpline
 62
7
  6
CONTINUOUS
 70
0
 71
3
 72
13
 73
9
 74
0
 42
0.0000001
 43
0.0000001
 44
0.0000000001
 40
0.0
 40
0.0
 40
0.0
 40
0.0
 40
0.1203723328
 40
0.2487426158
 40
0.3811964772
 40
0.5137525978
 40
0.7683434311
 40
1.0
 40
1.0
 40
1.0
 40
1.0
 10
20.0822030822
 20
84.9646370268
 30
0.0
 10
20.0822071622
 20
85.192987048
 30
0.0
 10
20.1279751098
 20
85.6649071883
 30
0.0
 10
20.2808218385
 20
86.3723075017
 30
0.0
 10
20.4818291696
 20
87.0911967668
 30
0.0
 10
20.7636910759
 20
88.0356194343
 30
0.0
 10
21.0724299414
 20
89.1690131332
 30
0.0
 10
21.1897104607
 20
90.0903156863
 30
0.0
 10
21.1951859352
 20
90.5297412171
 30
0.0
  0
SPLINE
  5
3B4
100
AcDbEntity
  8
0
100
AcDbSpline
 62
7
  6
CONTINUOUS
 70
0
 71
3
 72
11
 73
7
 74
0
 42
0.0000001
 43
0.0000001
 44
0.0000000001
 40
0.0
 40
0.0
 40
0.0
 40
0.0
 40
0.4236423403
 40
0.7269646022
 40
0.9139677959
 40
1.0
 40
1.0
 40
1.0
 40
1.0
 10
20.0904005239
 20
82.2992308122
 30
0.0
 10
20.0904005239
 20
82.266735621
 30
0.0
 10
20.0898961563
 20
82.2109693581
 30
0.0
 10
20.0869294895
 20
82.1409073901
 30
0.0
 10
20.08431681
 20
82.0967958304
 30
0.0
 10
20.0822061416
 20
82.0759181064
 30
0.0
 10
20.0822037581
 20
82.0693190665
 30
0.0
  0
SPLINE
  5
3B5
100
AcDbEntity
  8
0
100
AcDbSpline
 62
7
  6
CONTINUOUS
 70
0
 71
3
 72
17
 73
13
 74
0
 42
0.0000001
 43
0.0000001
 44
0.0000000001
 40
0.0
 40
0.0
 40
0.0
 40
0.0
 40
0.0550371015
 40
0.1112117813
 40
0.1695852903
 40
0.2303354867
 40
0.3577081533
 40
0.490628771
 40
0.6256552915
 40
0.7586937636
 40
0.8848622352
 40
1.0
 40
1.0
 40
1.0
 40
1.0
 10
30.7745736312
 20
76.1308601398
 30
0.0
 10
30.7745736312
 20
76.1631808811
 30
0.0
 10
30.7852560672
 20
76.228908297
 30
0.0
 10
30.8299004469
 20
76.3191675205
 30
0.0
 10
30.8957395972
 20
76.3991767491
 30
0.0
 10
31.0056300536
 20
76.494137816
 30
0.0
 10
31.1701273466
 20
76.5892180603
 30
0.0
 10
31.3875649925
 20
76.6723318294
 30
0.0
 10
31.6174057037
 20
76.7266874322
 30
0.0
 10
31.8488332182
 20
76.7483974728
 30
0.0
 10
32.0692216654
 20
76.7310369695
 30
0.0
 10
32.205969516
 20
76.684282974
 30
0.0
 10
32.2645256768
 20
76.6504750635
 30
0.0
  0
SPLINE
  5
3B6
100
AcDbEntity
  8
0
100
AcDbSpline
 62
7
  6
CONTINUOUS
 70
0
 71
3
 72
12
 73
8
 74
0
 42
0.0000001
 43
0.0000001
 44
0.0000000001
 40
0.0
 40
0.0
 40
0.0
 40
0.0
 40
0.1116892651
 40
0.2303690147
 40
0.4827733111
 40
0.7442969319
 40
1.0
 40
1.0
 40
1.0
 40
1.0
 10
30.9886556285
 20
84.875606767
 30
0.0
 10
30.9855262092
 20
84.624460182
 30
0.0
 10
30.9454522852
 20
84.106496687
 30
0.0
 10
30.7437321904
 20
83.0381301334
 30
0.0
 10
30.2723501876
 20
81.6863530731
 30
0.0
 10
29.4314032746
 20
80.1656184093
 30
0.0
 10
28.7017558383
 20
79.2503050856
 30
0.0
 10
28.3016610471
 20
78.8372965696
 30
0.0
  0
SPLINE
  5
3B7
100
AcDbEntity
  8
0
100
AcDbSpline
 62
7
  6
CONTINUOUS
 70
0
 71
3
 72
11
 73
7
 74
0
 42
0.0000001
 43
0.0000001
 44
0.0000000001
 40
0.0
 40
0.0
 40
0.0
 40
0.0
 40
0.2893975675
 40
0.5491290883
 40
0.7823145228
 40
1.0
 40
1.0
 40
1.0
 40
1.0
 10
21.8969384518
 20
81.2562492486
 30
0.0
 10
21.8969384518
 20
81.2208199023
 30
0.0
 10
21.9023834791
 20
81.1533766276
 30
0.0
 10
21.929596637
 20
81.0606609083
 30
0.0
 10
21.975635672
 20
80.9854371468
 30
0.0
 10
22.0188428294
 20
80.9491332668
 30
0.0
 10
22.0419319749
 20
80.9358247915
 30
0.0
  0
SPLINE
  5
3B8
100
AcDbEntity
  8
0
100
AcDbSpline
 62
7
  6
CONTINUOUS
 70
0
 71
3
 72
9
 73
5
 74
0
 42
0.0000001
 43
0.0000001
 44
0.0000000001
 40
0.0
 40
0.0
 40
0.0
 40
0.0
 40
0.2577061349
 40
1.0
 40
1.0
 40
1.0
 40
1.0
 10
21.1085285864
 20
78.3323664897
 30
0.0
 10
21.1007199925
 20
78.3724740927
 30
0.0
 10
21.0682336652
 20
78.5276706294
 30
0.0
 10
21.0269756677
 20
78.6810542937
 30
0.0
 10
20.991182704
 20
78.7931742436
 30
0.0
  0
SPLINE
  5
3B9
100
AcDbEntity
  8
0
100
AcDbSpline
 62
7
  6
CONTINUOUS
 70
0
 71
3
 72
11
 73
7
 74
0
 42
0.0000001
 43
0.0000001
 44
0.0000000001
 40
0.0
 40
0.0
 40
0.0
 40
0.0
 40
0.2897456384
 40
0.5490780534
 40
0.7822213193
 40
1.0
 40
1.0
 40
1.0
 40
1.0
 10
36.15046006
 20
122.8729244009
 30
0.0
 10
36.15046006
 20
123.0806949955
 30
0.0
 10
36.1819081976
 20
123.4757711888
 30
0.0
 10
36.3419676448
 20
124.0185785233
 30
0.0
 10
36.61134417
 20
124.459003633
 30
0.0
 10
36.8643750252
 20
124.6717672264
 30
0.0
 10
36.9996311392
 20
124.7498259207
 30
0.0
  0
SPLINE
  5
3BA
100
AcDbEntity
  8
0
100
AcDbSpline
 62
7
  6
CONTINUOUS
 70
0
 71
3
 72
17
 73
13
 74
0
 42
0.0000001
 43
0.0000001
 44
0.0000000001
 40
0.0
 40
0.0
 40
0.0
 40
0.0
 40
0.1286928658
 40
0.2702772039
 40
0.4174332772
 40
0.5617777796
 40
0.6954481899
 40
0.8127105853
 40
0.8646767449
 40
0.9125094186
 40
0.9571395686
 40
1.0
 40
1.0
 40
1.0
 40
1.0
 10
41.5952049436
 20
119.7294705911
 30
0.0
 10
41.5952049436
 20
120.03719116
 30
0.0
 10
41.5091271628
 20
120.6841973725
 30
0.0
 10
41.1877951582
 20
121.6341753966
 30
0.0
 10
40.6927088375
 20
122.5493201492
 30
0.0
 10
40.063605586
 20
123.3545788576
 30
0.0
 10
39.3519025312
 20
123.9849163482
 30
0.0
 10
38.707699414
 20
124.337083227
 30
0.0
 10
38.2038025317
 20
124.4712218476
 30
0.0
 10
37.8569807765
 20
124.4966511383
 30
0.0
 10
37.5340223611
 20
124.4493972348
 30
0.0
 10
37.338392186
 20
124.3680411947
 30
0.0
 10
37.2496287354
 20
124.3168148128
 30
0.0
  0
SPLINE
  5
3BB
100
AcDbEntity
  8
0
100
AcDbSpline
 62
7
  6
CONTINUOUS
 70
0
 71
3
 72
9
 73
5
 74
0
 42
0.0000001
 43
0.0000001
 44
0.0000000001
 40
0.0
 40
0.0
 40
0.0
 40
0.0
 40
0.5170164673
 40
1.0
 40
1.0
 40
1.0
 40
1.0
 10
64.0903927524
 20
137.6586858403
 30
0.0
 10
64.1379258498
 20
137.724948321
 30
0.0
 10
64.2145226845
 20
137.865672775
 30
0.0
 10
64.2426199591
 20
138.0243677147
 30
0.0
 10
64.242619945
 20
138.100547969
 30
0.0
  0
SPLINE
  5
3BC
100
AcDbEntity
  8
0
100
AcDbSpline
 62
7
  6
CONTINUOUS
 70
0
 71
3
 72
11
 73
7
 74
0
 42
0.0000001
 43
0.0000001
 44
0.0000000001
 40
0.0
 40
0.0
 40
0.0
 40
0.0
 40
0.2177800231
 40
0.4509245561
 40
0.7102600928
 40
1.0
 40
1.0
 40
1.0
 40
1.0
 10
41.6652715179
 20
117.9750444932
 30
0.0
 10
41.800528801
 20
118.0531028709
 30
0.0
 10
42.0535581253
 20
118.2658712743
 30
0.0
 10
42.3229377459
 20
118.7062982232
 30
0.0
 10
42.4829940285
 20
119.2491055285
 30
0.0
 10
42.514442876
 20
119.644179196
 30
0.0
 10
42.514442876
 20
119.8519455369
 30
0.0
  0
SPLINE
  5
3BD
100
AcDbEntity
  8
0
100
AcDbSpline
 62
7
  6
CONTINUOUS
 70
0
 71
3
 72
18
 73
14
 74
0
 42
0.0000001
 43
0.0000001
 44
0.0000000001
 40
0.0
 40
0.0
 40
0.0
 40
0.0
 40
0.0428473451
 40
0.0874649479
 40
0.1352844062
 40
0.1872363199
 40
0.2437266825
 40
0.304730927
 40
0.4383630919
 40
0.5826685553
 40
0.7297891088
 40
0.8713401234
 40
1.0
 40
1.0
 40
1.0
 40
1.0
 10
36.9996311392
 20
124.7498259207
 30
0.0
 10
37.1007184411
 20
124.8081651895
 30
0.0
 10
37.32350882
 20
124.9008245377
 30
0.0
 10
37.6913208669
 20
124.9546435285
 30
0.0
 10
38.0862856411
 20
124.9256579866
 30
0.0
 10
38.4996230397
 20
124.8157824356
 30
0.0
 10
38.9232770193
 20
124.6285859168
 30
0.0
 10
39.5081171578
 20
124.2706604376
 30
0.0
 10
40.2047954705
 20
123.6536292978
 30
0.0
 10
40.9207686815
 20
122.7369953892
 30
0.0
 10
41.4847792497
 20
121.6946089631
 30
0.0
 10
41.8507159134
 20
120.6127015513
 30
0.0
 10
41.9487598062
 20
119.8758126301
 30
0.0
 10
41.9487598062
 20
119.5253502138
 30
0.0
  0
SPLINE
  5
3BE
100
AcDbEntity
  8
0
100
AcDbSpline
 62
7
  6
CONTINUOUS
 70
0
 71
3
 72
9
 73
5
 74
0
 42
0.0000001
 43
0.0000001
 44
0.0000000001
 40
0.0
 40
0.0
 40
0.0
 40
0.0
 40
0.2590845794
 40
1.0
 40
1.0
 40
1.0
 40
1.0
 10
32.1644290354
 20
73.0852285872
 30
0.0
 10
32.2049312074
 20
73.0618428937
 30
0.0
 10
32.3598715254
 20
72.9692311102
 30
0.0
 10
32.508876514
 20
72.8664365193
 30
0.0
 10
32.6139788933
 20
72.783722224
 30
0.0
  0
SPLINE
  5
3BF
100
AcDbEntity
  8
0
100
AcDbSpline
 62
7
  6
CONTINUOUS
 70
0
 71
3
 72
9
 73
5
 74
0
 42
0.0000001
 43
0.0000001
 44
0.0000000001
 40
0.0
 40
0.0
 40
0.0
 40
0.0
 40
0.2480968732
 40
1.0
 40
1.0
 40
1.0
 40
1.0
 10
33.3612997469
 20
71.8780698752
 30
0.0
 10
33.3748071634
 20
71.8510385972
 30
0.0
 10
33.4274152374
 20
71.7411722963
 30
0.0
 10
33.4727320942
 20
71.6278462778
 30
0.0
 10
33.5028939688
 20
71.5413737719
 30
0.0
  0
SPLINE
  5
3C0
100
AcDbEntity
  8
0
100
AcDbSpline
 62
7
  6
CONTINUOUS
 70
0
 71
3
 72
9
 73
5
 74
0
 42
0.0000001
 43
0.0000001
 44
0.0000000001
 40
0.0
 40
0.0
 40
0.0
 40
0.0
 40
0.2459432893
 40
1.0
 40
1.0
 40
1.0
 40
1.0
 10
33.5028939688
 20
71.5413737719
 30
0.0
 10
33.5150260687
 20
71.5065916806
 30
0.0
 10
33.5618094774
 20
71.3642860454
 30
0.0
 10
33.5986603136
 20
71.2187748631
 30
0.0
 10
33.621490706
 20
71.1081642794
 30
0.0
  0
SPLINE
  5
3C1
100
AcDbEntity
  8
0
100
AcDbSpline
 62
7
  6
CONTINUOUS
 70
0
 71
3
 72
18
 73
14
 74
0
 42
0.0000001
 43
0.0000001
 44
0.0000000001
 40
0.0
 40
0.0
 40
0.0
 40
0.0
 40
0.1286583968
 40
0.2702050131
 40
0.4173221335
 40
0.5616290576
 40
0.6952643117
 40
0.7562698317
 40
0.8127605314
 40
0.8647128568
 40
0.9125327733
 40
0.9571510445
 40
1.0
 40
1.0
 40
1.0
 40
1.0
 10
42.514442876
 20
119.8519455369
 30
0.0
 10
42.514442876
 20
120.2024039089
 30
0.0
 10
42.4164025296
 20
120.9392767642
 30
0.0
 10
42.0504806376
 20
122.0211619722
 30
0.0
 10
41.4864885645
 20
123.0635378565
 30
0.0
 10
40.7705243457
 20
123.9801839395
 30
0.0
 10
40.073834683
 20
124.5972248546
 30
0.0
 10
39.4889909061
 20
124.9551696387
 30
0.0
 10
39.0653303133
 20
125.1423647402
 30
0.0
 10
38.6519927512
 20
125.2522504989
 30
0.0
 10
38.2570230878
 20
125.2812399979
 30
0.0
 10
37.8892048684
 20
125.2274164779
 30
0.0
 10
37.666405906
 20
125.1347616714
 30
0.0
 10
37.5653144878
 20
125.0764207678
 30
0.0
  0
SPLINE
  5
3C2
100
AcDbEntity
  8
0
100
AcDbSpline
 62
7
  6
CONTINUOUS
 70
0
 71
3
 72
11
 73
7
 74
0
 42
0.0000001
 43
0.0000001
 44
0.0000000001
 40
0.0
 40
0.0
 40
0.0
 40
0.0
 40
0.2502305522
 40
0.4917491617
 40
0.7372516354
 40
1.0
 40
1.0
 40
1.0
 40
1.0
 10
21.1952082784
 20
82.9401161704
 30
0.0
 10
21.0200811622
 20
83.0412235724
 30
0.0
 10
20.6973622609
 20
83.28199721
 30
0.0
 10
20.3316322325
 20
83.7628649898
 30
0.0
 10
20.1195878726
 20
84.3392026071
 30
0.0
 10
20.0821992885
 20
84.7523028038
 30
0.0
 10
20.0822030822
 20
84.9646370268
 30
0.0
  0
SPLINE
  5
3C3
100
AcDbEntity
  8
0
100
AcDbSpline
 62
7
  6
CONTINUOUS
 70
0
 71
3
 72
11
 73
7
 74
0
 42
0.0000001
 43
0.0000001
 44
0.0000000001
 40
0.0
 40
0.0
 40
0.0
 40
0.0
 40
0.2897456384
 40
0.5490780534
 40
0.7822213193
 40
1.0
 40
1.0
 40
1.0
 40
1.0
 10
41.9487598062
 20
119.5253502138
 30
0.0
 10
41.9487598062
 20
119.3175796192
 30
0.0
 10
41.9173116685
 20
118.9225034259
 30
0.0
 10
41.7572522214
 20
118.3796960914
 30
0.0
 10
41.4878756962
 20
117.9392709817
 30
0.0
 10
41.234844841
 20
117.7265073883
 30
0.0
 10
41.099588727
 20
117.648448694
 30
0.0
  0
SPLINE
  5
3C4
100
AcDbEntity
  8
0
100
AcDbSpline
 62
7
  6
CONTINUOUS
 70
0
 71
3
 72
17
 73
13
 74
0
 42
0.0000001
 43
0.0000001
 44
0.0000000001
 40
0.0
 40
0.0
 40
0.0
 40
0.0
 40
0.1286928658
 40
0.2702772039
 40
0.4174332772
 40
0.5617777796
 40
0.6954481899
 40
0.8127105853
 40
0.8646767449
 40
0.9125094186
 40
0.9571395686
 40
1.0
 40
1.0
 40
1.0
 40
1.0
 10
36.5040149226
 20
122.6688040236
 30
0.0
 10
36.5040149226
 20
122.3610834548
 30
0.0
 10
36.5900927034
 20
121.7140772423
 30
0.0
 10
36.9114247079
 20
120.7640992182
 30
0.0
 10
37.4065110286
 20
119.8489544656
 30
0.0
 10
38.0356142801
 20
119.0436957571
 30
0.0
 10
38.747317335
 20
118.4133582666
 30
0.0
 10
39.3915204522
 20
118.0611913877
 30
0.0
 10
39.8954173344
 20
117.9270527671
 30
0.0
 10
40.2422390896
 20
117.9016234765
 30
0.0
 10
40.5651975051
 20
117.9488773799
 30
0.0
 10
40.7608276802
 20
118.0302334201
 30
0.0
 10
40.8495911308
 20
118.081459802
 30
0.0
  0
SPLINE
  5
3C5
100
AcDbEntity
  8
0
100
AcDbSpline
 62
7
  6
CONTINUOUS
 70
0
 71
3
 72
10
 73
6
 74
0
 42
0.0000001
 43
0.0000001
 44
0.0000000001
 40
0.0
 40
0.0
 40
0.0
 40
0.0
 40
0.2280013718
 40
0.4756449711
 40
1.0
 40
1.0
 40
1.0
 40
1.0
 10
70.4571051602
 20
145.1603916646
 30
0.0
 10
70.4571051602
 20
145.0439529564
 30
0.0
 10
70.4825884502
 20
144.8007010575
 30
0.0
 10
70.6176893108
 20
144.3068896981
 30
0.0
 10
70.8031278454
 20
143.9515046912
 30
0.0
 10
70.9565510614
 20
143.7320284305
 30
0.0
  0
SPLINE
  5
3C6
100
AcDbEntity
  8
0
100
AcDbSpline
 62
7
  6
CONTINUOUS
 70
0
 71
3
 72
11
 73
7
 74
0
 42
0.0000001
 43
0.0000001
 44
0.0000000001
 40
0.0
 40
0.0
 40
0.0
 40
0.0
 40
0.253919027
 40
0.499153869
 40
0.7448439518
 40
1.0
 40
1.0
 40
1.0
 40
1.0
 10
32.2645256768
 20
76.6504750635
 30
0.0
 10
32.2964166437
 20
76.6320625355
 30
0.0
 10
32.3555436391
 20
76.5888867654
 30
0.0
 10
32.4240564233
 20
76.5036267282
 30
0.0
 10
32.4660751879
 20
76.4023981045
 30
0.0
 10
32.4748184564
 20
76.3293237027
 30
0.0
 10
32.4748184564
 20
76.2923196521
 30
0.0
  0
SPLINE
  5
3C7
100
AcDbEntity
  8
0
100
AcDbSpline
 62
7
  6
CONTINUOUS
 70
0
 71
3
 72
15
 73
11
 74
0
 42
0.0000001
 43
0.0000001
 44
0.0000000001
 40
0.0
 40
0.0
 40
0.0
 40
0.0
 40
0.1115736528
 40
0.2334452179
 40
0.3615900135
 40
0.4917658654
 40
0.6214621656
 40
0.7496935693
 40
0.8760676252
 40
1.0
 40
1.0
 40
1.0
 40
1.0
 10
32.4748184564
 20
76.2923196521
 30
0.0
 10
32.4748184564
 20
76.2258765611
 30
0.0
 10
32.4447771639
 20
76.0862585827
 30
0.0
 10
32.33170345
 20
75.8993751366
 30
0.0
 10
32.162373153
 20
75.7446862502
 30
0.0
 10
31.9547235523
 20
75.6377619884
 30
0.0
 10
31.7278045182
 20
75.584003806
 30
0.0
 10
31.4971899916
 20
75.5816379476
 30
0.0
 10
31.2747053378
 20
75.6260591994
 30
0.0
 10
31.1363325669
 20
75.6852470677
 30
0.0
 10
31.0724198465
 20
75.7221526256
 30
0.0
  0
SPLINE
  5
3C8
100
AcDbEntity
  8
0
100
AcDbSpline
 62
7
  6
CONTINUOUS
 70
0
 71
3
 72
15
 73
11
 74
0
 42
0.0000001
 43
0.0000001
 44
0.0000000001
 40
0.0
 40
0.0
 40
0.0
 40
0.0
 40
0.0869252176
 40
0.1863952294
 40
0.3037887542
 40
0.4375985707
 40
0.5820955914
 40
0.7293795809
 40
0.8712014596
 40
1.0
 40
1.0
 40
1.0
 40
1.0
 10
22.0419319749
 20
80.9358247915
 30
0.0
 10
22.07690824
 20
80.9156646361
 30
0.0
 10
22.1647195283
 20
80.8930273843
 30
0.0
 10
22.3061291569
 20
80.9213704554
 30
0.0
 10
22.450570478
 20
81.0002779351
 30
0.0
 10
22.5890896171
 20
81.1229308812
 30
0.0
 10
22.7113414858
 20
81.2794730294
 30
0.0
 10
22.8076835362
 20
81.4574138161
 30
0.0
 10
22.8701101719
 20
81.6421527165
 30
0.0
 10
22.8868838239
 20
81.7679735381
 30
0.0
 10
22.8868838239
 20
81.827791064
 30
0.0
  0
SPLINE
  5
3C9
100
AcDbEntity
  8
0
100
AcDbSpline
 62
7
  6
CONTINUOUS
 70
0
 71
3
 72
13
 73
9
 74
0
 42
0.0000001
 43
0.0000001
 44
0.0000000001
 40
0.0
 40
0.0
 40
0.0
 40
0.0
 40
0.1142253587
 40
0.237559206
 40
0.5000004539
 40
0.7624414493
 40
0.885775028
 40
1.0
 40
1.0
 40
1.0
 40
1.0
 10
60.2627109185
 20
140.8765918984
 30
0.0
 10
60.1659232057
 20
140.9324710463
 30
0.0
 10
59.9541776684
 20
141.0310439559
 30
0.0
 10
59.4849736457
 20
141.1735981943
 30
0.0
 10
58.8484953146
 20
141.2427999238
 30
0.0
 10
58.2120175139
 20
141.1735953243
 30
0.0
 10
57.7428151235
 20
141.0310387353
 30
0.0
 10
57.5310707759
 20
140.9324647563
 30
0.0
 10
57.4342837937
 20
140.8765850997
 30
0.0
  0
SPLINE
  5
3CA
100
AcDbEntity
  8
0
100
AcDbSpline
 62
7
  6
CONTINUOUS
 70
0
 71
3
 72
17
 73
13
 74
0
 42
0.0000001
 43
0.0000001
 44
0.0000000001
 40
0.0
 40
0.0
 40
0.0
 40
0.0
 40
0.1156897166
 40
0.2394336956
 40
0.3682566905
 40
0.4994746104
 40
0.5654907938
 40
0.6313477931
 40
0.6967334094
 40
0.7612438637
 40
0.8852274361
 40
1.0
 40
1.0
 40
1.0
 40
1.0
 10
33.7110280703
 20
83.3038798621
 30
0.0
 10
33.7069651772
 20
82.9778188123
 30
0.0
 10
33.6426944505
 20
82.3029324146
 30
0.0
 10
33.3904893318
 20
81.2918413274
 30
0.0
 10
32.9486480651
 20
80.2972301226
 30
0.0
 10
32.3897634281
 20
79.5531846829
 30
0.0
 10
31.8252695996
 20
79.0682279791
 30
0.0
 10
31.3498244672
 20
78.7752371535
 30
0.0
 10
30.836364785
 20
78.5661174448
 30
0.0
 10
30.1352750223
 20
78.4092107189
 30
0.0
 10
29.2657957929
 20
78.4267905939
 30
0.0
 10
28.6171784173
 20
78.655136652
 30
0.0
 10
28.3370165334
 20
78.8168845319
 30
0.0
  0
SPLINE
  5
3CB
100
AcDbEntity
  8
0
100
AcDbSpline
 62
7
  6
CONTINUOUS
 70
0
 71
3
 72
11
 73
7
 74
0
 42
0.0000001
 43
0.0000001
 44
0.0000000001
 40
0.0
 40
0.0
 40
0.0
 40
0.0
 40
0.2893975675
 40
0.5491290883
 40
0.7823145228
 40
1.0
 40
1.0
 40
1.0
 40
1.0
 10
22.8868838239
 20
81.827791064
 30
0.0
 10
22.8868838239
 20
81.8632204103
 30
0.0
 10
22.8814387966
 20
81.930663685
 30
0.0
 10
22.8542256388
 20
82.0233794043
 30
0.0
 10
22.8081866037
 20
82.0986031658
 30
0.0
 10
22.7649794464
 20
82.1349070458
 30
0.0
 10
22.7418903009
 20
82.1482155211
 30
0.0
  0
SPLINE
  5
3CC
100
AcDbEntity
  8
0
100
AcDbSpline
 62
7
  6
CONTINUOUS
 70
0
 71
3
 72
9
 73
5
 74
0
 42
0.0000001
 43
0.0000001
 44
0.0000000001
 40
0.0
 40
0.0
 40
0.0
 40
0.0
 40
0.4773773815
 40
1.0
 40
1.0
 40
1.0
 40
1.0
 10
33.7110280703
 20
100.4397715671
 30
0.0
 10
33.7110280703
 20
100.5909665029
 30
0.0
 10
33.7484732838
 20
100.9079804658
 30
0.0
 10
33.8409807802
 20
101.2124463648
 30
0.0
 10
33.9009185803
 20
101.3667382546
 30
0.0
  0
SPLINE
  5
3CD
100
AcDbEntity
  8
0
100
AcDbSpline
 62
7
  6
CONTINUOUS
 70
0
 71
3
 72
9
 73
5
 74
0
 42
0.0000001
 43
0.0000001
 44
0.0000000001
 40
0.0
 40
0.0
 40
0.0
 40
0.0
 40
0.2518834874
 40
1.0
 40
1.0
 40
1.0
 40
1.0
 10
34.1252449028
 20
101.833621375
 30
0.0
 10
34.1470016163
 20
101.8713053104
 30
0.0
 10
34.2362083252
 20
102.0192571658
 30
0.0
 10
34.3364824703
 20
102.1605722843
 30
0.0
 10
34.4174117396
 20
102.2613356143
 30
0.0
  0
SPLINE
  5
3CE
100
AcDbEntity
  8
0
100
AcDbSpline
 62
7
  6
CONTINUOUS
 70
0
 71
3
 72
9
 73
5
 74
0
 42
0.0000001
 43
0.0000001
 44
0.0000000001
 40
0.0
 40
0.0
 40
0.0
 40
0.0
 40
0.5226236696
 40
1.0
 40
1.0
 40
1.0
 40
1.0
 10
34.4174117396
 20
102.2613356143
 30
0.0
 10
34.5210623192
 20
102.3903887696
 30
0.0
 10
34.7384810411
 20
102.6227343567
 30
0.0
 10
34.994298324
 20
102.8136684053
 30
0.0
 10
35.1252357448
 20
102.8892647091
 30
0.0
  0
SPLINE
  5
3CF
100
AcDbEntity
  8
0
100
AcDbSpline
 62
7
  6
CONTINUOUS
 70
0
 71
3
 72
11
 73
7
 74
0
 42
0.0000001
 43
0.0000001
 44
0.0000000001
 40
0.0
 40
0.0
 40
0.0
 40
0.0
 40
0.2177817009
 40
0.4509079353
 40
0.7102947134
 40
1.0
 40
1.0
 40
1.0
 40
1.0
 10
64.242619945
 20
138.100547969
 30
0.0
 10
64.2426199309
 20
138.1767247965
 30
0.0
 10
64.2144688204
 20
138.3355014177
 30
0.0
 10
64.0940996927
 20
138.5567280539
 30
0.0
 10
63.9038132165
 20
138.7567078554
 30
0.0
 10
63.7445964656
 20
138.8663698178
 30
0.0
 10
63.6568375992
 20
138.9170362767
 30
0.0
  0
SPLINE
  5
3D0
100
AcDbEntity
  8
0
100
AcDbSpline
 62
7
  6
CONTINUOUS
 70
0
 71
3
 72
11
 73
7
 74
0
 42
0.0000001
 43
0.0000001
 44
0.0000000001
 40
0.0
 40
0.0
 40
0.0
 40
0.0
 40
0.217780887
 40
0.450925738
 40
0.7102608723
 40
1.0
 40
1.0
 40
1.0
 40
1.0
 10
37.2496287354
 20
124.3168148128
 30
0.0
 10
37.1308658258
 20
124.248275407
 30
0.0
 10
36.9086941645
 20
124.0614528164
 30
0.0
 10
36.6721644519
 20
123.674736839
 30
0.0
 10
36.5316288386
 20
123.1981255283
 30
0.0
 10
36.5040149226
 20
122.8512324998
 30
0.0
 10
36.5040149226
 20
122.6688040236
 30
0.0
  0
SPLINE
  5
3D1
100
AcDbEntity
  8
0
100
AcDbSpline
 62
7
  6
CONTINUOUS
 70
0
 71
3
 72
12
 73
8
 74
0
 42
0.0000001
 43
0.0000001
 44
0.0000000001
 40
0.0
 40
0.0
 40
0.0
 40
0.0
 40
0.2557030333
 40
0.5172266459
 40
0.7696309528
 40
0.8883107231
 40
1.0
 40
1.0
 40
1.0
 40
1.0
 10
21.2305637956
 20
82.9197041148
 30
0.0
 10
21.6306585323
 20
83.3327125745
 30
0.0
 10
22.3603059202
 20
84.2480258103
 30
0.0
 10
23.20125283
 20
85.7687603903
 30
0.0
 10
23.6726348983
 20
87.1205374853
 30
0.0
 10
23.8743550087
 20
88.1889041342
 30
0.0
 10
23.9144289574
 20
88.7068677007
 30
0.0
 10
23.917558377
 20
88.9580143122
 30
0.0
  0
SPLINE
  5
3D2
100
AcDbEntity
  8
0
100
AcDbSpline
 62
7
  6
CONTINUOUS
 70
0
 71
3
 72
15
 73
11
 74
0
 42
0.0000001
 43
0.0000001
 44
0.0000000001
 40
0.0
 40
0.0
 40
0.0
 40
0.0
 40
0.0869252176
 40
0.1863952294
 40
0.3037887542
 40
0.4375985707
 40
0.5820955914
 40
0.7293795809
 40
0.8712014596
 40
1.0
 40
1.0
 40
1.0
 40
1.0
 10
35.257732436
 20
74.9223541661
 30
0.0
 10
35.2227561709
 20
74.9425143215
 30
0.0
 10
35.1349448826
 20
74.9651515733
 30
0.0
 10
34.993535254
 20
74.9368085022
 30
0.0
 10
34.8490939329
 20
74.8579010225
 30
0.0
 10
34.7105747938
 20
74.7352480764
 30
0.0
 10
34.5883229251
 20
74.5787059282
 30
0.0
 10
34.4919808747
 20
74.4007651415
 30
0.0
 10
34.4295542389
 20
74.2160262411
 30
0.0
 10
34.4127805869
 20
74.0902054195
 30
0.0
 10
34.4127805869
 20
74.0303878936
 30
0.0
  0
SPLINE
  5
3D3
100
AcDbEntity
  8
0
100
AcDbSpline
 62
7
  6
CONTINUOUS
 70
0
 71
3
 72
13
 73
9
 74
0
 42
0.0000001
 43
0.0000001
 44
0.0000000001
 40
0.0
 40
0.0
 40
0.0
 40
0.0
 40
0.1142247162
 40
0.2375579183
 40
0.4999983243
 40
0.7624396433
 40
0.8857739388
 40
1.0
 40
1.0
 40
1.0
 40
1.0
 10
35.1252357448
 20
102.8892647091
 30
0.0
 10
35.0284488621
 20
102.8333851099
 30
0.0
 10
34.8372088501
 20
102.6992970146
 30
0.0
 10
34.4791501475
 20
102.3642348012
 30
0.0
 10
34.1009796923
 20
101.8476299806
 30
0.0
 10
33.8426746164
 20
101.2618201493
 30
0.0
 10
33.731532058
 20
100.7841976672
 30
0.0
 10
33.7110280703
 20
100.5515325819
 30
0.0
 10
33.7110280703
 20
100.4397715671
 30
0.0
  0
SPLINE
  5
3D4
100
AcDbEntity
  8
0
100
AcDbSpline
 62
7
  6
CONTINUOUS
 70
0
 71
3
 72
11
 73
7
 74
0
 42
0.0000001
 43
0.0000001
 44
0.0000000001
 40
0.0
 40
0.0
 40
0.0
 40
0.0
 40
0.237491771
 40
0.5002292608
 40
0.7627409579
 40
1.0
 40
1.0
 40
1.0
 40
1.0
 10
40.8528586685
 20
67.4946548632
 30
0.0
 10
41.1384740005
 20
67.3297585048
 30
0.0
 10
41.7682546261
 20
67.0315847623
 30
0.0
 10
42.7613030291
 20
66.6625136447
 30
0.0
 10
43.7585603846
 20
66.3081838251
 30
0.0
 10
44.3949426888
 20
66.0241140612
 30
0.0
 10
44.6802711705
 20
65.8593672322
 30
0.0
  0
SPLINE
  5
3D5
100
AcDbEntity
  8
0
100
AcDbSpline
 62
7
  6
CONTINUOUS
 70
0
 71
3
 72
11
 73
7
 74
0
 42
0.0000001
 43
0.0000001
 44
0.0000000001
 40
0.0
 40
0.0
 40
0.0
 40
0.0
 40
0.2638355508
 40
0.5199971867
 40
0.7654886877
 40
1.0
 40
1.0
 40
1.0
 40
1.0
 10
43.5882619816
 20
68.4962912706
 30
0.0
 10
43.5481088339
 20
68.5194771764
 30
0.0
 10
43.4722324269
 20
68.5712719335
 30
0.0
 10
43.3762784794
 20
68.6669018683
 30
0.0
 10
43.3082107284
 20
68.77887643
 30
0.0
 10
43.2904157663
 20
68.863785643
 30
0.0
 10
43.2904157663
 20
68.9049987848
 30
0.0
  0
SPLINE
  5
3D6
100
AcDbEntity
  8
0
100
AcDbSpline
 62
7
  6
CONTINUOUS
 70
0
 71
3
 72
11
 73
7
 74
0
 42
0.0000001
 43
0.0000001
 44
0.0000000001
 40
0.0
 40
0.0
 40
0.0
 40
0.0
 40
0.217780887
 40
0.450925738
 40
0.7102608723
 40
1.0
 40
1.0
 40
1.0
 40
1.0
 10
53.3654332659
 20
110.855598447
 30
0.0
 10
53.4841961755
 20
110.9241378527
 30
0.0
 10
53.7063678368
 20
111.1109604434
 30
0.0
 10
53.9428975493
 20
111.4976764207
 30
0.0
 10
54.0834331627
 20
111.9742877315
 30
0.0
 10
54.1110470787
 20
112.3211807599
 30
0.0
 10
54.1110470787
 20
112.5036092361
 30
0.0
  0
SPLINE
  5
3D7
100
AcDbEntity
  8
0
100
AcDbSpline
 62
7
  6
CONTINUOUS
 70
0
 71
3
 72
18
 73
14
 74
0
 42
0.0000001
 43
0.0000001
 44
0.0000000001
 40
0.0
 40
0.0
 40
0.0
 40
0.0
 40
0.0428473451
 40
0.0874649479
 40
0.1352844062
 40
0.1872363199
 40
0.2437266825
 40
0.304730927
 40
0.4383630919
 40
0.5826685553
 40
0.7297891088
 40
0.8713401234
 40
1.0
 40
1.0
 40
1.0
 40
1.0
 10
53.6154308621
 20
110.422587339
 30
0.0
 10
53.5143435602
 20
110.3642480702
 30
0.0
 10
53.2915531813
 20
110.271588722
 30
0.0
 10
52.9237411344
 20
110.2177697312
 30
0.0
 10
52.5287763602
 20
110.2467552732
 30
0.0
 10
52.1154389616
 20
110.3566308242
 30
0.0
 10
51.691784982
 20
110.5438273429
 30
0.0
 10
51.1069448435
 20
110.9017528222
 30
0.0
 10
50.4102665308
 20
111.5187839619
 30
0.0
 10
49.6942933198
 20
112.4354178706
 30
0.0
 10
49.1302827515
 20
113.4778042966
 30
0.0
 10
48.7643460879
 20
114.5597117085
 30
0.0
 10
48.6663021951
 20
115.2966006297
 30
0.0
 10
48.6663021951
 20
115.6470630459
 30
0.0
  0
SPLINE
  5
3D8
100
AcDbEntity
  8
0
100
AcDbSpline
 62
7
  6
CONTINUOUS
 70
0
 71
3
 72
9
 73
5
 74
0
 42
0.0000001
 43
0.0000001
 44
0.0000000001
 40
0.0
 40
0.0
 40
0.0
 40
0.0
 40
0.4778694176
 40
1.0
 40
1.0
 40
1.0
 40
1.0
 10
42.8607673331
 20
66.7318719736
 30
0.0
 10
42.9878261688
 20
66.5702771775
 30
0.0
 10
43.2088247425
 20
66.1956192599
 30
0.0
 10
43.3419529963
 20
65.7833640636
 30
0.0
 10
43.3924229985
 20
65.5645035336
 30
0.0
  0
SPLINE
  5
3D9
100
AcDbEntity
  8
0
100
AcDbSpline
 62
7
  6
CONTINUOUS
 70
0
 71
3
 72
13
 73
9
 74
0
 42
0.0000001
 43
0.0000001
 44
0.0000000001
 40
0.0
 40
0.0
 40
0.0
 40
0.0
 40
0.0523238355
 40
0.1263755453
 40
0.2227252239
 40
0.3406726626
 40
0.6358632859
 40
1.0
 40
1.0
 40
1.0
 40
1.0
 10
32.59804522
 20
72.6960209399
 30
0.0
 10
32.5980427741
 20
72.6683566716
 30
0.0
 10
32.6150624055
 20
72.6021618197
 30
0.0
 10
32.6683078886
 20
72.4969351316
 30
0.0
 10
32.7564539026
 20
72.3718718132
 30
0.0
 10
32.935439378
 20
72.1700785075
 30
0.0
 10
33.2505116038
 20
71.9031621731
 30
0.0
 10
33.5443191299
 20
71.7141466762
 30
0.0
 10
33.7110504445
 20
71.6178864839
 30
0.0
  0
SPLINE
  5
3DA
100
AcDbEntity
  8
0
100
AcDbSpline
 62
7
  6
CONTINUOUS
 70
0
 71
3
 72
9
 73
5
 74
0
 42
0.0000001
 43
0.0000001
 44
0.0000000001
 40
0.0
 40
0.0
 40
0.0
 40
0.0
 40
0.2550593862
 40
1.0
 40
1.0
 40
1.0
 40
1.0
 10
32.5980459046
 20
75.5913371356
 30
0.0
 10
32.5980470449
 20
75.5472938076
 30
0.0
 10
32.599919415
 20
75.3746188215
 30
0.0
 10
32.606242659
 20
75.2020048481
 30
0.0
 10
32.606242659
 20
75.0733694572
 30
0.0
  0
SPLINE
  5
3DB
100
AcDbEntity
  8
0
100
AcDbSpline
 62
7
  6
CONTINUOUS
 70
0
 71
3
 72
13
 73
9
 74
0
 42
0.0000001
 43
0.0000001
 44
0.0000000001
 40
0.0
 40
0.0
 40
0.0
 40
0.0
 40
0.1203723328
 40
0.2487426158
 40
0.3811964772
 40
0.5137525978
 40
0.7683434311
 40
1.0
 40
1.0
 40
1.0
 40
1.0
 10
32.5980452173
 20
77.7387756718
 30
0.0
 10
32.5980492973
 20
77.967125693
 30
0.0
 10
32.6438172449
 20
78.4390458333
 30
0.0
 10
32.7966639736
 20
79.1464461466
 30
0.0
 10
32.9976713047
 20
79.8653354118
 30
0.0
 10
33.279533211
 20
80.8097580793
 30
0.0
 10
33.5882720765
 20
81.9431517781
 30
0.0
 10
33.7055525958
 20
82.8644543313
 30
0.0
 10
33.7110280703
 20
83.3038798621
 30
0.0
  0
SPLINE
  5
3DC
100
AcDbEntity
  8
0
100
AcDbSpline
 62
7
  6
CONTINUOUS
 70
0
 71
3
 72
11
 73
7
 74
0
 42
0.0000001
 43
0.0000001
 44
0.0000000001
 40
0.0
 40
0.0
 40
0.0
 40
0.0
 40
0.4236423403
 40
0.7269646022
 40
0.9139677959
 40
1.0
 40
1.0
 40
1.0
 40
1.0
 10
32.606242659
 20
75.0733694572
 30
0.0
 10
32.606242659
 20
75.040874266
 30
0.0
 10
32.6057382914
 20
74.9851080031
 30
0.0
 10
32.6027716246
 20
74.9150460351
 30
0.0
 10
32.6001589451
 20
74.8709344754
 30
0.0
 10
32.5980482767
 20
74.8500567514
 30
0.0
 10
32.5980458932
 20
74.8434577114
 30
0.0
  0
SPLINE
  5
3DD
100
AcDbEntity
  8
0
100
AcDbSpline
 62
7
  6
CONTINUOUS
 70
0
 71
3
 72
17
 73
13
 74
0
 42
0.0000001
 43
0.0000001
 44
0.0000000001
 40
0.0
 40
0.0
 40
0.0
 40
0.0
 40
0.0550371015
 40
0.1112117813
 40
0.1695852903
 40
0.2303354867
 40
0.3577081533
 40
0.490628771
 40
0.6256552915
 40
0.7586937636
 40
0.8848622352
 40
1.0
 40
1.0
 40
1.0
 40
1.0
 10
43.2904157663
 20
68.9049987848
 30
0.0
 10
43.2904157663
 20
68.9373195261
 30
0.0
 10
43.3010982023
 20
69.003046942
 30
0.0
 10
43.345742582
 20
69.0933061655
 30
0.0
 10
43.4115817323
 20
69.1733153941
 30
0.0
 10
43.5214721887
 20
69.268276461
 30
0.0
 10
43.6859694817
 20
69.3633567053
 30
0.0
 10
43.9034071276
 20
69.4464704744
 30
0.0
 10
44.1332478389
 20
69.5008260772
 30
0.0
 10
44.3646753533
 20
69.5225361178
 30
0.0
 10
44.5850638005
 20
69.5051756144
 30
0.0
 10
44.7218116511
 20
69.458421619
 30
0.0
 10
44.7803678119
 20
69.4246137085
 30
0.0
  0
SPLINE
  5
3DE
100
AcDbEntity
  8
0
100
AcDbSpline
 62
7
  6
CONTINUOUS
 70
0
 71
3
 72
12
 73
8
 74
0
 42
0.0000001
 43
0.0000001
 44
0.0000000001
 40
0.0
 40
0.0
 40
0.0
 40
0.0
 40
0.1116892651
 40
0.2303690147
 40
0.4827733111
 40
0.7442969319
 40
1.0
 40
1.0
 40
1.0
 40
1.0
 10
43.5044977636
 20
77.649745412
 30
0.0
 10
43.5013683443
 20
77.398598827
 30
0.0
 10
43.4612944203
 20
76.880635332
 30
0.0
 10
43.2595743255
 20
75.8122687784
 30
0.0
 10
42.7881923227
 20
74.4604917181
 30
0.0
 10
41.9472454097
 20
72.9397570543
 30
0.0
 10
41.2175979734
 20
72.0244437306
 30
0.0
 10
40.8175031822
 20
71.6114352146
 30
0.0
  0
SPLINE
  5
3DF
100
AcDbEntity
  8
0
100
AcDbSpline
 62
7
  6
CONTINUOUS
 70
0
 71
3
 72
11
 73
7
 74
0
 42
0.0000001
 43
0.0000001
 44
0.0000000001
 40
0.0
 40
0.0
 40
0.0
 40
0.0
 40
0.2893975675
 40
0.5491290883
 40
0.7823145228
 40
1.0
 40
1.0
 40
1.0
 40
1.0
 10
34.4127805869
 20
74.0303878936
 30
0.0
 10
34.4127805869
 20
73.9949585473
 30
0.0
 10
34.4182256142
 20
73.9275152726
 30
0.0
 10
34.4454387721
 20
73.8347995533
 30
0.0
 10
34.4914778071
 20
73.7595757918
 30
0.0
 10
34.5346849645
 20
73.7232719118
 30
0.0
 10
34.55777411
 20
73.7099634365
 30
0.0
  0
SPLINE
  5
3E0
100
AcDbEntity
  8
0
100
AcDbSpline
 62
7
  6
CONTINUOUS
 70
0
 71
3
 72
9
 73
5
 74
0
 42
0.0000001
 43
0.0000001
 44
0.0000000001
 40
0.0
 40
0.0
 40
0.0
 40
0.0
 40
0.2577061349
 40
1.0
 40
1.0
 40
1.0
 40
1.0
 10
33.6243707215
 20
71.1065051347
 30
0.0
 10
33.6165621276
 20
71.1466127377
 30
0.0
 10
33.5840758003
 20
71.3018092744
 30
0.0
 10
33.5428178028
 20
71.4551929386
 30
0.0
 10
33.5070248391
 20
71.5673128885
 30
0.0
  0
SPLINE
  5
3E1
100
AcDbEntity
  8
0
100
AcDbSpline
 62
7
  6
CONTINUOUS
 70
0
 71
3
 72
11
 73
7
 74
0
 42
0.0000001
 43
0.0000001
 44
0.0000000001
 40
0.0
 40
0.0
 40
0.0
 40
0.0
 40
0.2897456384
 40
0.5490780534
 40
0.7822213193
 40
1.0
 40
1.0
 40
1.0
 40
1.0
 10
48.6663021951
 20
115.6470630459
 30
0.0
 10
48.6663021951
 20
115.8548336405
 30
0.0
 10
48.6977503327
 20
116.2499098338
 30
0.0
 10
48.8578097799
 20
116.7927171683
 30
0.0
 10
49.1271863051
 20
117.233142278
 30
0.0
 10
49.3802171603
 20
117.4459058714
 30
0.0
 10
49.5154732743
 20
117.5239645657
 30
0.0
  0
SPLINE
  5
3E2
100
AcDbEntity
  8
0
100
AcDbSpline
 62
7
  6
CONTINUOUS
 70
0
 71
3
 72
17
 73
13
 74
0
 42
0.0000001
 43
0.0000001
 44
0.0000000001
 40
0.0
 40
0.0
 40
0.0
 40
0.0
 40
0.1286928658
 40
0.2702772039
 40
0.4174332772
 40
0.5617777796
 40
0.6954481899
 40
0.8127105853
 40
0.8646767449
 40
0.9125094186
 40
0.9571395686
 40
1.0
 40
1.0
 40
1.0
 40
1.0
 10
54.1110470787
 20
112.5036092361
 30
0.0
 10
54.1110470787
 20
112.811329805
 30
0.0
 10
54.0249692979
 20
113.4583360175
 30
0.0
 10
53.7036372933
 20
114.4083140416
 30
0.0
 10
53.2085509726
 20
115.3234587942
 30
0.0
 10
52.5794477211
 20
116.1287175026
 30
0.0
 10
51.8677446663
 20
116.7590549932
 30
0.0
 10
51.2235415491
 20
117.111221872
 30
0.0
 10
50.7196446668
 20
117.2453604926
 30
0.0
 10
50.3728229116
 20
117.2707897832
 30
0.0
 10
50.0498644962
 20
117.2235358798
 30
0.0
 10
49.8542343211
 20
117.1421798396
 30
0.0
 10
49.7654708705
 20
117.0909534578
 30
0.0
  0
SPLINE
  5
3E3
100
AcDbEntity
  8
0
100
AcDbSpline
 62
7
  6
CONTINUOUS
 70
0
 71
3
 72
9
 73
5
 74
0
 42
0.0000001
 43
0.0000001
 44
0.0000000001
 40
0.0
 40
0.0
 40
0.0
 40
0.0
 40
0.5170164673
 40
1.0
 40
1.0
 40
1.0
 40
1.0
 10
76.6062348875
 20
130.4328244853
 30
0.0
 10
76.6537679849
 20
130.499086966
 30
0.0
 10
76.7303648196
 20
130.63981142
 30
0.0
 10
76.7584620942
 20
130.7985063597
 30
0.0
 10
76.7584620801
 20
130.874686614
 30
0.0
  0
SPLINE
  5
3E4
100
AcDbEntity
  8
0
100
AcDbSpline
 62
7
  6
CONTINUOUS
 70
0
 71
3
 72
11
 73
7
 74
0
 42
0.0000001
 43
0.0000001
 44
0.0000000001
 40
0.0
 40
0.0
 40
0.0
 40
0.0
 40
0.2177800231
 40
0.4509245561
 40
0.7102600928
 40
1.0
 40
1.0
 40
1.0
 40
1.0
 10
54.181113653
 20
110.7491831381
 30
0.0
 10
54.3163709361
 20
110.8272415159
 30
0.0
 10
54.5694002604
 20
111.0400099193
 30
0.0
 10
54.838779881
 20
111.4804368682
 30
0.0
 10
54.9988361636
 20
112.0232441735
 30
0.0
 10
55.0302850111
 20
112.418317841
 30
0.0
 10
55.0302850111
 20
112.6260841819
 30
0.0
  0
SPLINE
  5
3E5
100
AcDbEntity
  8
0
100
AcDbSpline
 62
7
  6
CONTINUOUS
 70
0
 71
3
 72
18
 73
14
 74
0
 42
0.0000001
 43
0.0000001
 44
0.0000000001
 40
0.0
 40
0.0
 40
0.0
 40
0.0
 40
0.0428473451
 40
0.0874649479
 40
0.1352844062
 40
0.1872363199
 40
0.2437266825
 40
0.304730927
 40
0.4383630919
 40
0.5826685553
 40
0.7297891088
 40
0.8713401234
 40
1.0
 40
1.0
 40
1.0
 40
1.0
 10
49.5154732743
 20
117.5239645657
 30
0.0
 10
49.6165605762
 20
117.5823038345
 30
0.0
 10
49.8393509551
 20
117.6749631827
 30
0.0
 10
50.207163002
 20
117.7287821735
 30
0.0
 10
50.6021277762
 20
117.6997966315
 30
0.0
 10
51.0154651748
 20
117.5899210806
 30
0.0
 10
51.4391191544
 20
117.4027245618
 30
0.0
 10
52.0239592929
 20
117.0447990826
 30
0.0
 10
52.7206376056
 20
116.4277679428
 30
0.0
 10
53.4366108166
 20
115.5111340342
 30
0.0
 10
54.0006213848
 20
114.4687476081
 30
0.0
 10
54.3665580485
 20
113.3868401962
 30
0.0
 10
54.4646019413
 20
112.649951275
 30
0.0
 10
54.4646019413
 20
112.2994888588
 30
0.0
  0
SPLINE
  5
3E6
100
AcDbEntity
  8
0
100
AcDbSpline
 62
7
  6
CONTINUOUS
 70
0
 71
3
 72
9
 73
5
 74
0
 42
0.0000001
 43
0.0000001
 44
0.0000000001
 40
0.0
 40
0.0
 40
0.0
 40
0.0
 40
0.2590845794
 40
1.0
 40
1.0
 40
1.0
 40
1.0
 10
44.6802711705
 20
65.8593672322
 30
0.0
 10
44.7207733425
 20
65.8359815387
 30
0.0
 10
44.8757136605
 20
65.7433697552
 30
0.0
 10
45.0247186491
 20
65.6405751643
 30
0.0
 10
45.1298210284
 20
65.5578608689
 30
0.0
  0
SPLINE
  5
3E7
100
AcDbEntity
  8
0
100
AcDbSpline
 62
7
  6
CONTINUOUS
 70
0
 71
3
 72
9
 73
5
 74
0
 42
0.0000001
 43
0.0000001
 44
0.0000000001
 40
0.0
 40
0.0
 40
0.0
 40
0.0
 40
0.2480968732
 40
1.0
 40
1.0
 40
1.0
 40
1.0
 10
45.877141882
 20
64.6522085202
 30
0.0
 10
45.8906492985
 20
64.6251772422
 30
0.0
 10
45.9432573725
 20
64.5153109413
 30
0.0
 10
45.9885742293
 20
64.4019849228
 30
0.0
 10
46.0187361039
 20
64.3155124169
 30
0.0
  0
SPLINE
  5
3E8
100
AcDbEntity
  8
0
100
AcDbSpline
 62
7
  6
CONTINUOUS
 70
0
 71
3
 72
9
 73
5
 74
0
 42
0.0000001
 43
0.0000001
 44
0.0000000001
 40
0.0
 40
0.0
 40
0.0
 40
0.0
 40
0.2459432893
 40
1.0
 40
1.0
 40
1.0
 40
1.0
 10
46.0187361039
 20
64.3155124169
 30
0.0
 10
46.0308682038
 20
64.2807303256
 30
0.0
 10
46.0776516125
 20
64.1384246904
 30
0.0
 10
46.1145024487
 20
63.9929135081
 30
0.0
 10
46.1373328411
 20
63.8823029244
 30
0.0
  0
SPLINE
  5
3E9
100
AcDbEntity
  8
0
100
AcDbSpline
 62
7
  6
CONTINUOUS
 70
0
 71
3
 72
18
 73
14
 74
0
 42
0.0000001
 43
0.0000001
 44
0.0000000001
 40
0.0
 40
0.0
 40
0.0
 40
0.0
 40
0.1286583968
 40
0.2702050131
 40
0.4173221335
 40
0.5616290576
 40
0.6952643117
 40
0.7562698317
 40
0.8127605314
 40
0.8647128568
 40
0.9125327733
 40
0.9571510445
 40
1.0
 40
1.0
 40
1.0
 40
1.0
 10
55.0302850111
 20
112.6260841819
 30
0.0
 10
55.0302850111
 20
112.9765425539
 30
0.0
 10
54.9322446647
 20
113.7134154092
 30
0.0
 10
54.5663227727
 20
114.7953006172
 30
0.0
 10
54.0023306996
 20
115.8376765015
 30
0.0
 10
53.2863664808
 20
116.7543225845
 30
0.0
 10
52.5896768181
 20
117.3713634996
 30
0.0
 10
52.0048330412
 20
117.7293082837
 30
0.0
 10
51.5811724484
 20
117.9165033852
 30
0.0
 10
51.1678348863
 20
118.0263891438
 30
0.0
 10
50.7728652229
 20
118.0553786429
 30
0.0
 10
50.4050470035
 20
118.0015551229
 30
0.0
 10
50.1822480411
 20
117.9089003163
 30
0.0
 10
50.0811566229
 20
117.8505594128
 30
0.0
  0
SPLINE
  5
3EA
100
AcDbEntity
  8
0
100
AcDbSpline
 62
7
  6
CONTINUOUS
 70
0
 71
3
 72
11
 73
7
 74
0
 42
0.0000001
 43
0.0000001
 44
0.0000000001
 40
0.0
 40
0.0
 40
0.0
 40
0.0
 40
0.2502305522
 40
0.4917491617
 40
0.7372516354
 40
1.0
 40
1.0
 40
1.0
 40
1.0
 10
33.7110504135
 20
75.7142548154
 30
0.0
 10
33.5359232973
 20
75.8153622174
 30
0.0
 10
33.213204396
 20
76.056135855
 30
0.0
 10
32.8474743676
 20
76.5370036348
 30
0.0
 10
32.6354300077
 20
77.113341252
 30
0.0
 10
32.5980414236
 20
77.5264414488
 30
0.0
 10
32.5980452173
 20
77.7387756718
 30
0.0
  0
SPLINE
  5
3EB
100
AcDbEntity
  8
0
100
AcDbSpline
 62
7
  6
CONTINUOUS
 70
0
 71
3
 72
11
 73
7
 74
0
 42
0.0000001
 43
0.0000001
 44
0.0000000001
 40
0.0
 40
0.0
 40
0.0
 40
0.0
 40
0.2897456384
 40
0.5490780534
 40
0.7822213193
 40
1.0
 40
1.0
 40
1.0
 40
1.0
 10
54.4646019413
 20
112.2994888588
 30
0.0
 10
54.4646019413
 20
112.0917182642
 30
0.0
 10
54.4331538036
 20
111.6966420709
 30
0.0
 10
54.2730943565
 20
111.1538347364
 30
0.0
 10
54.0037178313
 20
110.7134096267
 30
0.0
 10
53.7506869761
 20
110.5006460333
 30
0.0
 10
53.6154308621
 20
110.422587339
 30
0.0
  0
SPLINE
  5
3EC
100
AcDbEntity
  8
0
100
AcDbSpline
 62
7
  6
CONTINUOUS
 70
0
 71
3
 72
17
 73
13
 74
0
 42
0.0000001
 43
0.0000001
 44
0.0000000001
 40
0.0
 40
0.0
 40
0.0
 40
0.0
 40
0.1286928658
 40
0.2702772039
 40
0.4174332772
 40
0.5617777796
 40
0.6954481899
 40
0.8127105853
 40
0.8646767449
 40
0.9125094186
 40
0.9571395686
 40
1.0
 40
1.0
 40
1.0
 40
1.0
 10
49.0198570577
 20
115.4429426686
 30
0.0
 10
49.0198570577
 20
115.1352220998
 30
0.0
 10
49.1059348385
 20
114.4882158872
 30
0.0
 10
49.427266843
 20
113.5382378632
 30
0.0
 10
49.9223531637
 20
112.6230931106
 30
0.0
 10
50.5514564152
 20
111.8178344021
 30
0.0
 10
51.2631594701
 20
111.1874969116
 30
0.0
 10
51.9073625873
 20
110.8353300327
 30
0.0
 10
52.4112594695
 20
110.7011914121
 30
0.0
 10
52.7580812247
 20
110.6757621215
 30
0.0
 10
53.0810396402
 20
110.7230160249
 30
0.0
 10
53.2766698153
 20
110.8043720651
 30
0.0
 10
53.3654332659
 20
110.855598447
 30
0.0
  0
SPLINE
  5
3ED
100
AcDbEntity
  8
0
100
AcDbSpline
 62
7
  6
CONTINUOUS
 70
0
 71
3
 72
10
 73
6
 74
0
 42
0.0000001
 43
0.0000001
 44
0.0000000001
 40
0.0
 40
0.0
 40
0.0
 40
0.0
 40
0.2280013718
 40
0.4756449711
 40
1.0
 40
1.0
 40
1.0
 40
1.0
 10
82.9729472953
 20
137.9345303096
 30
0.0
 10
82.9729472953
 20
137.8180916014
 30
0.0
 10
82.9984305853
 20
137.5748397025
 30
0.0
 10
83.1335314459
 20
137.0810283431
 30
0.0
 10
83.3189699805
 20
136.7256433362
 30
0.0
 10
83.4723931965
 20
136.5061670755
 30
0.0
  0
SPLINE
  5
3EE
100
AcDbEntity
  8
0
100
AcDbSpline
 62
7
  6
CONTINUOUS
 70
0
 71
3
 72
11
 73
7
 74
0
 42
0.0000001
 43
0.0000001
 44
0.0000000001
 40
0.0
 40
0.0
 40
0.0
 40
0.0
 40
0.253919027
 40
0.499153869
 40
0.7448439518
 40
1.0
 40
1.0
 40
1.0
 40
1.0
 10
44.7803678119
 20
69.4246137085
 30
0.0
 10
44.8122587788
 20
69.4062011805
 30
0.0
 10
44.8713857742
 20
69.3630254104
 30
0.0
 10
44.9398985584
 20
69.2777653732
 30
0.0
 10
44.981917323
 20
69.1765367495
 30
0.0
 10
44.9906605915
 20
69.1034623477
 30
0.0
 10
44.9906605915
 20
69.0664582971
 30
0.0
  0
SPLINE
  5
3EF
100
AcDbEntity
  8
0
100
AcDbSpline
 62
7
  6
CONTINUOUS
 70
0
 71
3
 72
15
 73
11
 74
0
 42
0.0000001
 43
0.0000001
 44
0.0000000001
 40
0.0
 40
0.0
 40
0.0
 40
0.0
 40
0.1115736528
 40
0.2334452179
 40
0.3615900135
 40
0.4917658654
 40
0.6214621656
 40
0.7496935693
 40
0.8760676252
 40
1.0
 40
1.0
 40
1.0
 40
1.0
 10
44.9906605915
 20
69.0664582971
 30
0.0
 10
44.9906605915
 20
69.0000152061
 30
0.0
 10
44.960619299
 20
68.8603972277
 30
0.0
 10
44.8475455851
 20
68.6735137816
 30
0.0
 10
44.6782152881
 20
68.5188248952
 30
0.0
 10
44.4705656874
 20
68.4119006334
 30
0.0
 10
44.2436466533
 20
68.358142451
 30
0.0
 10
44.0130321267
 20
68.3557765926
 30
0.0
 10
43.790547473
 20
68.4001978444
 30
0.0
 10
43.652174702
 20
68.4593857127
 30
0.0
 10
43.5882619816
 20
68.4962912706
 30
0.0
  0
SPLINE
  5
3F0
100
AcDbEntity
  8
0
100
AcDbSpline
 62
7
  6
CONTINUOUS
 70
0
 71
3
 72
15
 73
11
 74
0
 42
0.0000001
 43
0.0000001
 44
0.0000000001
 40
0.0
 40
0.0
 40
0.0
 40
0.0
 40
0.0869252176
 40
0.1863952294
 40
0.3037887542
 40
0.4375985707
 40
0.5820955914
 40
0.7293795809
 40
0.8712014596
 40
1.0
 40
1.0
 40
1.0
 40
1.0
 10
34.55777411
 20
73.7099634365
 30
0.0
 10
34.5927503751
 20
73.6898032811
 30
0.0
 10
34.6805616634
 20
73.6671660293
 30
0.0
 10
34.821971292
 20
73.6955091004
 30
0.0
 10
34.9664126131
 20
73.7744165801
 30
0.0
 10
35.1049317522
 20
73.8970695262
 30
0.0
 10
35.2271836209
 20
74.0536116744
 30
0.0
 10
35.3235256713
 20
74.2315524611
 30
0.0
 10
35.385952307
 20
74.4162913615
 30
0.0
 10
35.402725959
 20
74.5421121831
 30
0.0
 10
35.402725959
 20
74.601929709
 30
0.0
  0
SPLINE
  5
3F1
100
AcDbEntity
  8
0
100
AcDbSpline
 62
7
  6
CONTINUOUS
 70
0
 71
3
 72
13
 73
9
 74
0
 42
0.0000001
 43
0.0000001
 44
0.0000000001
 40
0.0
 40
0.0
 40
0.0
 40
0.0
 40
0.1142253587
 40
0.237559206
 40
0.5000004539
 40
0.7624414493
 40
0.885775028
 40
1.0
 40
1.0
 40
1.0
 40
1.0
 10
72.7785530536
 20
133.6507305434
 30
0.0
 10
72.6817653408
 20
133.7066096913
 30
0.0
 10
72.4700198035
 20
133.8051826009
 30
0.0
 10
72.0008157808
 20
133.9477368393
 30
0.0
 10
71.3643374497
 20
134.0169385688
 30
0.0
 10
70.727859649
 20
133.9477339693
 30
0.0
 10
70.2586572586
 20
133.8051773803
 30
0.0
 10
70.046912911
 20
133.7066034013
 30
0.0
 10
69.9501259288
 20
133.6507237447
 30
0.0
  0
SPLINE
  5
3F2
100
AcDbEntity
  8
0
100
AcDbSpline
 62
7
  6
CONTINUOUS
 70
0
 71
3
 72
17
 73
13
 74
0
 42
0.0000001
 43
0.0000001
 44
0.0000000001
 40
0.0
 40
0.0
 40
0.0
 40
0.0
 40
0.1156897166
 40
0.2394336956
 40
0.3682566905
 40
0.4994746104
 40
0.5654907938
 40
0.6313477931
 40
0.6967334094
 40
0.7612438637
 40
0.8852274361
 40
1.0
 40
1.0
 40
1.0
 40
1.0
 10
46.2268702054
 20
76.0780185071
 30
0.0
 10
46.2228073123
 20
75.7519574573
 30
0.0
 10
46.1585365856
 20
75.0770710596
 30
0.0
 10
45.9063314669
 20
74.0659799724
 30
0.0
 10
45.4644902002
 20
73.0713687676
 30
0.0
 10
44.9056055632
 20
72.3273233279
 30
0.0
 10
44.3411117347
 20
71.8423666241
 30
0.0
 10
43.8656666023
 20
71.5493757985
 30
0.0
 10
43.3522069201
 20
71.3402560898
 30
0.0
 10
42.6511171574
 20
71.1833493639
 30
0.0
 10
41.781637928
 20
71.2009292389
 30
0.0
 10
41.1330205524
 20
71.429275297
 30
0.0
 10
40.8528586685
 20
71.5910231769
 30
0.0
  0
SPLINE
  5
3F3
100
AcDbEntity
  8
0
100
AcDbSpline
 62
7
  6
CONTINUOUS
 70
0
 71
3
 72
11
 73
7
 74
0
 42
0.0000001
 43
0.0000001
 44
0.0000000001
 40
0.0
 40
0.0
 40
0.0
 40
0.0
 40
0.2893975675
 40
0.5491290883
 40
0.7823145228
 40
1.0
 40
1.0
 40
1.0
 40
1.0
 10
35.402725959
 20
74.601929709
 30
0.0
 10
35.402725959
 20
74.6373590553
 30
0.0
 10
35.3972809317
 20
74.70480233
 30
0.0
 10
35.3700677739
 20
74.7975180493
 30
0.0
 10
35.3240287388
 20
74.8727418108
 30
0.0
 10
35.2808215815
 20
74.9090456908
 30
0.0
 10
35.257732436
 20
74.9223541661
 30
0.0
  0
SPLINE
  5
3F4
100
AcDbEntity
  8
0
100
AcDbSpline
 62
7
  6
CONTINUOUS
 70
0
 71
3
 72
9
 73
5
 74
0
 42
0.0000001
 43
0.0000001
 44
0.0000000001
 40
0.0
 40
0.0
 40
0.0
 40
0.0
 40
0.4773773815
 40
1.0
 40
1.0
 40
1.0
 40
1.0
 10
46.2268702054
 20
93.2139102121
 30
0.0
 10
46.2268702054
 20
93.3651051479
 30
0.0
 10
46.2643154189
 20
93.6821191108
 30
0.0
 10
46.3568229153
 20
93.9865850098
 30
0.0
 10
46.4167607154
 20
94.1408768996
 30
0.0
  0
SPLINE
  5
3F5
100
AcDbEntity
  8
0
100
AcDbSpline
 62
7
  6
CONTINUOUS
 70
0
 71
3
 72
9
 73
5
 74
0
 42
0.0000001
 43
0.0000001
 44
0.0000000001
 40
0.0
 40
0.0
 40
0.0
 40
0.0
 40
0.2518834874
 40
1.0
 40
1.0
 40
1.0
 40
1.0
 10
46.6410870385
 20
94.6077600211
 30
0.0
 10
46.662843752
 20
94.6454439564
 30
0.0
 10
46.7520504607
 20
94.7933958114
 30
0.0
 10
46.8523246056
 20
94.9347109295
 30
0.0
 10
46.9332538747
 20
95.0354742593
 30
0.0
  0
SPLINE
  5
3F6
100
AcDbEntity
  8
0
100
AcDbSpline
 62
7
  6
CONTINUOUS
 70
0
 71
3
 72
9
 73
5
 74
0
 42
0.0000001
 43
0.0000001
 44
0.0000000001
 40
0.0
 40
0.0
 40
0.0
 40
0.0
 40
0.5226236696
 40
1.0
 40
1.0
 40
1.0
 40
1.0
 10
46.9332538747
 20
95.0354742593
 30
0.0
 10
47.0369044543
 20
95.1645274146
 30
0.0
 10
47.2543231762
 20
95.3968730017
 30
0.0
 10
47.5101404591
 20
95.5878070503
 30
0.0
 10
47.6410778799
 20
95.6634033541
 30
0.0
  0
SPLINE
  5
3F7
100
AcDbEntity
  8
0
100
AcDbSpline
 62
7
  6
CONTINUOUS
 70
0
 71
3
 72
11
 73
7
 74
0
 42
0.0000001
 43
0.0000001
 44
0.0000000001
 40
0.0
 40
0.0
 40
0.0
 40
0.0
 40
0.2177817009
 40
0.4509079353
 40
0.7102947134
 40
1.0
 40
1.0
 40
1.0
 40
1.0
 10
76.7584620801
 20
130.874686614
 30
0.0
 10
76.758462066
 20
130.9508634415
 30
0.0
 10
76.7303109555
 20
131.1096400627
 30
0.0
 10
76.6099418278
 20
131.3308666988
 30
0.0
 10
76.4196553516
 20
131.5308465004
 30
0.0
 10
76.2604386007
 20
131.6405084628
 30
0.0
 10
76.1726797343
 20
131.6911749217
 30
0.0
  0
SPLINE
  5
3F8
100
AcDbEntity
  8
0
100
AcDbSpline
 62
7
  6
CONTINUOUS
 70
0
 71
3
 72
11
 73
7
 74
0
 42
0.0000001
 43
0.0000001
 44
0.0000000001
 40
0.0
 40
0.0
 40
0.0
 40
0.0
 40
0.217780887
 40
0.450925738
 40
0.7102608723
 40
1.0
 40
1.0
 40
1.0
 40
1.0
 10
49.7654708705
 20
117.0909534578
 30
0.0
 10
49.6467079609
 20
117.022414052
 30
0.0
 10
49.4245362996
 20
116.8355914613
 30
0.0
 10
49.188006587
 20
116.448875484
 30
0.0
 10
49.0474709737
 20
115.9722641733
 30
0.0
 10
49.0198570577
 20
115.6253711448
 30
0.0
 10
49.0198570577
 20
115.4429426686
 30
0.0
  0
SPLINE
  5
3F9
100
AcDbEntity
  8
0
100
AcDbSpline
 62
7
  6
CONTINUOUS
 70
0
 71
3
 72
12
 73
8
 74
0
 42
0.0000001
 43
0.0000001
 44
0.0000000001
 40
0.0
 40
0.0
 40
0.0
 40
0.0
 40
0.2557030333
 40
0.5172266459
 40
0.7696309528
 40
0.8883107231
 40
1.0
 40
1.0
 40
1.0
 40
1.0
 10
33.7464059307
 20
75.6938427598
 30
0.0
 10
34.1465006674
 20
76.1068512195
 30
0.0
 10
34.8761480553
 20
77.0221644553
 30
0.0
 10
35.7170949651
 20
78.5428990352
 30
0.0
 10
36.1884770334
 20
79.8946761303
 30
0.0
 10
36.3901971438
 20
80.9630427792
 30
0.0
 10
36.4302710925
 20
81.4810063457
 30
0.0
 10
36.4334005121
 20
81.7321529572
 30
0.0
  0
SPLINE
  5
3FA
100
AcDbEntity
  8
0
100
AcDbSpline
 62
7
  6
CONTINUOUS
 70
0
 71
3
 72
15
 73
11
 74
0
 42
0.0000001
 43
0.0000001
 44
0.0000000001
 40
0.0
 40
0.0
 40
0.0
 40
0.0
 40
0.0869252176
 40
0.1863952294
 40
0.3037887542
 40
0.4375985707
 40
0.5820955914
 40
0.7293795809
 40
0.8712014596
 40
1.0
 40
1.0
 40
1.0
 40
1.0
 10
47.7735745711
 20
67.6964928111
 30
0.0
 10
47.738598306
 20
67.7166529664
 30
0.0
 10
47.6507870177
 20
67.7392902183
 30
0.0
 10
47.5093773891
 20
67.7109471472
 30
0.0
 10
47.364936068
 20
67.6320396675
 30
0.0
 10
47.2264169289
 20
67.5093867214
 30
0.0
 10
47.1041650602
 20
67.3528445732
 30
0.0
 10
47.0078230098
 20
67.1749037865
 30
0.0
 10
46.945396374
 20
66.9901648861
 30
0.0
 10
46.928622722
 20
66.8643440644
 30
0.0
 10
46.928622722
 20
66.8045265386
 30
0.0
  0
SPLINE
  5
3FB
100
AcDbEntity
  8
0
100
AcDbSpline
 62
7
  6
CONTINUOUS
 70
0
 71
3
 72
13
 73
9
 74
0
 42
0.0000001
 43
0.0000001
 44
0.0000000001
 40
0.0
 40
0.0
 40
0.0
 40
0.0
 40
0.1142247162
 40
0.2375579183
 40
0.4999983243
 40
0.7624396433
 40
0.8857739388
 40
1.0
 40
1.0
 40
1.0
 40
1.0
 10
47.6410778799
 20
95.6634033541
 30
0.0
 10
47.5442909972
 20
95.6075237549
 30
0.0
 10
47.3530509852
 20
95.4734356596
 30
0.0
 10
46.9949922826
 20
95.1383734462
 30
0.0
 10
46.6168218274
 20
94.6217686256
 30
0.0
 10
46.3585167515
 20
94.0359587943
 30
0.0
 10
46.2473741931
 20
93.5583363122
 30
0.0
 10
46.2268702054
 20
93.3256712269
 30
0.0
 10
46.2268702054
 20
93.2139102121
 30
0.0
  0
SPLINE
  5
3FC
100
AcDbEntity
  8
0
100
AcDbSpline
 62
7
  6
CONTINUOUS
 70
0
 71
3
 72
11
 73
7
 74
0
 42
0.0000001
 43
0.0000001
 44
0.0000000001
 40
0.0
 40
0.0
 40
0.0
 40
0.0
 40
0.237491771
 40
0.5002292608
 40
0.7627409579
 40
1.0
 40
1.0
 40
1.0
 40
1.0
 10
53.3687008036
 20
60.2687935082
 30
0.0
 10
53.6543161356
 20
60.1038971498
 30
0.0
 10
54.2840967612
 20
59.8057234073
 30
0.0
 10
55.2771451642
 20
59.4366522897
 30
0.0
 10
56.2744025197
 20
59.0823224701
 30
0.0
 10
56.9107848239
 20
58.7982527062
 30
0.0
 10
57.1961133056
 20
58.6335058771
 30
0.0
  0
SPLINE
  5
3FD
100
AcDbEntity
  8
0
100
AcDbSpline
 62
7
  6
CONTINUOUS
 70
0
 71
3
 72
11
 73
7
 74
0
 42
0.0000001
 43
0.0000001
 44
0.0000000001
 40
0.0
 40
0.0
 40
0.0
 40
0.0
 40
0.2638355508
 40
0.5199971867
 40
0.7654886877
 40
1.0
 40
1.0
 40
1.0
 40
1.0
 10
56.1041041167
 20
61.2704299156
 30
0.0
 10
56.063950969
 20
61.2936158214
 30
0.0
 10
55.988074562
 20
61.3454105785
 30
0.0
 10
55.8921206145
 20
61.4410405133
 30
0.0
 10
55.8240528635
 20
61.553015075
 30
0.0
 10
55.8062579014
 20
61.637924288
 30
0.0
 10
55.8062579014
 20
61.6791374298
 30
0.0
  0
SPLINE
  5
3FE
100
AcDbEntity
  8
0
100
AcDbSpline
 62
7
  6
CONTINUOUS
 70
0
 71
3
 72
11
 73
7
 74
0
 42
0.0000001
 43
0.0000001
 44
0.0000000001
 40
0.0
 40
0.0
 40
0.0
 40
0.0
 40
0.217780887
 40
0.450925738
 40
0.7102608723
 40
1.0
 40
1.0
 40
1.0
 40
1.0
 10
65.881275401
 20
103.6297370919
 30
0.0
 10
66.0000383106
 20
103.6982764977
 30
0.0
 10
66.2222099719
 20
103.8850990884
 30
0.0
 10
66.4587396844
 20
104.2718150657
 30
0.0
 10
66.5992752978
 20
104.7484263765
 30
0.0
 10
66.6268892138
 20
105.0953194049
 30
0.0
 10
66.6268892138
 20
105.2777478811
 30
0.0
  0
SPLINE
  5
3FF
100
AcDbEntity
  8
0
100
AcDbSpline
 62
7
  6
CONTINUOUS
 70
0
 71
3
 72
18
 73
14
 74
0
 42
0.0000001
 43
0.0000001
 44
0.0000000001
 40
0.0
 40
0.0
 40
0.0
 40
0.0
 40
0.0428473451
 40
0.0874649479
 40
0.1352844062
 40
0.1872363199
 40
0.2437266825
 40
0.304730927
 40
0.4383630919
 40
0.5826685553
 40
0.7297891088
 40
0.8713401234
 40
1.0
 40
1.0
 40
1.0
 40
1.0
 10
66.1312729972
 20
103.196725984
 30
0.0
 10
66.0301856953
 20
103.1383867152
 30
0.0
 10
65.8073953164
 20
103.045727367
 30
0.0
 10
65.4395832695
 20
102.9919083762
 30
0.0
 10
65.0446184953
 20
103.0208939182
 30
0.0
 10
64.6312810967
 20
103.1307694692
 30
0.0
 10
64.2076271171
 20
103.3179659879
 30
0.0
 10
63.6227869786
 20
103.6758914672
 30
0.0
 10
62.9261086659
 20
104.2929226069
 30
0.0
 10
62.2101354549
 20
105.2095565156
 30
0.0
 10
61.6461248866
 20
106.2519429416
 30
0.0
 10
61.280188223
 20
107.3338503535
 30
0.0
 10
61.1821443302
 20
108.0707392747
 30
0.0
 10
61.1821443302
 20
108.4212016909
 30
0.0
  0
SPLINE
  5
400
100
AcDbEntity
  8
0
100
AcDbSpline
 62
7
  6
CONTINUOUS
 70
0
 71
3
 72
9
 73
5
 74
0
 42
0.0000001
 43
0.0000001
 44
0.0000000001
 40
0.0
 40
0.0
 40
0.0
 40
0.0
 40
0.4778694176
 40
1.0
 40
1.0
 40
1.0
 40
1.0
 10
55.3766094682
 20
59.5060106186
 30
0.0
 10
55.5036683039
 20
59.3444158225
 30
0.0
 10
55.7246668776
 20
58.9697579049
 30
0.0
 10
55.8577951314
 20
58.5575027086
 30
0.0
 10
55.9082651336
 20
58.3386421785
 30
0.0
  0
SPLINE
  5
401
100
AcDbEntity
  8
0
100
AcDbSpline
 62
7
  6
CONTINUOUS
 70
0
 71
3
 72
13
 73
9
 74
0
 42
0.0000001
 43
0.0000001
 44
0.0000000001
 40
0.0
 40
0.0
 40
0.0
 40
0.0
 40
0.0523238355
 40
0.1263755453
 40
0.2227252239
 40
0.3406726626
 40
0.6358632859
 40
1.0
 40
1.0
 40
1.0
 40
1.0
 10
45.1138873551
 20
65.4701595849
 30
0.0
 10
45.1138849092
 20
65.4424953165
 30
0.0
 10
45.1309045406
 20
65.3763004647
 30
0.0
 10
45.1841500237
 20
65.2710737766
 30
0.0
 10
45.2722960377
 20
65.1460104582
 30
0.0
 10
45.4512815131
 20
64.9442171525
 30
0.0
 10
45.7663537389
 20
64.6773008181
 30
0.0
 10
46.060161265
 20
64.4882853212
 30
0.0
 10
46.2268925796
 20
64.3920251289
 30
0.0
  0
SPLINE
  5
402
100
AcDbEntity
  8
0
100
AcDbSpline
 62
7
  6
CONTINUOUS
 70
0
 71
3
 72
9
 73
5
 74
0
 42
0.0000001
 43
0.0000001
 44
0.0000000001
 40
0.0
 40
0.0
 40
0.0
 40
0.0
 40
0.2550593862
 40
1.0
 40
1.0
 40
1.0
 40
1.0
 10
45.1138880397
 20
68.3654757806
 30
0.0
 10
45.11388918
 20
68.3214324525
 30
0.0
 10
45.1157615501
 20
68.1487574665
 30
0.0
 10
45.1220847941
 20
67.9761434931
 30
0.0
 10
45.1220847941
 20
67.8475081022
 30
0.0
  0
SPLINE
  5
403
100
AcDbEntity
  8
0
100
AcDbSpline
 62
7
  6
CONTINUOUS
 70
0
 71
3
 72
13
 73
9
 74
0
 42
0.0000001
 43
0.0000001
 44
0.0000000001
 40
0.0
 40
0.0
 40
0.0
 40
0.0
 40
0.1203723328
 40
0.2487426158
 40
0.3811964772
 40
0.5137525978
 40
0.7683434311
 40
1.0
 40
1.0
 40
1.0
 40
1.0
 10
45.1138873524
 20
70.5129143168
 30
0.0
 10
45.1138914324
 20
70.741264338
 30
0.0
 10
45.15965938
 20
71.2131844783
 30
0.0
 10
45.3125061087
 20
71.9205847916
 30
0.0
 10
45.5135134398
 20
72.6394740568
 30
0.0
 10
45.7953753461
 20
73.5838967243
 30
0.0
 10
46.1041142116
 20
74.7172904231
 30
0.0
 10
46.2213947309
 20
75.6385929763
 30
0.0
 10
46.2268702054
 20
76.0780185071
 30
0.0
  0
SPLINE
  5
404
100
AcDbEntity
  8
0
100
AcDbSpline
 62
7
  6
CONTINUOUS
 70
0
 71
3
 72
11
 73
7
 74
0
 42
0.0000001
 43
0.0000001
 44
0.0000000001
 40
0.0
 40
0.0
 40
0.0
 40
0.0
 40
0.4236423403
 40
0.7269646022
 40
0.9139677959
 40
1.0
 40
1.0
 40
1.0
 40
1.0
 10
45.1220847941
 20
67.8475081022
 30
0.0
 10
45.1220847941
 20
67.815012911
 30
0.0
 10
45.1215804265
 20
67.7592466481
 30
0.0
 10
45.1186137597
 20
67.68918468
 30
0.0
 10
45.1160010802
 20
67.6450731203
 30
0.0
 10
45.1138904118
 20
67.6241953964
 30
0.0
 10
45.1138880283
 20
67.6175963564
 30
0.0
  0
SPLINE
  5
405
100
AcDbEntity
  8
0
100
AcDbSpline
 62
7
  6
CONTINUOUS
 70
0
 71
3
 72
17
 73
13
 74
0
 42
0.0000001
 43
0.0000001
 44
0.0000000001
 40
0.0
 40
0.0
 40
0.0
 40
0.0
 40
0.0550371015
 40
0.1112117813
 40
0.1695852903
 40
0.2303354867
 40
0.3577081533
 40
0.490628771
 40
0.6256552915
 40
0.7586937636
 40
0.8848622352
 40
1.0
 40
1.0
 40
1.0
 40
1.0
 10
55.8062579014
 20
61.6791374298
 30
0.0
 10
55.8062579014
 20
61.7114581711
 30
0.0
 10
55.8169403374
 20
61.777185587
 30
0.0
 10
55.8615847171
 20
61.8674448105
 30
0.0
 10
55.9274238674
 20
61.9474540391
 30
0.0
 10
56.0373143238
 20
62.042415106
 30
0.0
 10
56.2018116168
 20
62.1374953502
 30
0.0
 10
56.4192492627
 20
62.2206091194
 30
0.0
 10
56.649089974
 20
62.2749647222
 30
0.0
 10
56.8805174884
 20
62.2966747628
 30
0.0
 10
57.1009059356
 20
62.2793142594
 30
0.0
 10
57.2376537862
 20
62.2325602639
 30
0.0
 10
57.296209947
 20
62.1987523535
 30
0.0
  0
SPLINE
  5
406
100
AcDbEntity
  8
0
100
AcDbSpline
 62
7
  6
CONTINUOUS
 70
0
 71
3
 72
12
 73
8
 74
0
 42
0.0000001
 43
0.0000001
 44
0.0000000001
 40
0.0
 40
0.0
 40
0.0
 40
0.0
 40
0.1116892651
 40
0.2303690147
 40
0.4827733111
 40
0.7442969319
 40
1.0
 40
1.0
 40
1.0
 40
1.0
 10
56.0203398987
 20
70.423884057
 30
0.0
 10
56.0172104794
 20
70.172737472
 30
0.0
 10
55.9771365554
 20
69.654773977
 30
0.0
 10
55.7754164606
 20
68.5864074234
 30
0.0
 10
55.3040344578
 20
67.2346303631
 30
0.0
 10
54.4630875448
 20
65.7138956993
 30
0.0
 10
53.7334401085
 20
64.7985823755
 30
0.0
 10
53.3333453173
 20
64.3855738596
 30
0.0
  0
SPLINE
  5
407
100
AcDbEntity
  8
0
100
AcDbSpline
 62
7
  6
CONTINUOUS
 70
0
 71
3
 72
11
 73
7
 74
0
 42
0.0000001
 43
0.0000001
 44
0.0000000001
 40
0.0
 40
0.0
 40
0.0
 40
0.0
 40
0.2893975675
 40
0.5491290883
 40
0.7823145228
 40
1.0
 40
1.0
 40
1.0
 40
1.0
 10
46.928622722
 20
66.8045265386
 30
0.0
 10
46.928622722
 20
66.7690971923
 30
0.0
 10
46.9340677493
 20
66.7016539176
 30
0.0
 10
46.9612809072
 20
66.6089381983
 30
0.0
 10
47.0073199422
 20
66.5337144368
 30
0.0
 10
47.0505270996
 20
66.4974105568
 30
0.0
 10
47.0736162451
 20
66.4841020815
 30
0.0
  0
SPLINE
  5
408
100
AcDbEntity
  8
0
100
AcDbSpline
 62
7
  6
CONTINUOUS
 70
0
 71
3
 72
9
 73
5
 74
0
 42
0.0000001
 43
0.0000001
 44
0.0000000001
 40
0.0
 40
0.0
 40
0.0
 40
0.0
 40
0.2577061349
 40
1.0
 40
1.0
 40
1.0
 40
1.0
 10
46.1402128566
 20
63.8806437797
 30
0.0
 10
46.1324042627
 20
63.9207513827
 30
0.0
 10
46.0999179354
 20
64.0759479194
 30
0.0
 10
46.0586599379
 20
64.2293315836
 30
0.0
 10
46.0228669742
 20
64.3414515335
 30
0.0
  0
SPLINE
  5
409
100
AcDbEntity
  8
0
100
AcDbSpline
 62
7
  6
CONTINUOUS
 70
0
 71
3
 72
11
 73
7
 74
0
 42
0.0000001
 43
0.0000001
 44
0.0000000001
 40
0.0
 40
0.0
 40
0.0
 40
0.0
 40
0.2897456384
 40
0.5490780534
 40
0.7822213193
 40
1.0
 40
1.0
 40
1.0
 40
1.0
 10
61.1821443302
 20
108.4212016909
 30
0.0
 10
61.1821443302
 20
108.6289722855
 30
0.0
 10
61.2135924678
 20
109.0240484788
 30
0.0
 10
61.373651915
 20
109.5668558133
 30
0.0
 10
61.6430284402
 20
110.007280923
 30
0.0
 10
61.8960592954
 20
110.2200445164
 30
0.0
 10
62.0313154094
 20
110.2981032107
 30
0.0
  0
SPLINE
  5
40A
100
AcDbEntity
  8
0
100
AcDbSpline
 62
7
  6
CONTINUOUS
 70
0
 71
3
 72
17
 73
13
 74
0
 42
0.0000001
 43
0.0000001
 44
0.0000000001
 40
0.0
 40
0.0
 40
0.0
 40
0.0
 40
0.1286928658
 40
0.2702772039
 40
0.4174332772
 40
0.5617777796
 40
0.6954481899
 40
0.8127105853
 40
0.8646767449
 40
0.9125094186
 40
0.9571395686
 40
1.0
 40
1.0
 40
1.0
 40
1.0
 10
66.6268892138
 20
105.2777478811
 30
0.0
 10
66.6268892138
 20
105.58546845
 30
0.0
 10
66.540811433
 20
106.2324746625
 30
0.0
 10
66.2194794284
 20
107.1824526866
 30
0.0
 10
65.7243931077
 20
108.0975974391
 30
0.0
 10
65.0952898563
 20
108.9028561476
 30
0.0
 10
64.3835868014
 20
109.5331936381
 30
0.0
 10
63.7393836842
 20
109.885360517
 30
0.0
 10
63.2354868019
 20
110.0194991376
 30
0.0
 10
62.8886650467
 20
110.0449284282
 30
0.0
 10
62.5657066313
 20
109.9976745248
 30
0.0
 10
62.3700764562
 20
109.9163184846
 30
0.0
 10
62.2813130056
 20
109.8650921027
 30
0.0
  0
SPLINE
  5
40B
100
AcDbEntity
  8
0
100
AcDbSpline
 62
7
  6
CONTINUOUS
 70
0
 71
3
 72
9
 73
5
 74
0
 42
0.0000001
 43
0.0000001
 44
0.0000000001
 40
0.0
 40
0.0
 40
0.0
 40
0.0
 40
0.5170164673
 40
1.0
 40
1.0
 40
1.0
 40
1.0
 10
89.1220770226
 20
123.2069631303
 30
0.0
 10
89.16961012
 20
123.273225611
 30
0.0
 10
89.2462069547
 20
123.413950065
 30
0.0
 10
89.2743042293
 20
123.5726450047
 30
0.0
 10
89.2743042152
 20
123.6488252589
 30
0.0
  0
SPLINE
  5
40C
100
AcDbEntity
  8
0
100
AcDbSpline
 62
7
  6
CONTINUOUS
 70
0
 71
3
 72
11
 73
7
 74
0
 42
0.0000001
 43
0.0000001
 44
0.0000000001
 40
0.0
 40
0.0
 40
0.0
 40
0.0
 40
0.2177800231
 40
0.4509245561
 40
0.7102600928
 40
1.0
 40
1.0
 40
1.0
 40
1.0
 10
66.6969557881
 20
103.5233217831
 30
0.0
 10
66.8322130712
 20
103.6013801609
 30
0.0
 10
67.0852423955
 20
103.8141485643
 30
0.0
 10
67.3546220161
 20
104.2545755132
 30
0.0
 10
67.5146782987
 20
104.7973828185
 30
0.0
 10
67.5461271462
 20
105.192456486
 30
0.0
 10
67.5461271462
 20
105.4002228269
 30
0.0
  0
SPLINE
  5
40D
100
AcDbEntity
  8
0
100
AcDbSpline
 62
7
  6
CONTINUOUS
 70
0
 71
3
 72
18
 73
14
 74
0
 42
0.0000001
 43
0.0000001
 44
0.0000000001
 40
0.0
 40
0.0
 40
0.0
 40
0.0
 40
0.0428473451
 40
0.0874649479
 40
0.1352844062
 40
0.1872363199
 40
0.2437266825
 40
0.304730927
 40
0.4383630919
 40
0.5826685553
 40
0.7297891088
 40
0.8713401234
 40
1.0
 40
1.0
 40
1.0
 40
1.0
 10
62.0313154094
 20
110.2981032107
 30
0.0
 10
62.1324027113
 20
110.3564424795
 30
0.0
 10
62.3551930902
 20
110.4491018277
 30
0.0
 10
62.7230051371
 20
110.5029208185
 30
0.0
 10
63.1179699113
 20
110.4739352765
 30
0.0
 10
63.5313073099
 20
110.3640597255
 30
0.0
 10
63.9549612895
 20
110.1768632068
 30
0.0
 10
64.539801428
 20
109.8189377275
 30
0.0
 10
65.2364797407
 20
109.2019065878
 30
0.0
 10
65.9524529517
 20
108.2852726791
 30
0.0
 10
66.5164635199
 20
107.2428862531
 30
0.0
 10
66.8824001836
 20
106.1609788412
 30
0.0
 10
66.9804440764
 20
105.42408992
 30
0.0
 10
66.9804440764
 20
105.0736275038
 30
0.0
  0
SPLINE
  5
40E
100
AcDbEntity
  8
0
100
AcDbSpline
 62
7
  6
CONTINUOUS
 70
0
 71
3
 72
9
 73
5
 74
0
 42
0.0000001
 43
0.0000001
 44
0.0000000001
 40
0.0
 40
0.0
 40
0.0
 40
0.0
 40
0.2590845794
 40
1.0
 40
1.0
 40
1.0
 40
1.0
 10
57.1961133056
 20
58.6335058771
 30
0.0
 10
57.2366154776
 20
58.6101201837
 30
0.0
 10
57.3915557956
 20
58.5175084002
 30
0.0
 10
57.5405607842
 20
58.4147138093
 30
0.0
 10
57.6456631635
 20
58.3319995139
 30
0.0
  0
SPLINE
  5
40F
100
AcDbEntity
  8
0
100
AcDbSpline
 62
7
  6
CONTINUOUS
 70
0
 71
3
 72
9
 73
5
 74
0
 42
0.0000001
 43
0.0000001
 44
0.0000000001
 40
0.0
 40
0.0
 40
0.0
 40
0.0
 40
0.2480968732
 40
1.0
 40
1.0
 40
1.0
 40
1.0
 10
58.3929840171
 20
57.4263471652
 30
0.0
 10
58.4064914336
 20
57.3993158872
 30
0.0
 10
58.4590995076
 20
57.2894495863
 30
0.0
 10
58.5044163644
 20
57.1761235678
 30
0.0
 10
58.534578239
 20
57.0896510618
 30
0.0
  0
SPLINE
  5
410
100
AcDbEntity
  8
0
100
AcDbSpline
 62
7
  6
CONTINUOUS
 70
0
 71
3
 72
9
 73
5
 74
0
 42
0.0000001
 43
0.0000001
 44
0.0000000001
 40
0.0
 40
0.0
 40
0.0
 40
0.0
 40
0.2459432893
 40
1.0
 40
1.0
 40
1.0
 40
1.0
 10
58.534578239
 20
57.0896510618
 30
0.0
 10
58.5467103389
 20
57.0548689706
 30
0.0
 10
58.5934937476
 20
56.9125633354
 30
0.0
 10
58.6303445838
 20
56.7670521531
 30
0.0
 10
58.6531749762
 20
56.6564415694
 30
0.0
  0
SPLINE
  5
411
100
AcDbEntity
  8
0
100
AcDbSpline
 62
7
  6
CONTINUOUS
 70
0
 71
3
 72
18
 73
14
 74
0
 42
0.0000001
 43
0.0000001
 44
0.0000000001
 40
0.0
 40
0.0
 40
0.0
 40
0.0
 40
0.1286583968
 40
0.2702050131
 40
0.4173221335
 40
0.5616290576
 40
0.6952643117
 40
0.7562698317
 40
0.8127605314
 40
0.8647128568
 40
0.9125327733
 40
0.9571510445
 40
1.0
 40
1.0
 40
1.0
 40
1.0
 10
67.5461271462
 20
105.4002228269
 30
0.0
 10
67.5461271462
 20
105.7506811989
 30
0.0
 10
67.4480867998
 20
106.4875540542
 30
0.0
 10
67.0821649078
 20
107.5694392622
 30
0.0
 10
66.5181728347
 20
108.6118151465
 30
0.0
 10
65.8022086159
 20
109.5284612295
 30
0.0
 10
65.1055189532
 20
110.1455021446
 30
0.0
 10
64.5206751763
 20
110.5034469287
 30
0.0
 10
64.0970145835
 20
110.6906420302
 30
0.0
 10
63.6836770214
 20
110.8005277888
 30
0.0
 10
63.288707358
 20
110.8295172879
 30
0.0
 10
62.9208891386
 20
110.7756937679
 30
0.0
 10
62.6980901762
 20
110.6830389613
 30
0.0
 10
62.596998758
 20
110.6246980578
 30
0.0
  0
SPLINE
  5
412
100
AcDbEntity
  8
0
100
AcDbSpline
 62
7
  6
CONTINUOUS
 70
0
 71
3
 72
11
 73
7
 74
0
 42
0.0000001
 43
0.0000001
 44
0.0000000001
 40
0.0
 40
0.0
 40
0.0
 40
0.0
 40
0.2502305522
 40
0.4917491617
 40
0.7372516354
 40
1.0
 40
1.0
 40
1.0
 40
1.0
 10
46.2268925486
 20
68.4883934604
 30
0.0
 10
46.0517654324
 20
68.5895008624
 30
0.0
 10
45.7290465311
 20
68.8302745
 30
0.0
 10
45.3633165027
 20
69.3111422798
 30
0.0
 10
45.1512721428
 20
69.887479897
 30
0.0
 10
45.1138835587
 20
70.3005800938
 30
0.0
 10
45.1138873524
 20
70.5129143168
 30
0.0
  0
SPLINE
  5
413
100
AcDbEntity
  8
0
100
AcDbSpline
 62
7
  6
CONTINUOUS
 70
0
 71
3
 72
11
 73
7
 74
0
 42
0.0000001
 43
0.0000001
 44
0.0000000001
 40
0.0
 40
0.0
 40
0.0
 40
0.0
 40
0.2897456384
 40
0.5490780534
 40
0.7822213193
 40
1.0
 40
1.0
 40
1.0
 40
1.0
 10
66.9804440764
 20
105.0736275038
 30
0.0
 10
66.9804440764
 20
104.8658569092
 30
0.0
 10
66.9489959387
 20
104.4707807159
 30
0.0
 10
66.7889364916
 20
103.9279733814
 30
0.0
 10
66.5195599664
 20
103.4875482717
 30
0.0
 10
66.2665291112
 20
103.2747846783
 30
0.0
 10
66.1312729972
 20
103.196725984
 30
0.0
  0
SPLINE
  5
414
100
AcDbEntity
  8
0
100
AcDbSpline
 62
7
  6
CONTINUOUS
 70
0
 71
3
 72
17
 73
13
 74
0
 42
0.0000001
 43
0.0000001
 44
0.0000000001
 40
0.0
 40
0.0
 40
0.0
 40
0.0
 40
0.1286928658
 40
0.2702772039
 40
0.4174332772
 40
0.5617777796
 40
0.6954481899
 40
0.8127105853
 40
0.8646767449
 40
0.9125094186
 40
0.9571395686
 40
1.0
 40
1.0
 40
1.0
 40
1.0
 10
61.5356991928
 20
108.2170813136
 30
0.0
 10
61.5356991928
 20
107.9093607447
 30
0.0
 10
61.6217769736
 20
107.2623545322
 30
0.0
 10
61.9431089781
 20
106.3123765081
 30
0.0
 10
62.4381952988
 20
105.3972317555
 30
0.0
 10
63.0672985503
 20
104.5919730471
 30
0.0
 10
63.7790016052
 20
103.9616355566
 30
0.0
 10
64.4232047224
 20
103.6094686777
 30
0.0
 10
64.9271016046
 20
103.4753300571
 30
0.0
 10
65.2739233598
 20
103.4499007665
 30
0.0
 10
65.5968817753
 20
103.4971546699
 30
0.0
 10
65.7925119504
 20
103.5785107101
 30
0.0
 10
65.881275401
 20
103.6297370919
 30
0.0
  0
SPLINE
  5
415
100
AcDbEntity
  8
0
100
AcDbSpline
 62
7
  6
CONTINUOUS
 70
0
 71
3
 72
10
 73
6
 74
0
 42
0.0000001
 43
0.0000001
 44
0.0000000001
 40
0.0
 40
0.0
 40
0.0
 40
0.0
 40
0.2280013718
 40
0.4756449711
 40
1.0
 40
1.0
 40
1.0
 40
1.0
 10
95.4887894304
 20
130.7086689546
 30
0.0
 10
95.4887894304
 20
130.5922302464
 30
0.0
 10
95.5142727204
 20
130.3489783475
 30
0.0
 10
95.649373581
 20
129.8551669881
 30
0.0
 10
95.8348121156
 20
129.4997819812
 30
0.0
 10
95.9882353316
 20
129.2803057205
 30
0.0
  0
SPLINE
  5
416
100
AcDbEntity
  8
0
100
AcDbSpline
 62
7
  6
CONTINUOUS
 70
0
 71
3
 72
11
 73
7
 74
0
 42
0.0000001
 43
0.0000001
 44
0.0000000001
 40
0.0
 40
0.0
 40
0.0
 40
0.0
 40
0.253919027
 40
0.499153869
 40
0.7448439518
 40
1.0
 40
1.0
 40
1.0
 40
1.0
 10
57.296209947
 20
62.1987523535
 30
0.0
 10
57.3281009139
 20
62.1803398255
 30
0.0
 10
57.3872279093
 20
62.1371640554
 30
0.0
 10
57.4557406935
 20
62.0519040182
 30
0.0
 10
57.4977594581
 20
61.9506753945
 30
0.0
 10
57.5065027266
 20
61.8776009927
 30
0.0
 10
57.5065027266
 20
61.8405969421
 30
0.0
  0
SPLINE
  5
417
100
AcDbEntity
  8
0
100
AcDbSpline
 62
7
  6
CONTINUOUS
 70
0
 71
3
 72
15
 73
11
 74
0
 42
0.0000001
 43
0.0000001
 44
0.0000000001
 40
0.0
 40
0.0
 40
0.0
 40
0.0
 40
0.1115736528
 40
0.2334452179
 40
0.3615900135
 40
0.4917658654
 40
0.6214621656
 40
0.7496935693
 40
0.8760676252
 40
1.0
 40
1.0
 40
1.0
 40
1.0
 10
57.5065027266
 20
61.8405969421
 30
0.0
 10
57.5065027266
 20
61.7741538511
 30
0.0
 10
57.4764614341
 20
61.6345358727
 30
0.0
 10
57.3633877202
 20
61.4476524266
 30
0.0
 10
57.1940574232
 20
61.2929635401
 30
0.0
 10
56.9864078225
 20
61.1860392784
 30
0.0
 10
56.7594887884
 20
61.1322810959
 30
0.0
 10
56.5288742618
 20
61.1299152376
 30
0.0
 10
56.3063896081
 20
61.1743364894
 30
0.0
 10
56.1680168371
 20
61.2335243577
 30
0.0
 10
56.1041041167
 20
61.2704299156
 30
0.0
  0
SPLINE
  5
418
100
AcDbEntity
  8
0
100
AcDbSpline
 62
7
  6
CONTINUOUS
 70
0
 71
3
 72
15
 73
11
 74
0
 42
0.0000001
 43
0.0000001
 44
0.0000000001
 40
0.0
 40
0.0
 40
0.0
 40
0.0
 40
0.0869252176
 40
0.1863952294
 40
0.3037887542
 40
0.4375985707
 40
0.5820955914
 40
0.7293795809
 40
0.8712014596
 40
1.0
 40
1.0
 40
1.0
 40
1.0
 10
47.0736162451
 20
66.4841020815
 30
0.0
 10
47.1085925102
 20
66.4639419261
 30
0.0
 10
47.1964037985
 20
66.4413046743
 30
0.0
 10
47.3378134271
 20
66.4696477454
 30
0.0
 10
47.4822547482
 20
66.5485552251
 30
0.0
 10
47.6207738873
 20
66.6712081712
 30
0.0
 10
47.743025756
 20
66.8277503194
 30
0.0
 10
47.8393678064
 20
67.0056911061
 30
0.0
 10
47.9017944421
 20
67.1904300065
 30
0.0
 10
47.9185680941
 20
67.3162508281
 30
0.0
 10
47.9185680941
 20
67.376068354
 30
0.0
  0
SPLINE
  5
419
100
AcDbEntity
  8
0
100
AcDbSpline
 62
7
  6
CONTINUOUS
 70
0
 71
3
 72
13
 73
9
 74
0
 42
0.0000001
 43
0.0000001
 44
0.0000000001
 40
0.0
 40
0.0
 40
0.0
 40
0.0
 40
0.1142253587
 40
0.237559206
 40
0.5000004539
 40
0.7624414493
 40
0.885775028
 40
1.0
 40
1.0
 40
1.0
 40
1.0
 10
85.2943951887
 20
126.4248691884
 30
0.0
 10
85.1976074759
 20
126.4807483362
 30
0.0
 10
84.9858619386
 20
126.5793212459
 30
0.0
 10
84.5166579159
 20
126.7218754843
 30
0.0
 10
83.8801795848
 20
126.7910772138
 30
0.0
 10
83.2437017841
 20
126.7218726143
 30
0.0
 10
82.7744993937
 20
126.5793160253
 30
0.0
 10
82.5627550461
 20
126.4807420463
 30
0.0
 10
82.4659680639
 20
126.4248623897
 30
0.0
  0
SPLINE
  5
41A
100
AcDbEntity
  8
0
100
AcDbSpline
 62
7
  6
CONTINUOUS
 70
0
 71
3
 72
17
 73
13
 74
0
 42
0.0000001
 43
0.0000001
 44
0.0000000001
 40
0.0
 40
0.0
 40
0.0
 40
0.0
 40
0.1156897166
 40
0.2394336956
 40
0.3682566905
 40
0.4994746104
 40
0.5654907938
 40
0.6313477931
 40
0.6967334094
 40
0.7612438637
 40
0.8852274361
 40
1.0
 40
1.0
 40
1.0
 40
1.0
 10
58.7427123405
 20
68.8521571521
 30
0.0
 10
58.7386494474
 20
68.5260961023
 30
0.0
 10
58.6743787207
 20
67.8512097046
 30
0.0
 10
58.422173602
 20
66.8401186174
 30
0.0
 10
57.9803323353
 20
65.8455074126
 30
0.0
 10
57.4214476983
 20
65.1014619729
 30
0.0
 10
56.8569538698
 20
64.6165052691
 30
0.0
 10
56.3815087374
 20
64.3235144435
 30
0.0
 10
55.8680490552
 20
64.1143947348
 30
0.0
 10
55.1669592925
 20
63.9574880089
 30
0.0
 10
54.2974800631
 20
63.9750678839
 30
0.0
 10
53.6488626875
 20
64.203413942
 30
0.0
 10
53.3687008036
 20
64.3651618219
 30
0.0
  0
SPLINE
  5
41B
100
AcDbEntity
  8
0
100
AcDbSpline
 62
7
  6
CONTINUOUS
 70
0
 71
3
 72
11
 73
7
 74
0
 42
0.0000001
 43
0.0000001
 44
0.0000000001
 40
0.0
 40
0.0
 40
0.0
 40
0.0
 40
0.2893975675
 40
0.5491290883
 40
0.7823145228
 40
1.0
 40
1.0
 40
1.0
 40
1.0
 10
47.9185680941
 20
67.376068354
 30
0.0
 10
47.9185680941
 20
67.4114977002
 30
0.0
 10
47.9131230668
 20
67.478940975
 30
0.0
 10
47.885909909
 20
67.5716566943
 30
0.0
 10
47.8398708739
 20
67.6468804558
 30
0.0
 10
47.7966637166
 20
67.6831843358
 30
0.0
 10
47.7735745711
 20
67.6964928111
 30
0.0
  0
SPLINE
  5
41C
100
AcDbEntity
  8
0
100
AcDbSpline
 62
7
  6
CONTINUOUS
 70
0
 71
3
 72
9
 73
5
 74
0
 42
0.0000001
 43
0.0000001
 44
0.0000000001
 40
0.0
 40
0.0
 40
0.0
 40
0.0
 40
0.4773773815
 40
1.0
 40
1.0
 40
1.0
 40
1.0
 10
58.7427123405
 20
85.9880488571
 30
0.0
 10
58.7427123405
 20
86.1392437929
 30
0.0
 10
58.780157554
 20
86.4562577558
 30
0.0
 10
58.8726650504
 20
86.7607236548
 30
0.0
 10
58.9326028505
 20
86.9150155446
 30
0.0
  0
SPLINE
  5
41D
100
AcDbEntity
  8
0
100
AcDbSpline
 62
7
  6
CONTINUOUS
 70
0
 71
3
 72
9
 73
5
 74
0
 42
0.0000001
 43
0.0000001
 44
0.0000000001
 40
0.0
 40
0.0
 40
0.0
 40
0.0
 40
0.2518834874
 40
1.0
 40
1.0
 40
1.0
 40
1.0
 10
59.1569291722
 20
87.3818986636
 30
0.0
 10
59.1786858857
 20
87.4195825991
 30
0.0
 10
59.2678925949
 20
87.5675344551
 30
0.0
 10
59.3681667403
 20
87.7088495739
 30
0.0
 10
59.4490960098
 20
87.8096129042
 30
0.0
  0
SPLINE
  5
41E
100
AcDbEntity
  8
0
100
AcDbSpline
 62
7
  6
CONTINUOUS
 70
0
 71
3
 72
9
 73
5
 74
0
 42
0.0000001
 43
0.0000001
 44
0.0000000001
 40
0.0
 40
0.0
 40
0.0
 40
0.0
 40
0.5226236696
 40
1.0
 40
1.0
 40
1.0
 40
1.0
 10
59.4490960098
 20
87.8096129042
 30
0.0
 10
59.5527465894
 20
87.9386660596
 30
0.0
 10
59.7701653113
 20
88.1710116466
 30
0.0
 10
60.0259825942
 20
88.3619456952
 30
0.0
 10
60.156920015
 20
88.4375419991
 30
0.0
  0
SPLINE
  5
41F
100
AcDbEntity
  8
0
100
AcDbSpline
 62
7
  6
CONTINUOUS
 70
0
 71
3
 72
11
 73
7
 74
0
 42
0.0000001
 43
0.0000001
 44
0.0000000001
 40
0.0
 40
0.0
 40
0.0
 40
0.0
 40
0.2177817009
 40
0.4509079353
 40
0.7102947134
 40
1.0
 40
1.0
 40
1.0
 40
1.0
 10
89.2743042152
 20
123.6488252589
 30
0.0
 10
89.2743042011
 20
123.7250020865
 30
0.0
 10
89.2461530906
 20
123.8837787077
 30
0.0
 10
89.1257839629
 20
124.1050053438
 30
0.0
 10
88.9354974867
 20
124.3049851454
 30
0.0
 10
88.7762807358
 20
124.4146471078
 30
0.0
 10
88.6885218694
 20
124.4653135667
 30
0.0
  0
SPLINE
  5
420
100
AcDbEntity
  8
0
100
AcDbSpline
 62
7
  6
CONTINUOUS
 70
0
 71
3
 72
11
 73
7
 74
0
 42
0.0000001
 43
0.0000001
 44
0.0000000001
 40
0.0
 40
0.0
 40
0.0
 40
0.0
 40
0.217780887
 40
0.450925738
 40
0.7102608723
 40
1.0
 40
1.0
 40
1.0
 40
1.0
 10
62.2813130056
 20
109.8650921027
 30
0.0
 10
62.162550096
 20
109.796552697
 30
0.0
 10
61.9403784347
 20
109.6097301063
 30
0.0
 10
61.7038487221
 20
109.223014129
 30
0.0
 10
61.5633131088
 20
108.7464028182
 30
0.0
 10
61.5356991928
 20
108.3995097898
 30
0.0
 10
61.5356991928
 20
108.2170813136
 30
0.0
  0
SPLINE
  5
421
100
AcDbEntity
  8
0
100
AcDbSpline
 62
7
  6
CONTINUOUS
 70
0
 71
3
 72
12
 73
8
 74
0
 42
0.0000001
 43
0.0000001
 44
0.0000000001
 40
0.0
 40
0.0
 40
0.0
 40
0.0
 40
0.2557030333
 40
0.5172266459
 40
0.7696309528
 40
0.8883107231
 40
1.0
 40
1.0
 40
1.0
 40
1.0
 10
46.2622480658
 20
68.4679814048
 30
0.0
 10
46.6623428025
 20
68.8809898645
 30
0.0
 10
47.3919901904
 20
69.7963031003
 30
0.0
 10
48.2329371002
 20
71.3170376802
 30
0.0
 10
48.7043191685
 20
72.6688147753
 30
0.0
 10
48.9060392789
 20
73.7371814242
 30
0.0
 10
48.9461132276
 20
74.2551449907
 30
0.0
 10
48.9492426472
 20
74.5062916022
 30
0.0
  0
SPLINE
  5
422
100
AcDbEntity
  8
0
100
AcDbSpline
 62
7
  6
CONTINUOUS
 70
0
 71
3
 72
15
 73
11
 74
0
 42
0.0000001
 43
0.0000001
 44
0.0000000001
 40
0.0
 40
0.0
 40
0.0
 40
0.0
 40
0.0869252176
 40
0.1863952294
 40
0.3037887542
 40
0.4375985707
 40
0.5820955914
 40
0.7293795809
 40
0.8712014596
 40
1.0
 40
1.0
 40
1.0
 40
1.0
 10
60.2894167062
 20
60.4706314561
 30
0.0
 10
60.2544404411
 20
60.4907916114
 30
0.0
 10
60.1666291528
 20
60.5134288633
 30
0.0
 10
60.0252195242
 20
60.4850857922
 30
0.0
 10
59.8807782031
 20
60.4061783125
 30
0.0
 10
59.742259064
 20
60.2835253664
 30
0.0
 10
59.6200071953
 20
60.1269832182
 30
0.0
 10
59.5236651449
 20
59.9490424315
 30
0.0
 10
59.4612385092
 20
59.7643035311
 30
0.0
 10
59.4444648571
 20
59.6384827094
 30
0.0
 10
59.4444648571
 20
59.5786651836
 30
0.0
  0
SPLINE
  5
423
100
AcDbEntity
  8
0
100
AcDbSpline
 62
7
  6
CONTINUOUS
 70
0
 71
3
 72
13
 73
9
 74
0
 42
0.0000001
 43
0.0000001
 44
0.0000000001
 40
0.0
 40
0.0
 40
0.0
 40
0.0
 40
0.1142247162
 40
0.2375579183
 40
0.4999983243
 40
0.7624396433
 40
0.8857739388
 40
1.0
 40
1.0
 40
1.0
 40
1.0
 10
60.156920015
 20
88.4375419991
 30
0.0
 10
60.0601331323
 20
88.3816623999
 30
0.0
 10
59.8688931203
 20
88.2475743046
 30
0.0
 10
59.5108344177
 20
87.9125120911
 30
0.0
 10
59.1326639625
 20
87.3959072706
 30
0.0
 10
58.8743588866
 20
86.8100974393
 30
0.0
 10
58.7632163282
 20
86.3324749572
 30
0.0
 10
58.7427123405
 20
86.0998098718
 30
0.0
 10
58.7427123405
 20
85.9880488571
 30
0.0
  0
SPLINE
  5
424
100
AcDbEntity
  8
0
100
AcDbSpline
 62
7
  6
CONTINUOUS
 70
0
 71
3
 72
11
 73
7
 74
0
 42
0.0000001
 43
0.0000001
 44
0.0000000001
 40
0.0
 40
0.0
 40
0.0
 40
0.0
 40
0.289702809
 40
0.549088757
 40
0.7822160314
 40
1.0
 40
1.0
 40
1.0
 40
1.0
 10
72.6727621501
 20
44.4690718733
 30
0.0
 10
72.5850057474
 20
44.418405993
 30
0.0
 10
72.4104299886
 20
44.3353552348
 30
0.0
 10
72.142103284
 20
44.2705567648
 30
0.0
 10
71.8903340514
 20
44.2769293643
 30
0.0
 10
71.7387552182
 20
44.331937162
 30
0.0
 10
71.6727841069
 20
44.3700247469
 30
0.0
  0
SPLINE
  5
425
100
AcDbEntity
  8
0
100
AcDbSpline
 62
7
  6
CONTINUOUS
 70
0
 71
3
 72
11
 73
7
 74
0
 42
0.0000001
 43
0.0000001
 44
0.0000000001
 40
0.0
 40
0.0
 40
0.0
 40
0.0
 40
0.237491771
 40
0.5002292608
 40
0.7627409579
 40
1.0
 40
1.0
 40
1.0
 40
1.0
 10
65.8845429387
 20
53.0429321532
 30
0.0
 10
66.1701582707
 20
52.8780357948
 30
0.0
 10
66.7999388963
 20
52.5798620523
 30
0.0
 10
67.7929872993
 20
52.2107909347
 30
0.0
 10
68.7902446548
 20
51.8564611151
 30
0.0
 10
69.426626959
 20
51.5723913512
 30
0.0
 10
69.7119554407
 20
51.4076445221
 30
0.0
  0
SPLINE
  5
426
100
AcDbEntity
  8
0
100
AcDbSpline
 62
7
  6
CONTINUOUS
 70
0
 71
3
 72
11
 73
7
 74
0
 42
0.0000001
 43
0.0000001
 44
0.0000000001
 40
0.0
 40
0.0
 40
0.0
 40
0.0
 40
0.2638355508
 40
0.5199971867
 40
0.7654886877
 40
1.0
 40
1.0
 40
1.0
 40
1.0
 10
68.6199462518
 20
54.0445685606
 30
0.0
 10
68.5797931041
 20
54.0677544664
 30
0.0
 10
68.5039166971
 20
54.1195492235
 30
0.0
 10
68.4079627496
 20
54.2151791583
 30
0.0
 10
68.3398949986
 20
54.32715372
 30
0.0
 10
68.3221000365
 20
54.412062933
 30
0.0
 10
68.3221000365
 20
54.4532760748
 30
0.0
  0
SPLINE
  5
427
100
AcDbEntity
  8
0
100
AcDbSpline
 62
7
  6
CONTINUOUS
 70
0
 71
3
 72
11
 73
7
 74
0
 42
0.0000001
 43
0.0000001
 44
0.0000000001
 40
0.0
 40
0.0
 40
0.0
 40
0.0
 40
0.217780887
 40
0.450925738
 40
0.7102608723
 40
1.0
 40
1.0
 40
1.0
 40
1.0
 10
78.3971175361
 20
42.0248147561
 30
0.0
 10
78.5158804457
 20
42.0933541619
 30
0.0
 10
78.738052107
 20
42.2801767525
 30
0.0
 10
78.9745818195
 20
42.6668927299
 30
0.0
 10
79.1151174329
 20
43.1435040406
 30
0.0
 10
79.1427313489
 20
43.4903970691
 30
0.0
 10
79.1427313489
 20
43.6728255452
 30
0.0
  0
SPLINE
  5
428
100
AcDbEntity
  8
0
100
AcDbSpline
 62
7
  6
CONTINUOUS
 70
0
 71
3
 72
17
 73
13
 74
0
 42
0.0000001
 43
0.0000001
 44
0.0000000001
 40
0.0
 40
0.0
 40
0.0
 40
0.0
 40
0.0433433288
 40
0.0878912418
 40
0.1842011328
 40
0.237581099
 40
0.2947188903
 40
0.4198746862
 40
0.5576570398
 40
0.7038623112
 40
0.8531999583
 40
1.0
 40
1.0
 40
1.0
 40
1.0
 10
78.6471151323
 20
41.5918036482
 30
0.0
 10
78.5649625055
 20
41.5443919151
 30
0.0
 10
78.3877260811
 20
41.4655293086
 30
0.0
 10
77.9916207309
 20
41.3791292554
 30
0.0
 10
77.5582205176
 20
41.4111173979
 30
0.0
 10
77.1233414068
 20
41.5385795328
 30
0.0
 10
76.6492425058
 20
41.7450293951
 30
0.0
 10
76.059152587
 20
42.1316453826
 30
0.0
 10
75.4034764994
 20
42.7465054369
 30
0.0
 10
74.8136245537
 20
43.493250181
 30
0.0
 10
74.3221950582
 20
44.33049479
 30
0.0
 10
74.0726543886
 20
44.9314358246
 30
0.0
 10
73.9722656447
 20
45.2366036501
 30
0.0
  0
SPLINE
  5
429
100
AcDbEntity
  8
0
100
AcDbSpline
 62
7
  6
CONTINUOUS
 70
0
 71
3
 72
11
 73
7
 74
0
 42
0.0000001
 43
0.0000001
 44
0.0000000001
 40
0.0
 40
0.0
 40
0.0
 40
0.0
 40
0.217780887
 40
0.450925738
 40
0.7102608723
 40
1.0
 40
1.0
 40
1.0
 40
1.0
 10
78.3971175361
 20
96.4038757369
 30
0.0
 10
78.5158804457
 20
96.4724151427
 30
0.0
 10
78.738052107
 20
96.6592377333
 30
0.0
 10
78.9745818195
 20
97.0459537107
 30
0.0
 10
79.1151174329
 20
97.5225650214
 30
0.0
 10
79.1427313489
 20
97.8694580499
 30
0.0
 10
79.1427313489
 20
98.0518865261
 30
0.0
  0
SPLINE
  5
42A
100
AcDbEntity
  8
0
100
AcDbSpline
 62
7
  6
CONTINUOUS
 70
0
 71
3
 72
18
 73
14
 74
0
 42
0.0000001
 43
0.0000001
 44
0.0000000001
 40
0.0
 40
0.0
 40
0.0
 40
0.0
 40
0.0428473451
 40
0.0874649479
 40
0.1352844062
 40
0.1872363199
 40
0.2437266825
 40
0.304730927
 40
0.4383630919
 40
0.5826685553
 40
0.7297891088
 40
0.8713401234
 40
1.0
 40
1.0
 40
1.0
 40
1.0
 10
78.6471151323
 20
95.970864629
 30
0.0
 10
78.5460278304
 20
95.9125253602
 30
0.0
 10
78.3232374515
 20
95.819866012
 30
0.0
 10
77.9554254046
 20
95.7660470212
 30
0.0
 10
77.5604606304
 20
95.7950325632
 30
0.0
 10
77.1471232318
 20
95.9049081141
 30
0.0
 10
76.7234692522
 20
96.0921046329
 30
0.0
 10
76.1386291137
 20
96.4500301121
 30
0.0
 10
75.441950801
 20
97.0670612519
 30
0.0
 10
74.72597759
 20
97.9836951605
 30
0.0
 10
74.1619670217
 20
99.0260815866
 30
0.0
 10
73.7960303581
 20
100.1079889985
 30
0.0
 10
73.6979864653
 20
100.8448779197
 30
0.0
 10
73.6979864653
 20
101.1953403359
 30
0.0
  0
SPLINE
  5
42B
100
AcDbEntity
  8
0
100
AcDbSpline
 62
7
  6
CONTINUOUS
 70
0
 71
3
 72
9
 73
5
 74
0
 42
0.0000001
 43
0.0000001
 44
0.0000000001
 40
0.0
 40
0.0
 40
0.0
 40
0.0
 40
0.4778694176
 40
1.0
 40
1.0
 40
1.0
 40
1.0
 10
67.8924516033
 20
52.2801492635
 30
0.0
 10
68.019510439
 20
52.1185544675
 30
0.0
 10
68.2405090127
 20
51.7438965499
 30
0.0
 10
68.3736372665
 20
51.3316413535
 30
0.0
 10
68.4241072687
 20
51.1127808235
 30
0.0
  0
SPLINE
  5
42C
100
AcDbEntity
  8
0
100
AcDbSpline
 62
7
  6
CONTINUOUS
 70
0
 71
3
 72
13
 73
9
 74
0
 42
0.0000001
 43
0.0000001
 44
0.0000000001
 40
0.0
 40
0.0
 40
0.0
 40
0.0
 40
0.0523238355
 40
0.1263755453
 40
0.2227252239
 40
0.3406726626
 40
0.6358632859
 40
1.0
 40
1.0
 40
1.0
 40
1.0
 10
57.6297294902
 20
58.2442982298
 30
0.0
 10
57.6297270443
 20
58.2166339615
 30
0.0
 10
57.6467466757
 20
58.1504391097
 30
0.0
 10
57.6999921588
 20
58.0452124216
 30
0.0
 10
57.7881381728
 20
57.9201491031
 30
0.0
 10
57.9671236482
 20
57.7183557975
 30
0.0
 10
58.282195874
 20
57.4514394631
 30
0.0
 10
58.5760034001
 20
57.2624239662
 30
0.0
 10
58.7427347147
 20
57.1661637738
 30
0.0
  0
SPLINE
  5
42D
100
AcDbEntity
  8
0
100
AcDbSpline
 62
7
  6
CONTINUOUS
 70
0
 71
3
 72
9
 73
5
 74
0
 42
0.0000001
 43
0.0000001
 44
0.0000000001
 40
0.0
 40
0.0
 40
0.0
 40
0.0
 40
0.2550593862
 40
1.0
 40
1.0
 40
1.0
 40
1.0
 10
57.6297301748
 20
61.1396144256
 30
0.0
 10
57.6297313151
 20
61.0955710975
 30
0.0
 10
57.6316036852
 20
60.9228961115
 30
0.0
 10
57.6379269292
 20
60.7502821381
 30
0.0
 10
57.6379269292
 20
60.6216467472
 30
0.0
  0
SPLINE
  5
42E
100
AcDbEntity
  8
0
100
AcDbSpline
 62
7
  6
CONTINUOUS
 70
0
 71
3
 72
13
 73
9
 74
0
 42
0.0000001
 43
0.0000001
 44
0.0000000001
 40
0.0
 40
0.0
 40
0.0
 40
0.0
 40
0.1203723328
 40
0.2487426158
 40
0.3811964772
 40
0.5137525978
 40
0.7683434311
 40
1.0
 40
1.0
 40
1.0
 40
1.0
 10
57.6297294876
 20
63.2870529618
 30
0.0
 10
57.6297335675
 20
63.515402983
 30
0.0
 10
57.6755015151
 20
63.9873231233
 30
0.0
 10
57.8283482438
 20
64.6947234366
 30
0.0
 10
58.0293555749
 20
65.4136127018
 30
0.0
 10
58.3112174812
 20
66.3580353693
 30
0.0
 10
58.6199563467
 20
67.4914290681
 30
0.0
 10
58.737236866
 20
68.4127316213
 30
0.0
 10
58.7427123405
 20
68.8521571521
 30
0.0
  0
SPLINE
  5
42F
100
AcDbEntity
  8
0
100
AcDbSpline
 62
7
  6
CONTINUOUS
 70
0
 71
3
 72
11
 73
7
 74
0
 42
0.0000001
 43
0.0000001
 44
0.0000000001
 40
0.0
 40
0.0
 40
0.0
 40
0.0
 40
0.4236423403
 40
0.7269646022
 40
0.9139677959
 40
1.0
 40
1.0
 40
1.0
 40
1.0
 10
57.6379269292
 20
60.6216467472
 30
0.0
 10
57.6379269292
 20
60.589151556
 30
0.0
 10
57.6374225616
 20
60.5333852931
 30
0.0
 10
57.6344558948
 20
60.463323325
 30
0.0
 10
57.6318432153
 20
60.4192117653
 30
0.0
 10
57.6297325469
 20
60.3983340414
 30
0.0
 10
57.6297301634
 20
60.3917350014
 30
0.0
  0
SPLINE
  5
430
100
AcDbEntity
  8
0
100
AcDbSpline
 62
7
  6
CONTINUOUS
 70
0
 71
3
 72
17
 73
13
 74
0
 42
0.0000001
 43
0.0000001
 44
0.0000000001
 40
0.0
 40
0.0
 40
0.0
 40
0.0
 40
0.0550371015
 40
0.1112117813
 40
0.1695852903
 40
0.2303354867
 40
0.3577081533
 40
0.490628771
 40
0.6256552915
 40
0.7586937636
 40
0.8848622352
 40
1.0
 40
1.0
 40
1.0
 40
1.0
 10
68.3221000365
 20
54.4532760748
 30
0.0
 10
68.3221000365
 20
54.4855968161
 30
0.0
 10
68.3327824725
 20
54.551324232
 30
0.0
 10
68.3774268522
 20
54.6415834555
 30
0.0
 10
68.4432660025
 20
54.7215926841
 30
0.0
 10
68.5531564589
 20
54.816553751
 30
0.0
 10
68.7176537519
 20
54.9116339952
 30
0.0
 10
68.9350913978
 20
54.9947477644
 30
0.0
 10
69.1649321091
 20
55.0491033672
 30
0.0
 10
69.3963596235
 20
55.0708134078
 30
0.0
 10
69.6167480707
 20
55.0534529044
 30
0.0
 10
69.7534959213
 20
55.0066989089
 30
0.0
 10
69.8120520821
 20
54.9728909985
 30
0.0
  0
SPLINE
  5
431
100
AcDbEntity
  8
0
100
AcDbSpline
 62
7
  6
CONTINUOUS
 70
0
 71
3
 72
12
 73
8
 74
0
 42
0.0000001
 43
0.0000001
 44
0.0000000001
 40
0.0
 40
0.0
 40
0.0
 40
0.0
 40
0.1116892651
 40
0.2303690147
 40
0.4827733111
 40
0.7442969319
 40
1.0
 40
1.0
 40
1.0
 40
1.0
 10
68.5361820338
 20
63.1980227019
 30
0.0
 10
68.5330526145
 20
62.9468761169
 30
0.0
 10
68.4929786905
 20
62.428912622
 30
0.0
 10
68.2912585957
 20
61.3605460684
 30
0.0
 10
67.8198765929
 20
60.0087690081
 30
0.0
 10
66.9789296799
 20
58.4880343443
 30
0.0
 10
66.2492822436
 20
57.5727210205
 30
0.0
 10
65.8491874524
 20
57.1597125046
 30
0.0
  0
SPLINE
  5
432
100
AcDbEntity
  8
0
100
AcDbSpline
 62
7
  6
CONTINUOUS
 70
0
 71
3
 72
11
 73
7
 74
0
 42
0.0000001
 43
0.0000001
 44
0.0000000001
 40
0.0
 40
0.0
 40
0.0
 40
0.0
 40
0.2893975675
 40
0.5491290883
 40
0.7823145228
 40
1.0
 40
1.0
 40
1.0
 40
1.0
 10
59.4444648571
 20
59.5786651836
 30
0.0
 10
59.4444648571
 20
59.5432358373
 30
0.0
 10
59.4499098844
 20
59.4757925626
 30
0.0
 10
59.4771230423
 20
59.3830768433
 30
0.0
 10
59.5231620773
 20
59.3078530818
 30
0.0
 10
59.5663692347
 20
59.2715492018
 30
0.0
 10
59.5894583802
 20
59.2582407265
 30
0.0
  0
SPLINE
  5
433
100
AcDbEntity
  8
0
100
AcDbSpline
 62
7
  6
CONTINUOUS
 70
0
 71
3
 72
9
 73
5
 74
0
 42
0.0000001
 43
0.0000001
 44
0.0000000001
 40
0.0
 40
0.0
 40
0.0
 40
0.0
 40
0.2577061349
 40
1.0
 40
1.0
 40
1.0
 40
1.0
 10
58.6560549917
 20
56.6547824247
 30
0.0
 10
58.6482463978
 20
56.6948900277
 30
0.0
 10
58.6157600706
 20
56.8500865644
 30
0.0
 10
58.574502073
 20
57.0034702286
 30
0.0
 10
58.5387091093
 20
57.1155901785
 30
0.0
  0
SPLINE
  5
434
100
AcDbEntity
  8
0
100
AcDbSpline
 62
7
  6
CONTINUOUS
 70
0
 71
3
 72
11
 73
7
 74
0
 42
0.0000001
 43
0.0000001
 44
0.0000000001
 40
0.0
 40
0.0
 40
0.0
 40
0.0
 40
0.2897456384
 40
0.5490780534
 40
0.7822213193
 40
1.0
 40
1.0
 40
1.0
 40
1.0
 10
73.6979864653
 20
101.1953403359
 30
0.0
 10
73.6979864653
 20
101.4031109305
 30
0.0
 10
73.7294346029
 20
101.7981871238
 30
0.0
 10
73.8894940501
 20
102.3409944583
 30
0.0
 10
74.1588705753
 20
102.781419568
 30
0.0
 10
74.4119014305
 20
102.9941831614
 30
0.0
 10
74.5471575445
 20
103.0722418557
 30
0.0
  0
SPLINE
  5
435
100
AcDbEntity
  8
0
100
AcDbSpline
 62
7
  6
CONTINUOUS
 70
0
 71
3
 72
17
 73
13
 74
0
 42
0.0000001
 43
0.0000001
 44
0.0000000001
 40
0.0
 40
0.0
 40
0.0
 40
0.0
 40
0.1286928658
 40
0.2702772039
 40
0.4174332772
 40
0.5617777796
 40
0.6954481899
 40
0.8127105853
 40
0.8646767449
 40
0.9125094186
 40
0.9571395686
 40
1.0
 40
1.0
 40
1.0
 40
1.0
 10
79.1427313489
 20
98.0518865261
 30
0.0
 10
79.1427313489
 20
98.3596070949
 30
0.0
 10
79.0566535681
 20
99.0066133075
 30
0.0
 10
78.7353215635
 20
99.9565913315
 30
0.0
 10
78.2402352428
 20
100.8717360841
 30
0.0
 10
77.6111319914
 20
101.6769947926
 30
0.0
 10
76.8994289365
 20
102.3073322831
 30
0.0
 10
76.2552258193
 20
102.659499162
 30
0.0
 10
75.751328937
 20
102.7936377826
 30
0.0
 10
75.4045071818
 20
102.8190670732
 30
0.0
 10
75.0815487664
 20
102.7718131698
 30
0.0
 10
74.8859185913
 20
102.6904571296
 30
0.0
 10
74.7971551407
 20
102.6392307477
 30
0.0
  0
SPLINE
  5
436
100
AcDbEntity
  8
0
100
AcDbSpline
 62
7
  6
CONTINUOUS
 70
0
 71
3
 72
11
 73
7
 74
0
 42
0.0000001
 43
0.0000001
 44
0.0000000001
 40
0.0
 40
0.0
 40
0.0
 40
0.0
 40
0.229231491
 40
0.4815309993
 40
0.7435375368
 40
1.0
 40
1.0
 40
1.0
 40
1.0
 10
79.1427313489
 20
43.6728255452
 30
0.0
 10
79.1427313489
 20
43.9840503035
 30
0.0
 10
79.0547086912
 20
44.6385530835
 30
0.0
 10
78.7267612895
 20
45.5984882253
 30
0.0
 10
78.2224558724
 20
46.520871928
 30
0.0
 10
77.7828122041
 20
47.0762901831
 30
0.0
 10
77.5413062489
 20
47.3271193418
 30
0.0
  0
SPLINE
  5
437
100
AcDbEntity
  8
0
100
AcDbSpline
 62
7
  6
CONTINUOUS
 70
0
 71
3
 72
9
 73
5
 74
0
 42
0.0000001
 43
0.0000001
 44
0.0000000001
 40
0.0
 40
0.0
 40
0.0
 40
0.0
 40
0.5170164673
 40
1.0
 40
1.0
 40
1.0
 40
1.0
 10
101.6379191577
 20
115.9811017753
 30
0.0
 10
101.6854522551
 20
116.047364256
 30
0.0
 10
101.7620490898
 20
116.18808871
 30
0.0
 10
101.7901463644
 20
116.3467836497
 30
0.0
 10
101.7901463503
 20
116.4229639039
 30
0.0
  0
SPLINE
  5
438
100
AcDbEntity
  8
0
100
AcDbSpline
 62
7
  6
CONTINUOUS
 70
0
 71
3
 72
11
 73
7
 74
0
 42
0.0000001
 43
0.0000001
 44
0.0000000001
 40
0.0
 40
0.0
 40
0.0
 40
0.0
 40
0.2177800231
 40
0.4509245561
 40
0.7102600928
 40
1.0
 40
1.0
 40
1.0
 40
1.0
 10
79.2127979232
 20
96.2974604281
 30
0.0
 10
79.3480552063
 20
96.3755188059
 30
0.0
 10
79.6010845306
 20
96.5882872093
 30
0.0
 10
79.8704641512
 20
97.0287141582
 30
0.0
 10
80.0305204338
 20
97.5715214635
 30
0.0
 10
80.0619692813
 20
97.966595131
 30
0.0
 10
80.0619692813
 20
98.1743614719
 30
0.0
  0
SPLINE
  5
439
100
AcDbEntity
  8
0
100
AcDbSpline
 62
7
  6
CONTINUOUS
 70
0
 71
3
 72
18
 73
14
 74
0
 42
0.0000001
 43
0.0000001
 44
0.0000000001
 40
0.0
 40
0.0
 40
0.0
 40
0.0
 40
0.0428473451
 40
0.0874649479
 40
0.1352844062
 40
0.1872363199
 40
0.2437266825
 40
0.304730927
 40
0.4383630919
 40
0.5826685553
 40
0.7297891088
 40
0.8713401234
 40
1.0
 40
1.0
 40
1.0
 40
1.0
 10
74.5471575445
 20
103.0722418557
 30
0.0
 10
74.6482448464
 20
103.1305811245
 30
0.0
 10
74.8710352253
 20
103.2232404727
 30
0.0
 10
75.2388472722
 20
103.2770594635
 30
0.0
 10
75.6338120464
 20
103.2480739215
 30
0.0
 10
76.047149445
 20
103.1381983705
 30
0.0
 10
76.4708034246
 20
102.9510018518
 30
0.0
 10
77.0556435631
 20
102.5930763725
 30
0.0
 10
77.7523218758
 20
101.9760452328
 30
0.0
 10
78.4682950868
 20
101.0594113241
 30
0.0
 10
79.032305655
 20
100.0170248981
 30
0.0
 10
79.3982423187
 20
98.9351174862
 30
0.0
 10
79.4962862115
 20
98.198228565
 30
0.0
 10
79.4962862115
 20
97.8477661488
 30
0.0
  0
SPLINE
  5
43A
100
AcDbEntity
  8
0
100
AcDbSpline
 62
7
  6
CONTINUOUS
 70
0
 71
3
 72
11
 73
7
 74
0
 42
0.0000001
 43
0.0000001
 44
0.0000000001
 40
0.0
 40
0.0
 40
0.0
 40
0.0
 40
0.2177825102
 40
0.4509091639
 40
0.7102957096
 40
1.0
 40
1.0
 40
1.0
 40
1.0
 10
71.6727841069
 20
44.3700247469
 30
0.0
 10
71.6068108242
 20
44.4081135853
 30
0.0
 10
71.4833773533
 20
44.511882892
 30
0.0
 10
71.3519679686
 20
44.7267427823
 30
0.0
 10
71.2739185666
 20
44.991530821
 30
0.0
 10
71.2585544756
 20
45.1842516536
 30
0.0
 10
71.2585544756
 20
45.2855883998
 30
0.0
  0
SPLINE
  5
43B
100
AcDbEntity
  8
0
100
AcDbSpline
 62
7
  6
CONTINUOUS
 70
0
 71
3
 72
13
 73
9
 74
0
 42
0.0000001
 43
0.0000001
 44
0.0000000001
 40
0.0
 40
0.0
 40
0.0
 40
0.0
 40
0.2604001068
 40
0.3798026235
 40
0.4968486639
 40
0.7369717975
 40
0.8651488138
 40
1.0
 40
1.0
 40
1.0
 40
1.0
 10
69.7119554407
 20
51.4076445221
 30
0.0
 10
69.9671537032
 20
51.2602946877
 30
0.0
 10
70.322385953
 20
51.0064297028
 30
0.0
 10
70.6908849262
 20
50.5788547381
 30
0.0
 10
70.974947471
 20
50.1179435342
 30
0.0
 10
71.1512253503
 20
49.5895711914
 30
0.0
 10
71.2385274232
 20
49.0265542408
 30
0.0
 10
71.2557723165
 20
48.7288160984
 30
0.0
 10
71.2582610995
 20
48.5762313684
 30
0.0
  0
SPLINE
  5
43C
100
AcDbEntity
  8
0
100
AcDbSpline
 62
7
  6
CONTINUOUS
 70
0
 71
3
 72
18
 73
14
 74
0
 42
0.0000001
 43
0.0000001
 44
0.0000000001
 40
0.0
 40
0.0
 40
0.0
 40
0.0
 40
0.1286583968
 40
0.2702050131
 40
0.4173221335
 40
0.5616290576
 40
0.6952643117
 40
0.7562698317
 40
0.8127605314
 40
0.8647128568
 40
0.9125327733
 40
0.9571510445
 40
1.0
 40
1.0
 40
1.0
 40
1.0
 10
80.0619692813
 20
98.1743614719
 30
0.0
 10
80.0619692813
 20
98.5248198439
 30
0.0
 10
79.9639289349
 20
99.2616926992
 30
0.0
 10
79.5980070429
 20
100.3435779072
 30
0.0
 10
79.0340149698
 20
101.3859537915
 30
0.0
 10
78.318050751
 20
102.3025998745
 30
0.0
 10
77.6213610883
 20
102.9196407896
 30
0.0
 10
77.0365173114
 20
103.2775855737
 30
0.0
 10
76.6128567186
 20
103.4647806752
 30
0.0
 10
76.1995191565
 20
103.5746664338
 30
0.0
 10
75.8045494931
 20
103.6036559329
 30
0.0
 10
75.4367312737
 20
103.5498324129
 30
0.0
 10
75.2139323113
 20
103.4571776063
 30
0.0
 10
75.1128408931
 20
103.3988367027
 30
0.0
  0
SPLINE
  5
43D
100
AcDbEntity
  8
0
100
AcDbSpline
 62
7
  6
CONTINUOUS
 70
0
 71
3
 72
11
 73
7
 74
0
 42
0.0000001
 43
0.0000001
 44
0.0000000001
 40
0.0
 40
0.0
 40
0.0
 40
0.0
 40
0.2502305522
 40
0.4917491617
 40
0.7372516354
 40
1.0
 40
1.0
 40
1.0
 40
1.0
 10
58.7427346837
 20
61.2625321054
 30
0.0
 10
58.5676075675
 20
61.3636395074
 30
0.0
 10
58.2448886662
 20
61.604413145
 30
0.0
 10
57.8791586378
 20
62.0852809248
 30
0.0
 10
57.6671142779
 20
62.661618542
 30
0.0
 10
57.6297256938
 20
63.0747187388
 30
0.0
 10
57.6297294876
 20
63.2870529618
 30
0.0
  0
SPLINE
  5
43E
100
AcDbEntity
  8
0
100
AcDbSpline
 62
7
  6
CONTINUOUS
 70
0
 71
3
 72
11
 73
7
 74
0
 42
0.0000001
 43
0.0000001
 44
0.0000000001
 40
0.0
 40
0.0
 40
0.0
 40
0.0
 40
0.2897456384
 40
0.5490780534
 40
0.7822213193
 40
1.0
 40
1.0
 40
1.0
 40
1.0
 10
79.4962862115
 20
97.8477661488
 30
0.0
 10
79.4962862115
 20
97.6399955542
 30
0.0
 10
79.4648380738
 20
97.2449193609
 30
0.0
 10
79.3047786267
 20
96.7021120264
 30
0.0
 10
79.0354021015
 20
96.2616869167
 30
0.0
 10
78.7823712463
 20
96.0489233233
 30
0.0
 10
78.6471151323
 20
95.970864629
 30
0.0
  0
SPLINE
  5
43F
100
AcDbEntity
  8
0
100
AcDbSpline
 62
7
  6
CONTINUOUS
 70
0
 71
3
 72
17
 73
13
 74
0
 42
0.0000001
 43
0.0000001
 44
0.0000000001
 40
0.0
 40
0.0
 40
0.0
 40
0.0
 40
0.1286928658
 40
0.2702772039
 40
0.4174332772
 40
0.5617777796
 40
0.6954481899
 40
0.8127105853
 40
0.8646767449
 40
0.9125094186
 40
0.9571395686
 40
1.0
 40
1.0
 40
1.0
 40
1.0
 10
74.0515413279
 20
100.9912199586
 30
0.0
 10
74.0515413279
 20
100.6834993897
 30
0.0
 10
74.1376191087
 20
100.0364931772
 30
0.0
 10
74.4589511132
 20
99.0865151531
 30
0.0
 10
74.9540374339
 20
98.1713704005
 30
0.0
 10
75.5831406854
 20
97.3661116921
 30
0.0
 10
76.2948437403
 20
96.7357742015
 30
0.0
 10
76.9390468575
 20
96.3836073227
 30
0.0
 10
77.4429437397
 20
96.2494687021
 30
0.0
 10
77.7897654949
 20
96.2240394115
 30
0.0
 10
78.1127239104
 20
96.2712933149
 30
0.0
 10
78.3083540855
 20
96.352649355
 30
0.0
 10
78.3971175361
 20
96.4038757369
 30
0.0
  0
SPLINE
  5
440
100
AcDbEntity
  8
0
100
AcDbSpline
 62
7
  6
CONTINUOUS
 70
0
 71
3
 72
17
 73
13
 74
0
 42
0.0000001
 43
0.0000001
 44
0.0000000001
 40
0.0
 40
0.0
 40
0.0
 40
0.0
 40
0.1449590217
 40
0.2936623258
 40
0.4401377592
 40
0.5787106314
 40
0.7047595392
 40
0.7622659445
 40
0.8159103912
 40
0.9123605815
 40
0.9568133563
 40
1.0
 40
1.0
 40
1.0
 40
1.0
 10
74.2370593228
 20
45.4034892575
 30
0.0
 10
74.3174523095
 20
45.1274205089
 30
0.0
 10
74.5255861917
 20
44.5806042387
 30
0.0
 10
74.9498311097
 20
43.8145358529
 30
0.0
 10
75.4699814512
 20
43.1252911236
 30
0.0
 10
76.055629724
 20
42.5532273431
 30
0.0
 10
76.5870168104
 20
42.1901521777
 30
0.0
 10
77.0160018618
 20
41.9938567275
 30
0.0
 10
77.4095672299
 20
41.8710565131
 30
0.0
 10
77.8028500369
 20
41.8359831783
 30
0.0
 10
78.1624405999
 20
41.9111782195
 30
0.0
 10
78.3229229686
 20
41.9819962399
 30
0.0
 10
78.3971175361
 20
42.0248147561
 30
0.0
  0
SPLINE
  5
441
100
AcDbEntity
  8
0
100
AcDbSpline
 62
7
  6
CONTINUOUS
 70
0
 71
3
 72
11
 73
7
 74
0
 42
0.0000001
 43
0.0000001
 44
0.0000000001
 40
0.0
 40
0.0
 40
0.0
 40
0.0
 40
0.2897456384
 40
0.5490780534
 40
0.7822213193
 40
1.0
 40
1.0
 40
1.0
 40
1.0
 10
79.4962862115
 20
43.468705168
 30
0.0
 10
79.4962862115
 20
43.2609345733
 30
0.0
 10
79.4648380738
 20
42.86585838
 30
0.0
 10
79.3047786267
 20
42.3230510456
 30
0.0
 10
79.0354021015
 20
41.8826259358
 30
0.0
 10
78.7823712463
 20
41.6698623424
 30
0.0
 10
78.6471151323
 20
41.5918036482
 30
0.0
  0
SPLINE
  5
442
100
AcDbEntity
  8
0
100
AcDbSpline
 62
7
  6
CONTINUOUS
 70
0
 71
3
 72
10
 73
6
 74
0
 42
0.0000001
 43
0.0000001
 44
0.0000000001
 40
0.0
 40
0.0
 40
0.0
 40
0.0
 40
0.2280013718
 40
0.4756449711
 40
1.0
 40
1.0
 40
1.0
 40
1.0
 10
108.0046315655
 20
123.4828075996
 30
0.0
 10
108.0046315655
 20
123.3663688914
 30
0.0
 10
108.0301148555
 20
123.1231169925
 30
0.0
 10
108.1652157161
 20
122.6293056331
 30
0.0
 10
108.3506542507
 20
122.2739206262
 30
0.0
 10
108.5040774667
 20
122.0544443655
 30
0.0
  0
SPLINE
  5
443
100
AcDbEntity
  8
0
100
AcDbSpline
 62
7
  6
CONTINUOUS
 70
0
 71
3
 72
11
 73
7
 74
0
 42
0.0000001
 43
0.0000001
 44
0.0000000001
 40
0.0
 40
0.0
 40
0.0
 40
0.0
 40
0.253919027
 40
0.499153869
 40
0.7448439518
 40
1.0
 40
1.0
 40
1.0
 40
1.0
 10
69.8120520821
 20
54.9728909985
 30
0.0
 10
69.843943049
 20
54.9544784705
 30
0.0
 10
69.9030700445
 20
54.9113027004
 30
0.0
 10
69.9715828287
 20
54.8260426632
 30
0.0
 10
70.0136015932
 20
54.7248140395
 30
0.0
 10
70.0223448617
 20
54.6517396377
 30
0.0
 10
70.0223448617
 20
54.6147355871
 30
0.0
  0
SPLINE
  5
444
100
AcDbEntity
  8
0
100
AcDbSpline
 62
7
  6
CONTINUOUS
 70
0
 71
3
 72
15
 73
11
 74
0
 42
0.0000001
 43
0.0000001
 44
0.0000000001
 40
0.0
 40
0.0
 40
0.0
 40
0.0
 40
0.1115736528
 40
0.2334452179
 40
0.3615900135
 40
0.4917658654
 40
0.6214621656
 40
0.7496935693
 40
0.8760676252
 40
1.0
 40
1.0
 40
1.0
 40
1.0
 10
70.0223448617
 20
54.6147355871
 30
0.0
 10
70.0223448617
 20
54.548292496
 30
0.0
 10
69.9923035692
 20
54.4086745176
 30
0.0
 10
69.8792298553
 20
54.2217910716
 30
0.0
 10
69.7098995583
 20
54.0671021851
 30
0.0
 10
69.5022499576
 20
53.9601779234
 30
0.0
 10
69.2753309235
 20
53.9064197409
 30
0.0
 10
69.0447163969
 20
53.9040538826
 30
0.0
 10
68.8222317432
 20
53.9484751344
 30
0.0
 10
68.6838589722
 20
54.0076630027
 30
0.0
 10
68.6199462518
 20
54.0445685606
 30
0.0
  0
SPLINE
  5
445
100
AcDbEntity
  8
0
100
AcDbSpline
 62
7
  6
CONTINUOUS
 70
0
 71
3
 72
15
 73
11
 74
0
 42
0.0000001
 43
0.0000001
 44
0.0000000001
 40
0.0
 40
0.0
 40
0.0
 40
0.0
 40
0.0869252176
 40
0.1863952294
 40
0.3037887542
 40
0.4375985707
 40
0.5820955914
 40
0.7293795809
 40
0.8712014596
 40
1.0
 40
1.0
 40
1.0
 40
1.0
 10
59.5894583802
 20
59.2582407265
 30
0.0
 10
59.6244346453
 20
59.2380805711
 30
0.0
 10
59.7122459336
 20
59.2154433193
 30
0.0
 10
59.8536555622
 20
59.2437863903
 30
0.0
 10
59.9980968833
 20
59.3226938701
 30
0.0
 10
60.1366160224
 20
59.4453468161
 30
0.0
 10
60.2588678911
 20
59.6018889644
 30
0.0
 10
60.3552099415
 20
59.7798297511
 30
0.0
 10
60.4176365772
 20
59.9645686515
 30
0.0
 10
60.4344102292
 20
60.0903894731
 30
0.0
 10
60.4344102292
 20
60.150206999
 30
0.0
  0
SPLINE
  5
446
100
AcDbEntity
  8
0
100
AcDbSpline
 62
7
  6
CONTINUOUS
 70
0
 71
3
 72
13
 73
9
 74
0
 42
0.0000001
 43
0.0000001
 44
0.0000000001
 40
0.0
 40
0.0
 40
0.0
 40
0.0
 40
0.1142253587
 40
0.237559206
 40
0.5000004539
 40
0.7624414493
 40
0.885775028
 40
1.0
 40
1.0
 40
1.0
 40
1.0
 10
97.8102373238
 20
119.1990078334
 30
0.0
 10
97.713449611
 20
119.2548869812
 30
0.0
 10
97.5017040737
 20
119.3534598909
 30
0.0
 10
97.032500051
 20
119.4960141293
 30
0.0
 10
96.3960217199
 20
119.5652158588
 30
0.0
 10
95.7595439192
 20
119.4960112593
 30
0.0
 10
95.2903415288
 20
119.3534546703
 30
0.0
 10
95.0785971812
 20
119.2548806913
 30
0.0
 10
94.981810199
 20
119.1990010347
 30
0.0
  0
SPLINE
  5
447
100
AcDbEntity
  8
0
100
AcDbSpline
 62
7
  6
CONTINUOUS
 70
0
 71
3
 72
11
 73
7
 74
0
 42
0.0000001
 43
0.0000001
 44
0.0000000001
 40
0.0
 40
0.0
 40
0.0
 40
0.0
 40
0.2286605152
 40
0.4798766495
 40
0.7416256393
 40
1.0
 40
1.0
 40
1.0
 40
1.0
 10
80.0619692813
 20
43.7953004911
 30
0.0
 10
80.0619692813
 20
44.1332702582
 30
0.0
 10
79.9707553437
 20
44.8433524377
 30
0.0
 10
79.6278283218
 20
45.889745472
 30
0.0
 10
79.0973260274
 20
46.9043177025
 30
0.0
 10
78.6336794141
 20
47.5229061138
 30
0.0
 10
78.3781523062
 20
47.8067095564
 30
0.0
  0
SPLINE
  5
448
100
AcDbEntity
  8
0
100
AcDbSpline
 62
7
  6
CONTINUOUS
 70
0
 71
3
 72
17
 73
13
 74
0
 42
0.0000001
 43
0.0000001
 44
0.0000000001
 40
0.0
 40
0.0
 40
0.0
 40
0.0
 40
0.1156897166
 40
0.2394336956
 40
0.3682566905
 40
0.4994746104
 40
0.5654907938
 40
0.6313477931
 40
0.6967334094
 40
0.7612438637
 40
0.8852274361
 40
1.0
 40
1.0
 40
1.0
 40
1.0
 10
71.2585544756
 20
61.6262957971
 30
0.0
 10
71.2544915825
 20
61.3002347473
 30
0.0
 10
71.1902208558
 20
60.6253483496
 30
0.0
 10
70.9380157371
 20
59.6142572624
 30
0.0
 10
70.4961744704
 20
58.6196460576
 30
0.0
 10
69.9372898334
 20
57.8756006179
 30
0.0
 10
69.3727960049
 20
57.3906439141
 30
0.0
 10
68.8973508725
 20
57.0976530885
 30
0.0
 10
68.3838911903
 20
56.8885333798
 30
0.0
 10
67.6828014276
 20
56.7316266539
 30
0.0
 10
66.8133221982
 20
56.7492065289
 30
0.0
 10
66.1647048226
 20
56.977552587
 30
0.0
 10
65.8845429387
 20
57.1393004669
 30
0.0
  0
SPLINE
  5
449
100
AcDbEntity
  8
0
100
AcDbSpline
 62
7
  6
CONTINUOUS
 70
0
 71
3
 72
11
 73
7
 74
0
 42
0.0000001
 43
0.0000001
 44
0.0000000001
 40
0.0
 40
0.0
 40
0.0
 40
0.0
 40
0.2177800231
 40
0.4509245561
 40
0.7102600928
 40
1.0
 40
1.0
 40
1.0
 40
1.0
 10
79.2127979232
 20
41.9183994473
 30
0.0
 10
79.3480552063
 20
41.9964578251
 30
0.0
 10
79.6010845306
 20
42.2092262285
 30
0.0
 10
79.8704641512
 20
42.6496531774
 30
0.0
 10
80.0305204338
 20
43.1924604827
 30
0.0
 10
80.0619692813
 20
43.5875341501
 30
0.0
 10
80.0619692813
 20
43.7953004911
 30
0.0
  0
SPLINE
  5
44A
100
AcDbEntity
  8
0
100
AcDbSpline
 62
7
  6
CONTINUOUS
 70
0
 71
3
 72
11
 73
7
 74
0
 42
0.0000001
 43
0.0000001
 44
0.0000000001
 40
0.0
 40
0.0
 40
0.0
 40
0.0
 40
0.2893975675
 40
0.5491290883
 40
0.7823145228
 40
1.0
 40
1.0
 40
1.0
 40
1.0
 10
60.4344102292
 20
60.150206999
 30
0.0
 10
60.4344102292
 20
60.1856363452
 30
0.0
 10
60.4289652019
 20
60.25307962
 30
0.0
 10
60.4017520441
 20
60.3457953393
 30
0.0
 10
60.355713009
 20
60.4210191008
 30
0.0
 10
60.3125058517
 20
60.4573229808
 30
0.0
 10
60.2894167062
 20
60.4706314561
 30
0.0
  0
SPLINE
  5
44B
100
AcDbEntity
  8
0
100
AcDbSpline
 62
7
  6
CONTINUOUS
 70
0
 71
3
 72
11
 73
7
 74
0
 42
0.0000001
 43
0.0000001
 44
0.0000000001
 40
0.0
 40
0.0
 40
0.0
 40
0.0
 40
0.2583756121
 40
0.5201261344
 40
0.7713424335
 40
1.0
 40
1.0
 40
1.0
 40
1.0
 10
77.8129423611
 20
47.4795849724
 30
0.0
 10
78.0683992181
 20
47.1957978162
 30
0.0
 10
78.5319165626
 20
46.577263766
 30
0.0
 10
79.0622752949
 20
45.5628193674
 30
0.0
 10
79.4051020205
 20
44.5165812538
 30
0.0
 10
79.4962862115
 20
43.8066166313
 30
0.0
 10
79.4962862115
 20
43.468705168
 30
0.0
  0
SPLINE
  5
44C
100
AcDbEntity
  8
0
100
AcDbSpline
 62
7
  6
CONTINUOUS
 70
0
 71
3
 72
13
 73
9
 74
0
 42
0.0000001
 43
0.0000001
 44
0.0000000001
 40
0.0
 40
0.0
 40
0.0
 40
0.0
 40
0.1142260229
 40
0.2375602528
 40
0.5000015383
 40
0.7624419778
 40
0.8857752456
 40
1.0
 40
1.0
 40
1.0
 40
1.0
 10
71.2585544756
 20
78.7621875021
 30
0.0
 10
71.2585544756
 20
78.8739484794
 30
0.0
 10
71.2790584197
 20
79.1066134658
 30
0.0
 10
71.3902009515
 20
79.5842358173
 30
0.0
 10
71.6485059236
 20
80.1700456143
 30
0.0
 10
72.0266763567
 20
80.6866505418
 30
0.0
 10
72.3847351591
 20
81.0217128436
 30
0.0
 10
72.575975235
 20
81.1558010262
 30
0.0
 10
72.6727621501
 20
81.2116806441
 30
0.0
  0
SPLINE
  5
44D
100
AcDbEntity
  8
0
100
AcDbSpline
 62
7
  6
CONTINUOUS
 70
0
 71
3
 72
11
 73
7
 74
0
 42
0.0000001
 43
0.0000001
 44
0.0000000001
 40
0.0
 40
0.0
 40
0.0
 40
0.0
 40
0.2177817009
 40
0.4509079353
 40
0.7102947134
 40
1.0
 40
1.0
 40
1.0
 40
1.0
 10
101.7901463503
 20
116.4229639039
 30
0.0
 10
101.7901463362
 20
116.4991407314
 30
0.0
 10
101.7619952257
 20
116.6579173527
 30
0.0
 10
101.641626098
 20
116.8791439888
 30
0.0
 10
101.4513396218
 20
117.0791237904
 30
0.0
 10
101.2921228709
 20
117.1887857528
 30
0.0
 10
101.2043640045
 20
117.2394522117
 30
0.0
  0
SPLINE
  5
44E
100
AcDbEntity
  8
0
100
AcDbSpline
 62
7
  6
CONTINUOUS
 70
0
 71
3
 72
11
 73
7
 74
0
 42
0.0000001
 43
0.0000001
 44
0.0000000001
 40
0.0
 40
0.0
 40
0.0
 40
0.0
 40
0.217780887
 40
0.450925738
 40
0.7102608723
 40
1.0
 40
1.0
 40
1.0
 40
1.0
 10
74.7971551407
 20
102.6392307477
 30
0.0
 10
74.6783922311
 20
102.570691342
 30
0.0
 10
74.4562205698
 20
102.3838687513
 30
0.0
 10
74.2196908572
 20
101.997152774
 30
0.0
 10
74.0791552439
 20
101.5205414632
 30
0.0
 10
74.0515413279
 20
101.1736484348
 30
0.0
 10
74.0515413279
 20
100.9912199586
 30
0.0
  0
SPLINE
  5
44F
100
AcDbEntity
  8
0
100
AcDbSpline
 62
7
  6
CONTINUOUS
 70
0
 71
3
 72
12
 73
8
 74
0
 42
0.0000001
 43
0.0000001
 44
0.0000000001
 40
0.0
 40
0.0
 40
0.0
 40
0.0
 40
0.2557030333
 40
0.5172266459
 40
0.7696309528
 40
0.8883107231
 40
1.0
 40
1.0
 40
1.0
 40
1.0
 10
58.7780902009
 20
61.2421200498
 30
0.0
 10
59.1781849376
 20
61.6551285095
 30
0.0
 10
59.9078323255
 20
62.5704417453
 30
0.0
 10
60.7487792353
 20
64.0911763252
 30
0.0
 10
61.2201613036
 20
65.4429534203
 30
0.0
 10
61.421881414
 20
66.5113200692
 30
0.0
 10
61.4619553627
 20
67.0292836357
 30
0.0
 10
61.4650847824
 20
67.2804302471
 30
0.0
  0
ELLIPSE
  5
450
100
AcDbEntity
  8
0
100
AcDbEllipse
 62
7
  6
CONTINUOUS
 10
73.4982126399
 20
145.4466143288
 30
0.0
 11
-1.1022032659
 21
1.4381845897
 31
0.0
 40
0.4692929977
 41
7.0071677847
 42
8.0258654176
  0
ELLIPSE
  5
451
100
AcDbEntity
  8
0
100
AcDbEllipse
 62
7
  6
CONTINUOUS
 10
86.014054775
 20
138.2207529738
 30
0.0
 11
-1.1022032659
 21
1.4381845897
 31
0.0
 40
0.4692929977
 41
7.0071677847
 42
8.0258654176
  0
ELLIPSE
  5
452
100
AcDbEntity
  8
0
100
AcDbEllipse
 62
7
  6
CONTINUOUS
 10
98.5298969101
 20
130.9948916188
 30
0.0
 11
-1.1022032659
 21
1.4381845897
 31
0.0
 40
0.4692929977
 41
7.0071677847
 42
8.0258654176
  0
ELLIPSE
  5
453
100
AcDbEntity
  8
0
100
AcDbEllipse
 62
7
  6
CONTINUOUS
 10
111.0457390452
 20
123.7690302638
 30
0.0
 11
-1.1022032659
 21
1.4381845897
 31
0.0
 40
0.4692929977
 41
7.0071677847
 42
8.0258654176
  0
ENDSEC
  0
SECTION
  2
OBJECTS
  0
DICTIONARY
  5
C
100
AcDbDictionary
280
0
281
1
  3
ACAD_GROUP
350
D
  3
ACAD_MLINESTYLE
350
17
  3
ACAD_LAYOUT
350
1A
  3
ACAD_PLOTSETTINGS
350
19
  3
ACAD_PLOTSTYLENAME
350
E
  0
DICTIONARY
  5
D
102
{ACAD_REACTORS
330
C
102
}
100
AcDbDictionary
280
0
281
1
  0
ACDBDICTIONARYWDFLT
  5
E
102
{ACAD_REACTORS
330
C
102
}
100
AcDbDictionary
281
1
  3
Normal
350
F
100
AcDbDictionaryWithDefault
340
F
  0
DICTIONARY
  5
17
102
{ACAD_REACTORS
330
C
102
}
100
AcDbDictionary
280
0
281
1
  3
Standard
350
18
  0
DICTIONARY
  5
19
102
{ACAD_REACTORS
330
C
102
}
100
AcDbDictionary
281
1
  0
DICTIONARY
  5
1A
102
{ACAD_REACTORS
330
C
102
}
100
AcDbDictionary
281
1
  3
Model
350
454
  3
Layout1
350
455
  0
ACDBPLACEHOLDER
  5
F
102
{ACAD_REACTORS
330
E
102
}
  0
MLINESTYLE
  5
18
102
{ACAD_REACTORS
330
17
102
}
100
AcDbMlineStyle
  2
STANDARD
 70
0
  3

 62
256
 51
90.0
 52
90.0
 71
2
 49
0.5
 62
256
  6
BYLAYER
 49
-0.5
 62
256
  6
BYLAYER
  0
LAYOUT
  5
454
102
{ACAD_REACTORS
330
1A
102
}
100
AcDbPlotSettings
  1

  2
none_device
  4

  6

 40
0.0
 41
0.0
 42
0.0
 43
0.0
 44
210.0
 45
297.0
 46
0.0
 47
0.0
 48
0.0
 49
0.0
140
0.0
141
0.0
142
1.0
143
1.0
 70
1024
 72
1
 73
0
 74
0
  7

 75
0
147
1.0
148
0.0
149
0.0
100
AcDbLayout
  1
Model
 70
0
 71
0
 10
0.0
 20
0.0
 11
210.0
 21
297.0
 12
0.0
 22
0.0
 32
0.0
 14
0.0
 24
0.0
 34
0.0
 15
0.0
 25
0.0
 35
0.0
146
0.0
 13
0.0
 23
0.0
 33
0.0
 16
1.0
 26
0.0
 36
0.0
 17
0.0
 27
1.0
 37
0.0
 76
0
330
210
345
0
346
0
  0
LAYOUT
  5
455
102
{ACAD_REACTORS
330
1A
102
}
100
AcDbPlotSettings
  1

  2
none_device
  4

  6

 40
0.0
 41
0.0
 42
0.0
 43
0.0
 44
210.0
 45
297.0
 46
0.0
 47
0.0
 48
0.0
 49
0.0
140
0.0
141
0.0
142
1.0
143
1.0
 70
0
 72
1
 73
0
 74
0
  7

 75
0
147
1.0
148
0.0
149
0.0
100
AcDbLayout
  1
Layout1
 70
0
 71
1
 10
0.0
 20
0.0
 11
210.0
 21
297.0
 12
0.0
 22
0.0
 32
0.0
 14
0.0
 24
0.0
 34
0.0
 15
0.0
 25
0.0
 35
0.0
146
0.0
 13
0.0
 23
0.0
 33
0.0
 16
1.0
 26
0.0
 36
0.0
 17
0.0
 27
1.0
 37
0.0
 76
0
330
211
345
0
346
0
  0
ENDSEC
  0
EOF
