999
DXF file: C:\Users\sesa63760\Dev\_Creo\CAD\MCADFD0002220_3D-CAD\drw0001_1.dxf
999
Pro/ENGINEER 2019471 by Parametric Technology Corporation
  0
SECTION
  2
HEADER
  9
$ACADVER
  1
AC1024
  9
$DWGCODEPAGE
  3
ANSI_1252
  9
$EXTMAX
 10
91.9633102464
 20
130.06239592
 30
0.0
  9
$EXTMIN
 10
0.0
 20
0.0
 30
0.0
  9
$LIMMIN
 10
0.0
 20
0.0
  9
$LIMMAX
 10
91.9633102464
 20
130.06239592
  9
$VIEWCTR
 10
45.9816551232
 20
65.03119796
  9
$VIEWSIZE
 40
130.06239592
  9
$CLAYER
  8
0
  9
$LTSCALE
 40
8.4781413637
  9
$CELTYPE
  6
BYLAYER
  9
$DIMSCALE
 40
1.0
  9
$DIMASZ
 40
1.0948013125
  9
$DIMEXO
 40
1.0
  9
$DIMDLI
 40
5.8576249422
  9
$DIMEXE
 40
1.0
  9
$DIMCEN
 40
1.3873322231
  9
$DIMLFAC
 40
1.0
  9
$DIMBLK
  1
_FILLED
  9
$DIMALT
 70
0
  9
$DIMALTF
 40
0.0393700787
  9
$DIMTXT
 40
1.5327218374
  9
$DIMTOL
 70
1
  9
$DIMLIM
 70
0
  9
$DIMTFAC
 40
1.0
  9
$DIMTP
 40
0.01
  9
$DIMTM
 40
0.01
  9
$DIMGAP
 40
0.625
  9
$DIMDSEP
 70
46
  9
$AUNITS
 70
0
  9
$PDMODE
 70
3
  9
$PDSIZE
 40
0.3125
  9
$HANDSEED
  5
2A7
  9
$TILEMODE
 70
1
  9
$MEASUREMENT
 70
1
  9
$INSUNITS
 70
4
  0
ENDSEC
  0
SECTION
  2
CLASSES
  0
CLASS
  1
ACDBDICTIONARYWDFLT
  2
AcDbDictionaryWithDefault
  3
AutoCAD 2000
 90
0
 91
1
280
0
281
0
  0
CLASS
  1
ACDBPLACEHOLDER
  2
AcDbPlaceHolder
  3
AutoCAD 2000
 90
0
 91
1
280
0
281
0
  0
CLASS
  1
LAYOUT
  2
AcDbLayout
  3
AutoCAD 2000
 90
0
 91
0
280
0
281
0
  0
ENDSEC
  0
SECTION
  2
TABLES
  0
TABLE
  2
VPORT
  5
8
100
AcDbSymbolTable
 70
2
  0
VPORT
  5
1F4
100
AcDbSymbolTableRecord
100
AcDbViewportTableRecord
  2
*ACTIVE
 70
0
 10
0.0
 20
0.0
 11
1.0
 21
1.0
 12
45.9816551232
 22
65.03119796
 13
0.0
 23
0.0
 14
1.0
 24
1.0
 15
0.0
 25
0.0
 16
0.0
 26
0.0
 36
1.0
 17
0.0
 27
0.0
 37
0.0
 40
130.06239592
 41
0.7070707071
 42
50.0
 43
0.0
 44
0.0
 50
0.0
 51
0.0
 71
0
 72
100
 73
1
 74
1
 75
0
 76
0
 77
0
 78
0
  0
ENDTAB
  0
TABLE
  2
LTYPE
  5
5
100
AcDbSymbolTable
 70
6
  0
LTYPE
  5
14
100
AcDbSymbolTableRecord
100
AcDbLinetypeTableRecord
  2
BYBLOCK
 70
0
  3

 72
65
 73
0
 40
0.0
  0
LTYPE
  5
15
100
AcDbSymbolTableRecord
100
AcDbLinetypeTableRecord
  2
BYLAYER
 70
0
  3

 72
65
 73
0
 40
0.0
  0
LTYPE
  5
16
100
AcDbSymbolTableRecord
100
AcDbLinetypeTableRecord
  2
CONTINUOUS
 70
64
  3
Solid line
 72
65
 73
0
 40
0.0
  0
LTYPE
  5
1F5
100
AcDbSymbolTableRecord
100
AcDbLinetypeTableRecord
  2
CENTER
 70
64
  3
____ _ ____ _ ____ _ ____ _ ____ _ ____ _ ____
 72
65
 73
4
 40
0.6
 49
0.375
 74
0
 49
-0.075
 74
0
 49
0.075
 74
0
 49
-0.075
 74
0
  0
LTYPE
  5
1F6
100
AcDbSymbolTableRecord
100
AcDbLinetypeTableRecord
  2
HIDDEN
 70
64
  3
- - - - - - - - - - - - - - - - - - - -
 72
65
 73
2
 40
0.2
 49
0.1
 74
0
 49
-0.1
 74
0
  0
LTYPE
  5
1F7
100
AcDbSymbolTableRecord
100
AcDbLinetypeTableRecord
  2
PHANTOM
 70
64
  3
_____ _ _ _____ _ _ _____ _ _ _____
 72
65
 73
6
 40
0.8
 49
0.45
 74
0
 49
-0.05
 74
0
 49
0.1
 74
0
 49
-0.05
 74
0
 49
0.1
 74
0
 49
-0.05
 74
0
  0
LTYPE
  5
1F8
100
AcDbSymbolTableRecord
100
AcDbLinetypeTableRecord
  2
DOT
 70
64
  3
. . . . . . . . . . . . . . . . . . . .
 72
65
 73
2
 40
0.2
 49
0.1
 74
0
 49
-0.1
 74
0
  0
LTYPE
  5
1F9
100
AcDbSymbolTableRecord
100
AcDbLinetypeTableRecord
  2
DASHED
 70
64
  3
- - - - - - - - - - - - - - - - - - - -
 72
65
 73
2
 40
0.2
 49
0.1
 74
0
 49
-0.1
 74
0
  0
ENDTAB
  0
TABLE
  2
LAYER
  5
2
100
AcDbSymbolTable
 70
36
  0
LAYER
  5
10
100
AcDbSymbolTableRecord
100
AcDbLayerTableRecord
  2
0
 70
0
 62
7
  6
CONTINUOUS
370
-3
390
F
  0
LAYER
  5
1FA
100
AcDbSymbolTableRecord
100
AcDbLayerTableRecord
  2
DEFAULT_1
 70
0
 62
7
  6
CENTER
370
-3
390
F
  0
LAYER
  5
1FB
100
AcDbSymbolTableRecord
100
AcDbLayerTableRecord
  2
DEFAULT_2
 70
0
 62
8
  6
HIDDEN
370
-3
390
F
  0
LAYER
  5
1FC
100
AcDbSymbolTableRecord
100
AcDbLayerTableRecord
  2
DEFAULT_3
 70
0
 62
7
  6
PHANTOM
370
-3
390
F
  0
LAYER
  5
1FD
100
AcDbSymbolTableRecord
100
AcDbLayerTableRecord
  2
00_COMPONENTS
 70
0
 62
7
  6
CONTINUOUS
370
-3
390
F
  0
LAYER
  5
1FE
100
AcDbSymbolTableRecord
100
AcDbLayerTableRecord
  2
01_1_DEFAULT_DATUMS
 70
0
 62
7
  6
CONTINUOUS
370
-3
390
F
  0
LAYER
  5
1FF
100
AcDbSymbolTableRecord
100
AcDbLayerTableRecord
  2
01_PLANES
 70
0
 62
7
  6
CONTINUOUS
370
-3
390
F
  0
LAYER
  5
200
100
AcDbSymbolTableRecord
100
AcDbLayerTableRecord
  2
02_COORD_SYS
 70
0
 62
7
  6
CONTINUOUS
370
-3
390
F
  0
LAYER
  5
201
100
AcDbSymbolTableRecord
100
AcDbLayerTableRecord
  2
03_AXES
 70
0
 62
7
  6
CONTINUOUS
370
-3
390
F
  0
LAYER
  5
202
100
AcDbSymbolTableRecord
100
AcDbLayerTableRecord
  2
04_POINTS
 70
0
 62
7
  6
CONTINUOUS
370
-3
390
F
  0
LAYER
  5
203
100
AcDbSymbolTableRecord
100
AcDbLayerTableRecord
  2
05_CURVES
 70
0
 62
7
  6
CONTINUOUS
370
-3
390
F
  0
LAYER
  5
204
100
AcDbSymbolTableRecord
100
AcDbLayerTableRecord
  2
06_SURFS
 70
0
 62
7
  6
CONTINUOUS
370
-3
390
F
  0
LAYER
  5
205
100
AcDbSymbolTableRecord
100
AcDbLayerTableRecord
  2
07_COSMETICS
 70
0
 62
7
  6
CONTINUOUS
370
-3
390
F
  0
LAYER
  5
206
100
AcDbSymbolTableRecord
100
AcDbLayerTableRecord
  2
10_NOTES
 70
0
 62
7
  6
CONTINUOUS
370
-3
390
F
  0
LAYER
  5
207
100
AcDbSymbolTableRecord
100
AcDbLayerTableRecord
  2
11_NOTES_PUB
 70
0
 62
7
  6
CONTINUOUS
370
-3
390
F
  0
LAYER
  5
208
100
AcDbSymbolTableRecord
100
AcDbLayerTableRecord
  2
13_REF_GTOL
 70
0
 62
7
  6
CONTINUOUS
370
-3
390
F
  0
LAYER
  5
209
100
AcDbSymbolTableRecord
100
AcDbLayerTableRecord
  2
16_MISC
 70
0
 62
7
  6
CONTINUOUS
370
-3
390
F
  0
LAYER
  5
20A
100
AcDbSymbolTableRecord
100
AcDbLayerTableRecord
  2
17_NO_PRINT
 70
0
 62
7
  6
CONTINUOUS
370
-3
390
F
  0
LAYER
  5
20B
100
AcDbSymbolTableRecord
100
AcDbLayerTableRecord
  2
18_DATUM_CAMS_JOINTS
 70
0
 62
7
  6
CONTINUOUS
370
-3
390
F
  0
LAYER
  5
20C
100
AcDbSymbolTableRecord
100
AcDbLayerTableRecord
  2
19_DATUM_FUNCTIONAL
 70
0
 62
7
  6
CONTINUOUS
370
-3
390
F
  0
LAYER
  5
20D
100
AcDbSymbolTableRecord
100
AcDbLayerTableRecord
  2
20_DATUM_KINEMATIC_SCHEME
 70
0
 62
7
  6
CONTINUOUS
370
-3
390
F
  0
LAYER
  5
20E
100
AcDbSymbolTableRecord
100
AcDbLayerTableRecord
  2
INTFCLR_26
 70
0
 62
7
  6
CONTINUOUS
370
-3
390
F
  0
LAYER
  5
20F
100
AcDbSymbolTableRecord
100
AcDbLayerTableRecord
  2
INTFCLR_36
 70
0
 62
7
  6
CONTINUOUS
370
-3
390
F
  0
LAYER
  5
210
100
AcDbSymbolTableRecord
100
AcDbLayerTableRecord
  2
INTFCLR_3813
 70
0
 62
7
  6
CONTINUOUS
370
-3
390
F
  0
LAYER
  5
211
100
AcDbSymbolTableRecord
100
AcDbLayerTableRecord
  2
INTFCLR_8538
 70
0
 62
7
  6
CONTINUOUS
370
-3
390
F
  0
ENDTAB
  0
TABLE
  2
STYLE
  5
3
100
AcDbSymbolTable
 70
1
  0
STYLE
  5
11
100
AcDbSymbolTableRecord
100
AcDbTextStyleTableRecord
  2
STANDARD
 70
0
 40
0.0
 41
0.8
 50
0.0
 71
0
 42
0.2
  3
txt
  4

  0
STYLE
  5
212
100
AcDbSymbolTableRecord
100
AcDbTextStyleTableRecord
  2
TEXTSTYLE_1
 70
0
 40
0.0
 41
0.8
 50
0.0
 71
0
 42
0.2
  3
gdt
  4

  0
ENDTAB
  0
TABLE
  2
VIEW
  5
6
100
AcDbSymbolTable
 70
0
  0
ENDTAB
  0
TABLE
  2
UCS
  5
7
100
AcDbSymbolTable
 70
0
  0
ENDTAB
  0
TABLE
  2
APPID
  5
9
100
AcDbSymbolTable
 70
1
  0
APPID
  5
213
100
AcDbSymbolTableRecord
100
AcDbRegAppTableRecord
  2
ACAD
 70
0
  0
ENDTAB
  0
TABLE
  2
BLOCK_RECORD
  5
1
100
AcDbSymbolTable
 70
0
  0
BLOCK_RECORD
  5
214
100
AcDbSymbolTableRecord
100
AcDbBlockTableRecord
  2
*Model_Space
  0
BLOCK_RECORD
  5
215
100
AcDbSymbolTableRecord
100
AcDbBlockTableRecord
  2
*Paper_Space
  0
BLOCK_RECORD
  5
216
100
AcDbSymbolTableRecord
100
AcDbBlockTableRecord
  2
_FILLED
  0
ENDTAB
  0
TABLE
  2
DIMSTYLE
  5
A
100
AcDbSymbolTable
 70
1
100
AcDbDimStyleTable
 71
0
  0
DIMSTYLE
105
217
100
AcDbSymbolTableRecord
100
AcDbDimStyleTableRecord
  2
STANDARD
 70
0
  3

  4

 40
1.0
 41
1.0948013125
 42
1.0
 43
0.38
 44
1.0
 45
0.0
 46
0.0
 47
0.01
 48
0.01
140
1.5327218374
141
0.09
142
0.0
143
25.4
144
1.0
145
0.0
146
1.0
147
0.625
 71
1
 72
0
 73
0
 74
0
 75
0
 76
0
 77
1
 78
8
 79
2
170
0
171
1
172
0
173
0
174
0
175
0
176
0
177
0
178
0
270
2
179
2
271
2
272
2
273
2
274
2
275
0
280
0
281
0
282
0
283
1
284
8
285
0
286
0
287
3
288
0
340
11
278
46
341
216
342
216
343
216
344
216
  0
ENDTAB
  0
ENDSEC
  0
SECTION
  2
BLOCKS
  0
BLOCK
  5
20
100
AcDbEntity
  8
0
100
AcDbBlockBegin
  2
*Model_Space
 70
0
 10
0.0
 20
0.0
 30
0.0
  3
*Model_Space
  1

  0
ENDBLK
  5
21
100
AcDbEntity
  8
0
100
AcDbBlockEnd
  0
BLOCK
  5
1C
100
AcDbEntity
  8
0
100
AcDbBlockBegin
  2
*Paper_Space
 70
0
 10
0.0
 20
0.0
 30
0.0
  3
*Paper_Space
  1

  0
ENDBLK
  5
1D
100
AcDbEntity
  8
0
100
AcDbBlockEnd
  0
BLOCK
  5
218
100
AcDbEntity
  8
0
100
AcDbBlockBegin
  2
_FILLED
 70
64
 10
0.0
 20
0.0
  3
_FILLED
  1

  0
SOLID
  5
219
100
AcDbEntity
  8
0
  6
BYBLOCK
 62
0
100
AcDbTrace
 10
0.0
 20
0.0
 11
-1.0
 21
0.25
 12
-1.0
 22
-0.25
 13
-1.0
 23
-0.25
  0
ENDBLK
  5
21A
100
AcDbEntity
  8
0
  6
BYBLOCK
 62
0
100
AcDbBlockEnd
  0
ENDSEC
  0
SECTION
  2
ENTITIES
  0
LINE
  5
21B
100
AcDbEntity
  8
0
100
AcDbLine
 62
7
  6
CONTINUOUS
 10
47.8626740883
 20
11.0357466669
 11
22.406723983
 21
25.7324138296
  0
LINE
  5
21C
100
AcDbEntity
  8
0
100
AcDbLine
 62
7
  6
CONTINUOUS
 10
57.2669431576
 20
119.3440681571
 11
22.406723983
 21
99.2176313713
  0
LINE
  5
21D
100
AcDbEntity
  8
0
100
AcDbLine
 62
7
  6
CONTINUOUS
 10
22.9725112692
 20
30.1010060221
 11
10.6688020516
 21
37.2043951508
  0
LINE
  5
21E
100
AcDbEntity
  8
0
100
AcDbLine
 62
7
  6
CONTINUOUS
 10
35.8419070892
 20
22.8343212715
 11
23.5381978717
 21
29.9377104002
  0
LINE
  5
21F
100
AcDbEntity
  8
0
100
AcDbLine
 62
7
  6
CONTINUOUS
 10
10.6688020516
 20
73.9470039216
 11
10.6688020516
 21
37.2043951508
  0
LINE
  5
220
100
AcDbEntity
  8
0
100
AcDbLine
 62
7
  6
CONTINUOUS
 10
39.5186633392
 20
105.4229578072
 11
47.2968055486
 21
109.9136434998
  0
LINE
  5
221
100
AcDbEntity
  8
0
100
AcDbLine
 62
7
  6
CONTINUOUS
 10
53.6607930749
 20
106.2394767091
 11
45.8826508656
 21
101.7487910165
  0
LINE
  5
222
100
AcDbEntity
  8
0
100
AcDbLine
 62
7
  6
CONTINUOUS
 10
47.6505411707
 20
29.6519986412
 11
47.8626740883
 21
29.5295264148
  0
LINE
  5
223
100
AcDbEntity
  8
0
100
AcDbLine
 62
7
  6
CONTINUOUS
 10
46.9434373335
 20
29.2437544873
 11
46.519875705
 21
29.4891139771
  0
LINE
  5
224
100
AcDbEntity
  8
0
100
AcDbLine
 62
7
  6
CONTINUOUS
 10
21.9117530633
 20
80.4380859682
 11
21.487490761
 21
79.7032380256
  0
LINE
  5
225
100
AcDbEntity
  8
0
100
AcDbLine
 62
7
  6
CONTINUOUS
 10
69.9949182103
 20
111.9957345758
 11
35.1346990356
 21
91.8692977899
  0
LINE
  5
226
100
AcDbEntity
  8
INTFCLR_36
100
AcDbLine
 62
7
420
3604575
  6
CONTINUOUS
 10
30.3762882335
 20
89.1219174471
 11
28.7707115093
 21
88.1949428264
  0
LINE
  5
227
100
AcDbEntity
  8
0
100
AcDbLine
 62
7
  6
CONTINUOUS
 10
52.2466383919
 20
98.0746242258
 11
60.0247806012
 21
102.5653099184
  0
LINE
  5
228
100
AcDbEntity
  8
0
100
AcDbLine
 62
7
  6
CONTINUOUS
 10
22.6188569005
 20
80.8463301221
 11
21.9117530633
 21
80.4380859682
  0
LINE
  5
229
100
AcDbEntity
  8
0
100
AcDbLine
 62
7
  6
CONTINUOUS
 10
12.6486927958
 20
75.0900875525
 11
10.6688020516
 21
73.9470039216
  0
LINE
  5
22A
100
AcDbEntity
  8
0
100
AcDbLine
 62
7
  6
CONTINUOUS
 10
22.406723983
 20
99.2176313713
 11
22.406723983
 21
80.9688023484
  0
LINE
  5
22B
100
AcDbEntity
  8
0
100
AcDbLine
 62
7
  6
CONTINUOUS
 10
22.406723983
 20
30.4276560743
 11
22.406723983
 21
25.7324138296
  0
LINE
  5
22C
100
AcDbEntity
  8
0
100
AcDbLine
 62
7
  6
CONTINUOUS
 10
22.9725112692
 20
66.843614793
 11
22.9725112692
 21
30.1010060221
  0
LINE
  5
22D
100
AcDbEntity
  8
0
100
AcDbLine
 62
7
  6
CONTINUOUS
 10
23.5381978717
 20
29.9377104002
 11
23.5381978717
 21
66.680319171
  0
LINE
  5
22E
100
AcDbEntity
  8
0
100
AcDbLine
 62
7
  6
CONTINUOUS
 10
21.487490761
 20
79.7032380256
 11
13.2143758656
 21
74.9267814253
  0
LINE
  5
22F
100
AcDbEntity
  8
0
100
AcDbLine
 62
7
  6
CONTINUOUS
 10
66.3887681276
 20
98.8911431277
 11
58.6106259182
 21
94.4004574351
  0
LINE
  5
230
100
AcDbEntity
  8
0
100
AcDbLine
 62
7
  6
CONTINUOUS
 10
19.5783845885
 20
57.7803877834
 11
17.8813212481
 21
58.7601655943
  0
LINE
  5
231
100
AcDbEntity
  8
0
100
AcDbLine
 62
7
  6
CONTINUOUS
 10
32.4477804085
 20
50.5137030328
 11
30.7507170682
 21
51.4934808437
  0
LINE
  5
232
100
AcDbEntity
  8
0
100
AcDbLine
 62
7
  6
CONTINUOUS
 10
20.2854884257
 20
58.1886319373
 11
18.5884250853
 21
59.1684097481
  0
LINE
  5
233
100
AcDbEntity
  8
0
100
AcDbLine
 62
7
  6
CONTINUOUS
 10
33.1548842458
 20
50.9219471867
 11
31.4578209054
 21
51.9017249975
  0
LINE
  5
234
100
AcDbEntity
  8
0
100
AcDbLine
 62
7
  6
CONTINUOUS
 10
33.7911999785
 20
72.5998488969
 11
34.2154622809
 21
73.3346968395
  0
LINE
  5
235
100
AcDbEntity
  8
0
100
AcDbLine
 62
7
  6
CONTINUOUS
 10
34.6397281159
 20
73.0897523868
 11
34.2076941014
 21
72.3504174708
  0
LINE
  5
236
100
AcDbEntity
  8
0
100
AcDbLine
 62
7
  6
CONTINUOUS
 10
82.7228932629
 20
104.6474009944
 11
47.8626740883
 21
84.5209642085
  0
LINE
  5
237
100
AcDbEntity
  8
INTFCLR_3813
100
AcDbLine
 62
7
420
3604575
  6
CONTINUOUS
 10
43.1042621859
 20
81.7735832304
 11
41.4986865619
 21
80.846609245
  0
LINE
  5
238
100
AcDbEntity
  8
0
100
AcDbLine
 62
7
  6
CONTINUOUS
 10
34.9225661181
 20
73.7429409934
 11
34.2154622809
 21
73.3346968395
  0
LINE
  5
239
100
AcDbEntity
  8
0
100
AcDbLine
 62
7
  6
CONTINUOUS
 10
24.9524020134
 20
67.9866984238
 11
22.9725112692
 21
66.843614793
  0
LINE
  5
23A
100
AcDbEntity
  8
0
100
AcDbLine
 62
7
  6
CONTINUOUS
 10
23.5381978717
 20
66.680319171
 11
25.5110175775
 21
67.8193203603
  0
LINE
  5
23B
100
AcDbEntity
  8
0
100
AcDbLine
 62
7
  6
CONTINUOUS
 10
34.6397281159
 20
73.0897523868
 11
35.3468319532
 21
73.4979965407
  0
LINE
  5
23C
100
AcDbEntity
  8
0
100
AcDbLine
 62
7
  6
CONTINUOUS
 10
33.7911999785
 20
72.5998488969
 11
25.5180850831
 21
67.8233922966
  0
LINE
  5
23D
100
AcDbEntity
  8
0
100
AcDbLine
 62
7
  6
CONTINUOUS
 10
25.934579206
 20
67.5739608705
 11
34.2076941014
 21
72.3504174708
  0
LINE
  5
23E
100
AcDbEntity
  8
0
100
AcDbLine
 62
7
  6
CONTINUOUS
 10
17.8813212481
 20
62.8426776799
 11
19.5783845885
 21
61.8628998691
  0
LINE
  5
23F
100
AcDbEntity
  8
0
100
AcDbLine
 62
7
  6
CONTINUOUS
 10
30.7507170682
 20
55.5759929293
 11
32.4477804085
 21
54.5962151185
  0
LINE
  5
240
100
AcDbEntity
  8
0
100
AcDbLine
 62
7
  6
CONTINUOUS
 10
75.581144507
 20
32.9176826318
 11
77.3489041001
 21
31.8970892438
  0
LINE
  5
241
100
AcDbEntity
  8
0
100
AcDbLine
 62
7
  6
CONTINUOUS
 10
35.1346990356
 20
91.8692977899
 11
35.1346990356
 21
73.620468767
  0
LINE
  5
242
100
AcDbEntity
  8
0
100
AcDbLine
 62
7
  6
CONTINUOUS
 10
35.1346990356
 20
23.2426187948
 11
35.1346990356
 21
18.3840802482
  0
LINE
  5
243
100
AcDbEntity
  8
0
100
AcDbLine
 62
7
  6
CONTINUOUS
 10
35.8419070892
 20
59.5769300424
 11
35.8419070892
 21
22.8343212715
  0
LINE
  5
244
100
AcDbEntity
  8
0
100
AcDbLine
 62
7
  6
CONTINUOUS
 10
18.5884250853
 20
59.1684097481
 11
17.8813212481
 21
58.7601655943
  0
LINE
  5
245
100
AcDbEntity
  8
0
100
AcDbLine
 62
7
  6
CONTINUOUS
 10
22.9725112692
 20
66.843614793
 11
10.6688020516
 21
73.9470039216
  0
LINE
  5
246
100
AcDbEntity
  8
0
100
AcDbLine
 62
7
  6
CONTINUOUS
 10
35.8419070892
 20
59.5769300424
 11
23.5381978717
 21
66.680319171
  0
LINE
  5
247
100
AcDbEntity
  8
0
100
AcDbLine
 62
7
  6
CONTINUOUS
 10
24.9524020134
 20
67.9866984238
 11
12.6486927958
 21
75.0900875525
  0
LINE
  5
248
100
AcDbEntity
  8
0
100
AcDbLine
 62
7
  6
CONTINUOUS
 10
25.5180850831
 20
67.8233922966
 11
13.2143758656
 21
74.9267814253
  0
LINE
  5
249
100
AcDbEntity
  8
0
100
AcDbLine
 62
7
  6
CONTINUOUS
 10
25.5110175775
 20
67.8193203603
 11
38.2382884235
 21
60.4705717419
  0
LINE
  5
24A
100
AcDbEntity
  8
0
100
AcDbLine
 62
7
  6
CONTINUOUS
 10
19.5783845885
 20
57.7803877834
 11
20.2854884257
 21
58.1886319373
  0
LINE
  5
24B
100
AcDbEntity
  8
0
100
AcDbLine
 62
7
  6
CONTINUOUS
 10
79.894477914
 20
51.2889962537
 11
82.7228932629
 21
50.4724656178
  0
LINE
  5
24C
100
AcDbEntity
  8
0
100
AcDbLine
 62
7
  6
CONTINUOUS
 10
70.4899951127
 20
42.8382848113
 11
70.7021280303
 21
42.7158125849
  0
LINE
  5
24D
100
AcDbEntity
  8
0
100
AcDbLine
 62
7
  6
CONTINUOUS
 10
46.5114033189
 20
65.2470283422
 11
46.9434373335
 21
65.9863632582
  0
LINE
  5
24E
100
AcDbEntity
  8
0
100
AcDbLine
 62
7
  6
CONTINUOUS
 10
47.6505411707
 20
66.394607412
 11
46.9434373335
 21
65.9863632582
  0
LINE
  5
24F
100
AcDbEntity
  8
0
100
AcDbLine
 62
7
  6
CONTINUOUS
 10
37.8147267951
 20
60.7159312317
 11
35.8419070892
 21
59.5769300424
  0
LINE
  5
250
100
AcDbEntity
  8
0
100
AcDbLine
 62
7
  6
CONTINUOUS
 10
47.8626740883
 20
66.2721351857
 11
70.7021280303
 21
79.4584213557
  0
LINE
  5
251
100
AcDbEntity
  8
0
100
AcDbLine
 62
7
  6
CONTINUOUS
 10
46.5114033189
 20
65.2470283422
 11
38.2382884235
 21
60.4705717419
  0
LINE
  5
252
100
AcDbEntity
  8
0
100
AcDbLine
 62
7
  6
CONTINUOUS
 10
79.8897491686
 20
51.800627377
 11
78.8338221582
 21
52.1054612316
  0
LINE
  5
253
100
AcDbEntity
  8
0
100
AcDbLine
 62
7
  6
CONTINUOUS
 10
24.9524020134
 20
67.9866984238
 11
25.5180850831
 21
67.8233922966
  0
LINE
  5
254
100
AcDbEntity
  8
0
100
AcDbLine
 62
7
  6
CONTINUOUS
 10
79.8237433898
 20
52.1462527114
 11
79.1167373296
 21
52.3503571433
  0
LINE
  5
255
100
AcDbEntity
  8
0
100
AcDbLine
 62
7
  6
CONTINUOUS
 10
13.2143758656
 20
74.9267814253
 11
12.6486927958
 21
75.0900875525
  0
LINE
  5
256
100
AcDbEntity
  8
0
100
AcDbLine
 62
7
  6
CONTINUOUS
 10
46.5114033189
 20
65.2470283422
 11
34.2076941014
 21
72.3504174708
  0
LINE
  5
257
100
AcDbEntity
  8
0
100
AcDbLine
 62
7
  6
CONTINUOUS
 10
33.7911999785
 20
72.5998488969
 11
21.487490761
 21
79.7032380256
  0
LINE
  5
258
100
AcDbEntity
  8
0
100
AcDbLine
 62
7
  6
CONTINUOUS
 10
47.2968055486
 20
102.5652487298
 11
47.2968055486
 21
109.9136434998
  0
LINE
  5
259
100
AcDbEntity
  8
0
100
AcDbLine
 62
7
  6
CONTINUOUS
 10
47.8626740883
 20
84.5209642085
 11
47.8626740883
 21
66.2721351857
  0
LINE
  5
25A
100
AcDbEntity
  8
0
100
AcDbLine
 62
7
  6
CONTINUOUS
 10
47.8626740883
 20
29.5295264148
 11
47.8626740883
 21
11.0357466669
  0
LINE
  5
25B
100
AcDbEntity
  8
0
100
AcDbLine
 62
7
  6
CONTINUOUS
 10
79.6823467629
 20
80.5606100242
 11
78.8338221582
 21
80.0707170396
  0
LINE
  5
25C
100
AcDbEntity
  8
0
100
AcDbLine
 62
7
  6
CONTINUOUS
 10
31.4578209054
 20
51.9017249975
 11
30.7507170682
 21
51.4934808437
  0
LINE
  5
25D
100
AcDbEntity
  8
0
100
AcDbLine
 62
7
  6
CONTINUOUS
 10
46.9434373335
 20
65.9863632582
 11
34.6397281159
 21
73.0897523868
  0
LINE
  5
25E
100
AcDbEntity
  8
0
100
AcDbLine
 62
7
  6
CONTINUOUS
 10
34.2154622809
 20
73.3346968395
 11
21.9117530633
 21
80.4380859682
  0
LINE
  5
25F
100
AcDbEntity
  8
0
100
AcDbLine
 62
7
  6
CONTINUOUS
 10
22.406723983
 20
80.9688023484
 11
47.8626740883
 21
66.2721351857
  0
LINE
  5
260
100
AcDbEntity
  8
0
100
AcDbLine
 62
7
  6
CONTINUOUS
 10
79.894477914
 20
51.2889962537
 11
78.8338221582
 21
51.9013522865
  0
LINE
  5
261
100
AcDbEntity
  8
0
100
AcDbLine
 62
7
  6
CONTINUOUS
 10
80.3894506001
 20
78.5193469267
 11
82.7228932629
 21
79.8665526345
  0
LINE
  5
262
100
AcDbEntity
  8
0
100
AcDbLine
 62
7
  6
CONTINUOUS
 10
32.4477804085
 20
50.5137030328
 11
33.1548842458
 21
50.9219471867
  0
LINE
  5
263
100
AcDbEntity
  8
0
100
AcDbLine
 62
7
  6
CONTINUOUS
 10
79.2227130769
 20
52.1857321319
 11
79.8897491686
 21
51.800627377
  0
LINE
  5
264
100
AcDbEntity
  8
0
100
AcDbLine
 62
7
  6
CONTINUOUS
 10
78.8338221582
 20
52.5137029638
 11
79.2227130769
 21
52.2891702677
  0
LINE
  5
265
100
AcDbEntity
  8
0
100
AcDbLine
 62
7
  6
CONTINUOUS
 10
79.8237433898
 20
52.1462527114
 11
82.7228932629
 21
50.4724656178
  0
LINE
  5
266
100
AcDbEntity
  8
0
100
AcDbLine
 62
7
  6
CONTINUOUS
 10
78.8338221582
 20
54.3916271609
 11
79.717676931
 21
53.8813187797
  0
LINE
  5
267
100
AcDbEntity
  8
0
100
AcDbLine
 62
7
  6
CONTINUOUS
 10
60.0247806012
 20
95.2169151485
 11
60.0247806012
 21
102.5653099184
  0
LINE
  5
268
100
AcDbEntity
  8
0
100
AcDbLine
 62
7
  6
CONTINUOUS
 10
38.2467608096
 20
24.7126573768
 11
37.8147267951
 21
23.9733224609
  0
LINE
  5
269
100
AcDbEntity
  8
0
100
AcDbLine
 62
7
  6
CONTINUOUS
 10
47.8626740883
 20
84.5209642085
 11
22.406723983
 21
99.2176313713
  0
LINE
  5
26A
100
AcDbEntity
  8
0
100
AcDbLine
 62
7
  6
CONTINUOUS
 10
22.9725112692
 20
30.1010060221
 11
23.5381978717
 21
30.4276033849
  0
LINE
  5
26B
100
AcDbEntity
  8
0
100
AcDbLine
 62
7
  6
CONTINUOUS
 10
70.4899951127
 20
79.3359470898
 11
70.4899951127
 21
42.8382848113
  0
LINE
  5
26C
100
AcDbEntity
  8
0
100
AcDbLine
 62
7
  6
CONTINUOUS
 10
70.7021280303
 20
79.4584213557
 11
70.7021280303
 21
42.7158125849
  0
LINE
  5
26D
100
AcDbEntity
  8
0
100
AcDbLine
 62
7
  6
CONTINUOUS
 10
75.581144507
 20
30.8764788591
 11
75.581144507
 21
41.8176112487
  0
LINE
  5
26E
100
AcDbEntity
  8
0
100
AcDbLine
 62
7
  6
CONTINUOUS
 10
77.3489041001
 20
42.8382216333
 11
77.3489041001
 21
31.8970892438
  0
LINE
  5
26F
100
AcDbEntity
  8
0
100
AcDbLine
 62
7
  6
CONTINUOUS
 10
78.8338221582
 20
50.6766300229
 11
79.894477914
 21
51.2889962537
  0
LINE
  5
270
100
AcDbEntity
  8
0
100
AcDbLine
 62
7
  6
CONTINUOUS
 10
38.2467608096
 20
24.7126573768
 11
46.519875705
 21
29.4891139771
  0
LINE
  5
271
100
AcDbEntity
  8
0
100
AcDbLine
 62
7
  6
CONTINUOUS
 10
80.3894506001
 20
78.5193469267
 11
78.8338221582
 21
79.4174691082
  0
LINE
  5
272
100
AcDbEntity
  8
0
100
AcDbLine
 62
7
  6
CONTINUOUS
 10
78.8338221582
 20
80.0707170396
 11
78.8338221582
 21
50.6766300229
  0
LINE
  5
273
100
AcDbEntity
  8
0
100
AcDbLine
 62
7
  6
CONTINUOUS
 10
79.2227130769
 20
51.9931929436
 11
79.2227130769
 21
52.2891702677
  0
LINE
  5
274
100
AcDbEntity
  8
0
100
AcDbLine
 62
7
  6
CONTINUOUS
 10
79.717676931
 20
52.1768728652
 11
79.717676931
 21
53.8813187797
  0
LINE
  5
275
100
AcDbEntity
  8
0
100
AcDbLine
 62
7
  6
CONTINUOUS
 10
35.8419070892
 20
22.8343212715
 11
37.8147267951
 21
23.9733224608
  0
LINE
  5
276
100
AcDbEntity
  8
0
100
AcDbLine
 62
7
  6
CONTINUOUS
 10
46.9434373335
 20
29.2437544873
 11
70.4899951127
 21
42.8382848113
  0
LINE
  5
277
100
AcDbEntity
  8
0
100
AcDbLine
 62
7
  6
CONTINUOUS
 10
70.7021280303
 20
42.7158125849
 11
47.8626740883
 21
29.5295264148
  0
LINE
  5
278
100
AcDbEntity
  8
0
100
AcDbLine
 62
7
  6
CONTINUOUS
 10
75.581144507
 20
41.8176112487
 11
77.3489041001
 21
42.8382216333
  0
LINE
  5
279
100
AcDbEntity
  8
INTFCLR_3813
100
AcDbLine
 62
7
420
3604575
  6
CONTINUOUS
 10
43.1042621859
 20
22.9854091971
 11
41.4986865619
 21
22.0584352117
  0
LINE
  5
27A
100
AcDbEntity
  8
0
100
AcDbLine
 62
7
  6
CONTINUOUS
 10
58.6106259182
 20
94.4004574351
 11
52.2466383919
 21
98.0746242258
  0
LINE
  5
27B
100
AcDbEntity
  8
0
100
AcDbLine
 62
7
  6
CONTINUOUS
 10
45.8826508656
 20
101.7487910165
 11
39.5186633392
 21
105.4229578072
  0
LINE
  5
27C
100
AcDbEntity
  8
0
100
AcDbLine
 62
7
  6
CONTINUOUS
 10
82.7228932629
 20
31.1621834527
 11
82.7228932629
 21
50.4724656178
  0
LINE
  5
27D
100
AcDbEntity
  8
0
100
AcDbLine
 62
7
  6
CONTINUOUS
 10
82.7228932629
 20
79.8665526345
 11
82.7228932629
 21
104.6474009944
  0
LINE
  5
27E
100
AcDbEntity
  8
0
100
AcDbLine
 62
7
  6
CONTINUOUS
 10
47.2968055486
 20
109.9136434998
 11
53.6607930749
 21
106.2394767091
  0
LINE
  5
27F
100
AcDbEntity
  8
0
100
AcDbLine
 62
7
  6
CONTINUOUS
 10
60.0247806012
 20
102.5653099184
 11
66.3887681276
 21
98.8911431277
  0
LINE
  5
280
100
AcDbEntity
  8
0
100
AcDbLine
 62
7
  6
CONTINUOUS
 10
80.3894506001
 20
78.5193469267
 11
79.6823467629
 21
80.5606100242
  0
LINE
  5
281
100
AcDbEntity
  8
0
100
AcDbLine
 62
7
  6
CONTINUOUS
 10
77.3489041001
 20
31.8970892438
 11
75.581144507
 21
30.8764788591
  0
LINE
  5
282
100
AcDbEntity
  8
0
100
AcDbLine
 62
7
  6
CONTINUOUS
 10
47.8626740883
 20
11.0357466669
 11
82.7228932629
 21
31.1621834527
  0
LINE
  5
283
100
AcDbEntity
  8
0
100
AcDbLine
 62
7
  6
CONTINUOUS
 10
82.7228932629
 20
104.6474009944
 11
57.2669431576
 21
119.3440681571
  0
SPLINE
  5
284
100
AcDbEntity
  8
0
100
AcDbSpline
 62
7
  6
CONTINUOUS
 70
0
 71
3
 72
12
 73
8
 74
0
 42
0.0000001
 43
0.0000001
 44
0.0000000001
 40
0.0
 40
0.0
 40
0.0
 40
0.0
 40
0.1081625387
 40
0.2183728624
 40
0.4513397294
 40
0.7104796228
 40
1.0
 40
1.0
 40
1.0
 40
1.0
 10
30.4206944093
 20
85.3370715387
 30
0.0
 10
30.4748044627
 20
85.3682992441
 30
0.0
 10
30.5788248615
 20
85.4409209305
 30
0.0
 10
30.7653883945
 20
85.6244844837
 30
0.0
 10
30.9502840184
 20
85.9257624398
 30
0.0
 10
31.0787756371
 20
86.3624946562
 30
0.0
 10
31.1041736023
 20
86.6805217623
 30
0.0
 10
31.1041736023
 20
86.8477483365
 30
0.0
  0
SPLINE
  5
285
100
AcDbEntity
  8
0
100
AcDbSpline
 62
7
  6
CONTINUOUS
 70
0
 71
3
 72
11
 73
7
 74
0
 42
0.0000001
 43
0.0000001
 44
0.0000000001
 40
0.0
 40
0.0
 40
0.0
 40
0.0
 40
0.2177833598
 40
0.4509104088
 40
0.7102966711
 40
1.0
 40
1.0
 40
1.0
 40
1.0
 10
20.828372755
 20
57.6565878893
 30
0.0
 10
20.9108392359
 20
57.7041996648
 30
0.0
 10
21.0651306321
 20
57.8339121337
 30
0.0
 10
21.2293921099
 20
58.1024871292
 30
0.0
 10
21.3269537678
 20
58.4334713719
 30
0.0
 10
21.3461589013
 20
58.674371579
 30
0.0
 10
21.3461589013
 20
58.8010419399
 30
0.0
  0
SPLINE
  5
286
100
AcDbEntity
  8
0
100
AcDbSpline
 62
7
  6
CONTINUOUS
 70
0
 71
3
 72
19
 73
15
 74
0
 42
0.0000001
 43
0.0000001
 44
0.0000000001
 40
0.0
 40
0.0
 40
0.0
 40
0.0
 40
0.1286379324
 40
0.2701600557
 40
0.4172502169
 40
0.5615292544
 40
0.6301790188
 40
0.6953186993
 40
0.7563134124
 40
0.8127940719
 40
0.8647372451
 40
0.9125485994
 40
0.95715873
 40
1.0
 40
1.0
 40
1.0
 40
1.0
 10
31.1041736023
 20
86.8477483365
 30
0.0
 10
31.1041736023
 20
87.1298300128
 30
0.0
 10
31.0252694701
 20
87.7229166181
 30
0.0
 10
30.730700385
 20
88.5937720849
 30
0.0
 10
30.2769103031
 20
89.4324968453
 30
0.0
 10
29.7882673976
 20
90.058282123
 30
0.0
 10
29.3484714301
 20
90.4818765665
 30
0.0
 10
29.0114935425
 20
90.745722114
 30
0.0
 10
28.6690342413
 20
90.9552136111
 30
0.0
 10
28.3280619235
 20
91.1058923946
 30
0.0
 10
27.9953699957
 20
91.1943351607
 30
0.0
 10
27.6774689119
 20
91.2176685412
 30
0.0
 10
27.3814209255
 20
91.1743452631
 30
0.0
 10
27.2020946335
 20
91.0997716401
 30
0.0
 10
27.1207286093
 20
91.0528141141
 30
0.0
  0
SPLINE
  5
287
100
AcDbEntity
  8
0
100
AcDbSpline
 62
7
  6
CONTINUOUS
 70
0
 71
3
 72
11
 73
7
 74
0
 42
0.0000001
 43
0.0000001
 44
0.0000000001
 40
0.0
 40
0.0
 40
0.0
 40
0.0
 40
0.289702329
 40
0.5490881649
 40
0.7822156415
 40
1.0
 40
1.0
 40
1.0
 40
1.0
 10
17.8813212481
 20
62.8426776799
 30
0.0
 10
17.7716241879
 20
62.9060098744
 30
0.0
 10
17.5534013628
 20
63.0098227505
 30
0.0
 10
17.2179885384
 20
63.0908189381
 30
0.0
 10
16.9032731837
 20
63.0828504024
 30
0.0
 10
16.7137977364
 20
63.0140882953
 30
0.0
 10
16.6313330815
 20
62.9664775741
 30
0.0
  0
SPLINE
  5
288
100
AcDbEntity
  8
0
100
AcDbSpline
 62
7
  6
CONTINUOUS
 70
0
 71
3
 72
15
 73
11
 74
0
 42
0.0000001
 43
0.0000001
 44
0.0000000001
 40
0.0
 40
0.0
 40
0.0
 40
0.0
 40
0.1141241598
 40
0.2373483675
 40
0.3669736385
 40
0.5000010132
 40
0.6330282465
 40
0.7626531028
 40
0.8858766831
 40
1.0
 40
1.0
 40
1.0
 40
1.0
 10
21.3461589013
 20
58.8010419399
 30
0.0
 10
21.3461589013
 20
58.940743115
 30
0.0
 10
21.320507825
 20
59.2315491787
 30
0.0
 10
21.2185526153
 20
59.6702479238
 30
0.0
 10
21.0550289516
 20
60.1146175389
 30
0.0
 10
20.8363173357
 20
60.5479318007
 30
0.0
 10
20.570410384
 20
60.9539970944
 30
0.0
 10
20.2673358904
 20
61.3177948905
 30
0.0
 10
19.9383889529
 20
61.625436407
 30
0.0
 10
19.6993691457
 20
61.7930509826
 30
0.0
 10
19.5783845885
 20
61.8628998691
 30
0.0
  0
SPLINE
  5
289
100
AcDbEntity
  8
0
100
AcDbSpline
 62
7
  6
CONTINUOUS
 70
0
 71
3
 72
12
 73
8
 74
0
 42
0.0000001
 43
0.0000001
 44
0.0000000001
 40
0.0
 40
0.0
 40
0.0
 40
0.0
 40
0.1081625387
 40
0.2183728624
 40
0.4513397294
 40
0.7104796228
 40
1.0
 40
1.0
 40
1.0
 40
1.0
 10
27.1207286093
 20
91.0528141141
 30
0.0
 10
27.0666185559
 20
91.0215864087
 30
0.0
 10
26.9625981571
 20
90.9489647223
 30
0.0
 10
26.7760346241
 20
90.7654011691
 30
0.0
 10
26.5911390001
 20
90.464123213
 30
0.0
 10
26.4626473815
 20
90.0273909966
 30
0.0
 10
26.4372494163
 20
89.7093638905
 30
0.0
 10
26.4372494163
 20
89.5421373163
 30
0.0
  0
SPLINE
  5
28A
100
AcDbEntity
  8
0
100
AcDbSpline
 62
7
  6
CONTINUOUS
 70
0
 71
3
 72
10
 73
6
 74
0
 42
0.0000001
 43
0.0000001
 44
0.0000000001
 40
0.0
 40
0.0
 40
0.0
 40
0.0
 40
0.224659496
 40
0.5921241589
 40
1.0
 40
1.0
 40
1.0
 40
1.0
 10
21.1276713299
 20
57.9489495564
 30
0.0
 10
21.0613953243
 20
57.9457451102
 30
0.0
 10
20.8856800571
 20
57.9540110874
 30
0.0
 10
20.597416758
 20
58.0286913926
 30
0.0
 10
20.3898161306
 20
58.1283996714
 30
0.0
 10
20.2854884257
 20
58.1886319373
 30
0.0
  0
SPLINE
  5
28B
100
AcDbEntity
  8
0
100
AcDbSpline
 62
7
  6
CONTINUOUS
 70
0
 71
3
 72
19
 73
15
 74
0
 42
0.0000001
 43
0.0000001
 44
0.0000000001
 40
0.0
 40
0.0
 40
0.0
 40
0.0
 40
0.1286379324
 40
0.2701600557
 40
0.4172502169
 40
0.5615292544
 40
0.6301790188
 40
0.6953186993
 40
0.7563134124
 40
0.8127940719
 40
0.8647372451
 40
0.9125485994
 40
0.95715873
 40
1.0
 40
1.0
 40
1.0
 40
1.0
 10
26.4372494163
 20
89.5421373163
 30
0.0
 10
26.4372494163
 20
89.26005564
 30
0.0
 10
26.5161535485
 20
88.6669690347
 30
0.0
 10
26.8107226336
 20
87.7961135679
 30
0.0
 10
27.2645127155
 20
86.9573888075
 30
0.0
 10
27.7531556209
 20
86.3316035298
 30
0.0
 10
28.1929515885
 20
85.9080090863
 30
0.0
 10
28.5299294761
 20
85.6441635388
 30
0.0
 10
28.8723887773
 20
85.4346720417
 30
0.0
 10
29.2133610951
 20
85.2839932582
 30
0.0
 10
29.5460530229
 20
85.1955504921
 30
0.0
 10
29.8639541067
 20
85.1722171116
 30
0.0
 10
30.1600020931
 20
85.2155403897
 30
0.0
 10
30.3393283851
 20
85.2901140127
 30
0.0
 10
30.4206944093
 20
85.3370715387
 30
0.0
  0
SPLINE
  5
28C
100
AcDbEntity
  8
0
100
AcDbSpline
 62
7
  6
CONTINUOUS
 70
0
 71
3
 72
11
 73
7
 74
0
 42
0.0000001
 43
0.0000001
 44
0.0000000001
 40
0.0
 40
0.0
 40
0.0
 40
0.0
 40
0.2449786929
 40
0.5000306557
 40
0.7550841375
 40
1.0
 40
1.0
 40
1.0
 40
1.0
 10
30.9241342197
 20
87.6383781844
 30
0.0
 10
30.7347204196
 20
87.8138017954
 30
0.0
 10
30.3782779631
 20
88.2053302999
 30
0.0
 10
29.9320510124
 20
88.8672040854
 30
0.0
 10
29.5823791011
 20
89.5847158302
 30
0.0
 10
29.4218431192
 20
90.08920021
 30
0.0
 10
29.3647811703
 20
90.3409158849
 30
0.0
  0
SPLINE
  5
28D
100
AcDbEntity
  8
0
100
AcDbSpline
 62
7
  6
CONTINUOUS
 70
0
 71
3
 72
11
 73
7
 74
0
 42
0.0000001
 43
0.0000001
 44
0.0000000001
 40
0.0
 40
0.0
 40
0.0
 40
0.0
 40
0.2177833598
 40
0.4509104088
 40
0.7102966711
 40
1.0
 40
1.0
 40
1.0
 40
1.0
 10
16.6313330815
 20
62.9664775741
 30
0.0
 10
16.5488666006
 20
62.9188657986
 30
0.0
 10
16.3945752045
 20
62.7891533296
 30
0.0
 10
16.2303137267
 20
62.5205783341
 30
0.0
 10
16.1327520688
 20
62.1895940914
 30
0.0
 10
16.1135469352
 20
61.9486938843
 30
0.0
 10
16.1135469352
 20
61.8220235234
 30
0.0
  0
SPLINE
  5
28E
100
AcDbEntity
  8
0
100
AcDbSpline
 62
7
  6
CONTINUOUS
 70
0
 71
3
 72
15
 73
11
 74
0
 42
0.0000001
 43
0.0000001
 44
0.0000000001
 40
0.0
 40
0.0
 40
0.0
 40
0.0
 40
0.1141241598
 40
0.2373483675
 40
0.3669736385
 40
0.5000010132
 40
0.6330282465
 40
0.7626531028
 40
0.8858766831
 40
1.0
 40
1.0
 40
1.0
 40
1.0
 10
16.1135469352
 20
61.8220235234
 30
0.0
 10
16.1135469352
 20
61.6823223484
 30
0.0
 10
16.1391980115
 20
61.3915162846
 30
0.0
 10
16.2411532213
 20
60.9528175395
 30
0.0
 10
16.4046768849
 20
60.5084479245
 30
0.0
 10
16.6233885009
 20
60.0751336626
 30
0.0
 10
16.8892954525
 20
59.6690683689
 30
0.0
 10
17.1923699462
 20
59.3052705729
 30
0.0
 10
17.5213168837
 20
58.9976290564
 30
0.0
 10
17.7603366908
 20
58.8300144808
 30
0.0
 10
17.8813212481
 20
58.7601655943
 30
0.0
  0
SPLINE
  5
28F
100
AcDbEntity
  8
0
100
AcDbSpline
 62
7
  6
CONTINUOUS
 70
0
 71
3
 72
11
 73
7
 74
0
 42
0.0000001
 43
0.0000001
 44
0.0000000001
 40
0.0
 40
0.0
 40
0.0
 40
0.0
 40
0.289702329
 40
0.5490881649
 40
0.7822156415
 40
1.0
 40
1.0
 40
1.0
 40
1.0
 10
19.5783845885
 20
57.7803877834
 30
0.0
 10
19.6880816486
 20
57.717055589
 30
0.0
 10
19.9063044738
 20
57.6132427128
 30
0.0
 10
20.2417172982
 20
57.5322465253
 30
0.0
 10
20.5564326529
 20
57.5402150609
 30
0.0
 10
20.7459081002
 20
57.608977168
 30
0.0
 10
20.828372755
 20
57.6565878893
 30
0.0
  0
SPLINE
  5
290
100
AcDbEntity
  8
0
100
AcDbSpline
 62
7
  6
CONTINUOUS
 70
0
 71
3
 72
15
 73
11
 74
0
 42
0.0000001
 43
0.0000001
 44
0.0000000001
 40
0.0
 40
0.0
 40
0.0
 40
0.0
 40
0.1141232787
 40
0.2373467935
 40
0.3669716251
 40
0.4999988493
 40
0.6330262331
 40
0.7626515288
 40
0.885875802
 40
1.0
 40
1.0
 40
1.0
 40
1.0
 10
18.5884250853
 20
59.1684097481
 30
0.0
 10
18.4674405686
 20
59.2382586112
 30
0.0
 10
18.2284208408
 20
59.4058730774
 30
0.0
 10
17.8994740218
 20
59.7135144916
 30
0.0
 10
17.596399565
 20
60.0773121568
 30
0.0
 10
17.3304925816
 20
60.4833773946
 30
0.0
 10
17.1117809014
 20
60.916691657
 30
0.0
 10
16.9482571429
 20
61.3610613693
 30
0.0
 10
16.8463019038
 20
61.7997602682
 30
0.0
 10
16.8206507724
 20
62.0905664554
 30
0.0
 10
16.8206507724
 20
62.2302676773
 30
0.0
  0
SPLINE
  5
291
100
AcDbEntity
  8
0
100
AcDbSpline
 62
7
  6
CONTINUOUS
 70
0
 71
3
 72
9
 73
5
 74
0
 42
0.0000001
 43
0.0000001
 44
0.0000000001
 40
0.0
 40
0.0
 40
0.0
 40
0.0
 40
0.2778666819
 40
1.0
 40
1.0
 40
1.0
 40
1.0
 10
16.8206507724
 20
62.2302676773
 30
0.0
 10
16.8206507724
 20
62.3119408674
 30
0.0
 10
16.8356303926
 20
62.6046926997
 30
0.0
 10
16.9192900954
 20
62.9010083415
 30
0.0
 10
17.034171247
 20
63.0794881002
 30
0.0
  0
SPLINE
  5
292
100
AcDbEntity
  8
0
100
AcDbSpline
 62
7
  6
CONTINUOUS
 70
0
 71
3
 72
12
 73
8
 74
0
 42
0.0000001
 43
0.0000001
 44
0.0000000001
 40
0.0
 40
0.0
 40
0.0
 40
0.0
 40
0.1081625484
 40
0.2183728785
 40
0.4513397627
 40
0.7104796369
 40
1.0
 40
1.0
 40
1.0
 40
1.0
 10
43.1486694605
 20
19.2005639266
 30
0.0
 10
43.2027795199
 20
19.2317916332
 30
0.0
 10
43.3067999385
 20
19.3044133091
 30
0.0
 10
43.4933634694
 20
19.4879768965
 30
0.0
 10
43.6782590792
 20
19.7892548602
 30
0.0
 10
43.8067507135
 20
20.2259870648
 30
0.0
 10
43.8321486549
 20
20.5440141552
 30
0.0
 10
43.8321486549
 20
20.7112407218
 30
0.0
  0
SPLINE
  5
293
100
AcDbEntity
  8
0
100
AcDbSpline
 62
7
  6
CONTINUOUS
 70
0
 71
3
 72
12
 73
8
 74
0
 42
0.0000001
 43
0.0000001
 44
0.0000000001
 40
0.0
 40
0.0
 40
0.0
 40
0.0
 40
0.1081625484
 40
0.2183728785
 40
0.4513397627
 40
0.7104796369
 40
1.0
 40
1.0
 40
1.0
 40
1.0
 10
43.1486694605
 20
77.9887379599
 30
0.0
 10
43.2027795199
 20
78.0199656666
 30
0.0
 10
43.3067999385
 20
78.0925873424
 30
0.0
 10
43.4933634694
 20
78.2761509298
 30
0.0
 10
43.6782590792
 20
78.5774288935
 30
0.0
 10
43.8067507135
 20
79.0141610981
 30
0.0
 10
43.8321486549
 20
79.3321881885
 30
0.0
 10
43.8321486549
 20
79.4994147551
 30
0.0
  0
SPLINE
  5
294
100
AcDbEntity
  8
0
100
AcDbSpline
 62
7
  6
CONTINUOUS
 70
0
 71
3
 72
11
 73
7
 74
0
 42
0.0000001
 43
0.0000001
 44
0.0000000001
 40
0.0
 40
0.0
 40
0.0
 40
0.0
 40
0.2177833598
 40
0.4509104088
 40
0.7102966711
 40
1.0
 40
1.0
 40
1.0
 40
1.0
 10
33.6977685751
 20
50.3899031387
 30
0.0
 10
33.780235056
 20
50.4375149142
 30
0.0
 10
33.9345264522
 20
50.5672273831
 30
0.0
 10
34.0987879299
 20
50.8358023786
 30
0.0
 10
34.1963495879
 20
51.1667866213
 30
0.0
 10
34.2155547214
 20
51.4076868284
 30
0.0
 10
34.2155547214
 20
51.5343571894
 30
0.0
  0
SPLINE
  5
295
100
AcDbEntity
  8
0
100
AcDbSpline
 62
7
  6
CONTINUOUS
 70
0
 71
3
 72
19
 73
15
 74
0
 42
0.0000001
 43
0.0000001
 44
0.0000000001
 40
0.0
 40
0.0
 40
0.0
 40
0.0
 40
0.1286379072
 40
0.270160025
 40
0.4172501955
 40
0.561529251
 40
0.6301790181
 40
0.6953186971
 40
0.7563134057
 40
0.8127940626
 40
0.8647372362
 40
0.912548593
 40
0.9571587272
 40
1.0
 40
1.0
 40
1.0
 40
1.0
 10
43.8321486549
 20
20.7112407218
 30
0.0
 10
43.8321486549
 20
20.9933223429
 30
0.0
 10
43.7532445422
 20
21.5864088796
 30
0.0
 10
43.4586755136
 20
22.4572643165
 30
0.0
 10
43.0048854244
 20
23.2959891287
 30
0.0
 10
42.5162424883
 20
23.9217744675
 30
0.0
 10
42.0764464919
 20
24.3453689414
 30
0.0
 10
41.7394686132
 20
24.6092144886
 30
0.0
 10
41.3970093286
 20
24.8187059767
 30
0.0
 10
41.0560370278
 20
24.9693847612
 30
0.0
 10
40.7233451015
 20
25.0578275379
 30
0.0
 10
40.4054440053
 20
25.0811609251
 30
0.0
 10
40.1093959946
 20
25.0378376638
 30
0.0
 10
39.9300696943
 20
24.9632640233
 30
0.0
 10
39.8487036634
 20
24.9163064969
 30
0.0
  0
SPLINE
  5
296
100
AcDbEntity
  8
0
100
AcDbSpline
 62
7
  6
CONTINUOUS
 70
0
 71
3
 72
19
 73
15
 74
0
 42
0.0000001
 43
0.0000001
 44
0.0000000001
 40
0.0
 40
0.0
 40
0.0
 40
0.0
 40
0.1286379072
 40
0.270160025
 40
0.4172501955
 40
0.561529251
 40
0.6301790181
 40
0.6953186971
 40
0.7563134057
 40
0.8127940626
 40
0.8647372362
 40
0.912548593
 40
0.9571587272
 40
1.0
 40
1.0
 40
1.0
 40
1.0
 10
43.8321486549
 20
79.4994147551
 30
0.0
 10
43.8321486549
 20
79.7814963762
 30
0.0
 10
43.7532445422
 20
80.3745829129
 30
0.0
 10
43.4586755136
 20
81.2454383498
 30
0.0
 10
43.0048854244
 20
82.0841631621
 30
0.0
 10
42.5162424883
 20
82.7099485008
 30
0.0
 10
42.0764464919
 20
83.1335429748
 30
0.0
 10
41.7394686132
 20
83.3973885219
 30
0.0
 10
41.3970093286
 20
83.60688001
 30
0.0
 10
41.0560370278
 20
83.7575587946
 30
0.0
 10
40.7233451015
 20
83.8460015713
 30
0.0
 10
40.4054440053
 20
83.8693349584
 30
0.0
 10
40.1093959946
 20
83.8260116972
 30
0.0
 10
39.9300696943
 20
83.7514380567
 30
0.0
 10
39.8487036634
 20
83.7044805302
 30
0.0
  0
SPLINE
  5
297
100
AcDbEntity
  8
0
100
AcDbSpline
 62
7
  6
CONTINUOUS
 70
0
 71
3
 72
11
 73
7
 74
0
 42
0.0000001
 43
0.0000001
 44
0.0000000001
 40
0.0
 40
0.0
 40
0.0
 40
0.0
 40
0.289702329
 40
0.5490881649
 40
0.7822156415
 40
1.0
 40
1.0
 40
1.0
 40
1.0
 10
30.7507170682
 20
55.5759929293
 30
0.0
 10
30.641020008
 20
55.6393251238
 30
0.0
 10
30.4227971829
 20
55.7431379999
 30
0.0
 10
30.0873843584
 20
55.8241341875
 30
0.0
 10
29.7726690038
 20
55.8161656518
 30
0.0
 10
29.5831935564
 20
55.7474035447
 30
0.0
 10
29.5007289016
 20
55.6997928235
 30
0.0
  0
SPLINE
  5
298
100
AcDbEntity
  8
0
100
AcDbSpline
 62
7
  6
CONTINUOUS
 70
0
 71
3
 72
15
 73
11
 74
0
 42
0.0000001
 43
0.0000001
 44
0.0000000001
 40
0.0
 40
0.0
 40
0.0
 40
0.0
 40
0.1141241598
 40
0.2373483675
 40
0.3669736385
 40
0.5000010132
 40
0.6330282465
 40
0.7626531028
 40
0.8858766831
 40
1.0
 40
1.0
 40
1.0
 40
1.0
 10
34.2155547214
 20
51.5343571894
 30
0.0
 10
34.2155547214
 20
51.6740583644
 30
0.0
 10
34.1899036451
 20
51.9648644281
 30
0.0
 10
34.0879484354
 20
52.4035631733
 30
0.0
 10
33.9244247717
 20
52.8479327883
 30
0.0
 10
33.7057131558
 20
53.2812470501
 30
0.0
 10
33.4398062041
 20
53.6873123439
 30
0.0
 10
33.1367317105
 20
54.0511101399
 30
0.0
 10
32.807784773
 20
54.3587516564
 30
0.0
 10
32.5687649658
 20
54.526366232
 30
0.0
 10
32.4477804085
 20
54.5962151185
 30
0.0
  0
SPLINE
  5
299
100
AcDbEntity
  8
0
100
AcDbSpline
 62
7
  6
CONTINUOUS
 70
0
 71
3
 72
12
 73
8
 74
0
 42
0.0000001
 43
0.0000001
 44
0.0000000001
 40
0.0
 40
0.0
 40
0.0
 40
0.0
 40
0.1081625484
 40
0.2183728785
 40
0.4513397627
 40
0.7104796369
 40
1.0
 40
1.0
 40
1.0
 40
1.0
 10
39.8487036634
 20
83.7044805302
 30
0.0
 10
39.794593604
 20
83.6732528235
 30
0.0
 10
39.6905731854
 20
83.6006311477
 30
0.0
 10
39.5040096545
 20
83.4170675603
 30
0.0
 10
39.3191140447
 20
83.1157895966
 30
0.0
 10
39.1906224103
 20
82.679057392
 30
0.0
 10
39.165224469
 20
82.3610303016
 30
0.0
 10
39.165224469
 20
82.193803735
 30
0.0
  0
SPLINE
  5
29A
100
AcDbEntity
  8
0
100
AcDbSpline
 62
7
  6
CONTINUOUS
 70
0
 71
3
 72
10
 73
6
 74
0
 42
0.0000001
 43
0.0000001
 44
0.0000000001
 40
0.0
 40
0.0
 40
0.0
 40
0.0
 40
0.224659496
 40
0.5921241589
 40
1.0
 40
1.0
 40
1.0
 40
1.0
 10
33.99706715
 20
50.6822648058
 30
0.0
 10
33.9307911444
 20
50.6790603596
 30
0.0
 10
33.7550758772
 20
50.6873263368
 30
0.0
 10
33.4668125781
 20
50.762006642
 30
0.0
 10
33.2592119507
 20
50.8617149208
 30
0.0
 10
33.1548842458
 20
50.9219471867
 30
0.0
  0
SPLINE
  5
29B
100
AcDbEntity
  8
0
100
AcDbSpline
 62
7
  6
CONTINUOUS
 70
0
 71
3
 72
11
 73
7
 74
0
 42
0.0000001
 43
0.0000001
 44
0.0000000001
 40
0.0
 40
0.0
 40
0.0
 40
0.0
 40
0.2177833598
 40
0.4509104088
 40
0.7102966711
 40
1.0
 40
1.0
 40
1.0
 40
1.0
 10
29.5007289016
 20
55.6997928235
 30
0.0
 10
29.4182624207
 20
55.652181048
 30
0.0
 10
29.2639710246
 20
55.522468579
 30
0.0
 10
29.0997095468
 20
55.2538935835
 30
0.0
 10
29.0021478888
 20
54.9229093408
 30
0.0
 10
28.9829427553
 20
54.6820091337
 30
0.0
 10
28.9829427553
 20
54.5553387728
 30
0.0
  0
SPLINE
  5
29C
100
AcDbEntity
  8
0
100
AcDbSpline
 62
7
  6
CONTINUOUS
 70
0
 71
3
 72
15
 73
11
 74
0
 42
0.0000001
 43
0.0000001
 44
0.0000000001
 40
0.0
 40
0.0
 40
0.0
 40
0.0
 40
0.1141241598
 40
0.2373483675
 40
0.3669736385
 40
0.5000010132
 40
0.6330282465
 40
0.7626531028
 40
0.8858766831
 40
1.0
 40
1.0
 40
1.0
 40
1.0
 10
28.9829427553
 20
54.5553387728
 30
0.0
 10
28.9829427553
 20
54.4156375978
 30
0.0
 10
29.0085938316
 20
54.124831534
 30
0.0
 10
29.1105490414
 20
53.6861327889
 30
0.0
 10
29.274072705
 20
53.2417631739
 30
0.0
 10
29.4927843209
 20
52.808448912
 30
0.0
 10
29.7586912726
 20
52.4023836183
 30
0.0
 10
30.0617657663
 20
52.0385858223
 30
0.0
 10
30.3907127037
 20
51.7309443058
 30
0.0
 10
30.6297325109
 20
51.5633297302
 30
0.0
 10
30.7507170682
 20
51.4934808437
 30
0.0
  0
SPLINE
  5
29D
100
AcDbEntity
  8
0
100
AcDbSpline
 62
7
  6
CONTINUOUS
 70
0
 71
3
 72
11
 73
7
 74
0
 42
0.0000001
 43
0.0000001
 44
0.0000000001
 40
0.0
 40
0.0
 40
0.0
 40
0.0
 40
0.289702329
 40
0.5490881649
 40
0.7822156415
 40
1.0
 40
1.0
 40
1.0
 40
1.0
 10
32.4477804085
 20
50.5137030328
 30
0.0
 10
32.5574774687
 20
50.4503708384
 30
0.0
 10
32.7757002938
 20
50.3465579623
 30
0.0
 10
33.1111131183
 20
50.2655617747
 30
0.0
 10
33.425828473
 20
50.2735303103
 30
0.0
 10
33.6153039203
 20
50.3422924174
 30
0.0
 10
33.6977685751
 20
50.3899031387
 30
0.0
  0
SPLINE
  5
29E
100
AcDbEntity
  8
0
100
AcDbSpline
 62
7
  6
CONTINUOUS
 70
0
 71
3
 72
15
 73
11
 74
0
 42
0.0000001
 43
0.0000001
 44
0.0000000001
 40
0.0
 40
0.0
 40
0.0
 40
0.0
 40
0.1141232787
 40
0.2373467935
 40
0.3669716251
 40
0.4999988493
 40
0.6330262331
 40
0.7626515288
 40
0.885875802
 40
1.0
 40
1.0
 40
1.0
 40
1.0
 10
31.4578209054
 20
51.9017249975
 30
0.0
 10
31.3368363887
 20
51.9715738607
 30
0.0
 10
31.0978166609
 20
52.1391883268
 30
0.0
 10
30.7688698419
 20
52.446829741
 30
0.0
 10
30.4657953851
 20
52.8106274062
 30
0.0
 10
30.1998884017
 20
53.216692644
 30
0.0
 10
29.9811767215
 20
53.6500069064
 30
0.0
 10
29.817652963
 20
54.0943766188
 30
0.0
 10
29.7156977239
 20
54.5330755176
 30
0.0
 10
29.6900465925
 20
54.8238817049
 30
0.0
 10
29.6900465925
 20
54.9635829267
 30
0.0
  0
SPLINE
  5
29F
100
AcDbEntity
  8
0
100
AcDbSpline
 62
7
  6
CONTINUOUS
 70
0
 71
3
 72
9
 73
5
 74
0
 42
0.0000001
 43
0.0000001
 44
0.0000000001
 40
0.0
 40
0.0
 40
0.0
 40
0.0
 40
0.2778666819
 40
1.0
 40
1.0
 40
1.0
 40
1.0
 10
29.6900465925
 20
54.9635829267
 30
0.0
 10
29.6900465925
 20
55.0452561168
 30
0.0
 10
29.7050262127
 20
55.3380079492
 30
0.0
 10
29.7886859155
 20
55.6343235909
 30
0.0
 10
29.9035670671
 20
55.8128033496
 30
0.0
  0
SPLINE
  5
2A0
100
AcDbEntity
  8
0
100
AcDbSpline
 62
7
  6
CONTINUOUS
 70
0
 71
3
 72
19
 73
15
 74
0
 42
0.0000001
 43
0.0000001
 44
0.0000000001
 40
0.0
 40
0.0
 40
0.0
 40
0.0
 40
0.1286379072
 40
0.270160025
 40
0.4172501955
 40
0.561529251
 40
0.6301790181
 40
0.6953186971
 40
0.7563134057
 40
0.8127940626
 40
0.8647372362
 40
0.912548593
 40
0.9571587272
 40
1.0
 40
1.0
 40
1.0
 40
1.0
 10
39.165224469
 20
23.4056297016
 30
0.0
 10
39.165224469
 20
23.1235480805
 30
0.0
 10
39.2441285817
 20
22.5304615438
 30
0.0
 10
39.5386976103
 20
21.659606107
 30
0.0
 10
39.9924876995
 20
20.8208812947
 30
0.0
 10
40.4811306355
 20
20.1950959559
 30
0.0
 10
40.9209266319
 20
19.771501482
 30
0.0
 10
41.2579045106
 20
19.5076559349
 30
0.0
 10
41.6003637953
 20
19.2981644467
 30
0.0
 10
41.9413360961
 20
19.1474856622
 30
0.0
 10
42.2740280223
 20
19.0590428855
 30
0.0
 10
42.5919291186
 20
19.0357094983
 30
0.0
 10
42.8879771293
 20
19.0790327596
 30
0.0
 10
43.0673034296
 20
19.1536064001
 30
0.0
 10
43.1486694605
 20
19.2005639266
 30
0.0
  0
SPLINE
  5
2A1
100
AcDbEntity
  8
0
100
AcDbSpline
 62
7
  6
CONTINUOUS
 70
0
 71
3
 72
12
 73
8
 74
0
 42
0.0000001
 43
0.0000001
 44
0.0000000001
 40
0.0
 40
0.0
 40
0.0
 40
0.0
 40
0.1081625484
 40
0.2183728785
 40
0.4513397627
 40
0.7104796369
 40
1.0
 40
1.0
 40
1.0
 40
1.0
 10
39.8487036634
 20
24.9163064969
 30
0.0
 10
39.794593604
 20
24.8850787902
 30
0.0
 10
39.6905731854
 20
24.8124571143
 30
0.0
 10
39.5040096545
 20
24.6288935269
 30
0.0
 10
39.3191140447
 20
24.3276155633
 30
0.0
 10
39.1906224103
 20
23.8908833586
 30
0.0
 10
39.165224469
 20
23.5728562682
 30
0.0
 10
39.165224469
 20
23.4056297016
 30
0.0
  0
SPLINE
  5
2A2
100
AcDbEntity
  8
0
100
AcDbSpline
 62
7
  6
CONTINUOUS
 70
0
 71
3
 72
11
 73
7
 74
0
 42
0.0000001
 43
0.0000001
 44
0.0000000001
 40
0.0
 40
0.0
 40
0.0
 40
0.0
 40
0.2449786269
 40
0.5000306021
 40
0.7550841126
 40
1.0
 40
1.0
 40
1.0
 40
1.0
 10
43.6521132015
 20
21.5018669316
 30
0.0
 10
43.4626989535
 20
21.6772905381
 30
0.0
 10
43.1062556106
 20
22.0688192717
 30
0.0
 10
42.66002756
 20
22.730693767
 30
0.0
 10
42.3103547643
 20
23.4482065262
 30
0.0
 10
42.1498184098
 20
23.9526917039
 30
0.0
 10
42.0927563348
 20
24.2044077821
 30
0.0
  0
SPLINE
  5
2A3
100
AcDbEntity
  8
0
100
AcDbSpline
 62
7
  6
CONTINUOUS
 70
0
 71
3
 72
19
 73
15
 74
0
 42
0.0000001
 43
0.0000001
 44
0.0000000001
 40
0.0
 40
0.0
 40
0.0
 40
0.0
 40
0.1286379072
 40
0.270160025
 40
0.4172501955
 40
0.561529251
 40
0.6301790181
 40
0.6953186971
 40
0.7563134057
 40
0.8127940626
 40
0.8647372362
 40
0.912548593
 40
0.9571587272
 40
1.0
 40
1.0
 40
1.0
 40
1.0
 10
39.165224469
 20
82.193803735
 30
0.0
 10
39.165224469
 20
81.9117221138
 30
0.0
 10
39.2441285817
 20
81.3186355771
 30
0.0
 10
39.5386976103
 20
80.4477801403
 30
0.0
 10
39.9924876995
 20
79.609055328
 30
0.0
 10
40.4811306355
 20
78.9832699893
 30
0.0
 10
40.9209266319
 20
78.5596755153
 30
0.0
 10
41.2579045106
 20
78.2958299682
 30
0.0
 10
41.6003637953
 20
78.0863384801
 30
0.0
 10
41.9413360961
 20
77.9356596955
 30
0.0
 10
42.2740280223
 20
77.8472169188
 30
0.0
 10
42.5919291186
 20
77.8238835317
 30
0.0
 10
42.8879771293
 20
77.8672067929
 30
0.0
 10
43.0673034296
 20
77.9417804334
 30
0.0
 10
43.1486694605
 20
77.9887379599
 30
0.0
  0
SPLINE
  5
2A4
100
AcDbEntity
  8
0
100
AcDbSpline
 62
7
  6
CONTINUOUS
 70
0
 71
3
 72
11
 73
7
 74
0
 42
0.0000001
 43
0.0000001
 44
0.0000000001
 40
0.0
 40
0.0
 40
0.0
 40
0.0
 40
0.2449786269
 40
0.5000306021
 40
0.7550841126
 40
1.0
 40
1.0
 40
1.0
 40
1.0
 10
43.6521132015
 20
80.2900409649
 30
0.0
 10
43.4626989535
 20
80.4654645714
 30
0.0
 10
43.1062556106
 20
80.856993305
 30
0.0
 10
42.66002756
 20
81.5188678003
 30
0.0
 10
42.3103547643
 20
82.2363805596
 30
0.0
 10
42.1498184098
 20
82.7408657372
 30
0.0
 10
42.0927563348
 20
82.9925818154
 30
0.0
  0
ENDSEC
  0
SECTION
  2
OBJECTS
  0
DICTIONARY
  5
C
100
AcDbDictionary
280
0
281
1
  3
ACAD_GROUP
350
D
  3
ACAD_MLINESTYLE
350
17
  3
ACAD_LAYOUT
350
1A
  3
ACAD_PLOTSETTINGS
350
19
  3
ACAD_PLOTSTYLENAME
350
E
  0
DICTIONARY
  5
D
102
{ACAD_REACTORS
330
C
102
}
100
AcDbDictionary
280
0
281
1
  0
ACDBDICTIONARYWDFLT
  5
E
102
{ACAD_REACTORS
330
C
102
}
100
AcDbDictionary
281
1
  3
Normal
350
F
100
AcDbDictionaryWithDefault
340
F
  0
DICTIONARY
  5
17
102
{ACAD_REACTORS
330
C
102
}
100
AcDbDictionary
280
0
281
1
  3
Standard
350
18
  0
DICTIONARY
  5
19
102
{ACAD_REACTORS
330
C
102
}
100
AcDbDictionary
281
1
  0
DICTIONARY
  5
1A
102
{ACAD_REACTORS
330
C
102
}
100
AcDbDictionary
281
1
  3
Model
350
2A5
  3
Layout1
350
2A6
  0
ACDBPLACEHOLDER
  5
F
102
{ACAD_REACTORS
330
E
102
}
  0
MLINESTYLE
  5
18
102
{ACAD_REACTORS
330
17
102
}
100
AcDbMlineStyle
  2
STANDARD
 70
0
  3

 62
256
 51
90.0
 52
90.0
 71
2
 49
0.5
 62
256
  6
BYLAYER
 49
-0.5
 62
256
  6
BYLAYER
  0
LAYOUT
  5
2A5
102
{ACAD_REACTORS
330
1A
102
}
100
AcDbPlotSettings
  1

  2
none_device
  4

  6

 40
0.0
 41
0.0
 42
0.0
 43
0.0
 44
210.0
 45
297.0
 46
0.0
 47
0.0
 48
0.0
 49
0.0
140
0.0
141
0.0
142
1.0
143
1.0
 70
1024
 72
1
 73
0
 74
0
  7

 75
0
147
1.0
148
0.0
149
0.0
100
AcDbLayout
  1
Model
 70
0
 71
0
 10
0.0
 20
0.0
 11
210.0
 21
297.0
 12
0.0
 22
0.0
 32
0.0
 14
0.0
 24
0.0
 34
0.0
 15
0.0
 25
0.0
 35
0.0
146
0.0
 13
0.0
 23
0.0
 33
0.0
 16
1.0
 26
0.0
 36
0.0
 17
0.0
 27
1.0
 37
0.0
 76
0
330
214
345
0
346
0
  0
LAYOUT
  5
2A6
102
{ACAD_REACTORS
330
1A
102
}
100
AcDbPlotSettings
  1

  2
none_device
  4

  6

 40
0.0
 41
0.0
 42
0.0
 43
0.0
 44
210.0
 45
297.0
 46
0.0
 47
0.0
 48
0.0
 49
0.0
140
0.0
141
0.0
142
1.0
143
1.0
 70
0
 72
1
 73
0
 74
0
  7

 75
0
147
1.0
148
0.0
149
0.0
100
AcDbLayout
  1
Layout1
 70
0
 71
1
 10
0.0
 20
0.0
 11
210.0
 21
297.0
 12
0.0
 22
0.0
 32
0.0
 14
0.0
 24
0.0
 34
0.0
 15
0.0
 25
0.0
 35
0.0
146
0.0
 13
0.0
 23
0.0
 33
0.0
 16
1.0
 26
0.0
 36
0.0
 17
0.0
 27
1.0
 37
0.0
 76
0
330
215
345
0
346
0
  0
ENDSEC
  0
EOF
