999
DXF file: C:\Users\sesa63760\Dev\_Creo\CAD\MCADFD0002221_3D-CAD\drw0001_1.dxf
999
Pro/ENGINEER 2019471 by Parametric Technology Corporation
  0
SECTION
  2
HEADER
  9
$ACADVER
  1
AC1024
  9
$DWGCODEPAGE
  3
ANSI_1252
  9
$EXTMAX
 10
124.4529773534
 20
176.0120679713
 30
0.0
  9
$EXTMIN
 10
0.0
 20
0.0
 30
0.0
  9
$LIMMIN
 10
0.0
 20
0.0
  9
$LIMMAX
 10
124.4529773534
 20
176.0120679713
  9
$VIEWCTR
 10
62.2264886767
 20
88.0060339856
  9
$VIEWSIZE
 40
176.0120679713
  9
$CLAYER
  8
0
  9
$LTSCALE
 40
11.4733792455
  9
$CELTYPE
  6
BYLAYER
  9
$DIMSCALE
 40
1.0
  9
$DIMASZ
 40
1.4815830637
  9
$DIMEXO
 40
1.0
  9
$DIMDLI
 40
7.9270620242
  9
$DIMEXE
 40
1.0
  9
$DIMCEN
 40
1.8774620584
  9
$DIMLFAC
 40
1.0
  9
$DIMBLK
  1
_FILLED
  9
$DIMALT
 70
0
  9
$DIMALTF
 40
0.0393700787
  9
$DIMTXT
 40
2.0742162892
  9
$DIMTOL
 70
1
  9
$DIMLIM
 70
0
  9
$DIMTFAC
 40
1.0
  9
$DIMTP
 40
0.01
  9
$DIMTM
 40
0.01
  9
$DIMGAP
 40
0.625
  9
$DIMDSEP
 70
46
  9
$AUNITS
 70
0
  9
$PDMODE
 70
3
  9
$PDSIZE
 40
0.3125
  9
$HANDSEED
  5
304
  9
$TILEMODE
 70
1
  9
$MEASUREMENT
 70
1
  9
$INSUNITS
 70
4
  0
ENDSEC
  0
SECTION
  2
CLASSES
  0
CLASS
  1
ACDBDICTIONARYWDFLT
  2
AcDbDictionaryWithDefault
  3
AutoCAD 2000
 90
0
 91
1
280
0
281
0
  0
CLASS
  1
ACDBPLACEHOLDER
  2
AcDbPlaceHolder
  3
AutoCAD 2000
 90
0
 91
1
280
0
281
0
  0
CLASS
  1
LAYOUT
  2
AcDbLayout
  3
AutoCAD 2000
 90
0
 91
0
280
0
281
0
  0
ENDSEC
  0
SECTION
  2
TABLES
  0
TABLE
  2
VPORT
  5
8
100
AcDbSymbolTable
 70
2
  0
VPORT
  5
1F4
100
AcDbSymbolTableRecord
100
AcDbViewportTableRecord
  2
*ACTIVE
 70
0
 10
0.0
 20
0.0
 11
1.0
 21
1.0
 12
62.2264886767
 22
88.0060339856
 13
0.0
 23
0.0
 14
1.0
 24
1.0
 15
0.0
 25
0.0
 16
0.0
 26
0.0
 36
1.0
 17
0.0
 27
0.0
 37
0.0
 40
176.0120679713
 41
0.7070707071
 42
50.0
 43
0.0
 44
0.0
 50
0.0
 51
0.0
 71
0
 72
100
 73
1
 74
1
 75
0
 76
0
 77
0
 78
0
  0
ENDTAB
  0
TABLE
  2
LTYPE
  5
5
100
AcDbSymbolTable
 70
6
  0
LTYPE
  5
14
100
AcDbSymbolTableRecord
100
AcDbLinetypeTableRecord
  2
BYBLOCK
 70
0
  3

 72
65
 73
0
 40
0.0
  0
LTYPE
  5
15
100
AcDbSymbolTableRecord
100
AcDbLinetypeTableRecord
  2
BYLAYER
 70
0
  3

 72
65
 73
0
 40
0.0
  0
LTYPE
  5
16
100
AcDbSymbolTableRecord
100
AcDbLinetypeTableRecord
  2
CONTINUOUS
 70
64
  3
Solid line
 72
65
 73
0
 40
0.0
  0
LTYPE
  5
1F5
100
AcDbSymbolTableRecord
100
AcDbLinetypeTableRecord
  2
CENTER
 70
64
  3
____ _ ____ _ ____ _ ____ _ ____ _ ____ _ ____
 72
65
 73
4
 40
0.6
 49
0.375
 74
0
 49
-0.075
 74
0
 49
0.075
 74
0
 49
-0.075
 74
0
  0
LTYPE
  5
1F6
100
AcDbSymbolTableRecord
100
AcDbLinetypeTableRecord
  2
HIDDEN
 70
64
  3
- - - - - - - - - - - - - - - - - - - -
 72
65
 73
2
 40
0.2
 49
0.1
 74
0
 49
-0.1
 74
0
  0
LTYPE
  5
1F7
100
AcDbSymbolTableRecord
100
AcDbLinetypeTableRecord
  2
PHANTOM
 70
64
  3
_____ _ _ _____ _ _ _____ _ _ _____
 72
65
 73
6
 40
0.8
 49
0.45
 74
0
 49
-0.05
 74
0
 49
0.1
 74
0
 49
-0.05
 74
0
 49
0.1
 74
0
 49
-0.05
 74
0
  0
LTYPE
  5
1F8
100
AcDbSymbolTableRecord
100
AcDbLinetypeTableRecord
  2
DOT
 70
64
  3
. . . . . . . . . . . . . . . . . . . .
 72
65
 73
2
 40
0.2
 49
0.1
 74
0
 49
-0.1
 74
0
  0
LTYPE
  5
1F9
100
AcDbSymbolTableRecord
100
AcDbLinetypeTableRecord
  2
DASHED
 70
64
  3
- - - - - - - - - - - - - - - - - - - -
 72
65
 73
2
 40
0.2
 49
0.1
 74
0
 49
-0.1
 74
0
  0
ENDTAB
  0
TABLE
  2
LAYER
  5
2
100
AcDbSymbolTable
 70
36
  0
LAYER
  5
10
100
AcDbSymbolTableRecord
100
AcDbLayerTableRecord
  2
0
 70
0
 62
7
  6
CONTINUOUS
370
-3
390
F
  0
LAYER
  5
1FA
100
AcDbSymbolTableRecord
100
AcDbLayerTableRecord
  2
DEFAULT_1
 70
0
 62
7
  6
CENTER
370
-3
390
F
  0
LAYER
  5
1FB
100
AcDbSymbolTableRecord
100
AcDbLayerTableRecord
  2
DEFAULT_2
 70
0
 62
8
  6
HIDDEN
370
-3
390
F
  0
LAYER
  5
1FC
100
AcDbSymbolTableRecord
100
AcDbLayerTableRecord
  2
DEFAULT_3
 70
0
 62
7
  6
PHANTOM
370
-3
390
F
  0
LAYER
  5
1FD
100
AcDbSymbolTableRecord
100
AcDbLayerTableRecord
  2
00_COMPONENTS
 70
0
 62
7
  6
CONTINUOUS
370
-3
390
F
  0
LAYER
  5
1FE
100
AcDbSymbolTableRecord
100
AcDbLayerTableRecord
  2
01_1_DEFAULT_DATUMS
 70
0
 62
7
  6
CONTINUOUS
370
-3
390
F
  0
LAYER
  5
1FF
100
AcDbSymbolTableRecord
100
AcDbLayerTableRecord
  2
01_PLANES
 70
0
 62
7
  6
CONTINUOUS
370
-3
390
F
  0
LAYER
  5
200
100
AcDbSymbolTableRecord
100
AcDbLayerTableRecord
  2
02_COORD_SYS
 70
0
 62
7
  6
CONTINUOUS
370
-3
390
F
  0
LAYER
  5
201
100
AcDbSymbolTableRecord
100
AcDbLayerTableRecord
  2
03_AXES
 70
0
 62
7
  6
CONTINUOUS
370
-3
390
F
  0
LAYER
  5
202
100
AcDbSymbolTableRecord
100
AcDbLayerTableRecord
  2
04_POINTS
 70
0
 62
7
  6
CONTINUOUS
370
-3
390
F
  0
LAYER
  5
203
100
AcDbSymbolTableRecord
100
AcDbLayerTableRecord
  2
05_CURVES
 70
0
 62
7
  6
CONTINUOUS
370
-3
390
F
  0
LAYER
  5
204
100
AcDbSymbolTableRecord
100
AcDbLayerTableRecord
  2
06_SURFS
 70
0
 62
7
  6
CONTINUOUS
370
-3
390
F
  0
LAYER
  5
205
100
AcDbSymbolTableRecord
100
AcDbLayerTableRecord
  2
07_COSMETICS
 70
0
 62
7
  6
CONTINUOUS
370
-3
390
F
  0
LAYER
  5
206
100
AcDbSymbolTableRecord
100
AcDbLayerTableRecord
  2
10_NOTES
 70
0
 62
7
  6
CONTINUOUS
370
-3
390
F
  0
LAYER
  5
207
100
AcDbSymbolTableRecord
100
AcDbLayerTableRecord
  2
11_NOTES_PUB
 70
0
 62
7
  6
CONTINUOUS
370
-3
390
F
  0
LAYER
  5
208
100
AcDbSymbolTableRecord
100
AcDbLayerTableRecord
  2
13_REF_GTOL
 70
0
 62
7
  6
CONTINUOUS
370
-3
390
F
  0
LAYER
  5
209
100
AcDbSymbolTableRecord
100
AcDbLayerTableRecord
  2
16_MISC
 70
0
 62
7
  6
CONTINUOUS
370
-3
390
F
  0
LAYER
  5
20A
100
AcDbSymbolTableRecord
100
AcDbLayerTableRecord
  2
17_NO_PRINT
 70
0
 62
7
  6
CONTINUOUS
370
-3
390
F
  0
LAYER
  5
20B
100
AcDbSymbolTableRecord
100
AcDbLayerTableRecord
  2
18_DATUM_CAMS_JOINTS
 70
0
 62
7
  6
CONTINUOUS
370
-3
390
F
  0
LAYER
  5
20C
100
AcDbSymbolTableRecord
100
AcDbLayerTableRecord
  2
19_DATUM_FUNCTIONAL
 70
0
 62
7
  6
CONTINUOUS
370
-3
390
F
  0
LAYER
  5
20D
100
AcDbSymbolTableRecord
100
AcDbLayerTableRecord
  2
20_DATUM_KINEMATIC_SCHEME
 70
0
 62
7
  6
CONTINUOUS
370
-3
390
F
  0
LAYER
  5
20E
100
AcDbSymbolTableRecord
100
AcDbLayerTableRecord
  2
INTFCLR_12347
 70
0
 62
7
  6
CONTINUOUS
370
-3
390
F
  0
LAYER
  5
20F
100
AcDbSymbolTableRecord
100
AcDbLayerTableRecord
  2
INTFCLR_26
 70
0
 62
7
  6
CONTINUOUS
370
-3
390
F
  0
LAYER
  5
210
100
AcDbSymbolTableRecord
100
AcDbLayerTableRecord
  2
INTFCLR_36
 70
0
 62
7
  6
CONTINUOUS
370
-3
390
F
  0
LAYER
  5
211
100
AcDbSymbolTableRecord
100
AcDbLayerTableRecord
  2
INTFCLR_3814
 70
0
 62
7
  6
CONTINUOUS
370
-3
390
F
  0
LAYER
  5
212
100
AcDbSymbolTableRecord
100
AcDbLayerTableRecord
  2
INTFCLR_8580
 70
0
 62
7
  6
CONTINUOUS
370
-3
390
F
  0
ENDTAB
  0
TABLE
  2
STYLE
  5
3
100
AcDbSymbolTable
 70
1
  0
STYLE
  5
11
100
AcDbSymbolTableRecord
100
AcDbTextStyleTableRecord
  2
STANDARD
 70
0
 40
0.0
 41
0.8
 50
0.0
 71
0
 42
0.2
  3
txt
  4

  0
STYLE
  5
213
100
AcDbSymbolTableRecord
100
AcDbTextStyleTableRecord
  2
TEXTSTYLE_1
 70
0
 40
0.0
 41
0.8
 50
0.0
 71
0
 42
0.2
  3
gdt
  4

  0
ENDTAB
  0
TABLE
  2
VIEW
  5
6
100
AcDbSymbolTable
 70
0
  0
ENDTAB
  0
TABLE
  2
UCS
  5
7
100
AcDbSymbolTable
 70
0
  0
ENDTAB
  0
TABLE
  2
APPID
  5
9
100
AcDbSymbolTable
 70
1
  0
APPID
  5
214
100
AcDbSymbolTableRecord
100
AcDbRegAppTableRecord
  2
ACAD
 70
0
  0
ENDTAB
  0
TABLE
  2
BLOCK_RECORD
  5
1
100
AcDbSymbolTable
 70
0
  0
BLOCK_RECORD
  5
215
100
AcDbSymbolTableRecord
100
AcDbBlockTableRecord
  2
*Model_Space
  0
BLOCK_RECORD
  5
216
100
AcDbSymbolTableRecord
100
AcDbBlockTableRecord
  2
*Paper_Space
  0
BLOCK_RECORD
  5
217
100
AcDbSymbolTableRecord
100
AcDbBlockTableRecord
  2
_FILLED
  0
ENDTAB
  0
TABLE
  2
DIMSTYLE
  5
A
100
AcDbSymbolTable
 70
1
100
AcDbDimStyleTable
 71
0
  0
DIMSTYLE
105
218
100
AcDbSymbolTableRecord
100
AcDbDimStyleTableRecord
  2
STANDARD
 70
0
  3

  4

 40
1.0
 41
1.4815830637
 42
1.0
 43
0.38
 44
1.0
 45
0.0
 46
0.0
 47
0.01
 48
0.01
140
2.0742162892
141
0.09
142
0.0
143
25.4
144
1.0
145
0.0
146
1.0
147
0.625
 71
1
 72
0
 73
0
 74
0
 75
0
 76
0
 77
1
 78
8
 79
2
170
0
171
1
172
0
173
0
174
0
175
0
176
0
177
0
178
0
270
2
179
2
271
2
272
2
273
2
274
2
275
0
280
0
281
0
282
0
283
1
284
8
285
0
286
0
287
3
288
0
340
11
278
46
341
217
342
217
343
217
344
217
  0
ENDTAB
  0
ENDSEC
  0
SECTION
  2
BLOCKS
  0
BLOCK
  5
20
100
AcDbEntity
  8
0
100
AcDbBlockBegin
  2
*Model_Space
 70
0
 10
0.0
 20
0.0
 30
0.0
  3
*Model_Space
  1

  0
ENDBLK
  5
21
100
AcDbEntity
  8
0
100
AcDbBlockEnd
  0
BLOCK
  5
1C
100
AcDbEntity
  8
0
100
AcDbBlockBegin
  2
*Paper_Space
 70
0
 10
0.0
 20
0.0
 30
0.0
  3
*Paper_Space
  1

  0
ENDBLK
  5
1D
100
AcDbEntity
  8
0
100
AcDbBlockEnd
  0
BLOCK
  5
219
100
AcDbEntity
  8
0
100
AcDbBlockBegin
  2
_FILLED
 70
64
 10
0.0
 20
0.0
  3
_FILLED
  1

  0
SOLID
  5
21A
100
AcDbEntity
  8
0
  6
BYBLOCK
 62
0
100
AcDbTrace
 10
0.0
 20
0.0
 11
-1.0
 21
0.25
 12
-1.0
 22
-0.25
 13
-1.0
 23
-0.25
  0
ENDBLK
  5
21B
100
AcDbEntity
  8
0
  6
BYBLOCK
 62
0
100
AcDbBlockEnd
  0
ENDSEC
  0
SECTION
  2
ENTITIES
  0
LINE
  5
21C
100
AcDbEntity
  8
0
100
AcDbLine
 62
7
  6
CONTINUOUS
 10
61.0361183445
 20
149.7233081388
 11
26.1758991699
 21
129.5968713529
  0
LINE
  5
21D
100
AcDbEntity
  8
0
100
AcDbLine
 62
7
  6
CONTINUOUS
 10
14.4379772385
 20
104.3262439033
 11
14.4379772385
 21
67.5836351325
  0
LINE
  5
21E
100
AcDbEntity
  8
0
100
AcDbLine
 62
7
  6
CONTINUOUS
 10
43.2878385262
 20
135.8021977889
 11
51.0659807355
 21
140.2928834815
  0
LINE
  5
21F
100
AcDbEntity
  8
0
100
AcDbLine
 62
7
  6
CONTINUOUS
 10
25.6879992886
 20
110.8214083914
 11
25.255965274
 21
110.0820734754
  0
LINE
  5
220
100
AcDbEntity
  8
0
100
AcDbLine
 62
7
  6
CONTINUOUS
 10
57.4299682618
 20
136.6187166908
 11
49.6518260525
 21
132.1280309982
  0
LINE
  5
221
100
AcDbEntity
  8
0
100
AcDbLine
 62
7
  6
CONTINUOUS
 10
73.7640933972
 20
142.3749745574
 11
38.9038742225
 21
122.2485377716
  0
LINE
  5
222
100
AcDbEntity
  8
INTFCLR_36
100
AcDbLine
 62
7
420
3604575
  6
CONTINUOUS
 10
34.1454634204
 20
119.5011574288
 11
32.5398866962
 21
118.5741828081
  0
LINE
  5
223
100
AcDbEntity
  8
0
100
AcDbLine
 62
7
  6
CONTINUOUS
 10
77.0877993805
 20
26.7183194858
 11
26.1758991699
 21
56.1116538113
  0
LINE
  5
224
100
AcDbEntity
  8
0
100
AcDbLine
 62
7
  6
CONTINUOUS
 10
64.925611614
 20
38.4352452597
 11
52.6219023964
 21
45.5386343884
  0
LINE
  5
225
100
AcDbEntity
  8
0
100
AcDbLine
 62
7
  6
CONTINUOUS
 10
52.1976365614
 20
45.7835788411
 11
39.8939273438
 21
52.8869679698
  0
LINE
  5
226
100
AcDbEntity
  8
0
100
AcDbLine
 62
7
  6
CONTINUOUS
 10
39.4696615087
 20
53.1319124225
 11
27.1659522912
 21
60.2353015511
  0
LINE
  5
227
100
AcDbEntity
  8
0
100
AcDbLine
 62
7
  6
CONTINUOUS
 10
26.7416864561
 20
60.4802460038
 11
14.4379772385
 21
67.5836351325
  0
LINE
  5
228
100
AcDbEntity
  8
0
100
AcDbLine
 62
7
  6
CONTINUOUS
 10
26.1758991699
 20
129.5968713529
 11
26.1758991699
 21
111.3480423301
  0
LINE
  5
229
100
AcDbEntity
  8
0
100
AcDbLine
 62
7
  6
CONTINUOUS
 10
26.1758991699
 20
60.806896056
 11
26.1758991699
 21
56.1116538113
  0
LINE
  5
22A
100
AcDbEntity
  8
0
100
AcDbLine
 62
7
  6
CONTINUOUS
 10
26.7416864561
 20
97.2228547747
 11
26.7416864561
 21
60.4802460038
  0
LINE
  5
22B
100
AcDbEntity
  8
0
100
AcDbLine
 62
7
  6
CONTINUOUS
 10
27.1659522912
 20
60.2353015511
 11
27.1659522912
 21
96.977910322
  0
LINE
  5
22C
100
AcDbEntity
  8
0
100
AcDbLine
 62
7
  6
CONTINUOUS
 10
56.0158135788
 20
128.4538642075
 11
63.7939557881
 21
132.9445499001
  0
LINE
  5
22D
100
AcDbEntity
  8
0
100
AcDbLine
 62
7
  6
CONTINUOUS
 10
26.3880320874
 20
111.2255701037
 11
25.6879992886
 21
110.8214083914
  0
LINE
  5
22E
100
AcDbEntity
  8
0
100
AcDbLine
 62
7
  6
CONTINUOUS
 10
16.4107969443
 20
105.4652450926
 11
14.4379772385
 21
104.3262439033
  0
LINE
  5
22F
100
AcDbEntity
  8
0
100
AcDbLine
 62
7
  6
CONTINUOUS
 10
25.255965274
 20
110.0820734754
 11
16.9828503786
 21
105.3056168751
  0
LINE
  5
230
100
AcDbEntity
  8
0
100
AcDbLine
 62
7
  6
CONTINUOUS
 10
76.1756336641
 20
44.9304097478
 11
75.6035802298
 21
45.0900379653
  0
LINE
  5
231
100
AcDbEntity
  8
0
100
AcDbLine
 62
7
  6
CONTINUOUS
 10
70.1579433145
 20
129.2703831094
 11
62.3798011051
 21
124.7796974168
  0
LINE
  5
232
100
AcDbEntity
  8
0
100
AcDbLine
 62
7
  6
CONTINUOUS
 10
37.5596744916
 20
102.9786843468
 11
37.9917085061
 21
103.7180192628
  0
LINE
  5
233
100
AcDbEntity
  8
0
100
AcDbLine
 62
7
  6
CONTINUOUS
 10
38.4159743412
 20
103.47307481
 11
37.9839403267
 21
102.7337398941
  0
LINE
  5
234
100
AcDbEntity
  8
0
100
AcDbLine
 62
7
  6
CONTINUOUS
 10
86.4920684498
 20
135.0266409761
 11
51.6318492752
 21
114.9002041902
  0
LINE
  5
235
100
AcDbEntity
  8
INTFCLR_3814
100
AcDbLine
 62
7
420
3604575
  6
CONTINUOUS
 10
46.8734384731
 20
112.1528238474
 11
45.2678617488
 21
111.2258492267
  0
LINE
  5
236
100
AcDbEntity
  8
0
100
AcDbLine
 62
7
  6
CONTINUOUS
 10
38.691741305
 20
104.1221809751
 11
37.9917085061
 21
103.7180192628
  0
LINE
  5
237
100
AcDbEntity
  8
0
100
AcDbLine
 62
7
  6
CONTINUOUS
 10
28.7145061619
 20
98.361855964
 11
26.7416864561
 21
97.2228547747
  0
LINE
  5
238
100
AcDbEntity
  8
0
100
AcDbLine
 62
7
  6
CONTINUOUS
 10
68.7437886314
 20
121.1055306261
 11
76.5219308408
 21
125.5962163187
  0
LINE
  5
239
100
AcDbEntity
  8
0
100
AcDbLine
 62
7
  6
CONTINUOUS
 10
27.1659522912
 20
96.977910322
 11
29.138771997
 21
98.1169115113
  0
LINE
  5
23A
100
AcDbEntity
  8
0
100
AcDbLine
 62
7
  6
CONTINUOUS
 10
38.4159743412
 20
103.47307481
 11
39.1160071401
 21
103.8772365224
  0
LINE
  5
23B
100
AcDbEntity
  8
0
100
AcDbLine
 62
7
  6
CONTINUOUS
 10
37.5596744916
 20
102.9786843468
 11
29.2865595962
 21
98.2022277465
  0
LINE
  5
23C
100
AcDbEntity
  8
0
100
AcDbLine
 62
7
  6
CONTINUOUS
 10
76.8756664629
 20
45.3345714602
 11
77.0877993805
 21
45.2120992338
  0
LINE
  5
23D
100
AcDbEntity
  8
0
100
AcDbLine
 62
7
  6
CONTINUOUS
 10
38.9038742225
 20
122.2485377716
 11
38.9038742225
 21
103.9997087487
  0
LINE
  5
23E
100
AcDbEntity
  8
0
100
AcDbLine
 62
7
  6
CONTINUOUS
 10
38.9038742225
 20
53.4585624746
 11
38.9038742225
 21
48.7633202299
  0
LINE
  5
23F
100
AcDbEntity
  8
0
100
AcDbLine
 62
7
  6
CONTINUOUS
 10
39.4696615087
 20
89.8745211933
 11
39.4696615087
 21
53.1319124225
  0
LINE
  5
240
100
AcDbEntity
  8
0
100
AcDbLine
 62
7
  6
CONTINUOUS
 10
39.8939273438
 20
89.6295767406
 11
39.8939273438
 21
52.8869679698
  0
LINE
  5
241
100
AcDbEntity
  8
0
100
AcDbLine
 62
7
  6
CONTINUOUS
 10
29.7108254313
 20
97.9572832938
 11
37.9839403267
 21
102.7337398941
  0
LINE
  5
242
100
AcDbEntity
  8
0
100
AcDbLine
 62
7
  6
CONTINUOUS
 10
22.3576002722
 20
89.5476497298
 11
21.650496435
 21
89.139405576
  0
LINE
  5
243
100
AcDbEntity
  8
0
100
AcDbLine
 62
7
  6
CONTINUOUS
 10
23.3475597754
 20
88.1596277651
 11
24.0546636126
 21
88.567871919
  0
LINE
  5
244
100
AcDbEntity
  8
0
100
AcDbLine
 62
7
  6
CONTINUOUS
 10
82.8859183671
 20
121.922049528
 11
75.1077761578
 21
117.4313638355
  0
LINE
  5
245
100
AcDbEntity
  8
0
100
AcDbLine
 62
7
  6
CONTINUOUS
 10
99.2200435025
 20
127.6783073947
 11
64.3598243278
 21
107.5518706088
  0
LINE
  5
246
100
AcDbEntity
  8
INTFCLR_36
100
AcDbLine
 62
7
420
3604575
  6
CONTINUOUS
 10
59.6014135257
 20
104.804490266
 11
57.9958368015
 21
103.8775156454
  0
LINE
  5
247
100
AcDbEntity
  8
0
100
AcDbLine
 62
7
  6
CONTINUOUS
 10
61.5314849333
 20
66.114627021
 11
59.8344215929
 21
67.0944048319
  0
LINE
  5
248
100
AcDbEntity
  8
0
100
AcDbLine
 62
7
  6
CONTINUOUS
 10
48.8035098807
 20
73.4629606024
 11
47.1064465403
 21
74.4427384132
  0
LINE
  5
249
100
AcDbEntity
  8
0
100
AcDbLine
 62
7
  6
CONTINUOUS
 10
36.075534828
 20
80.8112941837
 11
34.3784714877
 21
81.7910719946
  0
LINE
  5
24A
100
AcDbEntity
  8
0
100
AcDbLine
 62
7
  6
CONTINUOUS
 10
23.3475597754
 20
88.1596277651
 11
21.650496435
 21
89.139405576
  0
LINE
  5
24B
100
AcDbEntity
  8
0
100
AcDbLine
 62
7
  6
CONTINUOUS
 10
62.2385887705
 20
66.5228711749
 11
60.5415254302
 21
67.5026489857
  0
LINE
  5
24C
100
AcDbEntity
  8
0
100
AcDbLine
 62
7
  6
CONTINUOUS
 10
49.5106137179
 20
73.8712047563
 11
47.8135503775
 21
74.8509825671
  0
LINE
  5
24D
100
AcDbEntity
  8
0
100
AcDbLine
 62
7
  6
CONTINUOUS
 10
36.7826386652
 20
81.2195383376
 11
35.0855753249
 21
82.1993161485
  0
LINE
  5
24E
100
AcDbEntity
  8
0
100
AcDbLine
 62
7
  6
CONTINUOUS
 10
24.0546636126
 20
88.567871919
 11
22.3576002722
 21
89.5476497298
  0
LINE
  5
24F
100
AcDbEntity
  8
0
100
AcDbLine
 62
7
  6
CONTINUOUS
 10
21.650496435
 20
93.2219176616
 11
23.3475597754
 21
92.2421398508
  0
LINE
  5
250
100
AcDbEntity
  8
0
100
AcDbLine
 62
7
  6
CONTINUOUS
 10
34.3784714877
 20
85.8735840802
 11
36.075534828
 21
84.8938062694
  0
LINE
  5
251
100
AcDbEntity
  8
0
100
AcDbLine
 62
7
  6
CONTINUOUS
 10
47.1064465403
 20
78.5252504989
 11
48.8035098807
 21
77.545472688
  0
LINE
  5
252
100
AcDbEntity
  8
0
100
AcDbLine
 62
7
  6
CONTINUOUS
 10
59.8344215929
 20
71.1769169175
 11
61.5314849333
 21
70.1971391067
  0
LINE
  5
253
100
AcDbEntity
  8
0
100
AcDbLine
 62
7
  6
CONTINUOUS
 10
51.0659807355
 20
132.9444887115
 11
51.0659807355
 21
140.2928834815
  0
LINE
  5
254
100
AcDbEntity
  8
0
100
AcDbLine
 62
7
  6
CONTINUOUS
 10
51.6318492752
 20
114.9002041902
 11
51.6318492752
 21
96.6513751674
  0
LINE
  5
255
100
AcDbEntity
  8
0
100
AcDbLine
 62
7
  6
CONTINUOUS
 10
51.6318492752
 20
46.1102288933
 11
51.6318492752
 21
41.4149866486
  0
LINE
  5
256
100
AcDbEntity
  8
0
100
AcDbLine
 62
7
  6
CONTINUOUS
 10
52.1976365614
 20
82.5261876119
 11
52.1976365614
 21
45.7835788411
  0
LINE
  5
257
100
AcDbEntity
  8
0
100
AcDbLine
 62
7
  6
CONTINUOUS
 10
52.6219023964
 20
45.5386343884
 11
52.6219023964
 21
82.2812431592
  0
LINE
  5
258
100
AcDbEntity
  8
0
100
AcDbLine
 62
7
  6
CONTINUOUS
 10
50.2876495442
 20
95.6303507654
 11
50.7196835588
 21
96.3696856814
  0
LINE
  5
259
100
AcDbEntity
  8
0
100
AcDbLine
 62
7
  6
CONTINUOUS
 10
51.1439493939
 20
96.1247412287
 11
50.7119153793
 21
95.3854063127
  0
LINE
  5
25A
100
AcDbEntity
  8
0
100
AcDbLine
 62
7
  6
CONTINUOUS
 10
51.4197163576
 20
96.7738473937
 11
50.7196835588
 21
96.3696856814
  0
LINE
  5
25B
100
AcDbEntity
  8
0
100
AcDbLine
 62
7
  6
CONTINUOUS
 10
41.4424812145
 20
91.0135223826
 11
39.4696615087
 21
89.8745211933
  0
LINE
  5
25C
100
AcDbEntity
  8
0
100
AcDbLine
 62
7
  6
CONTINUOUS
 10
81.4717636841
 20
113.7571970448
 11
89.2499058934
 21
118.2478827374
  0
LINE
  5
25D
100
AcDbEntity
  8
0
100
AcDbLine
 62
7
  6
CONTINUOUS
 10
51.8439821927
 20
96.528902941
 11
51.1439493939
 21
96.1247412287
  0
LINE
  5
25E
100
AcDbEntity
  8
0
100
AcDbLine
 62
7
  6
CONTINUOUS
 10
41.8667470496
 20
90.7685779299
 11
39.8939273438
 21
89.6295767406
  0
LINE
  5
25F
100
AcDbEntity
  8
0
100
AcDbLine
 62
7
  6
CONTINUOUS
 10
50.2876495442
 20
95.6303507654
 11
42.0145346488
 21
90.8538941651
  0
LINE
  5
260
100
AcDbEntity
  8
0
100
AcDbLine
 62
7
  6
CONTINUOUS
 10
50.7119153793
 20
95.3854063127
 11
42.4388004839
 21
90.6089497124
  0
LINE
  5
261
100
AcDbEntity
  8
0
100
AcDbLine
 62
7
  6
CONTINUOUS
 10
66.8984313198
 20
76.3168552199
 11
67.4704847541
 21
76.1572270024
  0
LINE
  5
262
100
AcDbEntity
  8
0
100
AcDbLine
 62
7
  6
CONTINUOUS
 10
104.8062697992
 20
48.6002554508
 11
106.5740293923
 21
47.5796620628
  0
LINE
  5
263
100
AcDbEntity
  8
0
100
AcDbLine
 62
7
  6
CONTINUOUS
 10
64.925611614
 20
75.1778540306
 11
52.6219023964
 21
82.2812431592
  0
LINE
  5
264
100
AcDbEntity
  8
0
100
AcDbLine
 62
7
  6
CONTINUOUS
 10
52.1976365614
 20
82.5261876119
 11
39.8939273438
 21
89.6295767406
  0
LINE
  5
265
100
AcDbEntity
  8
0
100
AcDbLine
 62
7
  6
CONTINUOUS
 10
39.4696615087
 20
89.8745211933
 11
27.1659522912
 21
96.977910322
  0
LINE
  5
266
100
AcDbEntity
  8
0
100
AcDbLine
 62
7
  6
CONTINUOUS
 10
26.7416864561
 20
97.2228547747
 11
14.4379772385
 21
104.3262439033
  0
LINE
  5
267
100
AcDbEntity
  8
0
100
AcDbLine
 62
7
  6
CONTINUOUS
 10
35.0855753249
 20
82.1993161485
 11
34.3784714877
 21
81.7910719946
  0
LINE
  5
268
100
AcDbEntity
  8
0
100
AcDbLine
 62
7
  6
CONTINUOUS
 10
36.075534828
 20
80.8112941837
 11
36.7826386652
 21
81.2195383376
  0
LINE
  5
269
100
AcDbEntity
  8
0
100
AcDbLine
 62
7
  6
CONTINUOUS
 10
95.6138934198
 20
114.5737159467
 11
87.8357512104
 21
110.0830302541
  0
LINE
  5
26A
100
AcDbEntity
  8
0
100
AcDbLine
 62
7
  6
CONTINUOUS
 10
55.1667755365
 20
83.260616131
 11
54.5947221023
 21
83.4202443485
  0
LINE
  5
26B
100
AcDbEntity
  8
0
100
AcDbLine
 62
7
  6
CONTINUOUS
 10
54.1704562672
 20
83.6651888012
 11
54.7425097015
 21
83.5055605838
  0
LINE
  5
26C
100
AcDbEntity
  8
0
100
AcDbLine
 62
7
  6
CONTINUOUS
 10
109.1196032062
 20
66.9715690727
 11
111.9480185551
 21
66.1550384368
  0
LINE
  5
26D
100
AcDbEntity
  8
0
100
AcDbLine
 62
7
  6
CONTINUOUS
 10
109.1148744608
 20
67.483200196
 11
108.0589474504
 21
67.7880340506
  0
LINE
  5
26E
100
AcDbEntity
  8
0
100
AcDbLine
 62
7
  6
CONTINUOUS
 10
109.048868682
 20
67.8288255303
 11
108.3418626218
 21
68.0329299622
  0
LINE
  5
26F
100
AcDbEntity
  8
0
100
AcDbLine
 62
7
  6
CONTINUOUS
 10
66.8984313198
 20
76.3168552199
 11
54.5947221023
 21
83.4202443485
  0
LINE
  5
270
100
AcDbEntity
  8
0
100
AcDbLine
 62
7
  6
CONTINUOUS
 10
54.1704562672
 20
83.6651888012
 11
41.8667470496
 21
90.7685779299
  0
LINE
  5
271
100
AcDbEntity
  8
0
100
AcDbLine
 62
7
  6
CONTINUOUS
 10
41.4424812145
 20
91.0135223826
 11
29.138771997
 21
98.1169115113
  0
LINE
  5
272
100
AcDbEntity
  8
0
100
AcDbLine
 62
7
  6
CONTINUOUS
 10
28.7145061619
 20
98.361855964
 11
16.4107969443
 21
105.4652450926
  0
LINE
  5
273
100
AcDbEntity
  8
0
100
AcDbLine
 62
7
  6
CONTINUOUS
 10
67.4704847541
 20
76.1572270024
 11
55.1667755365
 21
83.260616131
  0
LINE
  5
274
100
AcDbEntity
  8
0
100
AcDbLine
 62
7
  6
CONTINUOUS
 10
54.7425097015
 20
83.5055605838
 11
42.4388004839
 21
90.6089497124
  0
LINE
  5
275
100
AcDbEntity
  8
0
100
AcDbLine
 62
7
  6
CONTINUOUS
 10
42.0145346488
 20
90.8538941651
 11
29.7108254313
 21
97.9572832938
  0
LINE
  5
276
100
AcDbEntity
  8
0
100
AcDbLine
 62
7
  6
CONTINUOUS
 10
29.2865595962
 20
98.2022277465
 11
16.9828503786
 21
105.3056168751
  0
LINE
  5
277
100
AcDbEntity
  8
0
100
AcDbLine
 62
7
  6
CONTINUOUS
 10
99.7151204049
 20
58.5208576302
 11
99.9272533225
 21
58.3983854039
  0
LINE
  5
278
100
AcDbEntity
  8
0
100
AcDbLine
 62
7
  6
CONTINUOUS
 10
63.7939557881
 20
125.5961551302
 11
63.7939557881
 21
132.9445499001
  0
LINE
  5
279
100
AcDbEntity
  8
0
100
AcDbLine
 62
7
  6
CONTINUOUS
 10
63.0156245969
 20
88.2820171841
 11
63.4476586114
 21
89.0213521
  0
LINE
  5
27A
100
AcDbEntity
  8
0
100
AcDbLine
 62
7
  6
CONTINUOUS
 10
63.8719244465
 20
88.7764076473
 11
63.439890432
 21
88.0370727313
  0
LINE
  5
27B
100
AcDbEntity
  8
0
100
AcDbLine
 62
7
  6
CONTINUOUS
 10
111.9480185551
 20
120.3299738133
 11
77.0877993805
 21
100.2035370275
  0
LINE
  5
27C
100
AcDbEntity
  8
INTFCLR_8580
100
AcDbLine
 62
7
420
3604575
  6
CONTINUOUS
 10
72.3293885784
 20
97.4561566847
 11
70.7238118541
 21
96.529182064
  0
LINE
  5
27D
100
AcDbEntity
  8
0
100
AcDbLine
 62
7
  6
CONTINUOUS
 10
64.1476914103
 20
89.4255138124
 11
63.4476586114
 21
89.0213521
  0
LINE
  5
27E
100
AcDbEntity
  8
0
100
AcDbLine
 62
7
  6
CONTINUOUS
 10
54.1704562672
 20
83.6651888012
 11
52.1976365614
 21
82.5261876119
  0
LINE
  5
27F
100
AcDbEntity
  8
0
100
AcDbLine
 62
7
  6
CONTINUOUS
 10
52.6219023964
 20
82.2812431592
 11
54.5947221023
 21
83.4202443485
  0
LINE
  5
280
100
AcDbEntity
  8
0
100
AcDbLine
 62
7
  6
CONTINUOUS
 10
63.8719244465
 20
88.7764076473
 11
64.5719572454
 21
89.1805693596
  0
LINE
  5
281
100
AcDbEntity
  8
0
100
AcDbLine
 62
7
  6
CONTINUOUS
 10
63.0156245969
 20
88.2820171841
 11
54.7425097015
 21
83.5055605838
  0
LINE
  5
282
100
AcDbEntity
  8
0
100
AcDbLine
 62
7
  6
CONTINUOUS
 10
55.1667755365
 20
83.260616131
 11
63.439890432
 21
88.0370727313
  0
LINE
  5
283
100
AcDbEntity
  8
0
100
AcDbLine
 62
7
  6
CONTINUOUS
 10
42.4388004839
 20
90.6089497124
 11
41.8667470496
 21
90.7685779299
  0
LINE
  5
284
100
AcDbEntity
  8
0
100
AcDbLine
 62
7
  6
CONTINUOUS
 10
41.4424812145
 20
91.0135223826
 11
42.0145346488
 21
90.8538941651
  0
LINE
  5
285
100
AcDbEntity
  8
0
100
AcDbLine
 62
7
  6
CONTINUOUS
 10
29.7108254313
 20
97.9572832938
 11
29.138771997
 21
98.1169115113
  0
LINE
  5
286
100
AcDbEntity
  8
0
100
AcDbLine
 62
7
  6
CONTINUOUS
 10
28.7145061619
 20
98.361855964
 11
29.2865595962
 21
98.2022277465
  0
LINE
  5
287
100
AcDbEntity
  8
0
100
AcDbLine
 62
7
  6
CONTINUOUS
 10
75.7435996495
 20
80.9336836027
 11
63.439890432
 21
88.0370727313
  0
LINE
  5
288
100
AcDbEntity
  8
0
100
AcDbLine
 62
7
  6
CONTINUOUS
 10
63.0156245969
 20
88.2820171841
 11
50.7119153793
 21
95.3854063127
  0
LINE
  5
289
100
AcDbEntity
  8
0
100
AcDbLine
 62
7
  6
CONTINUOUS
 10
50.2876495442
 20
95.6303507654
 11
37.9839403267
 21
102.7337398941
  0
LINE
  5
28A
100
AcDbEntity
  8
0
100
AcDbLine
 62
7
  6
CONTINUOUS
 10
37.5596744916
 20
102.9786843468
 11
25.255965274
 21
110.0820734754
  0
LINE
  5
28B
100
AcDbEntity
  8
0
100
AcDbLine
 62
7
  6
CONTINUOUS
 10
64.3598243278
 20
107.5518706088
 11
64.3598243278
 21
89.303041586
  0
LINE
  5
28C
100
AcDbEntity
  8
0
100
AcDbLine
 62
7
  6
CONTINUOUS
 10
64.3598243278
 20
38.7618953119
 11
64.3598243278
 21
34.0666530672
  0
LINE
  5
28D
100
AcDbEntity
  8
0
100
AcDbLine
 62
7
  6
CONTINUOUS
 10
64.925611614
 20
75.1778540306
 11
64.925611614
 21
38.4352452597
  0
LINE
  5
28E
100
AcDbEntity
  8
0
100
AcDbLine
 62
7
  6
CONTINUOUS
 10
47.8135503775
 20
74.8509825671
 11
47.1064465403
 21
74.4427384132
  0
LINE
  5
28F
100
AcDbEntity
  8
0
100
AcDbLine
 62
7
  6
CONTINUOUS
 10
48.8035098807
 20
73.4629606024
 11
49.5106137179
 21
73.8712047563
  0
LINE
  5
290
100
AcDbEntity
  8
0
100
AcDbLine
 62
7
  6
CONTINUOUS
 10
26.7416864561
 20
60.4802460038
 11
27.1659522912
 21
60.7251945358
  0
LINE
  5
291
100
AcDbEntity
  8
0
100
AcDbLine
 62
7
  6
CONTINUOUS
 10
16.9828503786
 20
105.3056168751
 11
16.4107969443
 21
105.4652450926
  0
LINE
  5
292
100
AcDbEntity
  8
0
100
AcDbLine
 62
7
  6
CONTINUOUS
 10
76.1756336641
 20
81.6730185187
 11
63.8719244465
 21
88.7764076473
  0
LINE
  5
293
100
AcDbEntity
  8
0
100
AcDbLine
 62
7
  6
CONTINUOUS
 10
63.4476586114
 20
89.0213521
 11
51.1439493939
 21
96.1247412287
  0
LINE
  5
294
100
AcDbEntity
  8
0
100
AcDbLine
 62
7
  6
CONTINUOUS
 10
50.7196835588
 20
96.3696856814
 11
38.4159743412
 21
103.47307481
  0
LINE
  5
295
100
AcDbEntity
  8
0
100
AcDbLine
 62
7
  6
CONTINUOUS
 10
37.9917085061
 20
103.7180192628
 11
25.6879992886
 21
110.8214083914
  0
LINE
  5
296
100
AcDbEntity
  8
0
100
AcDbLine
 62
7
  6
CONTINUOUS
 10
26.1758991699
 20
111.3480423301
 11
77.0877993805
 21
81.9547080046
  0
LINE
  5
297
100
AcDbEntity
  8
0
100
AcDbLine
 62
7
  6
CONTINUOUS
 10
109.1196032062
 20
66.9715690727
 11
108.0589474504
 21
67.5839251055
  0
LINE
  5
298
100
AcDbEntity
  8
0
100
AcDbLine
 62
7
  6
CONTINUOUS
 10
108.4478383691
 20
67.8683049509
 11
109.1148744608
 21
67.483200196
  0
LINE
  5
299
100
AcDbEntity
  8
0
100
AcDbLine
 62
7
  6
CONTINUOUS
 10
108.0589474504
 20
68.1962757828
 11
108.4478383691
 21
67.9717430866
  0
LINE
  5
29A
100
AcDbEntity
  8
0
100
AcDbLine
 62
7
  6
CONTINUOUS
 10
109.048868682
 20
67.8288255303
 11
111.9480185551
 21
66.1550384368
  0
LINE
  5
29B
100
AcDbEntity
  8
0
100
AcDbLine
 62
7
  6
CONTINUOUS
 10
108.0589474504
 20
70.0741999798
 11
108.9428022232
 21
69.5638915986
  0
LINE
  5
29C
100
AcDbEntity
  8
0
100
AcDbLine
 62
7
  6
CONTINUOUS
 10
76.5219308408
 20
118.2478215488
 11
76.5219308408
 21
125.5962163187
  0
LINE
  5
29D
100
AcDbEntity
  8
0
100
AcDbLine
 62
7
  6
CONTINUOUS
 10
77.0877993805
 20
100.2035370275
 11
77.0877993805
 21
81.9547080046
  0
LINE
  5
29E
100
AcDbEntity
  8
0
100
AcDbLine
 62
7
  6
CONTINUOUS
 10
77.0877993805
 20
45.2120992338
 11
77.0877993805
 21
26.7183194858
  0
LINE
  5
29F
100
AcDbEntity
  8
0
100
AcDbLine
 62
7
  6
CONTINUOUS
 10
75.7435996495
 20
80.9336836027
 11
76.1756336641
 21
81.6730185187
  0
LINE
  5
2A0
100
AcDbEntity
  8
0
100
AcDbLine
 62
7
  6
CONTINUOUS
 10
76.8756664629
 20
82.077180231
 11
76.1756336641
 21
81.6730185187
  0
LINE
  5
2A1
100
AcDbEntity
  8
0
100
AcDbLine
 62
7
  6
CONTINUOUS
 10
66.8984313198
 20
76.3168552199
 11
64.925611614
 21
75.1778540306
  0
LINE
  5
2A2
100
AcDbEntity
  8
0
100
AcDbLine
 62
7
  6
CONTINUOUS
 10
77.0877993805
 20
81.9547080046
 11
99.9272533225
 21
95.1409941747
  0
LINE
  5
2A3
100
AcDbEntity
  8
0
100
AcDbLine
 62
7
  6
CONTINUOUS
 10
75.7435996495
 20
80.9336836027
 11
67.4704847541
 21
76.1572270024
  0
LINE
  5
2A4
100
AcDbEntity
  8
0
100
AcDbLine
 62
7
  6
CONTINUOUS
 10
108.9074720551
 20
96.2431828432
 11
108.0589474504
 21
95.7532898586
  0
LINE
  5
2A5
100
AcDbEntity
  8
0
100
AcDbLine
 62
7
  6
CONTINUOUS
 10
60.5415254302
 20
67.5026489857
 11
59.8344215929
 21
67.0944048319
  0
LINE
  5
2A6
100
AcDbEntity
  8
0
100
AcDbLine
 62
7
  6
CONTINUOUS
 10
109.6145758923
 20
94.2019197457
 11
111.9480185551
 21
95.5491254535
  0
LINE
  5
2A7
100
AcDbEntity
  8
0
100
AcDbLine
 62
7
  6
CONTINUOUS
 10
61.5314849333
 20
66.114627021
 11
62.2385887705
 21
66.5228711749
  0
LINE
  5
2A8
100
AcDbEntity
  8
0
100
AcDbLine
 62
7
  6
CONTINUOUS
 10
39.4696615087
 20
53.1319124225
 11
39.8939273438
 21
53.3768609544
  0
LINE
  5
2A9
100
AcDbEntity
  8
0
100
AcDbLine
 62
7
  6
CONTINUOUS
 10
77.0877993805
 20
100.2035370275
 11
26.1758991699
 21
129.5968713529
  0
LINE
  5
2AA
100
AcDbEntity
  8
0
100
AcDbLine
 62
7
  6
CONTINUOUS
 10
89.2499058934
 20
110.8994879674
 11
89.2499058934
 21
118.2478827374
  0
LINE
  5
2AB
100
AcDbEntity
  8
0
100
AcDbLine
 62
7
  6
CONTINUOUS
 10
67.3304653344
 20
40.313581365
 11
66.8984313198
 21
39.574246449
  0
LINE
  5
2AC
100
AcDbEntity
  8
0
100
AcDbLine
 62
7
  6
CONTINUOUS
 10
52.1976365614
 20
45.7835788411
 11
52.6219023964
 21
46.0285273731
  0
LINE
  5
2AD
100
AcDbEntity
  8
0
100
AcDbLine
 62
7
  6
CONTINUOUS
 10
109.6145758923
 20
94.2019197457
 11
108.0589474504
 21
95.1000419271
  0
LINE
  5
2AE
100
AcDbEntity
  8
0
100
AcDbLine
 62
7
  6
CONTINUOUS
 10
87.8357512104
 20
110.0830302541
 11
81.4717636841
 21
113.7571970448
  0
LINE
  5
2AF
100
AcDbEntity
  8
0
100
AcDbLine
 62
7
  6
CONTINUOUS
 10
75.1077761578
 20
117.4313638355
 11
68.7437886314
 21
121.1055306261
  0
LINE
  5
2B0
100
AcDbEntity
  8
0
100
AcDbLine
 62
7
  6
CONTINUOUS
 10
62.3798011051
 20
124.7796974168
 11
56.0158135788
 21
128.4538642075
  0
LINE
  5
2B1
100
AcDbEntity
  8
0
100
AcDbLine
 62
7
  6
CONTINUOUS
 10
49.6518260525
 20
132.1280309982
 11
43.2878385262
 21
135.8021977889
  0
LINE
  5
2B2
100
AcDbEntity
  8
0
100
AcDbLine
 62
7
  6
CONTINUOUS
 10
99.7151204049
 20
95.0185199087
 11
99.7151204049
 21
58.5208576302
  0
LINE
  5
2B3
100
AcDbEntity
  8
0
100
AcDbLine
 62
7
  6
CONTINUOUS
 10
99.9272533225
 20
95.1409941747
 11
99.9272533225
 21
58.3983854039
  0
LINE
  5
2B4
100
AcDbEntity
  8
0
100
AcDbLine
 62
7
  6
CONTINUOUS
 10
104.8062697992
 20
46.5590516781
 11
104.8062697992
 21
57.5001840676
  0
LINE
  5
2B5
100
AcDbEntity
  8
0
100
AcDbLine
 62
7
  6
CONTINUOUS
 10
108.0589474504
 20
66.3592028419
 11
109.1196032062
 21
66.9715690727
  0
LINE
  5
2B6
100
AcDbEntity
  8
0
100
AcDbLine
 62
7
  6
CONTINUOUS
 10
51.0659807355
 20
140.2928834815
 11
57.4299682618
 21
136.6187166908
  0
LINE
  5
2B7
100
AcDbEntity
  8
0
100
AcDbLine
 62
7
  6
CONTINUOUS
 10
63.7939557881
 20
132.9445499001
 11
70.1579433145
 21
129.2703831094
  0
LINE
  5
2B8
100
AcDbEntity
  8
0
100
AcDbLine
 62
7
  6
CONTINUOUS
 10
76.5219308408
 20
125.5962163187
 11
82.8859183671
 21
121.922049528
  0
LINE
  5
2B9
100
AcDbEntity
  8
0
100
AcDbLine
 62
7
  6
CONTINUOUS
 10
89.2499058934
 20
118.2478827374
 11
95.6138934198
 21
114.5737159467
  0
LINE
  5
2BA
100
AcDbEntity
  8
0
100
AcDbLine
 62
7
  6
CONTINUOUS
 10
106.5740293923
 20
58.5207944523
 11
106.5740293923
 21
47.5796620628
  0
LINE
  5
2BB
100
AcDbEntity
  8
0
100
AcDbLine
 62
7
  6
CONTINUOUS
 10
108.0589474504
 20
95.7532898586
 11
108.0589474504
 21
66.3592028419
  0
LINE
  5
2BC
100
AcDbEntity
  8
0
100
AcDbLine
 62
7
  6
CONTINUOUS
 10
108.4478383691
 20
67.6757657625
 11
108.4478383691
 21
67.9717430866
  0
LINE
  5
2BD
100
AcDbEntity
  8
0
100
AcDbLine
 62
7
  6
CONTINUOUS
 10
108.9428022232
 20
67.8594456841
 11
108.9428022232
 21
69.5638915986
  0
LINE
  5
2BE
100
AcDbEntity
  8
0
100
AcDbLine
 62
7
  6
CONTINUOUS
 10
67.3304653344
 20
40.313581365
 11
75.6035802298
 21
45.0900379653
  0
LINE
  5
2BF
100
AcDbEntity
  8
0
100
AcDbLine
 62
7
  6
CONTINUOUS
 10
64.925611614
 20
38.4352452597
 11
66.8984313198
 21
39.574246449
  0
LINE
  5
2C0
100
AcDbEntity
  8
0
100
AcDbLine
 62
7
  6
CONTINUOUS
 10
76.1756336641
 20
44.9304097478
 11
99.7151204049
 21
58.5208576302
  0
LINE
  5
2C1
100
AcDbEntity
  8
0
100
AcDbLine
 62
7
  6
CONTINUOUS
 10
99.9272533225
 20
58.3983854039
 11
77.0877993805
 21
45.2120992338
  0
LINE
  5
2C2
100
AcDbEntity
  8
0
100
AcDbLine
 62
7
  6
CONTINUOUS
 10
104.8062697992
 20
57.5001840676
 11
106.5740293923
 21
58.5207944523
  0
LINE
  5
2C3
100
AcDbEntity
  8
0
100
AcDbLine
 62
7
  6
CONTINUOUS
 10
109.6145758923
 20
94.2019197457
 11
108.9074720551
 21
96.2431828432
  0
LINE
  5
2C4
100
AcDbEntity
  8
0
100
AcDbLine
 62
7
  6
CONTINUOUS
 10
111.9480185551
 20
46.8447562717
 11
111.9480185551
 21
66.1550384368
  0
LINE
  5
2C5
100
AcDbEntity
  8
0
100
AcDbLine
 62
7
  6
CONTINUOUS
 10
111.9480185551
 20
95.5491254535
 11
111.9480185551
 21
120.3299738133
  0
LINE
  5
2C6
100
AcDbEntity
  8
0
100
AcDbLine
 62
7
  6
CONTINUOUS
 10
111.9480185551
 20
120.3299738133
 11
61.0361183445
 21
149.7233081388
  0
LINE
  5
2C7
100
AcDbEntity
  8
0
100
AcDbLine
 62
7
  6
CONTINUOUS
 10
106.5740293923
 20
47.5796620628
 11
104.8062697992
 21
46.5590516781
  0
LINE
  5
2C8
100
AcDbEntity
  8
0
100
AcDbLine
 62
7
  6
CONTINUOUS
 10
77.0877993805
 20
26.7183194858
 11
111.9480185551
 21
46.8447562717
  0
SPLINE
  5
2C9
100
AcDbEntity
  8
0
100
AcDbSpline
 62
7
  6
CONTINUOUS
 70
0
 71
3
 72
11
 73
7
 74
0
 42
0.0000001
 43
0.0000001
 44
0.0000000001
 40
0.0
 40
0.0
 40
0.0
 40
0.0
 40
0.2177799541
 40
0.4509235396
 40
0.7102600053
 40
1.0
 40
1.0
 40
1.0
 40
1.0
 10
34.1898695962
 20
115.7163115204
 30
0.0
 10
34.298734948
 20
115.7791393116
 30
0.0
 10
34.5023904212
 20
115.9503930908
 30
0.0
 10
34.7192116449
 20
116.3048806348
 30
0.0
 10
34.8480340417
 20
116.7417755767
 30
0.0
 10
34.8733487892
 20
117.059761744
 30
0.0
 10
34.8733487892
 20
117.2269883182
 30
0.0
  0
SPLINE
  5
2CA
100
AcDbEntity
  8
0
100
AcDbSpline
 62
7
  6
CONTINUOUS
 70
0
 71
3
 72
11
 73
7
 74
0
 42
0.0000001
 43
0.0000001
 44
0.0000000001
 40
0.0
 40
0.0
 40
0.0
 40
0.0
 40
0.2177833598
 40
0.4509104088
 40
0.7102966711
 40
1.0
 40
1.0
 40
1.0
 40
1.0
 10
24.5975479419
 20
88.035827871
 30
0.0
 10
24.6800144228
 20
88.0834396465
 30
0.0
 10
24.834305819
 20
88.2131521154
 30
0.0
 10
24.9985672968
 20
88.4817271109
 30
0.0
 10
25.0961289547
 20
88.8127113536
 30
0.0
 10
25.1153340882
 20
89.0536115607
 30
0.0
 10
25.1153340882
 20
89.1802819216
 30
0.0
  0
SPLINE
  5
2CB
100
AcDbEntity
  8
0
100
AcDbSpline
 62
7
  6
CONTINUOUS
 70
0
 71
3
 72
17
 73
13
 74
0
 42
0.0000001
 43
0.0000001
 44
0.0000000001
 40
0.0
 40
0.0
 40
0.0
 40
0.0
 40
0.128694915
 40
0.2702797283
 40
0.4174350458
 40
0.5617779945
 40
0.695448318
 40
0.8127111454
 40
0.8646773279
 40
0.9125098611
 40
0.9571397526
 40
1.0
 40
1.0
 40
1.0
 40
1.0
 10
34.8733487892
 20
117.2269883182
 30
0.0
 10
34.8733487892
 20
117.5090699945
 30
0.0
 10
34.7944426518
 20
118.1021646634
 30
0.0
 10
34.4998834777
 20
118.9729802737
 30
0.0
 10
34.0460551868
 20
119.8118586896
 30
0.0
 10
33.4693795068
 20
120.5500075665
 30
0.0
 10
32.8169866556
 20
121.1278146597
 30
0.0
 10
32.2264661167
 20
121.4506343382
 30
0.0
 10
31.7645598333
 20
121.5735941963
 30
0.0
 10
31.4466405712
 20
121.5969039351
 30
0.0
 10
31.1505970486
 20
121.5535864624
 30
0.0
 10
30.9712698204
 20
121.4790116218
 30
0.0
 10
30.8899037962
 20
121.4320540958
 30
0.0
  0
SPLINE
  5
2CC
100
AcDbEntity
  8
0
100
AcDbSpline
 62
7
  6
CONTINUOUS
 70
0
 71
3
 72
11
 73
7
 74
0
 42
0.0000001
 43
0.0000001
 44
0.0000000001
 40
0.0
 40
0.0
 40
0.0
 40
0.0
 40
0.289702329
 40
0.5490881649
 40
0.7822156415
 40
1.0
 40
1.0
 40
1.0
 40
1.0
 10
21.650496435
 20
93.2219176616
 30
0.0
 10
21.5407993748
 20
93.2852498561
 30
0.0
 10
21.3225765497
 20
93.3890627322
 30
0.0
 10
20.9871637253
 20
93.4700589198
 30
0.0
 10
20.6724483706
 20
93.4620903841
 30
0.0
 10
20.4829729233
 20
93.393328277
 30
0.0
 10
20.4005082684
 20
93.3457175558
 30
0.0
  0
SPLINE
  5
2CD
100
AcDbEntity
  8
0
100
AcDbSpline
 62
7
  6
CONTINUOUS
 70
0
 71
3
 72
13
 73
9
 74
0
 42
0.0000001
 43
0.0000001
 44
0.0000000001
 40
0.0
 40
0.0
 40
0.0
 40
0.0
 40
0.1142259181
 40
0.2375599982
 40
0.5000010158
 40
0.7624414734
 40
0.8857749255
 40
1.0
 40
1.0
 40
1.0
 40
1.0
 10
25.1153340882
 20
89.1802819216
 30
0.0
 10
25.1153340882
 20
89.3199830967
 30
0.0
 10
25.0897039574
 20
89.6108141945
 30
0.0
 10
24.9507746088
 20
90.2078415985
 30
0.0
 10
24.6278904762
 20
90.9401026921
 30
0.0
 10
24.1551733817
 20
91.5858564859
 30
0.0
 10
23.7075962931
 20
92.0046820122
 30
0.0
 10
23.4685443326
 20
92.1722909643
 30
0.0
 10
23.3475597754
 20
92.2421398508
 30
0.0
  0
SPLINE
  5
2CE
100
AcDbEntity
  8
0
100
AcDbSpline
 62
7
  6
CONTINUOUS
 70
0
 71
3
 72
11
 73
7
 74
0
 42
0.0000001
 43
0.0000001
 44
0.0000000001
 40
0.0
 40
0.0
 40
0.0
 40
0.0
 40
0.2177799541
 40
0.4509235396
 40
0.7102600053
 40
1.0
 40
1.0
 40
1.0
 40
1.0
 10
30.8899037962
 20
121.4320540958
 30
0.0
 10
30.7810384444
 20
121.3692263046
 30
0.0
 10
30.5773829712
 20
121.1979725254
 30
0.0
 10
30.3605617475
 20
120.8434849814
 30
0.0
 10
30.2317393507
 20
120.4065900395
 30
0.0
 10
30.2064246032
 20
120.0886038722
 30
0.0
 10
30.2064246032
 20
119.921377298
 30
0.0
  0
SPLINE
  5
2CF
100
AcDbEntity
  8
0
100
AcDbSpline
 62
7
  6
CONTINUOUS
 70
0
 71
3
 72
9
 73
5
 74
0
 42
0.0000001
 43
0.0000001
 44
0.0000000001
 40
0.0
 40
0.0
 40
0.0
 40
0.0
 40
0.2255079116
 40
1.0
 40
1.0
 40
1.0
 40
1.0
 10
24.8968465168
 20
88.3281895381
 30
0.0
 10
24.8305705112
 20
88.3249850919
 30
0.0
 10
24.5351522597
 20
88.3389864638
 30
0.0
 10
24.2520202125
 20
88.4539306106
 30
0.0
 10
24.0546636126
 20
88.567871919
 30
0.0
  0
SPLINE
  5
2D0
100
AcDbEntity
  8
0
100
AcDbSpline
 62
7
  6
CONTINUOUS
 70
0
 71
3
 72
17
 73
13
 74
0
 42
0.0000001
 43
0.0000001
 44
0.0000000001
 40
0.0
 40
0.0
 40
0.0
 40
0.0
 40
0.128694915
 40
0.2702797283
 40
0.4174350458
 40
0.5617779945
 40
0.695448318
 40
0.8127111454
 40
0.8646773279
 40
0.9125098611
 40
0.9571397526
 40
1.0
 40
1.0
 40
1.0
 40
1.0
 10
30.2064246032
 20
119.921377298
 30
0.0
 10
30.2064246032
 20
119.6392956217
 30
0.0
 10
30.2853307406
 20
119.0462009528
 30
0.0
 10
30.5798899147
 20
118.1753853425
 30
0.0
 10
31.0337182056
 20
117.3365069266
 30
0.0
 10
31.6103938856
 20
116.5983580497
 30
0.0
 10
32.2627867368
 20
116.0205509565
 30
0.0
 10
32.8533072757
 20
115.697731278
 30
0.0
 10
33.3152135591
 20
115.5747714199
 30
0.0
 10
33.6331328212
 20
115.5514616811
 30
0.0
 10
33.9291763438
 20
115.5947791538
 30
0.0
 10
34.108503572
 20
115.6693539944
 30
0.0
 10
34.1898695962
 20
115.7163115204
 30
0.0
  0
SPLINE
  5
2D1
100
AcDbEntity
  8
0
100
AcDbSpline
 62
7
  6
CONTINUOUS
 70
0
 71
3
 72
11
 73
7
 74
0
 42
0.0000001
 43
0.0000001
 44
0.0000000001
 40
0.0
 40
0.0
 40
0.0
 40
0.0
 40
0.2449786929
 40
0.5000306557
 40
0.7550841375
 40
1.0
 40
1.0
 40
1.0
 40
1.0
 10
34.6933094066
 20
118.0176181661
 30
0.0
 10
34.5038956065
 20
118.1930417771
 30
0.0
 10
34.1474531501
 20
118.5845702816
 30
0.0
 10
33.7012261993
 20
119.2464440671
 30
0.0
 10
33.351554288
 20
119.9639558119
 30
0.0
 10
33.1910183061
 20
120.4684401917
 30
0.0
 10
33.1339563572
 20
120.7201558666
 30
0.0
  0
SPLINE
  5
2D2
100
AcDbEntity
  8
0
100
AcDbSpline
 62
7
  6
CONTINUOUS
 70
0
 71
3
 72
11
 73
7
 74
0
 42
0.0000001
 43
0.0000001
 44
0.0000000001
 40
0.0
 40
0.0
 40
0.0
 40
0.0
 40
0.2177833598
 40
0.4509104088
 40
0.7102966711
 40
1.0
 40
1.0
 40
1.0
 40
1.0
 10
20.4005082684
 20
93.3457175558
 30
0.0
 10
20.3180417876
 20
93.2981057803
 30
0.0
 10
20.1637503914
 20
93.1683933113
 30
0.0
 10
19.9994889136
 20
92.8998183158
 30
0.0
 10
19.9019272557
 20
92.5688340731
 30
0.0
 10
19.8827221221
 20
92.327933866
 30
0.0
 10
19.8827221221
 20
92.2012635051
 30
0.0
  0
SPLINE
  5
2D3
100
AcDbEntity
  8
0
100
AcDbSpline
 62
7
  6
CONTINUOUS
 70
0
 71
3
 72
13
 73
9
 74
0
 42
0.0000001
 43
0.0000001
 44
0.0000000001
 40
0.0
 40
0.0
 40
0.0
 40
0.0
 40
0.1142259181
 40
0.2375599982
 40
0.5000010158
 40
0.7624414734
 40
0.8857749255
 40
1.0
 40
1.0
 40
1.0
 40
1.0
 10
19.8827221221
 20
92.2012635051
 30
0.0
 10
19.8827221221
 20
92.0615623301
 30
0.0
 10
19.908352253
 20
91.7707312322
 30
0.0
 10
20.0472816016
 20
91.1737038282
 30
0.0
 10
20.3701657342
 20
90.4414427346
 30
0.0
 10
20.8428828287
 20
89.7956889408
 30
0.0
 10
21.2904599172
 20
89.3768634145
 30
0.0
 10
21.5295118778
 20
89.2092544625
 30
0.0
 10
21.650496435
 20
89.139405576
 30
0.0
  0
SPLINE
  5
2D4
100
AcDbEntity
  8
0
100
AcDbSpline
 62
7
  6
CONTINUOUS
 70
0
 71
3
 72
11
 73
7
 74
0
 42
0.0000001
 43
0.0000001
 44
0.0000000001
 40
0.0
 40
0.0
 40
0.0
 40
0.0
 40
0.289702329
 40
0.5490881649
 40
0.7822156415
 40
1.0
 40
1.0
 40
1.0
 40
1.0
 10
23.3475597754
 20
88.1596277651
 30
0.0
 10
23.4572568355
 20
88.0962955706
 30
0.0
 10
23.6754796607
 20
87.9924826945
 30
0.0
 10
24.0108924851
 20
87.9114865069
 30
0.0
 10
24.3256078398
 20
87.9194550426
 30
0.0
 10
24.5150832871
 20
87.9882171497
 30
0.0
 10
24.5975479419
 20
88.035827871
 30
0.0
  0
SPLINE
  5
2D5
100
AcDbEntity
  8
0
100
AcDbSpline
 62
7
  6
CONTINUOUS
 70
0
 71
3
 72
13
 73
9
 74
0
 42
0.0000001
 43
0.0000001
 44
0.0000000001
 40
0.0
 40
0.0
 40
0.0
 40
0.0
 40
0.1142250362
 40
0.2375584228
 40
0.4999988469
 40
0.762439898
 40
0.8857740437
 40
1.0
 40
1.0
 40
1.0
 40
1.0
 10
22.3576002722
 20
89.5476497298
 30
0.0
 10
22.2366157555
 20
89.6174985929
 30
0.0
 10
21.9975638748
 20
89.785107436
 30
0.0
 10
21.5499869111
 20
90.2039328518
 30
0.0
 10
21.0772697889
 20
90.8496865118
 30
0.0
 10
20.7543855265
 20
91.5819476483
 30
0.0
 10
20.6154561447
 20
92.1789752156
 30
0.0
 10
20.5898259594
 20
92.4698064371
 30
0.0
 10
20.5898259594
 20
92.609507659
 30
0.0
  0
SPLINE
  5
2D6
100
AcDbEntity
  8
0
100
AcDbSpline
 62
7
  6
CONTINUOUS
 70
0
 71
3
 72
9
 73
5
 74
0
 42
0.0000001
 43
0.0000001
 44
0.0000000001
 40
0.0
 40
0.0
 40
0.0
 40
0.0
 40
0.2778666819
 40
1.0
 40
1.0
 40
1.0
 40
1.0
 10
20.5898259594
 20
92.609507659
 30
0.0
 10
20.5898259594
 20
92.6911808491
 30
0.0
 10
20.6048055795
 20
92.9839326814
 30
0.0
 10
20.6884652823
 20
93.2802483232
 30
0.0
 10
20.8033464339
 20
93.4587280819
 30
0.0
  0
SPLINE
  5
2D7
100
AcDbEntity
  8
0
100
AcDbSpline
 62
7
  6
CONTINUOUS
 70
0
 71
3
 72
11
 73
7
 74
0
 42
0.0000001
 43
0.0000001
 44
0.0000000001
 40
0.0
 40
0.0
 40
0.0
 40
0.0
 40
0.2177799541
 40
0.4509235396
 40
0.7102600053
 40
1.0
 40
1.0
 40
1.0
 40
1.0
 10
46.9178446489
 20
108.367977939
 30
0.0
 10
47.0267100007
 20
108.4308057303
 30
0.0
 10
47.2303654739
 20
108.6020595094
 30
0.0
 10
47.4471866975
 20
108.9565470535
 30
0.0
 10
47.5760090944
 20
109.3934419953
 30
0.0
 10
47.6013238418
 20
109.7114281626
 30
0.0
 10
47.6013238418
 20
109.8786547368
 30
0.0
  0
SPLINE
  5
2D8
100
AcDbEntity
  8
0
100
AcDbSpline
 62
7
  6
CONTINUOUS
 70
0
 71
3
 72
11
 73
7
 74
0
 42
0.0000001
 43
0.0000001
 44
0.0000000001
 40
0.0
 40
0.0
 40
0.0
 40
0.0
 40
0.2177833598
 40
0.4509104088
 40
0.7102966711
 40
1.0
 40
1.0
 40
1.0
 40
1.0
 10
37.3255229946
 20
80.6874942896
 30
0.0
 10
37.4079894755
 20
80.7351060651
 30
0.0
 10
37.5622808716
 20
80.8648185341
 30
0.0
 10
37.7265423494
 20
81.1333935296
 30
0.0
 10
37.8241040074
 20
81.4643777723
 30
0.0
 10
37.8433091409
 20
81.7052779793
 30
0.0
 10
37.8433091409
 20
81.8319483403
 30
0.0
  0
SPLINE
  5
2D9
100
AcDbEntity
  8
0
100
AcDbSpline
 62
7
  6
CONTINUOUS
 70
0
 71
3
 72
17
 73
13
 74
0
 42
0.0000001
 43
0.0000001
 44
0.0000000001
 40
0.0
 40
0.0
 40
0.0
 40
0.0
 40
0.128694915
 40
0.2702797283
 40
0.4174350458
 40
0.5617779945
 40
0.695448318
 40
0.8127111454
 40
0.8646773279
 40
0.9125098611
 40
0.9571397526
 40
1.0
 40
1.0
 40
1.0
 40
1.0
 10
47.6013238418
 20
109.8786547368
 30
0.0
 10
47.6013238418
 20
110.1607364132
 30
0.0
 10
47.5224177045
 20
110.7538310821
 30
0.0
 10
47.2278585304
 20
111.6246466924
 30
0.0
 10
46.7740302394
 20
112.4635251082
 30
0.0
 10
46.1973545594
 20
113.2016739851
 30
0.0
 10
45.5449617083
 20
113.7794810783
 30
0.0
 10
44.9544411694
 20
114.1023007568
 30
0.0
 10
44.4925348859
 20
114.2252606149
 30
0.0
 10
44.1746156239
 20
114.2485703538
 30
0.0
 10
43.8785721013
 20
114.205252881
 30
0.0
 10
43.699244873
 20
114.1306780404
 30
0.0
 10
43.6178788488
 20
114.0837205145
 30
0.0
  0
SPLINE
  5
2DA
100
AcDbEntity
  8
0
100
AcDbSpline
 62
7
  6
CONTINUOUS
 70
0
 71
3
 72
11
 73
7
 74
0
 42
0.0000001
 43
0.0000001
 44
0.0000000001
 40
0.0
 40
0.0
 40
0.0
 40
0.0
 40
0.289702329
 40
0.5490881649
 40
0.7822156415
 40
1.0
 40
1.0
 40
1.0
 40
1.0
 10
34.3784714877
 20
85.8735840802
 30
0.0
 10
34.2687744275
 20
85.9369162747
 30
0.0
 10
34.0505516023
 20
86.0407291508
 30
0.0
 10
33.7151387779
 20
86.1217253384
 30
0.0
 10
33.4004234232
 20
86.1137568027
 30
0.0
 10
33.2109479759
 20
86.0449946956
 30
0.0
 10
33.1284833211
 20
85.9973839744
 30
0.0
  0
SPLINE
  5
2DB
100
AcDbEntity
  8
0
100
AcDbSpline
 62
7
  6
CONTINUOUS
 70
0
 71
3
 72
13
 73
9
 74
0
 42
0.0000001
 43
0.0000001
 44
0.0000000001
 40
0.0
 40
0.0
 40
0.0
 40
0.0
 40
0.1142259181
 40
0.2375599982
 40
0.5000010158
 40
0.7624414734
 40
0.8857749255
 40
1.0
 40
1.0
 40
1.0
 40
1.0
 10
37.8433091409
 20
81.8319483403
 30
0.0
 10
37.8433091409
 20
81.9716495153
 30
0.0
 10
37.81767901
 20
82.2624806132
 30
0.0
 10
37.6787496615
 20
82.8595080171
 30
0.0
 10
37.3558655289
 20
83.5917691107
 30
0.0
 10
36.8831484343
 20
84.2375229046
 30
0.0
 10
36.4355713458
 20
84.6563484308
 30
0.0
 10
36.1965193853
 20
84.8239573829
 30
0.0
 10
36.075534828
 20
84.8938062694
 30
0.0
  0
SPLINE
  5
2DC
100
AcDbEntity
  8
0
100
AcDbSpline
 62
7
  6
CONTINUOUS
 70
0
 71
3
 72
11
 73
7
 74
0
 42
0.0000001
 43
0.0000001
 44
0.0000000001
 40
0.0
 40
0.0
 40
0.0
 40
0.0
 40
0.2177799541
 40
0.4509235396
 40
0.7102600053
 40
1.0
 40
1.0
 40
1.0
 40
1.0
 10
43.6178788488
 20
114.0837205145
 30
0.0
 10
43.509013497
 20
114.0208927232
 30
0.0
 10
43.3053580238
 20
113.849638944
 30
0.0
 10
43.0885368002
 20
113.4951514
 30
0.0
 10
42.9597144033
 20
113.0582564582
 30
0.0
 10
42.9343996559
 20
112.7402702908
 30
0.0
 10
42.9343996559
 20
112.5730437166
 30
0.0
  0
SPLINE
  5
2DD
100
AcDbEntity
  8
0
100
AcDbSpline
 62
7
  6
CONTINUOUS
 70
0
 71
3
 72
9
 73
5
 74
0
 42
0.0000001
 43
0.0000001
 44
0.0000000001
 40
0.0
 40
0.0
 40
0.0
 40
0.0
 40
0.2255079116
 40
1.0
 40
1.0
 40
1.0
 40
1.0
 10
37.6248215695
 20
80.9798559567
 30
0.0
 10
37.5585455639
 20
80.9766515105
 30
0.0
 10
37.2631273123
 20
80.9906528824
 30
0.0
 10
36.9799952652
 20
81.1055970292
 30
0.0
 10
36.7826386652
 20
81.2195383376
 30
0.0
  0
SPLINE
  5
2DE
100
AcDbEntity
  8
0
100
AcDbSpline
 62
7
  6
CONTINUOUS
 70
0
 71
3
 72
11
 73
7
 74
0
 42
0.0000001
 43
0.0000001
 44
0.0000000001
 40
0.0
 40
0.0
 40
0.0
 40
0.0
 40
0.2177833598
 40
0.4509104088
 40
0.7102966711
 40
1.0
 40
1.0
 40
1.0
 40
1.0
 10
33.1284833211
 20
85.9973839744
 30
0.0
 10
33.0460168402
 20
85.9497721989
 30
0.0
 10
32.891725444
 20
85.8200597299
 30
0.0
 10
32.7274639663
 20
85.5514847344
 30
0.0
 10
32.6299023083
 20
85.2205004917
 30
0.0
 10
32.6106971748
 20
84.9796002847
 30
0.0
 10
32.6106971748
 20
84.8529299237
 30
0.0
  0
SPLINE
  5
2DF
100
AcDbEntity
  8
0
100
AcDbSpline
 62
7
  6
CONTINUOUS
 70
0
 71
3
 72
13
 73
9
 74
0
 42
0.0000001
 43
0.0000001
 44
0.0000000001
 40
0.0
 40
0.0
 40
0.0
 40
0.0
 40
0.1142259181
 40
0.2375599982
 40
0.5000010158
 40
0.7624414734
 40
0.8857749255
 40
1.0
 40
1.0
 40
1.0
 40
1.0
 10
32.6106971748
 20
84.8529299237
 30
0.0
 10
32.6106971748
 20
84.7132287487
 30
0.0
 10
32.6363273056
 20
84.4223976508
 30
0.0
 10
32.7752566542
 20
83.8253702469
 30
0.0
 10
33.0981407868
 20
83.0931091532
 30
0.0
 10
33.5708578813
 20
82.4473553594
 30
0.0
 10
34.0184349699
 20
82.0285298332
 30
0.0
 10
34.2574869304
 20
81.8609208811
 30
0.0
 10
34.3784714877
 20
81.7910719946
 30
0.0
  0
SPLINE
  5
2E0
100
AcDbEntity
  8
0
100
AcDbSpline
 62
7
  6
CONTINUOUS
 70
0
 71
3
 72
11
 73
7
 74
0
 42
0.0000001
 43
0.0000001
 44
0.0000000001
 40
0.0
 40
0.0
 40
0.0
 40
0.0
 40
0.289702329
 40
0.5490881649
 40
0.7822156415
 40
1.0
 40
1.0
 40
1.0
 40
1.0
 10
36.075534828
 20
80.8112941837
 30
0.0
 10
36.1852318882
 20
80.7479619893
 30
0.0
 10
36.4034547133
 20
80.6441491132
 30
0.0
 10
36.7388675378
 20
80.5631529256
 30
0.0
 10
37.0535828924
 20
80.5711214612
 30
0.0
 10
37.2430583397
 20
80.6398835684
 30
0.0
 10
37.3255229946
 20
80.6874942896
 30
0.0
  0
SPLINE
  5
2E1
100
AcDbEntity
  8
0
100
AcDbSpline
 62
7
  6
CONTINUOUS
 70
0
 71
3
 72
13
 73
9
 74
0
 42
0.0000001
 43
0.0000001
 44
0.0000000001
 40
0.0
 40
0.0
 40
0.0
 40
0.0
 40
0.1142250362
 40
0.2375584228
 40
0.4999988469
 40
0.762439898
 40
0.8857740437
 40
1.0
 40
1.0
 40
1.0
 40
1.0
 10
35.0855753249
 20
82.1993161485
 30
0.0
 10
34.9645908081
 20
82.2691650116
 30
0.0
 10
34.7255389274
 20
82.4367738546
 30
0.0
 10
34.2779619637
 20
82.8555992704
 30
0.0
 10
33.8052448415
 20
83.5013529304
 30
0.0
 10
33.4823605792
 20
84.233614067
 30
0.0
 10
33.3434311974
 20
84.8306416343
 30
0.0
 10
33.317801012
 20
85.1214728558
 30
0.0
 10
33.317801012
 20
85.2611740776
 30
0.0
  0
SPLINE
  5
2E2
100
AcDbEntity
  8
0
100
AcDbSpline
 62
7
  6
CONTINUOUS
 70
0
 71
3
 72
9
 73
5
 74
0
 42
0.0000001
 43
0.0000001
 44
0.0000000001
 40
0.0
 40
0.0
 40
0.0
 40
0.0
 40
0.2778666819
 40
1.0
 40
1.0
 40
1.0
 40
1.0
 10
33.317801012
 20
85.2611740776
 30
0.0
 10
33.317801012
 20
85.3428472677
 30
0.0
 10
33.3327806321
 20
85.6355991001
 30
0.0
 10
33.4164403349
 20
85.9319147419
 30
0.0
 10
33.5313214865
 20
86.1103945005
 30
0.0
  0
SPLINE
  5
2E3
100
AcDbEntity
  8
0
100
AcDbSpline
 62
7
  6
CONTINUOUS
 70
0
 71
3
 72
9
 73
5
 74
0
 42
0.0000001
 43
0.0000001
 44
0.0000000001
 40
0.0
 40
0.0
 40
0.0
 40
0.0
 40
0.2633594222
 40
1.0
 40
1.0
 40
1.0
 40
1.0
 10
44.9309922226
 20
49.9659437412
 30
0.0
 10
44.9850027313
 20
49.92565788
 30
0.0
 10
45.1940739474
 20
49.7782550794
 30
0.0
 10
45.4199063893
 20
49.6535034497
 30
0.0
 10
45.594027103
 20
49.5813760836
 30
0.0
  0
SPLINE
  5
2E4
100
AcDbEntity
  8
0
100
AcDbSpline
 62
7
  6
CONTINUOUS
 70
0
 71
3
 72
17
 73
13
 74
0
 42
0.0000001
 43
0.0000001
 44
0.0000000001
 40
0.0
 40
0.0
 40
0.0
 40
0.0
 40
0.128694915
 40
0.2702797283
 40
0.4174350458
 40
0.5617779945
 40
0.695448318
 40
0.8127111454
 40
0.8646773279
 40
0.9125098611
 40
0.9571397526
 40
1.0
 40
1.0
 40
1.0
 40
1.0
 10
42.9343996559
 20
112.5730437166
 30
0.0
 10
42.9343996559
 20
112.2909620403
 30
0.0
 10
43.0133057932
 20
111.6978673714
 30
0.0
 10
43.3078649673
 20
110.8270517611
 30
0.0
 10
43.7616932583
 20
109.9881733453
 30
0.0
 10
44.3383689382
 20
109.2500244683
 30
0.0
 10
44.9907617894
 20
108.6722173751
 30
0.0
 10
45.5812823283
 20
108.3493976967
 30
0.0
 10
46.0431886118
 20
108.2264378385
 30
0.0
 10
46.3611078738
 20
108.2031280997
 30
0.0
 10
46.6571513964
 20
108.2464455724
 30
0.0
 10
46.8364786247
 20
108.3210204131
 30
0.0
 10
46.9178446489
 20
108.367977939
 30
0.0
  0
SPLINE
  5
2E5
100
AcDbEntity
  8
0
100
AcDbSpline
 62
7
  6
CONTINUOUS
 70
0
 71
3
 72
11
 73
7
 74
0
 42
0.0000001
 43
0.0000001
 44
0.0000000001
 40
0.0
 40
0.0
 40
0.0
 40
0.0
 40
0.2449786929
 40
0.5000306557
 40
0.7550841375
 40
1.0
 40
1.0
 40
1.0
 40
1.0
 10
47.4212844592
 20
110.6692845847
 30
0.0
 10
47.2318706592
 20
110.8447081958
 30
0.0
 10
46.8754282027
 20
111.2362367002
 30
0.0
 10
46.429201252
 20
111.8981104857
 30
0.0
 10
46.0795293406
 20
112.6156222306
 30
0.0
 10
45.9189933587
 20
113.1201066104
 30
0.0
 10
45.8619314099
 20
113.3718222852
 30
0.0
  0
SPLINE
  5
2E6
100
AcDbEntity
  8
0
100
AcDbSpline
 62
7
  6
CONTINUOUS
 70
0
 71
3
 72
11
 73
7
 74
0
 42
0.0000001
 43
0.0000001
 44
0.0000000001
 40
0.0
 40
0.0
 40
0.0
 40
0.0
 40
0.2177799541
 40
0.4509235396
 40
0.7102600053
 40
1.0
 40
1.0
 40
1.0
 40
1.0
 10
59.6458197015
 20
101.0196443576
 30
0.0
 10
59.7546850533
 20
101.0824721489
 30
0.0
 10
59.9583405265
 20
101.2537259281
 30
0.0
 10
60.1751617502
 20
101.6082134721
 30
0.0
 10
60.303984147
 20
102.0451084139
 30
0.0
 10
60.3292988945
 20
102.3630945813
 30
0.0
 10
60.3292988945
 20
102.5303211554
 30
0.0
  0
SPLINE
  5
2E7
100
AcDbEntity
  8
0
100
AcDbSpline
 62
7
  6
CONTINUOUS
 70
0
 71
3
 72
11
 73
7
 74
0
 42
0.0000001
 43
0.0000001
 44
0.0000000001
 40
0.0
 40
0.0
 40
0.0
 40
0.0
 40
0.2177833598
 40
0.4509104088
 40
0.7102966711
 40
1.0
 40
1.0
 40
1.0
 40
1.0
 10
50.0534980472
 20
73.3391607082
 30
0.0
 10
50.1359645281
 20
73.3867724837
 30
0.0
 10
50.2902559243
 20
73.5164849527
 30
0.0
 10
50.4545174021
 20
73.7850599482
 30
0.0
 10
50.55207906
 20
74.1160441909
 30
0.0
 10
50.5712841935
 20
74.356944398
 30
0.0
 10
50.5712841935
 20
74.4836147589
 30
0.0
  0
SPLINE
  5
2E8
100
AcDbEntity
  8
0
100
AcDbSpline
 62
7
  6
CONTINUOUS
 70
0
 71
3
 72
17
 73
13
 74
0
 42
0.0000001
 43
0.0000001
 44
0.0000000001
 40
0.0
 40
0.0
 40
0.0
 40
0.0
 40
0.128694915
 40
0.2702797283
 40
0.4174350458
 40
0.5617779945
 40
0.695448318
 40
0.8127111454
 40
0.8646773279
 40
0.9125098611
 40
0.9571397526
 40
1.0
 40
1.0
 40
1.0
 40
1.0
 10
60.3292988945
 20
102.5303211554
 30
0.0
 10
60.3292988945
 20
102.8124028318
 30
0.0
 10
60.2503927571
 20
103.4054975007
 30
0.0
 10
59.955833583
 20
104.276313111
 30
0.0
 10
59.5020052921
 20
105.1151915268
 30
0.0
 10
58.9253296121
 20
105.8533404038
 30
0.0
 10
58.2729367609
 20
106.431147497
 30
0.0
 10
57.682416222
 20
106.7539671754
 30
0.0
 10
57.2205099385
 20
106.8769270336
 30
0.0
 10
56.9025906765
 20
106.9002367724
 30
0.0
 10
56.6065471539
 20
106.8569192997
 30
0.0
 10
56.4272199257
 20
106.782344459
 30
0.0
 10
56.3458539015
 20
106.7353869331
 30
0.0
  0
SPLINE
  5
2E9
100
AcDbEntity
  8
0
100
AcDbSpline
 62
7
  6
CONTINUOUS
 70
0
 71
3
 72
11
 73
7
 74
0
 42
0.0000001
 43
0.0000001
 44
0.0000000001
 40
0.0
 40
0.0
 40
0.0
 40
0.0
 40
0.289702329
 40
0.5490881649
 40
0.7822156415
 40
1.0
 40
1.0
 40
1.0
 40
1.0
 10
47.1064465403
 20
78.5252504989
 30
0.0
 10
46.9967494801
 20
78.5885826933
 30
0.0
 10
46.778526655
 20
78.6923955694
 30
0.0
 10
46.4431138306
 20
78.773391757
 30
0.0
 10
46.1283984759
 20
78.7654232214
 30
0.0
 10
45.9389230286
 20
78.6966611143
 30
0.0
 10
45.8564583737
 20
78.649050393
 30
0.0
  0
SPLINE
  5
2EA
100
AcDbEntity
  8
0
100
AcDbSpline
 62
7
  6
CONTINUOUS
 70
0
 71
3
 72
13
 73
9
 74
0
 42
0.0000001
 43
0.0000001
 44
0.0000000001
 40
0.0
 40
0.0
 40
0.0
 40
0.0
 40
0.1142259181
 40
0.2375599982
 40
0.5000010158
 40
0.7624414734
 40
0.8857749255
 40
1.0
 40
1.0
 40
1.0
 40
1.0
 10
50.5712841935
 20
74.4836147589
 30
0.0
 10
50.5712841935
 20
74.6233159339
 30
0.0
 10
50.5456540627
 20
74.9141470318
 30
0.0
 10
50.4067247141
 20
75.5111744358
 30
0.0
 10
50.0838405815
 20
76.2434355294
 30
0.0
 10
49.611123487
 20
76.8891893232
 30
0.0
 10
49.1635463984
 20
77.3080148495
 30
0.0
 10
48.9244944379
 20
77.4756238015
 30
0.0
 10
48.8035098807
 20
77.545472688
 30
0.0
  0
SPLINE
  5
2EB
100
AcDbEntity
  8
0
100
AcDbSpline
 62
7
  6
CONTINUOUS
 70
0
 71
3
 72
11
 73
7
 74
0
 42
0.0000001
 43
0.0000001
 44
0.0000000001
 40
0.0
 40
0.0
 40
0.0
 40
0.0
 40
0.2177799541
 40
0.4509235396
 40
0.7102600053
 40
1.0
 40
1.0
 40
1.0
 40
1.0
 10
56.3458539015
 20
106.7353869331
 30
0.0
 10
56.2369885497
 20
106.6725591418
 30
0.0
 10
56.0333330765
 20
106.5013053627
 30
0.0
 10
55.8165118528
 20
106.1468178186
 30
0.0
 10
55.687689456
 20
105.7099228768
 30
0.0
 10
55.6623747085
 20
105.3919367095
 30
0.0
 10
55.6623747085
 20
105.2247101353
 30
0.0
  0
SPLINE
  5
2EC
100
AcDbEntity
  8
0
100
AcDbSpline
 62
7
  6
CONTINUOUS
 70
0
 71
3
 72
9
 73
5
 74
0
 42
0.0000001
 43
0.0000001
 44
0.0000000001
 40
0.0
 40
0.0
 40
0.0
 40
0.0
 40
0.2255079116
 40
1.0
 40
1.0
 40
1.0
 40
1.0
 10
50.3527966221
 20
73.6315223754
 30
0.0
 10
50.2865206165
 20
73.6283179291
 30
0.0
 10
49.991102365
 20
73.642319301
 30
0.0
 10
49.7079703178
 20
73.7572634479
 30
0.0
 10
49.5106137179
 20
73.8712047563
 30
0.0
  0
SPLINE
  5
2ED
100
AcDbEntity
  8
0
100
AcDbSpline
 62
7
  6
CONTINUOUS
 70
0
 71
3
 72
17
 73
13
 74
0
 42
0.0000001
 43
0.0000001
 44
0.0000000001
 40
0.0
 40
0.0
 40
0.0
 40
0.0
 40
0.128694915
 40
0.2702797283
 40
0.4174350458
 40
0.5617779945
 40
0.695448318
 40
0.8127111454
 40
0.8646773279
 40
0.9125098611
 40
0.9571397526
 40
1.0
 40
1.0
 40
1.0
 40
1.0
 10
55.6623747085
 20
105.2247101353
 30
0.0
 10
55.6623747085
 20
104.9426284589
 30
0.0
 10
55.7412808459
 20
104.34953379
 30
0.0
 10
56.03584002
 20
103.4787181797
 30
0.0
 10
56.4896683109
 20
102.6398397639
 30
0.0
 10
57.0663439909
 20
101.901690887
 30
0.0
 10
57.7187368421
 20
101.3238837938
 30
0.0
 10
58.309257381
 20
101.0010641153
 30
0.0
 10
58.7711636644
 20
100.8781042571
 30
0.0
 10
59.0890829265
 20
100.8547945183
 30
0.0
 10
59.3851264491
 20
100.8981119911
 30
0.0
 10
59.5644536773
 20
100.9726868317
 30
0.0
 10
59.6458197015
 20
101.0196443576
 30
0.0
  0
SPLINE
  5
2EE
100
AcDbEntity
  8
0
100
AcDbSpline
 62
7
  6
CONTINUOUS
 70
0
 71
3
 72
11
 73
7
 74
0
 42
0.0000001
 43
0.0000001
 44
0.0000000001
 40
0.0
 40
0.0
 40
0.0
 40
0.0
 40
0.2449786929
 40
0.5000306557
 40
0.7550841375
 40
1.0
 40
1.0
 40
1.0
 40
1.0
 10
60.1492595119
 20
103.3209510034
 30
0.0
 10
59.9598457118
 20
103.4963746144
 30
0.0
 10
59.6034032553
 20
103.8879031189
 30
0.0
 10
59.1571763046
 20
104.5497769044
 30
0.0
 10
58.8075043933
 20
105.2672886492
 30
0.0
 10
58.6469684114
 20
105.771773029
 30
0.0
 10
58.5899064625
 20
106.0234887039
 30
0.0
  0
SPLINE
  5
2EF
100
AcDbEntity
  8
0
100
AcDbSpline
 62
7
  6
CONTINUOUS
 70
0
 71
3
 72
11
 73
7
 74
0
 42
0.0000001
 43
0.0000001
 44
0.0000000001
 40
0.0
 40
0.0
 40
0.0
 40
0.0
 40
0.2177833598
 40
0.4509104088
 40
0.7102966711
 40
1.0
 40
1.0
 40
1.0
 40
1.0
 10
45.8564583737
 20
78.649050393
 30
0.0
 10
45.7739918928
 20
78.6014386175
 30
0.0
 10
45.6197004967
 20
78.4717261486
 30
0.0
 10
45.4554390189
 20
78.2031511531
 30
0.0
 10
45.357877361
 20
77.8721669104
 30
0.0
 10
45.3386722274
 20
77.6312667033
 30
0.0
 10
45.3386722274
 20
77.5045963424
 30
0.0
  0
SPLINE
  5
2F0
100
AcDbEntity
  8
0
100
AcDbSpline
 62
7
  6
CONTINUOUS
 70
0
 71
3
 72
13
 73
9
 74
0
 42
0.0000001
 43
0.0000001
 44
0.0000000001
 40
0.0
 40
0.0
 40
0.0
 40
0.0
 40
0.1142259181
 40
0.2375599982
 40
0.5000010158
 40
0.7624414734
 40
0.8857749255
 40
1.0
 40
1.0
 40
1.0
 40
1.0
 10
45.3386722274
 20
77.5045963424
 30
0.0
 10
45.3386722274
 20
77.3648951673
 30
0.0
 10
45.3643023583
 20
77.0740640695
 30
0.0
 10
45.5032317068
 20
76.4770366655
 30
0.0
 10
45.8261158394
 20
75.7447755719
 30
0.0
 10
46.298832934
 20
75.099021778
 30
0.0
 10
46.7464100225
 20
74.6801962518
 30
0.0
 10
46.985461983
 20
74.5125872997
 30
0.0
 10
47.1064465403
 20
74.4427384132
 30
0.0
  0
SPLINE
  5
2F1
100
AcDbEntity
  8
0
100
AcDbSpline
 62
7
  6
CONTINUOUS
 70
0
 71
3
 72
11
 73
7
 74
0
 42
0.0000001
 43
0.0000001
 44
0.0000000001
 40
0.0
 40
0.0
 40
0.0
 40
0.0
 40
0.289702329
 40
0.5490881649
 40
0.7822156415
 40
1.0
 40
1.0
 40
1.0
 40
1.0
 10
48.8035098807
 20
73.4629606024
 30
0.0
 10
48.9132069408
 20
73.3996284079
 30
0.0
 10
49.131429766
 20
73.2958155318
 30
0.0
 10
49.4668425904
 20
73.2148193442
 30
0.0
 10
49.7815579451
 20
73.2227878799
 30
0.0
 10
49.9710333924
 20
73.291549987
 30
0.0
 10
50.0534980472
 20
73.3391607082
 30
0.0
  0
SPLINE
  5
2F2
100
AcDbEntity
  8
0
100
AcDbSpline
 62
7
  6
CONTINUOUS
 70
0
 71
3
 72
13
 73
9
 74
0
 42
0.0000001
 43
0.0000001
 44
0.0000000001
 40
0.0
 40
0.0
 40
0.0
 40
0.0
 40
0.1142250362
 40
0.2375584228
 40
0.4999988469
 40
0.762439898
 40
0.8857740437
 40
1.0
 40
1.0
 40
1.0
 40
1.0
 10
47.8135503775
 20
74.8509825671
 30
0.0
 10
47.6925658608
 20
74.9208314302
 30
0.0
 10
47.4535139801
 20
75.0884402732
 30
0.0
 10
47.0059370164
 20
75.5072656891
 30
0.0
 10
46.5332198941
 20
76.1530193491
 30
0.0
 10
46.2103356318
 20
76.8852804856
 30
0.0
 10
46.07140625
 20
77.4823080529
 30
0.0
 10
46.0457760646
 20
77.7731392744
 30
0.0
 10
46.0457760646
 20
77.9128404962
 30
0.0
  0
SPLINE
  5
2F3
100
AcDbEntity
  8
0
100
AcDbSpline
 62
7
  6
CONTINUOUS
 70
0
 71
3
 72
9
 73
5
 74
0
 42
0.0000001
 43
0.0000001
 44
0.0000000001
 40
0.0
 40
0.0
 40
0.0
 40
0.0
 40
0.2778666819
 40
1.0
 40
1.0
 40
1.0
 40
1.0
 10
46.0457760646
 20
77.9128404962
 30
0.0
 10
46.0457760646
 20
77.9945136863
 30
0.0
 10
46.0607556848
 20
78.2872655187
 30
0.0
 10
46.1444153876
 20
78.5835811605
 30
0.0
 10
46.2592965392
 20
78.7620609191
 30
0.0
  0
SPLINE
  5
2F4
100
AcDbEntity
  8
0
100
AcDbSpline
 62
7
  6
CONTINUOUS
 70
0
 71
3
 72
11
 73
7
 74
0
 42
0.0000001
 43
0.0000001
 44
0.0000000001
 40
0.0
 40
0.0
 40
0.0
 40
0.0
 40
0.2177799541
 40
0.4509235396
 40
0.7102600053
 40
1.0
 40
1.0
 40
1.0
 40
1.0
 10
72.3737947542
 20
93.6713107763
 30
0.0
 10
72.482660106
 20
93.7341385675
 30
0.0
 10
72.6863155792
 20
93.9053923467
 30
0.0
 10
72.9031368028
 20
94.2598798907
 30
0.0
 10
73.0319591997
 20
94.6967748326
 30
0.0
 10
73.0572739471
 20
95.0147609999
 30
0.0
 10
73.0572739471
 20
95.1819875741
 30
0.0
  0
SPLINE
  5
2F5
100
AcDbEntity
  8
0
100
AcDbSpline
 62
7
  6
CONTINUOUS
 70
0
 71
3
 72
11
 73
7
 74
0
 42
0.0000001
 43
0.0000001
 44
0.0000000001
 40
0.0
 40
0.0
 40
0.0
 40
0.0
 40
0.2177833598
 40
0.4509104088
 40
0.7102966711
 40
1.0
 40
1.0
 40
1.0
 40
1.0
 10
62.7814730999
 20
65.9908271269
 30
0.0
 10
62.8639395807
 20
66.0384389024
 30
0.0
 10
63.0182309769
 20
66.1681513713
 30
0.0
 10
63.1824924547
 20
66.4367263668
 30
0.0
 10
63.2800541126
 20
66.7677106095
 30
0.0
 10
63.2992592462
 20
67.0086108166
 30
0.0
 10
63.2992592462
 20
67.1352811775
 30
0.0
  0
SPLINE
  5
2F6
100
AcDbEntity
  8
0
100
AcDbSpline
 62
7
  6
CONTINUOUS
 70
0
 71
3
 72
17
 73
13
 74
0
 42
0.0000001
 43
0.0000001
 44
0.0000000001
 40
0.0
 40
0.0
 40
0.0
 40
0.0
 40
0.128694915
 40
0.2702797283
 40
0.4174350458
 40
0.5617779945
 40
0.695448318
 40
0.8127111454
 40
0.8646773279
 40
0.9125098611
 40
0.9571397526
 40
1.0
 40
1.0
 40
1.0
 40
1.0
 10
73.0572739471
 20
95.1819875741
 30
0.0
 10
73.0572739471
 20
95.4640692504
 30
0.0
 10
72.9783678098
 20
96.0571639193
 30
0.0
 10
72.6838086357
 20
96.9279795296
 30
0.0
 10
72.2299803447
 20
97.7668579455
 30
0.0
 10
71.6533046647
 20
98.5050068224
 30
0.0
 10
71.0009118135
 20
99.0828139156
 30
0.0
 10
70.4103912747
 20
99.4056335941
 30
0.0
 10
69.9484849912
 20
99.5285934522
 30
0.0
 10
69.6305657292
 20
99.551903191
 30
0.0
 10
69.3345222066
 20
99.5085857183
 30
0.0
 10
69.1551949783
 20
99.4340108777
 30
0.0
 10
69.0738289541
 20
99.3870533517
 30
0.0
  0
SPLINE
  5
2F7
100
AcDbEntity
  8
0
100
AcDbSpline
 62
7
  6
CONTINUOUS
 70
0
 71
3
 72
11
 73
7
 74
0
 42
0.0000001
 43
0.0000001
 44
0.0000000001
 40
0.0
 40
0.0
 40
0.0
 40
0.0
 40
0.289702329
 40
0.5490881649
 40
0.7822156415
 40
1.0
 40
1.0
 40
1.0
 40
1.0
 10
59.8344215929
 20
71.1769169175
 30
0.0
 10
59.7247245328
 20
71.240249112
 30
0.0
 10
59.5065017076
 20
71.3440619881
 30
0.0
 10
59.1710888832
 20
71.4250581757
 30
0.0
 10
58.8563735285
 20
71.41708964
 30
0.0
 10
58.6668980812
 20
71.3483275329
 30
0.0
 10
58.5844334264
 20
71.3007168117
 30
0.0
  0
SPLINE
  5
2F8
100
AcDbEntity
  8
0
100
AcDbSpline
 62
7
  6
CONTINUOUS
 70
0
 71
3
 72
13
 73
9
 74
0
 42
0.0000001
 43
0.0000001
 44
0.0000000001
 40
0.0
 40
0.0
 40
0.0
 40
0.0
 40
0.1142259181
 40
0.2375599982
 40
0.5000010158
 40
0.7624414734
 40
0.8857749255
 40
1.0
 40
1.0
 40
1.0
 40
1.0
 10
63.2992592462
 20
67.1352811775
 30
0.0
 10
63.2992592462
 20
67.2749823526
 30
0.0
 10
63.2736291153
 20
67.5658134504
 30
0.0
 10
63.1346997668
 20
68.1628408544
 30
0.0
 10
62.8118156341
 20
68.895101948
 30
0.0
 10
62.3390985396
 20
69.5408557418
 30
0.0
 10
61.8915214511
 20
69.9596812681
 30
0.0
 10
61.6524694905
 20
70.1272902202
 30
0.0
 10
61.5314849333
 20
70.1971391067
 30
0.0
  0
SPLINE
  5
2F9
100
AcDbEntity
  8
0
100
AcDbSpline
 62
7
  6
CONTINUOUS
 70
0
 71
3
 72
17
 73
13
 74
0
 42
0.0000001
 43
0.0000001
 44
0.0000000001
 40
0.0
 40
0.0
 40
0.0
 40
0.0
 40
0.128694915
 40
0.2702797283
 40
0.4174350458
 40
0.5617779945
 40
0.695448318
 40
0.8127111454
 40
0.8646773279
 40
0.9125098611
 40
0.9571397526
 40
1.0
 40
1.0
 40
1.0
 40
1.0
 10
68.3903497612
 20
97.8763765539
 30
0.0
 10
68.3903497612
 20
97.5942948776
 30
0.0
 10
68.4692558985
 20
97.0012002087
 30
0.0
 10
68.7638150726
 20
96.1303845984
 30
0.0
 10
69.2176433636
 20
95.2915061825
 30
0.0
 10
69.7943190435
 20
94.5533573056
 30
0.0
 10
70.4467118947
 20
93.9755502124
 30
0.0
 10
71.0372324336
 20
93.6527305339
 30
0.0
 10
71.4991387171
 20
93.5297706758
 30
0.0
 10
71.8170579791
 20
93.506460937
 30
0.0
 10
72.1131015017
 20
93.5497784097
 30
0.0
 10
72.29242873
 20
93.6243532503
 30
0.0
 10
72.3737947542
 20
93.6713107763
 30
0.0
  0
SPLINE
  5
2FA
100
AcDbEntity
  8
0
100
AcDbSpline
 62
7
  6
CONTINUOUS
 70
0
 71
3
 72
11
 73
7
 74
0
 42
0.0000001
 43
0.0000001
 44
0.0000000001
 40
0.0
 40
0.0
 40
0.0
 40
0.0
 40
0.2177833598
 40
0.4509104088
 40
0.7102966711
 40
1.0
 40
1.0
 40
1.0
 40
1.0
 10
58.5844334264
 20
71.3007168117
 30
0.0
 10
58.5019669455
 20
71.2531050362
 30
0.0
 10
58.3476755493
 20
71.1233925672
 30
0.0
 10
58.1834140715
 20
70.8548175717
 30
0.0
 10
58.0858524136
 20
70.523833329
 30
0.0
 10
58.0666472801
 20
70.2829331219
 30
0.0
 10
58.0666472801
 20
70.156262761
 30
0.0
  0
SPLINE
  5
2FB
100
AcDbEntity
  8
0
100
AcDbSpline
 62
7
  6
CONTINUOUS
 70
0
 71
3
 72
13
 73
9
 74
0
 42
0.0000001
 43
0.0000001
 44
0.0000000001
 40
0.0
 40
0.0
 40
0.0
 40
0.0
 40
0.1142259181
 40
0.2375599982
 40
0.5000010158
 40
0.7624414734
 40
0.8857749255
 40
1.0
 40
1.0
 40
1.0
 40
1.0
 10
58.0666472801
 20
70.156262761
 30
0.0
 10
58.0666472801
 20
70.016561586
 30
0.0
 10
58.0922774109
 20
69.7257304881
 30
0.0
 10
58.2312067595
 20
69.1287030841
 30
0.0
 10
58.5540908921
 20
68.3964419905
 30
0.0
 10
59.0268079866
 20
67.7506881967
 30
0.0
 10
59.4743850752
 20
67.3318626704
 30
0.0
 10
59.7134370357
 20
67.1642537184
 30
0.0
 10
59.8344215929
 20
67.0944048319
 30
0.0
  0
SPLINE
  5
2FC
100
AcDbEntity
  8
0
100
AcDbSpline
 62
7
  6
CONTINUOUS
 70
0
 71
3
 72
11
 73
7
 74
0
 42
0.0000001
 43
0.0000001
 44
0.0000000001
 40
0.0
 40
0.0
 40
0.0
 40
0.0
 40
0.289702329
 40
0.5490881649
 40
0.7822156415
 40
1.0
 40
1.0
 40
1.0
 40
1.0
 10
61.5314849333
 20
66.114627021
 30
0.0
 10
61.6411819935
 20
66.0512948266
 30
0.0
 10
61.8594048186
 20
65.9474819504
 30
0.0
 10
62.194817643
 20
65.8664857629
 30
0.0
 10
62.5095329977
 20
65.8744542985
 30
0.0
 10
62.699008445
 20
65.9432164056
 30
0.0
 10
62.7814730999
 20
65.9908271269
 30
0.0
  0
SPLINE
  5
2FD
100
AcDbEntity
  8
0
100
AcDbSpline
 62
7
  6
CONTINUOUS
 70
0
 71
3
 72
13
 73
9
 74
0
 42
0.0000001
 43
0.0000001
 44
0.0000000001
 40
0.0
 40
0.0
 40
0.0
 40
0.0
 40
0.1142250362
 40
0.2375584228
 40
0.4999988469
 40
0.762439898
 40
0.8857740437
 40
1.0
 40
1.0
 40
1.0
 40
1.0
 10
60.5415254302
 20
67.5026489857
 30
0.0
 10
60.4205409134
 20
67.5724978488
 30
0.0
 10
60.1814890327
 20
67.7401066919
 30
0.0
 10
59.733912069
 20
68.1589321077
 30
0.0
 10
59.2611949468
 20
68.8046857677
 30
0.0
 10
58.9383106844
 20
69.5369469043
 30
0.0
 10
58.7993813026
 20
70.1339744715
 30
0.0
 10
58.7737511173
 20
70.424805693
 30
0.0
 10
58.7737511173
 20
70.5645069149
 30
0.0
  0
SPLINE
  5
2FE
100
AcDbEntity
  8
0
100
AcDbSpline
 62
7
  6
CONTINUOUS
 70
0
 71
3
 72
9
 73
5
 74
0
 42
0.0000001
 43
0.0000001
 44
0.0000000001
 40
0.0
 40
0.0
 40
0.0
 40
0.0
 40
0.2778666819
 40
1.0
 40
1.0
 40
1.0
 40
1.0
 10
58.7737511173
 20
70.5645069149
 30
0.0
 10
58.7737511173
 20
70.646180105
 30
0.0
 10
58.7887307374
 20
70.9389319373
 30
0.0
 10
58.8723904402
 20
71.2352475791
 30
0.0
 10
58.9872715918
 20
71.4137273378
 30
0.0
  0
SPLINE
  5
2FF
100
AcDbEntity
  8
0
100
AcDbSpline
 62
7
  6
CONTINUOUS
 70
0
 71
3
 72
9
 73
5
 74
0
 42
0.0000001
 43
0.0000001
 44
0.0000000001
 40
0.0
 40
0.0
 40
0.0
 40
0.0
 40
0.2255079116
 40
1.0
 40
1.0
 40
1.0
 40
1.0
 10
63.0807716748
 20
66.283188794
 30
0.0
 10
63.0144956692
 20
66.2799843478
 30
0.0
 10
62.7190774176
 20
66.2939857197
 30
0.0
 10
62.4359453704
 20
66.4089298665
 30
0.0
 10
62.2385887705
 20
66.5228711749
 30
0.0
  0
SPLINE
  5
300
100
AcDbEntity
  8
0
100
AcDbSpline
 62
7
  6
CONTINUOUS
 70
0
 71
3
 72
11
 73
7
 74
0
 42
0.0000001
 43
0.0000001
 44
0.0000000001
 40
0.0
 40
0.0
 40
0.0
 40
0.0
 40
0.2449786929
 40
0.5000306557
 40
0.7550841375
 40
1.0
 40
1.0
 40
1.0
 40
1.0
 10
72.8772345645
 20
95.972617422
 30
0.0
 10
72.6878207645
 20
96.148041033
 30
0.0
 10
72.331378308
 20
96.5395695375
 30
0.0
 10
71.8851513573
 20
97.201443323
 30
0.0
 10
71.5354794459
 20
97.9189550678
 30
0.0
 10
71.374943464
 20
98.4234394476
 30
0.0
 10
71.3178815152
 20
98.6751551225
 30
0.0
  0
SPLINE
  5
301
100
AcDbEntity
  8
0
100
AcDbSpline
 62
7
  6
CONTINUOUS
 70
0
 71
3
 72
11
 73
7
 74
0
 42
0.0000001
 43
0.0000001
 44
0.0000000001
 40
0.0
 40
0.0
 40
0.0
 40
0.0
 40
0.2177799541
 40
0.4509235396
 40
0.7102600053
 40
1.0
 40
1.0
 40
1.0
 40
1.0
 10
69.0738289541
 20
99.3870533517
 30
0.0
 10
68.9649636023
 20
99.3242255605
 30
0.0
 10
68.7613081291
 20
99.1529717813
 30
0.0
 10
68.5444869055
 20
98.7984842373
 30
0.0
 10
68.4156645086
 20
98.3615892954
 30
0.0
 10
68.3903497612
 20
98.0436031281
 30
0.0
 10
68.3903497612
 20
97.8763765539
 30
0.0
  0
ENDSEC
  0
SECTION
  2
OBJECTS
  0
DICTIONARY
  5
C
100
AcDbDictionary
280
0
281
1
  3
ACAD_GROUP
350
D
  3
ACAD_MLINESTYLE
350
17
  3
ACAD_LAYOUT
350
1A
  3
ACAD_PLOTSETTINGS
350
19
  3
ACAD_PLOTSTYLENAME
350
E
  0
DICTIONARY
  5
D
102
{ACAD_REACTORS
330
C
102
}
100
AcDbDictionary
280
0
281
1
  0
ACDBDICTIONARYWDFLT
  5
E
102
{ACAD_REACTORS
330
C
102
}
100
AcDbDictionary
281
1
  3
Normal
350
F
100
AcDbDictionaryWithDefault
340
F
  0
DICTIONARY
  5
17
102
{ACAD_REACTORS
330
C
102
}
100
AcDbDictionary
280
0
281
1
  3
Standard
350
18
  0
DICTIONARY
  5
19
102
{ACAD_REACTORS
330
C
102
}
100
AcDbDictionary
281
1
  0
DICTIONARY
  5
1A
102
{ACAD_REACTORS
330
C
102
}
100
AcDbDictionary
281
1
  3
Model
350
302
  3
Layout1
350
303
  0
ACDBPLACEHOLDER
  5
F
102
{ACAD_REACTORS
330
E
102
}
  0
MLINESTYLE
  5
18
102
{ACAD_REACTORS
330
17
102
}
100
AcDbMlineStyle
  2
STANDARD
 70
0
  3

 62
256
 51
90.0
 52
90.0
 71
2
 49
0.5
 62
256
  6
BYLAYER
 49
-0.5
 62
256
  6
BYLAYER
  0
LAYOUT
  5
302
102
{ACAD_REACTORS
330
1A
102
}
100
AcDbPlotSettings
  1

  2
none_device
  4

  6

 40
0.0
 41
0.0
 42
0.0
 43
0.0
 44
210.0
 45
297.0
 46
0.0
 47
0.0
 48
0.0
 49
0.0
140
0.0
141
0.0
142
1.0
143
1.0
 70
1024
 72
1
 73
0
 74
0
  7

 75
0
147
1.0
148
0.0
149
0.0
100
AcDbLayout
  1
Model
 70
0
 71
0
 10
0.0
 20
0.0
 11
210.0
 21
297.0
 12
0.0
 22
0.0
 32
0.0
 14
0.0
 24
0.0
 34
0.0
 15
0.0
 25
0.0
 35
0.0
146
0.0
 13
0.0
 23
0.0
 33
0.0
 16
1.0
 26
0.0
 36
0.0
 17
0.0
 27
1.0
 37
0.0
 76
0
330
215
345
0
346
0
  0
LAYOUT
  5
303
102
{ACAD_REACTORS
330
1A
102
}
100
AcDbPlotSettings
  1

  2
none_device
  4

  6

 40
0.0
 41
0.0
 42
0.0
 43
0.0
 44
210.0
 45
297.0
 46
0.0
 47
0.0
 48
0.0
 49
0.0
140
0.0
141
0.0
142
1.0
143
1.0
 70
0
 72
1
 73
0
 74
0
  7

 75
0
147
1.0
148
0.0
149
0.0
100
AcDbLayout
  1
Layout1
 70
0
 71
1
 10
0.0
 20
0.0
 11
210.0
 21
297.0
 12
0.0
 22
0.0
 32
0.0
 14
0.0
 24
0.0
 34
0.0
 15
0.0
 25
0.0
 35
0.0
146
0.0
 13
0.0
 23
0.0
 33
0.0
 16
1.0
 26
0.0
 36
0.0
 17
0.0
 27
1.0
 37
0.0
 76
0
330
216
345
0
346
0
  0
ENDSEC
  0
EOF
