999
DXF file: C:\Users\sesa63760\Dev\_Creo\CAD\MCADFD0002222_3D-CAD\drw0001_1.dxf
999
Pro/ENGINEER 2019471 by Parametric Technology Corporation
  0
SECTION
  2
HEADER
  9
$ACADVER
  1
AC1024
  9
$DWGCODEPAGE
  3
ANSI_1252
  9
$EXTMAX
 10
124.0017319769
 20
175.3738780817
 30
0.0
  9
$EXTMIN
 10
0.0
 20
0.0
 30
0.0
  9
$LIMMIN
 10
0.0
 20
0.0
  9
$LIMMAX
 10
124.0017319769
 20
175.3738780817
  9
$VIEWCTR
 10
62.0008659885
 20
87.6869390408
  9
$VIEWSIZE
 40
175.3738780817
  9
$CLAYER
  8
0
  9
$LTSCALE
 40
11.4317787194
  9
$CELTYPE
  6
BYLAYER
  9
$DIMSCALE
 40
1.0
  9
$DIMASZ
 40
1.476211095
  9
$DIMEXO
 40
1.0
  9
$DIMDLI
 40
7.8983198425
  9
$DIMEXE
 40
1.0
  9
$DIMCEN
 40
1.8706546995
  9
$DIMLFAC
 40
1.0
  9
$DIMBLK
  1
_FILLED
  9
$DIMALT
 70
0
  9
$DIMALTF
 40
0.0393700787
  9
$DIMTXT
 40
2.0666955329
  9
$DIMTOL
 70
1
  9
$DIMLIM
 70
0
  9
$DIMTFAC
 40
1.0
  9
$DIMTP
 40
0.01
  9
$DIMTM
 40
0.01
  9
$DIMGAP
 40
0.625
  9
$DIMDSEP
 70
46
  9
$AUNITS
 70
0
  9
$PDMODE
 70
3
  9
$PDSIZE
 40
0.3125
  9
$HANDSEED
  5
3C5
  9
$TILEMODE
 70
1
  9
$MEASUREMENT
 70
1
  9
$INSUNITS
 70
4
  0
ENDSEC
  0
SECTION
  2
CLASSES
  0
CLASS
  1
ACDBDICTIONARYWDFLT
  2
AcDbDictionaryWithDefault
  3
AutoCAD 2000
 90
0
 91
1
280
0
281
0
  0
CLASS
  1
ACDBPLACEHOLDER
  2
AcDbPlaceHolder
  3
AutoCAD 2000
 90
0
 91
1
280
0
281
0
  0
CLASS
  1
LAYOUT
  2
AcDbLayout
  3
AutoCAD 2000
 90
0
 91
0
280
0
281
0
  0
ENDSEC
  0
SECTION
  2
TABLES
  0
TABLE
  2
VPORT
  5
8
100
AcDbSymbolTable
 70
2
  0
VPORT
  5
1F4
100
AcDbSymbolTableRecord
100
AcDbViewportTableRecord
  2
*ACTIVE
 70
0
 10
0.0
 20
0.0
 11
1.0
 21
1.0
 12
62.0008659885
 22
87.6869390408
 13
0.0
 23
0.0
 14
1.0
 24
1.0
 15
0.0
 25
0.0
 16
0.0
 26
0.0
 36
1.0
 17
0.0
 27
0.0
 37
0.0
 40
175.3738780817
 41
0.7070707071
 42
50.0
 43
0.0
 44
0.0
 50
0.0
 51
0.0
 71
0
 72
100
 73
1
 74
1
 75
0
 76
0
 77
0
 78
0
  0
ENDTAB
  0
TABLE
  2
LTYPE
  5
5
100
AcDbSymbolTable
 70
6
  0
LTYPE
  5
14
100
AcDbSymbolTableRecord
100
AcDbLinetypeTableRecord
  2
BYBLOCK
 70
0
  3

 72
65
 73
0
 40
0.0
  0
LTYPE
  5
15
100
AcDbSymbolTableRecord
100
AcDbLinetypeTableRecord
  2
BYLAYER
 70
0
  3

 72
65
 73
0
 40
0.0
  0
LTYPE
  5
16
100
AcDbSymbolTableRecord
100
AcDbLinetypeTableRecord
  2
CONTINUOUS
 70
64
  3
Solid line
 72
65
 73
0
 40
0.0
  0
LTYPE
  5
1F5
100
AcDbSymbolTableRecord
100
AcDbLinetypeTableRecord
  2
CENTER
 70
64
  3
____ _ ____ _ ____ _ ____ _ ____ _ ____ _ ____
 72
65
 73
4
 40
0.6
 49
0.375
 74
0
 49
-0.075
 74
0
 49
0.075
 74
0
 49
-0.075
 74
0
  0
LTYPE
  5
1F6
100
AcDbSymbolTableRecord
100
AcDbLinetypeTableRecord
  2
HIDDEN
 70
64
  3
- - - - - - - - - - - - - - - - - - - -
 72
65
 73
2
 40
0.2
 49
0.1
 74
0
 49
-0.1
 74
0
  0
LTYPE
  5
1F7
100
AcDbSymbolTableRecord
100
AcDbLinetypeTableRecord
  2
PHANTOM
 70
64
  3
_____ _ _ _____ _ _ _____ _ _ _____
 72
65
 73
6
 40
0.8
 49
0.45
 74
0
 49
-0.05
 74
0
 49
0.1
 74
0
 49
-0.05
 74
0
 49
0.1
 74
0
 49
-0.05
 74
0
  0
LTYPE
  5
1F8
100
AcDbSymbolTableRecord
100
AcDbLinetypeTableRecord
  2
DOT
 70
64
  3
. . . . . . . . . . . . . . . . . . . .
 72
65
 73
2
 40
0.2
 49
0.1
 74
0
 49
-0.1
 74
0
  0
LTYPE
  5
1F9
100
AcDbSymbolTableRecord
100
AcDbLinetypeTableRecord
  2
DASHED
 70
64
  3
- - - - - - - - - - - - - - - - - - - -
 72
65
 73
2
 40
0.2
 49
0.1
 74
0
 49
-0.1
 74
0
  0
ENDTAB
  0
TABLE
  2
LAYER
  5
2
100
AcDbSymbolTable
 70
36
  0
LAYER
  5
10
100
AcDbSymbolTableRecord
100
AcDbLayerTableRecord
  2
0
 70
0
 62
7
  6
CONTINUOUS
370
-3
390
F
  0
LAYER
  5
1FA
100
AcDbSymbolTableRecord
100
AcDbLayerTableRecord
  2
DEFAULT_1
 70
0
 62
7
  6
CENTER
370
-3
390
F
  0
LAYER
  5
1FB
100
AcDbSymbolTableRecord
100
AcDbLayerTableRecord
  2
DEFAULT_2
 70
0
 62
8
  6
HIDDEN
370
-3
390
F
  0
LAYER
  5
1FC
100
AcDbSymbolTableRecord
100
AcDbLayerTableRecord
  2
DEFAULT_3
 70
0
 62
7
  6
PHANTOM
370
-3
390
F
  0
LAYER
  5
1FD
100
AcDbSymbolTableRecord
100
AcDbLayerTableRecord
  2
00_COMPONENTS
 70
0
 62
7
  6
CONTINUOUS
370
-3
390
F
  0
LAYER
  5
1FE
100
AcDbSymbolTableRecord
100
AcDbLayerTableRecord
  2
01_1_DEFAULT_DATUMS
 70
0
 62
7
  6
CONTINUOUS
370
-3
390
F
  0
LAYER
  5
1FF
100
AcDbSymbolTableRecord
100
AcDbLayerTableRecord
  2
01_PLANES
 70
0
 62
7
  6
CONTINUOUS
370
-3
390
F
  0
LAYER
  5
200
100
AcDbSymbolTableRecord
100
AcDbLayerTableRecord
  2
02_COORD_SYS
 70
0
 62
7
  6
CONTINUOUS
370
-3
390
F
  0
LAYER
  5
201
100
AcDbSymbolTableRecord
100
AcDbLayerTableRecord
  2
03_AXES
 70
0
 62
7
  6
CONTINUOUS
370
-3
390
F
  0
LAYER
  5
202
100
AcDbSymbolTableRecord
100
AcDbLayerTableRecord
  2
04_POINTS
 70
0
 62
7
  6
CONTINUOUS
370
-3
390
F
  0
LAYER
  5
203
100
AcDbSymbolTableRecord
100
AcDbLayerTableRecord
  2
05_CURVES
 70
0
 62
7
  6
CONTINUOUS
370
-3
390
F
  0
LAYER
  5
204
100
AcDbSymbolTableRecord
100
AcDbLayerTableRecord
  2
06_SURFS
 70
0
 62
7
  6
CONTINUOUS
370
-3
390
F
  0
LAYER
  5
205
100
AcDbSymbolTableRecord
100
AcDbLayerTableRecord
  2
07_COSMETICS
 70
0
 62
7
  6
CONTINUOUS
370
-3
390
F
  0
LAYER
  5
206
100
AcDbSymbolTableRecord
100
AcDbLayerTableRecord
  2
10_NOTES
 70
0
 62
7
  6
CONTINUOUS
370
-3
390
F
  0
LAYER
  5
207
100
AcDbSymbolTableRecord
100
AcDbLayerTableRecord
  2
11_NOTES_PUB
 70
0
 62
7
  6
CONTINUOUS
370
-3
390
F
  0
LAYER
  5
208
100
AcDbSymbolTableRecord
100
AcDbLayerTableRecord
  2
13_REF_GTOL
 70
0
 62
7
  6
CONTINUOUS
370
-3
390
F
  0
LAYER
  5
209
100
AcDbSymbolTableRecord
100
AcDbLayerTableRecord
  2
16_MISC
 70
0
 62
7
  6
CONTINUOUS
370
-3
390
F
  0
LAYER
  5
20A
100
AcDbSymbolTableRecord
100
AcDbLayerTableRecord
  2
17_NO_PRINT
 70
0
 62
7
  6
CONTINUOUS
370
-3
390
F
  0
LAYER
  5
20B
100
AcDbSymbolTableRecord
100
AcDbLayerTableRecord
  2
18_DATUM_CAMS_JOINTS
 70
0
 62
7
  6
CONTINUOUS
370
-3
390
F
  0
LAYER
  5
20C
100
AcDbSymbolTableRecord
100
AcDbLayerTableRecord
  2
19_DATUM_FUNCTIONAL
 70
0
 62
7
  6
CONTINUOUS
370
-3
390
F
  0
LAYER
  5
20D
100
AcDbSymbolTableRecord
100
AcDbLayerTableRecord
  2
20_DATUM_KINEMATIC_SCHEME
 70
0
 62
7
  6
CONTINUOUS
370
-3
390
F
  0
ENDTAB
  0
TABLE
  2
STYLE
  5
3
100
AcDbSymbolTable
 70
1
  0
STYLE
  5
11
100
AcDbSymbolTableRecord
100
AcDbTextStyleTableRecord
  2
STANDARD
 70
0
 40
0.0
 41
0.8
 50
0.0
 71
0
 42
0.2
  3
txt
  4

  0
STYLE
  5
20E
100
AcDbSymbolTableRecord
100
AcDbTextStyleTableRecord
  2
TEXTSTYLE_1
 70
0
 40
0.0
 41
0.8
 50
0.0
 71
0
 42
0.2
  3
gdt
  4

  0
ENDTAB
  0
TABLE
  2
VIEW
  5
6
100
AcDbSymbolTable
 70
0
  0
ENDTAB
  0
TABLE
  2
UCS
  5
7
100
AcDbSymbolTable
 70
0
  0
ENDTAB
  0
TABLE
  2
APPID
  5
9
100
AcDbSymbolTable
 70
1
  0
APPID
  5
20F
100
AcDbSymbolTableRecord
100
AcDbRegAppTableRecord
  2
ACAD
 70
0
  0
ENDTAB
  0
TABLE
  2
BLOCK_RECORD
  5
1
100
AcDbSymbolTable
 70
0
  0
BLOCK_RECORD
  5
210
100
AcDbSymbolTableRecord
100
AcDbBlockTableRecord
  2
*Model_Space
  0
BLOCK_RECORD
  5
211
100
AcDbSymbolTableRecord
100
AcDbBlockTableRecord
  2
*Paper_Space
  0
BLOCK_RECORD
  5
212
100
AcDbSymbolTableRecord
100
AcDbBlockTableRecord
  2
_FILLED
  0
ENDTAB
  0
TABLE
  2
DIMSTYLE
  5
A
100
AcDbSymbolTable
 70
1
100
AcDbDimStyleTable
 71
0
  0
DIMSTYLE
105
213
100
AcDbSymbolTableRecord
100
AcDbDimStyleTableRecord
  2
STANDARD
 70
0
  3

  4

 40
1.0
 41
1.476211095
 42
1.0
 43
0.38
 44
1.0
 45
0.0
 46
0.0
 47
0.01
 48
0.01
140
2.0666955329
141
0.09
142
0.0
143
25.4
144
1.0
145
0.0
146
1.0
147
0.625
 71
1
 72
0
 73
0
 74
0
 75
0
 76
0
 77
1
 78
8
 79
2
170
0
171
1
172
0
173
0
174
0
175
0
176
0
177
0
178
0
270
2
179
2
271
2
272
2
273
2
274
2
275
0
280
0
281
0
282
0
283
1
284
8
285
0
286
0
287
3
288
0
340
11
278
46
341
212
342
212
343
212
344
212
  0
ENDTAB
  0
ENDSEC
  0
SECTION
  2
BLOCKS
  0
BLOCK
  5
20
100
AcDbEntity
  8
0
100
AcDbBlockBegin
  2
*Model_Space
 70
0
 10
0.0
 20
0.0
 30
0.0
  3
*Model_Space
  1

  0
ENDBLK
  5
21
100
AcDbEntity
  8
0
100
AcDbBlockEnd
  0
BLOCK
  5
1C
100
AcDbEntity
  8
0
100
AcDbBlockBegin
  2
*Paper_Space
 70
0
 10
0.0
 20
0.0
 30
0.0
  3
*Paper_Space
  1

  0
ENDBLK
  5
1D
100
AcDbEntity
  8
0
100
AcDbBlockEnd
  0
BLOCK
  5
214
100
AcDbEntity
  8
0
100
AcDbBlockBegin
  2
_FILLED
 70
64
 10
0.0
 20
0.0
  3
_FILLED
  1

  0
SOLID
  5
215
100
AcDbEntity
  8
0
  6
BYBLOCK
 62
0
100
AcDbTrace
 10
0.0
 20
0.0
 11
-1.0
 21
0.25
 12
-1.0
 22
-0.25
 13
-1.0
 23
-0.25
  0
ENDBLK
  5
216
100
AcDbEntity
  8
0
  6
BYBLOCK
 62
0
100
AcDbBlockEnd
  0
ENDSEC
  0
SECTION
  2
ENTITIES
  0
LINE
  5
217
100
AcDbEntity
  8
0
100
AcDbLine
 62
7
  6
CONTINUOUS
 10
26.1942616646
 20
129.0728769357
 11
61.1959016067
 21
149.2809625524
  0
LINE
  5
218
100
AcDbEntity
  8
0
100
AcDbLine
 62
7
  6
CONTINUOUS
 10
14.3856275831
 20
68.8967666067
 11
14.3856275831
 21
102.373365709
  0
LINE
  5
219
100
AcDbEntity
  8
0
100
AcDbLine
 62
7
  6
CONTINUOUS
 10
44.7911184902
 20
136.2171645856
 11
49.7408453507
 21
139.0748736627
  0
LINE
  5
21A
100
AcDbEntity
  8
0
100
AcDbLine
 62
7
  6
CONTINUOUS
 10
76.5404740951
 20
26.5209176722
 11
26.1942616646
 21
55.5876593941
  0
LINE
  5
21B
100
AcDbEntity
  8
0
100
AcDbLine
 62
7
  6
CONTINUOUS
 10
25.4949670658
 20
110.420312398
 11
25.0628955251
 21
109.6809558164
  0
LINE
  5
21C
100
AcDbEntity
  8
0
100
AcDbLine
 62
7
  6
CONTINUOUS
 10
56.1048328771
 20
135.4007068721
 11
51.1551060166
 21
132.542997795
  0
LINE
  5
21D
100
AcDbEntity
  8
0
100
AcDbLine
 62
7
  6
CONTINUOUS
 10
32.3142813958
 20
120.1505831535
 11
31.6071775586
 21
119.7423389997
  0
LINE
  5
21E
100
AcDbEntity
  8
0
100
AcDbLine
 62
7
  6
CONTINUOUS
 10
33.6288674181
 20
119.7297496886
 11
33.4774800578
 21
119.6423466771
  0
LINE
  5
21F
100
AcDbEntity
  8
0
100
AcDbLine
 62
7
  6
CONTINUOUS
 10
38.7808147722
 20
121.8061915053
 11
73.7824547143
 21
142.0142771219
  0
LINE
  5
220
100
AcDbEntity
  8
0
100
AcDbLine
 62
7
  6
CONTINUOUS
 10
34.0930446455
 20
119.0179380355
 11
33.4774800578
 21
118.6625437765
  0
LINE
  5
221
100
AcDbEntity
  8
0
100
AcDbLine
 62
7
  6
CONTINUOUS
 10
14.7998522246
 20
67.981194311
 11
27.2449833872
 21
60.7961570315
  0
LINE
  5
222
100
AcDbEntity
  8
0
100
AcDbLine
 62
7
  6
CONTINUOUS
 10
27.6692492223
 20
60.5512125788
 11
52.4180896024
 21
46.2627861706
  0
LINE
  5
223
100
AcDbEntity
  8
0
100
AcDbLine
 62
7
  6
CONTINUOUS
 10
52.8423554375
 20
46.0178417178
 11
65.2874866001
 21
38.8328044383
  0
LINE
  5
224
100
AcDbEntity
  8
0
100
AcDbLine
 62
7
  6
CONTINUOUS
 10
26.1942616646
 20
55.5876593941
 11
26.1942616646
 21
61.4027777773
  0
LINE
  5
225
100
AcDbEntity
  8
0
100
AcDbLine
 62
7
  6
CONTINUOUS
 10
26.1942616646
 20
110.8240479129
 11
26.1942616646
 21
129.0728769357
  0
LINE
  5
226
100
AcDbEntity
  8
0
100
AcDbLine
 62
7
  6
CONTINUOUS
 10
26.8307587457
 20
61.7117293271
 11
26.8307587457
 21
95.1883284294
  0
LINE
  5
227
100
AcDbEntity
  8
0
100
AcDbLine
 62
7
  6
CONTINUOUS
 10
34.4915228664
 20
118.2682122011
 11
34.3260117279
 21
118.1726548711
  0
LINE
  5
228
100
AcDbEntity
  8
0
100
AcDbLine
 62
7
  6
CONTINUOUS
 10
34.184583895
 20
117.9276845464
 11
33.4774800578
 21
117.5194403925
  0
LINE
  5
229
100
AcDbEntity
  8
0
100
AcDbLine
 62
7
  6
CONTINUOUS
 10
57.3776715979
 20
128.9504791552
 11
62.3273984583
 21
131.8081882323
  0
LINE
  5
22A
100
AcDbEntity
  8
0
100
AcDbLine
 62
7
  6
CONTINUOUS
 10
15.7998352576
 20
104.822858851
 11
16.357709089
 21
105.1449455351
  0
LINE
  5
22B
100
AcDbEntity
  8
0
100
AcDbLine
 62
7
  6
CONTINUOUS
 10
25.4949670658
 20
110.420312398
 11
26.1942616646
 21
110.8240479129
  0
LINE
  5
22C
100
AcDbEntity
  8
0
100
AcDbLine
 62
7
  6
CONTINUOUS
 10
16.7897806297
 20
104.9044992161
 11
25.0628955251
 21
109.6809558164
  0
LINE
  5
22D
100
AcDbEntity
  8
0
100
AcDbLine
 62
7
  6
CONTINUOUS
 10
14.3856275831
 20
68.8967666067
 11
26.8307587457
 21
61.7117293271
  0
LINE
  5
22E
100
AcDbEntity
  8
0
100
AcDbLine
 62
7
  6
CONTINUOUS
 10
27.2550245808
 20
61.4667848744
 11
52.003864961
 21
47.1783584662
  0
LINE
  5
22F
100
AcDbEntity
  8
0
100
AcDbLine
 62
7
  6
CONTINUOUS
 10
52.428130796
 20
46.9334140135
 11
64.8732619586
 21
39.7483767339
  0
LINE
  5
230
100
AcDbEntity
  8
0
100
AcDbLine
 62
7
  6
CONTINUOUS
 10
27.2550245808
 20
61.4667848744
 11
27.2550245808
 21
94.9433839767
  0
LINE
  5
231
100
AcDbEntity
  8
0
100
AcDbLine
 62
7
  6
CONTINUOUS
 10
31.6390065482
 20
109.8689806949
 11
31.6390065482
 21
107.6805941031
  0
LINE
  5
232
100
AcDbEntity
  8
0
100
AcDbLine
 62
7
  6
CONTINUOUS
 10
31.9925590556
 20
107.8030676892
 11
31.9925590556
 21
109.7626734903
  0
LINE
  5
233
100
AcDbEntity
  8
0
100
AcDbLine
 62
7
  6
CONTINUOUS
 10
32.3461223829
 20
110.2772317755
 11
31.6390065482
 21
109.8689806949
  0
LINE
  5
234
100
AcDbEntity
  8
0
100
AcDbLine
 62
7
  6
CONTINUOUS
 10
32.3806498114
 20
110.2573048611
 11
32.1582486265
 21
110.1289022436
  0
LINE
  5
235
100
AcDbEntity
  8
0
100
AcDbLine
 62
7
  6
CONTINUOUS
 10
32.6149624989
 20
110.1220274283
 11
32.5582468358
 21
110.0892828204
  0
LINE
  5
236
100
AcDbEntity
  8
0
100
AcDbLine
 62
7
  6
CONTINUOUS
 10
32.7703797533
 20
109.966810594
 11
32.7784735774
 21
109.9714835377
  0
LINE
  5
237
100
AcDbEntity
  8
0
100
AcDbLine
 62
7
  6
CONTINUOUS
 10
31.9925590556
 20
107.88471652
 11
31.6390065482
 21
107.6805941031
  0
LINE
  5
238
100
AcDbEntity
  8
0
100
AcDbLine
 62
7
  6
CONTINUOUS
 10
68.6913859847
 20
128.1340214416
 11
63.7416591242
 21
125.2763123645
  0
LINE
  5
239
100
AcDbEntity
  8
0
100
AcDbLine
 62
7
  6
CONTINUOUS
 10
44.9008345034
 20
112.8838977231
 11
44.1937306662
 21
112.4756535692
  0
LINE
  5
23A
100
AcDbEntity
  8
0
100
AcDbLine
 62
7
  6
CONTINUOUS
 10
75.9826014413
 20
44.5293137544
 11
75.5505299006
 21
44.7697600734
  0
LINE
  5
23B
100
AcDbEntity
  8
0
100
AcDbLine
 62
7
  6
CONTINUOUS
 10
33.3360698886
 20
108.8892028841
 11
33.3360698886
 21
106.7008162922
  0
LINE
  5
23C
100
AcDbEntity
  8
0
100
AcDbLine
 62
7
  6
CONTINUOUS
 10
33.4774800578
 20
117.5194403925
 11
33.4774800578
 21
118.6625437765
  0
LINE
  5
23D
100
AcDbEntity
  8
0
100
AcDbLine
 62
7
  6
CONTINUOUS
 10
33.4774800578
 20
119.6423466771
 11
33.4774800578
 21
119.8838828497
  0
LINE
  5
23E
100
AcDbEntity
  8
0
100
AcDbLine
 62
7
  6
CONTINUOUS
 10
34.184583895
 20
117.9276845464
 11
34.184583895
 21
118.8457094503
  0
LINE
  5
23F
100
AcDbEntity
  8
0
100
AcDbLine
 62
7
  6
CONTINUOUS
 10
34.3260117279
 20
118.1726548711
 11
34.3260117279
 21
117.0295514871
  0
LINE
  5
240
100
AcDbEntity
  8
0
100
AcDbLine
 62
7
  6
CONTINUOUS
 10
37.5080266876
 20
102.4959185369
 11
37.9400982284
 21
103.2352751184
  0
LINE
  5
241
100
AcDbEntity
  8
0
100
AcDbLine
 62
7
  6
CONTINUOUS
 10
38.3643640634
 20
102.9903306657
 11
37.9322925227
 21
102.2509740842
  0
LINE
  5
242
100
AcDbEntity
  8
0
100
AcDbLine
 62
7
  6
CONTINUOUS
 10
46.2154205257
 20
112.4630642581
 11
46.0640331654
 21
112.3756612466
  0
LINE
  5
243
100
AcDbEntity
  8
0
100
AcDbLine
 62
7
  6
CONTINUOUS
 10
51.3673678798
 20
114.5395060748
 11
86.3690078219
 21
134.7475916915
  0
LINE
  5
244
100
AcDbEntity
  8
0
100
AcDbLine
 62
7
  6
CONTINUOUS
 10
46.6795977531
 20
111.7512526051
 11
46.0640331654
 21
111.3958583461
  0
LINE
  5
245
100
AcDbEntity
  8
0
100
AcDbLine
 62
7
  6
CONTINUOUS
 10
47.078075974
 20
111.0015267706
 11
46.9125648355
 21
110.9059694406
  0
LINE
  5
246
100
AcDbEntity
  8
0
100
AcDbLine
 62
7
  6
CONTINUOUS
 10
46.7711370026
 20
110.660999116
 11
46.0640331654
 21
110.2527549621
  0
LINE
  5
247
100
AcDbEntity
  8
0
100
AcDbLine
 62
7
  6
CONTINUOUS
 10
28.2449664201
 20
97.6378215714
 11
28.8028402515
 21
97.9599082556
  0
LINE
  5
248
100
AcDbEntity
  8
0
100
AcDbLine
 62
7
  6
CONTINUOUS
 10
37.9400982284
 20
103.2352751184
 11
38.6393928272
 21
103.6390106333
  0
LINE
  5
249
100
AcDbEntity
  8
0
100
AcDbLine
 62
7
  6
CONTINUOUS
 10
69.9642247055
 20
121.6837937247
 11
74.913951566
 21
124.5415028018
  0
LINE
  5
24A
100
AcDbEntity
  8
0
100
AcDbLine
 62
7
  6
CONTINUOUS
 10
76.5404740951
 20
44.7697466951
 11
76.4697594568
 21
44.8105728869
  0
LINE
  5
24B
100
AcDbEntity
  8
0
100
AcDbLine
 62
7
  6
CONTINUOUS
 10
38.7808147722
 20
48.3209739636
 11
38.7808147722
 21
54.1360923468
  0
LINE
  5
24C
100
AcDbEntity
  8
0
100
AcDbLine
 62
7
  6
CONTINUOUS
 10
38.7808147722
 20
103.5573624824
 11
38.7808147722
 21
121.8061915053
  0
LINE
  5
24D
100
AcDbEntity
  8
0
100
AcDbLine
 62
7
  6
CONTINUOUS
 10
39.5587337984
 20
54.3633957458
 11
39.5587337984
 21
87.8399948481
  0
LINE
  5
24E
100
AcDbEntity
  8
0
100
AcDbLine
 62
7
  6
CONTINUOUS
 10
39.7001557434
 20
54.2817475948
 11
39.7001557434
 21
87.7583466972
  0
LINE
  5
24F
100
AcDbEntity
  8
0
100
AcDbLine
 62
7
  6
CONTINUOUS
 10
28.6692322552
 20
97.3928771187
 11
29.2271060866
 21
97.7149638028
  0
LINE
  5
250
100
AcDbEntity
  8
0
100
AcDbLine
 62
7
  6
CONTINUOUS
 10
38.3643640634
 20
102.9903306657
 11
39.0636586623
 21
103.3940661806
  0
LINE
  5
251
100
AcDbEntity
  8
0
100
AcDbLine
 62
7
  6
CONTINUOUS
 10
29.2349117922
 20
97.7194619366
 11
37.5080266876
 21
102.4959185369
  0
LINE
  5
252
100
AcDbEntity
  8
0
100
AcDbLine
 62
7
  6
CONTINUOUS
 10
29.6591776273
 20
97.4745174839
 11
37.9322925227
 21
102.2509740842
  0
LINE
  5
253
100
AcDbEntity
  8
0
100
AcDbLine
 62
7
  6
CONTINUOUS
 10
44.9326754905
 20
103.010546345
 11
44.2255596559
 21
102.6022952644
  0
LINE
  5
254
100
AcDbEntity
  8
0
100
AcDbLine
 62
7
  6
CONTINUOUS
 10
45.2415723751
 20
102.8224304413
 11
45.0276456242
 21
102.6989205113
  0
LINE
  5
255
100
AcDbEntity
  8
0
100
AcDbLine
 62
7
  6
CONTINUOUS
 10
22.5173835344
 20
89.1053041434
 11
21.8102796972
 21
88.6970599895
  0
LINE
  5
256
100
AcDbEntity
  8
0
100
AcDbLine
 62
7
  6
CONTINUOUS
 10
44.8619560533
 20
100.7813301108
 11
44.2255596559
 21
100.4139086726
  0
LINE
  5
257
100
AcDbEntity
  8
0
100
AcDbLine
 62
7
  6
CONTINUOUS
 10
44.2255596559
 20
102.6022952644
 11
44.2255596559
 21
100.4139086726
  0
LINE
  5
258
100
AcDbEntity
  8
0
100
AcDbLine
 62
7
  6
CONTINUOUS
 10
44.7911184902
 20
136.2171645856
 11
44.7911184902
 21
134.5841947689
  0
LINE
  5
259
100
AcDbEntity
  8
0
100
AcDbLine
 62
7
  6
CONTINUOUS
 10
44.8619560533
 20
100.3730859569
 11
44.8619560533
 21
102.332691758
  0
LINE
  5
25A
100
AcDbEntity
  8
0
100
AcDbLine
 62
7
  6
CONTINUOUS
 10
45.9226229962
 20
101.6225174536
 11
45.9226229962
 21
99.4341308618
  0
LINE
  5
25B
100
AcDbEntity
  8
0
100
AcDbLine
 62
7
  6
CONTINUOUS
 10
46.0640331654
 20
110.2527549621
 11
46.0640331654
 21
111.3958583461
  0
LINE
  5
25C
100
AcDbEntity
  8
0
100
AcDbLine
 62
7
  6
CONTINUOUS
 10
46.0640331654
 20
112.3756612466
 11
46.0640331654
 21
112.6171974192
  0
LINE
  5
25D
100
AcDbEntity
  8
0
100
AcDbLine
 62
7
  6
CONTINUOUS
 10
46.7711370026
 20
110.660999116
 11
46.7711370026
 21
111.5790240199
  0
LINE
  5
25E
100
AcDbEntity
  8
0
100
AcDbLine
 62
7
  6
CONTINUOUS
 10
46.9125648355
 20
110.9059694406
 11
46.9125648355
 21
109.7628660567
  0
LINE
  5
25F
100
AcDbEntity
  8
0
100
AcDbLine
 62
7
  6
CONTINUOUS
 10
23.5073430375
 20
87.7172821787
 11
24.2144468747
 21
88.1255263326
  0
LINE
  5
260
100
AcDbEntity
  8
0
100
AcDbLine
 62
7
  6
CONTINUOUS
 10
81.2779390923
 20
120.8673360111
 11
76.3282122318
 21
118.009626934
  0
LINE
  5
261
100
AcDbEntity
  8
0
100
AcDbLine
 62
7
  6
CONTINUOUS
 10
57.487387611
 20
105.6172122926
 11
56.7802837738
 21
105.2089681387
  0
LINE
  5
262
100
AcDbEntity
  8
0
100
AcDbLine
 62
7
  6
CONTINUOUS
 10
58.8019736333
 20
105.1963788277
 11
58.650586273
 21
105.1089758162
  0
LINE
  5
263
100
AcDbEntity
  8
0
100
AcDbLine
 62
7
  6
CONTINUOUS
 10
63.9539209875
 20
107.2728206444
 11
98.9555609295
 21
127.480906261
  0
LINE
  5
264
100
AcDbEntity
  8
0
100
AcDbLine
 62
7
  6
CONTINUOUS
 10
59.2661508607
 20
104.4845671746
 11
58.650586273
 21
104.1291729156
  0
LINE
  5
265
100
AcDbEntity
  8
0
100
AcDbLine
 62
7
  6
CONTINUOUS
 10
59.6646290817
 20
103.7348413401
 11
59.4991179432
 21
103.6392840102
  0
LINE
  5
266
100
AcDbEntity
  8
0
100
AcDbLine
 62
7
  6
CONTINUOUS
 10
59.3576901102
 20
103.3943136855
 11
58.650586273
 21
102.9860695316
  0
LINE
  5
267
100
AcDbEntity
  8
0
100
AcDbLine
 62
7
  6
CONTINUOUS
 10
61.5498462504
 20
65.7539295855
 11
59.8527829101
 21
66.7337073963
  0
LINE
  5
268
100
AcDbEntity
  8
0
100
AcDbLine
 62
7
  6
CONTINUOUS
 10
48.6804492528
 20
73.1839113178
 11
46.9833859124
 21
74.1636891286
  0
LINE
  5
269
100
AcDbEntity
  8
0
100
AcDbLine
 62
7
  6
CONTINUOUS
 10
36.3767400352
 20
80.2873004464
 11
34.6796766949
 21
81.2670782573
  0
LINE
  5
26A
100
AcDbEntity
  8
0
100
AcDbLine
 62
7
  6
CONTINUOUS
 10
23.5073430375
 20
87.7172821787
 11
21.8102796972
 21
88.6970599895
  0
LINE
  5
26B
100
AcDbEntity
  8
0
100
AcDbLine
 62
7
  6
CONTINUOUS
 10
62.2569500877
 20
66.1621737394
 11
60.5598867473
 21
67.1419515502
  0
LINE
  5
26C
100
AcDbEntity
  8
0
100
AcDbLine
 62
7
  6
CONTINUOUS
 10
49.38755309
 20
73.5921554716
 11
47.6904897496
 21
74.5719332825
  0
LINE
  5
26D
100
AcDbEntity
  8
0
100
AcDbLine
 62
7
  6
CONTINUOUS
 10
37.0838438724
 20
80.6955446003
 11
35.3867805321
 21
81.6753224111
  0
LINE
  5
26E
100
AcDbEntity
  8
0
100
AcDbLine
 62
7
  6
CONTINUOUS
 10
24.2144468747
 20
88.1255263326
 11
22.5173835344
 21
89.1053041434
  0
LINE
  5
26F
100
AcDbEntity
  8
0
100
AcDbLine
 62
7
  6
CONTINUOUS
 10
21.8102796972
 20
92.7795720752
 11
23.5073430375
 21
91.7997942643
  0
LINE
  5
270
100
AcDbEntity
  8
0
100
AcDbLine
 62
7
  6
CONTINUOUS
 10
34.6796766949
 20
85.3495903429
 11
36.3767400352
 21
84.3698125321
  0
LINE
  5
271
100
AcDbEntity
  8
0
100
AcDbLine
 62
7
  6
CONTINUOUS
 10
46.9833859124
 20
78.2462012143
 11
48.6804492528
 21
77.2664234034
  0
LINE
  5
272
100
AcDbEntity
  8
0
100
AcDbLine
 62
7
  6
CONTINUOUS
 10
59.8527829101
 20
70.816219482
 11
61.5498462504
 21
69.8364416711
  0
LINE
  5
273
100
AcDbEntity
  8
0
100
AcDbLine
 62
7
  6
CONTINUOUS
 10
49.7408453507
 20
132.243968393
 11
49.7408453507
 21
139.0748736627
  0
LINE
  5
274
100
AcDbEntity
  8
0
100
AcDbLine
 62
7
  6
CONTINUOUS
 10
51.3673678798
 20
41.0542885332
 11
51.3673678798
 21
46.8694069163
  0
LINE
  5
275
100
AcDbEntity
  8
0
100
AcDbLine
 62
7
  6
CONTINUOUS
 10
51.3673678798
 20
96.290677052
 11
51.3673678798
 21
114.5395060748
  0
LINE
  5
276
100
AcDbEntity
  8
0
100
AcDbLine
 62
7
  6
CONTINUOUS
 10
52.003864961
 20
47.1783584662
 11
52.003864961
 21
80.6549575685
  0
LINE
  5
277
100
AcDbEntity
  8
0
100
AcDbLine
 62
7
  6
CONTINUOUS
 10
52.428130796
 20
46.9334140135
 11
52.428130796
 21
80.4100131158
  0
LINE
  5
278
100
AcDbEntity
  8
0
100
AcDbLine
 62
7
  6
CONTINUOUS
 10
52.5692724755
 20
139.0748804614
 11
52.5692724755
 21
133.359462307
  0
LINE
  5
279
100
AcDbEntity
  8
0
100
AcDbLine
 62
7
  6
CONTINUOUS
 10
50.668073281
 20
95.8869415371
 11
50.2360017403
 21
95.1475849555
  0
LINE
  5
27A
100
AcDbEntity
  8
0
100
AcDbLine
 62
7
  6
CONTINUOUS
 10
50.3774236853
 20
95.0659368046
 11
50.809495226
 21
95.8052933862
  0
LINE
  5
27B
100
AcDbEntity
  8
0
100
AcDbLine
 62
7
  6
CONTINUOUS
 10
82.5507778131
 20
114.4171082943
 11
87.5005046736
 21
117.2748173714
  0
LINE
  5
27C
100
AcDbEntity
  8
0
100
AcDbLine
 62
7
  6
CONTINUOUS
 10
40.9729414728
 20
90.2894879901
 11
41.5308153042
 21
90.6115746742
  0
LINE
  5
27D
100
AcDbEntity
  8
0
100
AcDbLine
 62
7
  6
CONTINUOUS
 10
50.668073281
 20
95.8869415371
 11
51.3673678798
 21
96.290677052
  0
LINE
  5
27E
100
AcDbEntity
  8
0
100
AcDbLine
 62
7
  6
CONTINUOUS
 10
41.1143634178
 20
90.2078398392
 11
41.6722372492
 21
90.5299265233
  0
LINE
  5
27F
100
AcDbEntity
  8
0
100
AcDbLine
 62
7
  6
CONTINUOUS
 10
50.809495226
 20
95.8052933862
 11
51.5087898249
 21
96.2090289011
  0
LINE
  5
280
100
AcDbEntity
  8
0
100
AcDbLine
 62
7
  6
CONTINUOUS
 10
41.9628868449
 20
90.3711283552
 11
50.2360017403
 21
95.1475849555
  0
LINE
  5
281
100
AcDbEntity
  8
0
100
AcDbLine
 62
7
  6
CONTINUOUS
 10
42.1043087899
 20
90.2894802043
 11
50.3774236853
 21
95.0659368046
  0
LINE
  5
282
100
AcDbEntity
  8
0
100
AcDbLine
 62
7
  6
CONTINUOUS
 10
106.1681248743
 20
47.46390908
 11
104.4003652813
 21
48.484502468
  0
LINE
  5
283
100
AcDbEntity
  8
0
100
AcDbLine
 62
7
  6
CONTINUOUS
 10
64.8732619586
 20
73.2249758362
 11
52.428130796
 21
80.4100131158
  0
LINE
  5
284
100
AcDbEntity
  8
0
100
AcDbLine
 62
7
  6
CONTINUOUS
 10
52.003864961
 20
80.6549575685
 11
27.2550245808
 21
94.9433839767
  0
LINE
  5
285
100
AcDbEntity
  8
0
100
AcDbLine
 62
7
  6
CONTINUOUS
 10
26.8307587457
 20
95.1883284294
 11
14.3856275831
 21
102.373365709
  0
LINE
  5
286
100
AcDbEntity
  8
0
100
AcDbLine
 62
7
  6
CONTINUOUS
 10
56.1048211012
 20
135.4007068721
 11
56.1048211012
 21
137.0336766888
  0
LINE
  5
287
100
AcDbEntity
  8
0
100
AcDbLine
 62
7
  6
CONTINUOUS
 10
56.8121127635
 20
95.335609834
 11
56.8121127635
 21
93.1472232422
  0
LINE
  5
288
100
AcDbEntity
  8
0
100
AcDbLine
 62
7
  6
CONTINUOUS
 10
57.1656652709
 20
93.2696968283
 11
57.1656652709
 21
95.2293026294
  0
LINE
  5
289
100
AcDbEntity
  8
0
100
AcDbLine
 62
7
  6
CONTINUOUS
 10
57.3776715979
 20
128.9504791552
 11
57.3776715979
 21
127.3175093384
  0
LINE
  5
28A
100
AcDbEntity
  8
0
100
AcDbLine
 62
7
  6
CONTINUOUS
 10
57.5192285981
 20
95.7438609145
 11
56.8121127635
 21
95.335609834
  0
LINE
  5
28B
100
AcDbEntity
  8
0
100
AcDbLine
 62
7
  6
CONTINUOUS
 10
57.5537560266
 20
95.7239340002
 11
57.3313548417
 21
95.5955313827
  0
LINE
  5
28C
100
AcDbEntity
  8
0
100
AcDbLine
 62
7
  6
CONTINUOUS
 10
57.7880687141
 20
95.5886565674
 11
57.731353051
 21
95.5559119595
  0
LINE
  5
28D
100
AcDbEntity
  8
0
100
AcDbLine
 62
7
  6
CONTINUOUS
 10
57.9434859685
 20
95.4334397331
 11
57.9515797926
 21
95.4381126767
  0
LINE
  5
28E
100
AcDbEntity
  8
0
100
AcDbLine
 62
7
  6
CONTINUOUS
 10
35.3867805321
 20
81.6753224111
 11
34.6796766949
 21
81.2670782573
  0
LINE
  5
28F
100
AcDbEntity
  8
0
100
AcDbLine
 62
7
  6
CONTINUOUS
 10
57.1656652709
 20
93.351345659
 11
56.8121127635
 21
93.1472232422
  0
LINE
  5
290
100
AcDbEntity
  8
0
100
AcDbLine
 62
7
  6
CONTINUOUS
 10
93.8644921999
 20
113.6006505807
 11
88.9147653394
 21
110.7429415036
  0
LINE
  5
291
100
AcDbEntity
  8
0
100
AcDbLine
 62
7
  6
CONTINUOUS
 10
36.3767400352
 20
80.2873004464
 11
37.0838438724
 21
80.6955446003
  0
LINE
  5
292
100
AcDbEntity
  8
0
100
AcDbLine
 62
7
  6
CONTINUOUS
 10
70.0739407186
 20
98.3505268621
 11
69.3668368814
 21
97.9422827083
  0
LINE
  5
293
100
AcDbEntity
  8
0
100
AcDbLine
 62
7
  6
CONTINUOUS
 10
108.7136986883
 20
66.7333407273
 11
111.5421140372
 21
65.9168100914
  0
LINE
  5
294
100
AcDbEntity
  8
0
100
AcDbLine
 62
7
  6
CONTINUOUS
 10
108.6429741735
 20
67.2436134225
 11
107.6530429325
 21
67.5293950656
  0
LINE
  5
295
100
AcDbEntity
  8
0
100
AcDbLine
 62
7
  6
CONTINUOUS
 10
108.7136751366
 20
67.5497731095
 11
107.6530429325
 21
67.8559652989
  0
LINE
  5
296
100
AcDbEntity
  8
0
100
AcDbLine
 62
7
  6
CONTINUOUS
 10
66.8453434644
 20
75.9965556624
 11
67.2774150052
 21
75.7561093434
  0
LINE
  5
297
100
AcDbEntity
  8
0
100
AcDbLine
 62
7
  6
CONTINUOUS
 10
53.9759464668
 20
83.4265373946
 11
54.4080180075
 21
83.1860910757
  0
LINE
  5
298
100
AcDbEntity
  8
0
100
AcDbLine
 62
7
  6
CONTINUOUS
 10
41.9616345031
 20
90.3688779518
 11
42.1043087899
 21
90.2894802043
  0
LINE
  5
299
100
AcDbEntity
  8
0
100
AcDbLine
 62
7
  6
CONTINUOUS
 10
28.8028402515
 20
97.9599082556
 11
29.2349117922
 21
97.7194619366
  0
LINE
  5
29A
100
AcDbEntity
  8
0
100
AcDbLine
 62
7
  6
CONTINUOUS
 10
16.7897806297
 20
104.9044992161
 11
16.357709089
 21
105.1449455351
  0
LINE
  5
29B
100
AcDbEntity
  8
0
100
AcDbLine
 62
7
  6
CONTINUOUS
 10
15.7998352576
 20
104.822858851
 11
28.2449664201
 21
97.6378215714
  0
LINE
  5
29C
100
AcDbEntity
  8
0
100
AcDbLine
 62
7
  6
CONTINUOUS
 10
28.6692322552
 20
97.3928771187
 11
53.4180726354
 21
83.1044507105
  0
LINE
  5
29D
100
AcDbEntity
  8
0
100
AcDbLine
 62
7
  6
CONTINUOUS
 10
53.8423384705
 20
82.8595062578
 11
66.2874696331
 21
75.6744689782
  0
LINE
  5
29E
100
AcDbEntity
  8
0
100
AcDbLine
 62
7
  6
CONTINUOUS
 10
66.8453434644
 20
75.9965556624
 11
54.4002123019
 21
83.1815929419
  0
LINE
  5
29F
100
AcDbEntity
  8
0
100
AcDbLine
 62
7
  6
CONTINUOUS
 10
53.9759464668
 20
83.4265373946
 11
29.2271060866
 21
97.7149638028
  0
LINE
  5
2A0
100
AcDbEntity
  8
0
100
AcDbLine
 62
7
  6
CONTINUOUS
 10
28.8028402515
 20
97.9599082556
 11
16.357709089
 21
105.1449455351
  0
LINE
  5
2A1
100
AcDbEntity
  8
0
100
AcDbLine
 62
7
  6
CONTINUOUS
 10
67.2774150052
 20
75.7561093434
 11
54.8322838426
 21
82.9411466229
  0
LINE
  5
2A2
100
AcDbEntity
  8
0
100
AcDbLine
 62
7
  6
CONTINUOUS
 10
54.4080180075
 20
83.1860910757
 11
29.6591776273
 21
97.4745174839
  0
LINE
  5
2A3
100
AcDbEntity
  8
0
100
AcDbLine
 62
7
  6
CONTINUOUS
 10
29.2349117922
 20
97.7194619366
 11
16.7897806297
 21
104.9044992161
  0
LINE
  5
2A4
100
AcDbEntity
  8
0
100
AcDbLine
 62
7
  6
CONTINUOUS
 10
99.5213488045
 20
58.0376816959
 11
99.4506341662
 21
58.0785078877
  0
LINE
  5
2A5
100
AcDbEntity
  8
0
100
AcDbLine
 62
7
  6
CONTINUOUS
 10
58.5091761038
 20
94.3558320231
 11
58.5091761038
 21
92.1674454313
  0
LINE
  5
2A6
100
AcDbEntity
  8
0
100
AcDbLine
 62
7
  6
CONTINUOUS
 10
58.650586273
 20
102.9860695316
 11
58.650586273
 21
104.1291729156
  0
LINE
  5
2A7
100
AcDbEntity
  8
0
100
AcDbLine
 62
7
  6
CONTINUOUS
 10
58.650586273
 20
105.1089758162
 11
58.650586273
 21
105.3505119888
  0
LINE
  5
2A8
100
AcDbEntity
  8
0
100
AcDbLine
 62
7
  6
CONTINUOUS
 10
59.3576901102
 20
103.3943136855
 11
59.3576901102
 21
104.3123385894
  0
LINE
  5
2A9
100
AcDbEntity
  8
0
100
AcDbLine
 62
7
  6
CONTINUOUS
 10
59.4991179432
 20
103.6392840102
 11
59.4991179432
 21
102.4961806262
  0
LINE
  5
2AA
100
AcDbEntity
  8
0
100
AcDbLine
 62
7
  6
CONTINUOUS
 10
62.3273984583
 20
124.9772829625
 11
62.3273984583
 21
131.8081882323
  0
LINE
  5
2AB
100
AcDbEntity
  8
0
100
AcDbLine
 62
7
  6
CONTINUOUS
 10
62.6811329029
 20
87.9625476759
 11
63.1132044436
 21
88.7019042575
  0
LINE
  5
2AC
100
AcDbEntity
  8
0
100
AcDbLine
 62
7
  6
CONTINUOUS
 10
63.5374702787
 20
88.4569598048
 11
63.105398738
 21
87.7176032232
  0
LINE
  5
2AD
100
AcDbEntity
  8
0
100
AcDbLine
 62
7
  6
CONTINUOUS
 10
71.3885267409
 20
97.9296933972
 11
71.2371393806
 21
97.8422903857
  0
LINE
  5
2AE
100
AcDbEntity
  8
0
100
AcDbLine
 62
7
  6
CONTINUOUS
 10
76.5404740951
 20
100.0061352139
 11
111.5421140372
 21
120.2142208305
  0
LINE
  5
2AF
100
AcDbEntity
  8
0
100
AcDbLine
 62
7
  6
CONTINUOUS
 10
71.8527039683
 20
97.2178817441
 11
71.2371393806
 21
96.8624874851
  0
LINE
  5
2B0
100
AcDbEntity
  8
0
100
AcDbLine
 62
7
  6
CONTINUOUS
 10
72.2511821893
 20
96.4681559097
 11
72.0856710508
 21
96.3725985797
  0
LINE
  5
2B1
100
AcDbEntity
  8
0
100
AcDbLine
 62
7
  6
CONTINUOUS
 10
71.9442432178
 20
96.127628255
 11
71.2371393806
 21
95.7193841012
  0
LINE
  5
2B2
100
AcDbEntity
  8
0
100
AcDbLine
 62
7
  6
CONTINUOUS
 10
53.4180726354
 20
83.1044507105
 11
53.9759464668
 21
83.4265373946
  0
LINE
  5
2B3
100
AcDbEntity
  8
0
100
AcDbLine
 62
7
  6
CONTINUOUS
 10
63.1132044436
 20
88.7019042575
 11
63.8124990424
 21
89.1056397724
  0
LINE
  5
2B4
100
AcDbEntity
  8
0
100
AcDbLine
 62
7
  6
CONTINUOUS
 10
53.8423384705
 20
82.8595062578
 11
54.4002123019
 21
83.1815929419
  0
LINE
  5
2B5
100
AcDbEntity
  8
0
100
AcDbLine
 62
7
  6
CONTINUOUS
 10
63.5374702787
 20
88.4569598048
 11
64.2367648775
 21
88.8606953197
  0
LINE
  5
2B6
100
AcDbEntity
  8
0
100
AcDbLine
 62
7
  6
CONTINUOUS
 10
54.4080180075
 20
83.1860910757
 11
62.6811329029
 21
87.9625476759
  0
LINE
  5
2B7
100
AcDbEntity
  8
0
100
AcDbLine
 62
7
  6
CONTINUOUS
 10
54.8322838426
 20
82.9411466229
 11
63.105398738
 21
87.7176032232
  0
LINE
  5
2B8
100
AcDbEntity
  8
0
100
AcDbLine
 62
7
  6
CONTINUOUS
 10
75.5505299006
 20
80.5325659437
 11
63.105398738
 21
87.7176032232
  0
LINE
  5
2B9
100
AcDbEntity
  8
0
100
AcDbLine
 62
7
  6
CONTINUOUS
 10
62.6811329029
 20
87.9625476759
 11
37.9322925227
 21
102.2509740842
  0
LINE
  5
2BA
100
AcDbEntity
  8
0
100
AcDbLine
 62
7
  6
CONTINUOUS
 10
37.5080266876
 20
102.4959185369
 11
25.0628955251
 21
109.6809558164
  0
LINE
  5
2BB
100
AcDbEntity
  8
0
100
AcDbLine
 62
7
  6
CONTINUOUS
 10
63.9539209875
 20
33.7876031027
 11
63.9539209875
 21
39.6027214859
  0
LINE
  5
2BC
100
AcDbEntity
  8
0
100
AcDbLine
 62
7
  6
CONTINUOUS
 10
63.9539209875
 20
89.0239916215
 11
63.9539209875
 21
107.2728206444
  0
LINE
  5
2BD
100
AcDbEntity
  8
0
100
AcDbLine
 62
7
  6
CONTINUOUS
 10
64.8732619586
 20
39.7483767339
 11
64.8732619586
 21
73.2249758362
  0
LINE
  5
2BE
100
AcDbEntity
  8
0
100
AcDbLine
 62
7
  6
CONTINUOUS
 10
65.1558255831
 20
131.808195031
 11
65.1558255831
 21
126.0927768766
  0
LINE
  5
2BF
100
AcDbEntity
  8
0
100
AcDbLine
 62
7
  6
CONTINUOUS
 10
68.6913742088
 20
128.1340214416
 11
68.6913742088
 21
129.7669912584
  0
LINE
  5
2C0
100
AcDbEntity
  8
0
100
AcDbLine
 62
7
  6
CONTINUOUS
 10
70.1057817057
 20
88.4771754841
 11
69.3986658711
 21
88.0689244035
  0
LINE
  5
2C1
100
AcDbEntity
  8
0
100
AcDbLine
 62
7
  6
CONTINUOUS
 10
70.4146785903
 20
88.2890595804
 11
70.2007518394
 21
88.1655496504
  0
LINE
  5
2C2
100
AcDbEntity
  8
0
100
AcDbLine
 62
7
  6
CONTINUOUS
 10
47.6904897496
 20
74.5719332825
 11
46.9833859124
 21
74.1636891286
  0
LINE
  5
2C3
100
AcDbEntity
  8
0
100
AcDbLine
 62
7
  6
CONTINUOUS
 10
70.0350622685
 20
86.2479592499
 11
69.3986658711
 21
85.8805378117
  0
LINE
  5
2C4
100
AcDbEntity
  8
0
100
AcDbLine
 62
7
  6
CONTINUOUS
 10
48.6804492528
 20
73.1839113178
 11
49.38755309
 21
73.5921554716
  0
LINE
  5
2C5
100
AcDbEntity
  8
0
100
AcDbLine
 62
7
  6
CONTINUOUS
 10
75.9826014413
 20
81.2719225252
 11
63.5374702787
 21
88.4569598048
  0
LINE
  5
2C6
100
AcDbEntity
  8
0
100
AcDbLine
 62
7
  6
CONTINUOUS
 10
63.1132044436
 20
88.7019042575
 11
38.3643640634
 21
102.9903306657
  0
LINE
  5
2C7
100
AcDbEntity
  8
0
100
AcDbLine
 62
7
  6
CONTINUOUS
 10
37.9400982284
 20
103.2352751184
 11
25.4949670658
 21
110.420312398
  0
LINE
  5
2C8
100
AcDbEntity
  8
0
100
AcDbLine
 62
7
  6
CONTINUOUS
 10
76.5404740951
 20
81.7573061911
 11
71.0957292114
 21
84.9007600009
  0
LINE
  5
2C9
100
AcDbEntity
  8
0
100
AcDbLine
 62
7
  6
CONTINUOUS
 10
69.3986658711
 20
85.8805378117
 11
58.5091761038
 21
92.1674454313
  0
LINE
  5
2CA
100
AcDbEntity
  8
0
100
AcDbLine
 62
7
  6
CONTINUOUS
 10
56.8121127635
 20
93.1472232422
 11
45.9226229962
 21
99.4341308618
  0
LINE
  5
2CB
100
AcDbEntity
  8
0
100
AcDbLine
 62
7
  6
CONTINUOUS
 10
44.2255596559
 20
100.4139086726
 11
33.3360698886
 21
106.7008162922
  0
LINE
  5
2CC
100
AcDbEntity
  8
0
100
AcDbLine
 62
7
  6
CONTINUOUS
 10
31.6390065482
 20
107.6805941031
 11
26.1942616646
 21
110.8240479129
  0
LINE
  5
2CD
100
AcDbEntity
  8
0
100
AcDbLine
 62
7
  6
CONTINUOUS
 10
71.0957292114
 20
85.2273526045
 11
70.0350622685
 21
85.839715096
  0
LINE
  5
2CE
100
AcDbEntity
  8
0
100
AcDbLine
 62
7
  6
CONTINUOUS
 10
58.5091737486
 20
92.4940393947
 11
57.1656652709
 21
93.2696968283
  0
LINE
  5
2CF
100
AcDbEntity
  8
0
100
AcDbLine
 62
7
  6
CONTINUOUS
 10
45.9226229962
 20
99.7607234654
 11
44.8619560533
 21
100.3730859569
  0
LINE
  5
2D0
100
AcDbEntity
  8
0
100
AcDbLine
 62
7
  6
CONTINUOUS
 10
33.3360675334
 20
107.0274102556
 11
31.9925590556
 21
107.8030676892
  0
LINE
  5
2D1
100
AcDbEntity
  8
0
100
AcDbLine
 62
7
  6
CONTINUOUS
 10
32.5582468358
 20
110.0892828204
 11
32.7703797533
 21
109.966810594
  0
LINE
  5
2D2
100
AcDbEntity
  8
0
100
AcDbLine
 62
7
  6
CONTINUOUS
 10
57.731353051
 20
95.5559119595
 11
57.9434859685
 21
95.4334397331
  0
LINE
  5
2D3
100
AcDbEntity
  8
0
100
AcDbLine
 62
7
  6
CONTINUOUS
 10
32.3461162734
 20
110.2772423575
 11
32.6289601634
 21
110.1139460557
  0
LINE
  5
2D4
100
AcDbEntity
  8
0
100
AcDbLine
 62
7
  6
CONTINUOUS
 10
44.932669381
 20
103.0105569271
 11
45.2155132711
 21
102.8472606252
  0
LINE
  5
2D5
100
AcDbEntity
  8
0
100
AcDbLine
 62
7
  6
CONTINUOUS
 10
57.5192224886
 20
95.7438714966
 11
57.8020663787
 21
95.5805751948
  0
LINE
  5
2D6
100
AcDbEntity
  8
0
100
AcDbLine
 62
7
  6
CONTINUOUS
 10
70.1057755962
 20
88.4771860661
 11
70.3886194863
 21
88.3138897643
  0
LINE
  5
2D7
100
AcDbEntity
  8
0
100
AcDbLine
 62
7
  6
CONTINUOUS
 10
108.7136986883
 20
66.7333407273
 11
107.6530429325
 21
67.3456967601
  0
LINE
  5
2D8
100
AcDbEntity
  8
0
100
AcDbLine
 62
7
  6
CONTINUOUS
 10
107.6530429325
 20
67.8151375614
 11
108.6429741735
 21
67.2436134225
  0
LINE
  5
2D9
100
AcDbEntity
  8
0
100
AcDbLine
 62
7
  6
CONTINUOUS
 10
111.5421140372
 20
65.9168100914
 11
108.7136751366
 21
67.5497731095
  0
LINE
  5
2DA
100
AcDbEntity
  8
0
100
AcDbLine
 62
7
  6
CONTINUOUS
 10
69.3986658711
 20
88.0689244035
 11
69.3986658711
 21
85.8805378117
  0
LINE
  5
2DB
100
AcDbEntity
  8
0
100
AcDbLine
 62
7
  6
CONTINUOUS
 10
69.9642247055
 20
121.6837937247
 11
69.9642247055
 21
120.0508239079
  0
LINE
  5
2DC
100
AcDbEntity
  8
0
100
AcDbLine
 62
7
  6
CONTINUOUS
 10
70.0350622685
 20
85.839715096
 11
70.0350622685
 21
87.7993208971
  0
LINE
  5
2DD
100
AcDbEntity
  8
0
100
AcDbLine
 62
7
  6
CONTINUOUS
 10
71.0957292114
 20
87.0891465927
 11
71.0957292114
 21
84.9007600009
  0
LINE
  5
2DE
100
AcDbEntity
  8
0
100
AcDbLine
 62
7
  6
CONTINUOUS
 10
71.2371393806
 20
95.7193841012
 11
71.2371393806
 21
96.8624874851
  0
LINE
  5
2DF
100
AcDbEntity
  8
0
100
AcDbLine
 62
7
  6
CONTINUOUS
 10
71.2371393806
 20
97.8422903857
 11
71.2371393806
 21
98.0838265583
  0
LINE
  5
2E0
100
AcDbEntity
  8
0
100
AcDbLine
 62
7
  6
CONTINUOUS
 10
71.9442432178
 20
96.127628255
 11
71.9442432178
 21
97.0456531589
  0
LINE
  5
2E1
100
AcDbEntity
  8
0
100
AcDbLine
 62
7
  6
CONTINUOUS
 10
72.0856710508
 20
96.3725985797
 11
72.0856710508
 21
95.2294951957
  0
LINE
  5
2E2
100
AcDbEntity
  8
0
100
AcDbLine
 62
7
  6
CONTINUOUS
 10
72.0856710508
 20
95.2294951957
 11
71.2371393806
 21
95.7193841012
  0
LINE
  5
2E3
100
AcDbEntity
  8
0
100
AcDbLine
 62
7
  6
CONTINUOUS
 10
59.4991179432
 20
102.4961806262
 11
58.650586273
 21
102.9860695316
  0
LINE
  5
2E4
100
AcDbEntity
  8
0
100
AcDbLine
 62
7
  6
CONTINUOUS
 10
46.9125648355
 20
109.7628660567
 11
46.0640331654
 21
110.2527549621
  0
LINE
  5
2E5
100
AcDbEntity
  8
0
100
AcDbLine
 62
7
  6
CONTINUOUS
 10
34.3260117279
 20
117.0295514871
 11
33.4774800578
 21
117.5194403925
  0
LINE
  5
2E6
100
AcDbEntity
  8
0
100
AcDbLine
 62
7
  6
CONTINUOUS
 10
74.913951566
 20
117.7105975321
 11
74.913951566
 21
124.5415028018
  0
LINE
  5
2E7
100
AcDbEntity
  8
0
100
AcDbLine
 62
7
  6
CONTINUOUS
 10
76.5404740951
 20
26.5209176722
 11
76.5404740951
 21
44.7697466951
  0
LINE
  5
2E8
100
AcDbEntity
  8
0
100
AcDbLine
 62
7
  6
CONTINUOUS
 10
76.5404740951
 20
81.7573061911
 11
76.5404740951
 21
100.0061352139
  0
LINE
  5
2E9
100
AcDbEntity
  8
0
100
AcDbLine
 62
7
  6
CONTINUOUS
 10
77.7423786907
 20
124.5415096005
 11
77.7423786907
 21
118.8260914461
  0
LINE
  5
2EA
100
AcDbEntity
  8
0
100
AcDbLine
 62
7
  6
CONTINUOUS
 10
75.5505299006
 20
80.5325659437
 11
75.9826014413
 21
81.2719225252
  0
LINE
  5
2EB
100
AcDbEntity
  8
0
100
AcDbLine
 62
7
  6
CONTINUOUS
 10
99.5213488045
 20
95.0252411919
 11
76.5404740951
 21
81.7573061911
  0
LINE
  5
2EC
100
AcDbEntity
  8
0
100
AcDbLine
 62
7
  6
CONTINUOUS
 10
66.2874696331
 20
75.6744689782
 11
66.8453434644
 21
75.9965556624
  0
LINE
  5
2ED
100
AcDbEntity
  8
0
100
AcDbLine
 62
7
  6
CONTINUOUS
 10
75.9826014413
 20
81.2719225252
 11
99.7334811333
 21
94.9844174564
  0
LINE
  5
2EE
100
AcDbEntity
  8
0
100
AcDbLine
 62
7
  6
CONTINUOUS
 10
67.2774150052
 20
75.7561093434
 11
75.5505299006
 21
80.5325659437
  0
LINE
  5
2EF
100
AcDbEntity
  8
0
100
AcDbLine
 62
7
  6
CONTINUOUS
 10
108.5015675371
 20
96.0049544978
 11
107.6530429325
 21
95.5150615132
  0
LINE
  5
2F0
100
AcDbEntity
  8
0
100
AcDbLine
 62
7
  6
CONTINUOUS
 10
72.0856710508
 20
96.0459767048
 11
71.9442432178
 21
96.127628255
  0
LINE
  5
2F1
100
AcDbEntity
  8
0
100
AcDbLine
 62
7
  6
CONTINUOUS
 10
59.4991179432
 20
103.3126621353
 11
59.3576901102
 21
103.3943136855
  0
LINE
  5
2F2
100
AcDbEntity
  8
0
100
AcDbLine
 62
7
  6
CONTINUOUS
 10
46.9125648355
 20
110.5793475657
 11
46.7711370026
 21
110.660999116
  0
LINE
  5
2F3
100
AcDbEntity
  8
0
100
AcDbLine
 62
7
  6
CONTINUOUS
 10
34.3260117279
 20
117.8460329962
 11
34.184583895
 21
117.9276845464
  0
LINE
  5
2F4
100
AcDbEntity
  8
0
100
AcDbLine
 62
7
  6
CONTINUOUS
 10
71.2371393806
 20
96.8624874851
 11
69.3668368814
 21
97.9422827083
  0
LINE
  5
2F5
100
AcDbEntity
  8
0
100
AcDbLine
 62
7
  6
CONTINUOUS
 10
58.650586273
 20
104.1291729156
 11
56.7802837738
 21
105.2089681387
  0
LINE
  5
2F6
100
AcDbEntity
  8
0
100
AcDbLine
 62
7
  6
CONTINUOUS
 10
46.0640331654
 20
111.3958583461
 11
44.1937306662
 21
112.4756535692
  0
LINE
  5
2F7
100
AcDbEntity
  8
0
100
AcDbLine
 62
7
  6
CONTINUOUS
 10
33.4774800578
 20
118.6625437765
 11
31.6071775586
 21
119.7423389997
  0
LINE
  5
2F8
100
AcDbEntity
  8
0
100
AcDbLine
 62
7
  6
CONTINUOUS
 10
34.3260117279
 20
118.1726548711
 11
34.57652088
 21
118.0280266166
  0
LINE
  5
2F9
100
AcDbEntity
  8
0
100
AcDbLine
 62
7
  6
CONTINUOUS
 10
46.9125648355
 20
110.9059694406
 11
47.1630739876
 21
110.7613411862
  0
LINE
  5
2FA
100
AcDbEntity
  8
0
100
AcDbLine
 62
7
  6
CONTINUOUS
 10
59.4991179432
 20
103.6392840102
 11
59.7496270953
 21
103.4946557557
  0
LINE
  5
2FB
100
AcDbEntity
  8
0
100
AcDbLine
 62
7
  6
CONTINUOUS
 10
72.0856710508
 20
96.3725985797
 11
72.3361802029
 21
96.2279703252
  0
LINE
  5
2FC
100
AcDbEntity
  8
0
100
AcDbLine
 62
7
  6
CONTINUOUS
 10
71.7716549343
 20
97.3703732768
 11
70.0739407186
 21
98.3505268621
  0
LINE
  5
2FD
100
AcDbEntity
  8
0
100
AcDbLine
 62
7
  6
CONTINUOUS
 10
59.1851018267
 20
104.6370587072
 11
57.487387611
 21
105.6172122926
  0
LINE
  5
2FE
100
AcDbEntity
  8
0
100
AcDbLine
 62
7
  6
CONTINUOUS
 10
46.5985487191
 20
111.9037441377
 11
44.9008345034
 21
112.8838977231
  0
LINE
  5
2FF
100
AcDbEntity
  8
0
100
AcDbLine
 62
7
  6
CONTINUOUS
 10
34.0119956115
 20
119.1704295681
 11
32.3142813958
 21
120.1505831535
  0
LINE
  5
300
100
AcDbEntity
  8
0
100
AcDbLine
 62
7
  6
CONTINUOUS
 10
71.2371393806
 20
97.8422903857
 11
69.3668368814
 21
98.9220856088
  0
LINE
  5
301
100
AcDbEntity
  8
0
100
AcDbLine
 62
7
  6
CONTINUOUS
 10
58.650586273
 20
105.1089758162
 11
56.7802837738
 21
106.1887710393
  0
LINE
  5
302
100
AcDbEntity
  8
0
100
AcDbLine
 62
7
  6
CONTINUOUS
 10
46.0640331654
 20
112.3756612466
 11
44.1937306662
 21
113.4554564698
  0
LINE
  5
303
100
AcDbEntity
  8
0
100
AcDbLine
 62
7
  6
CONTINUOUS
 10
33.4774800578
 20
119.6423466771
 11
31.6071775586
 21
120.7221419002
  0
LINE
  5
304
100
AcDbEntity
  8
0
100
AcDbLine
 62
7
  6
CONTINUOUS
 10
81.2779273164
 20
120.8673360111
 11
81.2779273164
 21
122.5003058279
  0
LINE
  5
305
100
AcDbEntity
  8
0
100
AcDbLine
 62
7
  6
CONTINUOUS
 10
82.5507778131
 20
114.4171082943
 11
82.5507778131
 21
112.7841384775
  0
LINE
  5
306
100
AcDbEntity
  8
0
100
AcDbLine
 62
7
  6
CONTINUOUS
 10
60.5598867473
 20
67.1419515502
 11
59.8527829101
 21
66.7337073963
  0
LINE
  5
307
100
AcDbEntity
  8
0
100
AcDbLine
 62
7
  6
CONTINUOUS
 10
111.5421140372
 20
95.3108971081
 11
109.2086713744
 21
93.9636914003
  0
LINE
  5
308
100
AcDbEntity
  8
0
100
AcDbLine
 62
7
  6
CONTINUOUS
 10
61.5498462504
 20
65.7539295855
 11
62.2569500877
 21
66.1621737394
  0
LINE
  5
309
100
AcDbEntity
  8
0
100
AcDbLine
 62
7
  6
CONTINUOUS
 10
76.5404740951
 20
100.0061352139
 11
26.1942616646
 21
129.0728769357
  0
LINE
  5
30A
100
AcDbEntity
  8
0
100
AcDbLine
 62
7
  6
CONTINUOUS
 10
87.5005046736
 20
110.4439121016
 11
87.5005046736
 21
117.2748173714
  0
LINE
  5
30B
100
AcDbEntity
  8
0
100
AcDbLine
 62
7
  6
CONTINUOUS
 10
99.7334811333
 20
94.9844174564
 11
99.556703091
 21
95.0864779977
  0
LINE
  5
30C
100
AcDbEntity
  8
0
100
AcDbLine
 62
7
  6
CONTINUOUS
 10
90.3289317983
 20
117.2748241701
 11
90.3289317983
 21
111.5594060157
  0
LINE
  5
30D
100
AcDbEntity
  8
0
100
AcDbLine
 62
7
  6
CONTINUOUS
 10
93.864480424
 20
113.6006505807
 11
93.864480424
 21
115.2336203975
  0
LINE
  5
30E
100
AcDbEntity
  8
0
100
AcDbLine
 62
7
  6
CONTINUOUS
 10
67.2774150052
 20
39.9933034731
 11
66.8453434644
 21
39.2539468915
  0
LINE
  5
30F
100
AcDbEntity
  8
0
100
AcDbLine
 62
7
  6
CONTINUOUS
 10
109.2086713744
 20
93.9636914003
 11
107.6530429325
 21
94.8618135817
  0
LINE
  5
310
100
AcDbEntity
  8
0
100
AcDbLine
 62
7
  6
CONTINUOUS
 10
86.0863382147
 20
110.7429347049
 11
82.550789589
 21
112.7841384775
  0
LINE
  5
311
100
AcDbEntity
  8
0
100
AcDbLine
 62
7
  6
CONTINUOUS
 10
73.4997851071
 20
118.0096201353
 11
69.9642364813
 21
120.0508239079
  0
LINE
  5
312
100
AcDbEntity
  8
0
100
AcDbLine
 62
7
  6
CONTINUOUS
 10
60.9132319995
 20
125.2763055658
 11
57.3776833737
 21
127.3175093384
  0
LINE
  5
313
100
AcDbEntity
  8
0
100
AcDbLine
 62
7
  6
CONTINUOUS
 10
48.3266788918
 20
132.5429909963
 11
44.7911302661
 21
134.5841947689
  0
LINE
  5
314
100
AcDbEntity
  8
0
100
AcDbLine
 62
7
  6
CONTINUOUS
 10
99.5213488045
 20
58.0376816959
 11
99.5213488045
 21
58.1193347595
  0
LINE
  5
315
100
AcDbEntity
  8
0
100
AcDbLine
 62
7
  6
CONTINUOUS
 10
99.7334811333
 20
94.9844174564
 11
99.7334811333
 21
58.2418086855
  0
LINE
  5
316
100
AcDbEntity
  8
0
100
AcDbLine
 62
7
  6
CONTINUOUS
 10
104.4003652813
 20
57.3844310848
 11
104.4003652813
 21
46.4432986953
  0
LINE
  5
317
100
AcDbEntity
  8
0
100
AcDbLine
 62
7
  6
CONTINUOUS
 10
107.6530429325
 20
66.1209744965
 11
108.7136986883
 21
66.7333407273
  0
LINE
  5
318
100
AcDbEntity
  8
0
100
AcDbLine
 62
7
  6
CONTINUOUS
 10
52.5692724755
 20
139.0748804614
 11
56.1048211012
 21
137.0336766888
  0
LINE
  5
319
100
AcDbEntity
  8
0
100
AcDbLine
 62
7
  6
CONTINUOUS
 10
65.1558255831
 20
131.808195031
 11
68.6913742088
 21
129.7669912584
  0
LINE
  5
31A
100
AcDbEntity
  8
0
100
AcDbLine
 62
7
  6
CONTINUOUS
 10
77.7423786907
 20
124.5415096005
 11
81.2779273164
 21
122.5003058279
  0
LINE
  5
31B
100
AcDbEntity
  8
0
100
AcDbLine
 62
7
  6
CONTINUOUS
 10
90.3289317983
 20
117.2748241701
 11
93.864480424
 21
115.2336203975
  0
LINE
  5
31C
100
AcDbEntity
  8
0
100
AcDbLine
 62
7
  6
CONTINUOUS
 10
106.1681248743
 20
47.46390908
 11
106.1681248743
 21
58.4050414695
  0
LINE
  5
31D
100
AcDbEntity
  8
0
100
AcDbLine
 62
7
  6
CONTINUOUS
 10
107.6530429325
 20
95.5150615132
 11
107.6530429325
 21
66.1209744965
  0
LINE
  5
31E
100
AcDbEntity
  8
0
100
AcDbLine
 62
7
  6
CONTINUOUS
 10
75.5505299006
 20
44.7697600734
 11
67.2774150052
 21
39.9933034731
  0
LINE
  5
31F
100
AcDbEntity
  8
0
100
AcDbLine
 62
7
  6
CONTINUOUS
 10
99.7334811333
 20
58.2418086855
 11
75.9826014413
 21
44.5293137544
  0
LINE
  5
320
100
AcDbEntity
  8
0
100
AcDbLine
 62
7
  6
CONTINUOUS
 10
66.8453434644
 20
39.2539468915
 11
66.2874696331
 21
38.9318602074
  0
LINE
  5
321
100
AcDbEntity
  8
0
100
AcDbLine
 62
7
  6
CONTINUOUS
 10
76.5404740951
 20
44.7697466951
 11
99.5213488045
 21
58.0376816959
  0
LINE
  5
322
100
AcDbEntity
  8
0
100
AcDbLine
 62
7
  6
CONTINUOUS
 10
106.1681248743
 20
58.4050414695
 11
104.4003652813
 21
57.3844310848
  0
LINE
  5
323
100
AcDbEntity
  8
0
100
AcDbLine
 62
7
  6
CONTINUOUS
 10
109.2086713744
 20
93.9636914003
 11
108.5015675371
 21
96.0049544978
  0
LINE
  5
324
100
AcDbEntity
  8
0
100
AcDbLine
 62
7
  6
CONTINUOUS
 10
111.5421140372
 20
120.2142208305
 11
111.5421140372
 21
95.3108971081
  0
LINE
  5
325
100
AcDbEntity
  8
0
100
AcDbLine
 62
7
  6
CONTINUOUS
 10
111.5421140372
 20
65.9168100914
 11
111.5421140372
 21
46.7290032889
  0
LINE
  5
326
100
AcDbEntity
  8
0
100
AcDbLine
 62
7
  6
CONTINUOUS
 10
111.5421140372
 20
120.2142208305
 11
61.1959016067
 21
149.2809625524
  0
LINE
  5
327
100
AcDbEntity
  8
0
100
AcDbLine
 62
7
  6
CONTINUOUS
 10
104.4003652813
 20
46.4432986953
 11
106.1681248743
 21
47.46390908
  0
LINE
  5
328
100
AcDbEntity
  8
0
100
AcDbLine
 62
7
  6
CONTINUOUS
 10
111.5421140372
 20
46.7290032889
 11
76.5404740951
 21
26.5209176722
  0
ARC
  5
329
100
AcDbEntity
  8
0
100
AcDbCircle
 62
7
  6
CONTINUOUS
 10
36.1337982787
 20
120.710982529
 40
3.8604088746
100
AcDbArc
 50
185.7170708565
 51
188.3468809087
  0
ARC
  5
32A
100
AcDbEntity
  8
0
100
AcDbCircle
 62
7
  6
CONTINUOUS
 10
48.7203513862
 20
113.4442970986
 40
3.8604088745
100
AcDbArc
 50
185.7170708565
 51
188.3468809087
  0
ARC
  5
32B
100
AcDbEntity
  8
0
100
AcDbCircle
 62
7
  6
CONTINUOUS
 10
61.3069044939
 20
106.1776116681
 40
3.8604088745
100
AcDbArc
 50
185.7170708565
 51
188.3468809087
  0
ARC
  5
32C
100
AcDbEntity
  8
0
100
AcDbCircle
 62
7
  6
CONTINUOUS
 10
73.8934576015
 20
98.9109262377
 40
3.8604088745
100
AcDbArc
 50
185.7170708565
 51
188.3468809087
  0
ARC
  5
32D
100
AcDbEntity
  8
0
100
AcDbCircle
 62
7
  6
CONTINUOUS
 10
45.0645591674
 20
102.0305610772
 40
0.7260471583
100
AcDbArc
 50
59.9944334332
 51
61.7168676936
  0
ARC
  5
32E
100
AcDbEntity
  8
0
100
AcDbCircle
 62
7
  6
CONTINUOUS
 10
70.2376653827
 20
87.4971902164
 40
0.7260471581
100
AcDbArc
 50
59.994433433
 51
61.7168676938
  0
ARC
  5
32F
100
AcDbEntity
  8
0
100
AcDbCircle
 62
7
  6
CONTINUOUS
 10
40.4515146886
 20
53.9497952066
 40
0.6739821346
100
AcDbArc
 50
227.2003077598
 51
239.9866602717
  0
SPLINE
  5
330
100
AcDbEntity
  8
0
100
AcDbSpline
 62
7
  6
CONTINUOUS
 70
0
 71
3
 72
23
 73
19
 74
0
 42
0.0000001
 43
0.0000001
 44
0.0000000001
 40
0.0
 40
0.0
 40
0.0
 40
0.0
 40
0.0485002426
 40
0.1000480702
 40
0.1546737209
 40
0.2122745262
 40
0.272637572
 40
0.3354610366
 40
0.4003722177
 40
0.4669429468
 40
0.5347033343
 40
0.6031557114
 40
0.6717855035
 40
0.7400744466
 40
0.8075141817
 40
0.873609334
 40
0.9379167257
 40
1.0
 40
1.0
 40
1.0
 40
1.0
 10
34.6274415931
 20
115.9276882237
 30
0.0
 10
34.5462883257
 20
115.943875844
 30
0.0
 10
34.3810079114
 20
115.9885881408
 30
0.0
 10
34.1354450892
 20
116.0865618437
 30
0.0
 10
33.8874385616
 20
116.2162741825
 30
0.0
 10
33.6397567759
 20
116.3762297814
 30
0.0
 10
33.3951046292
 20
116.5646272604
 30
0.0
 10
33.1561986043
 20
116.7793524525
 30
0.0
 10
32.9257003297
 20
117.0180006151
 30
0.0
 10
32.7061924747
 20
117.2778976718
 30
0.0
 10
32.5001365345
 20
117.556124178
 30
0.0
 10
32.3098474307
 20
117.8495511558
 30
0.0
 10
32.1374638453
 20
118.1548764646
 30
0.0
 10
31.9849264672
 20
118.4686695494
 30
0.0
 10
31.8539591769
 20
118.7873962837
 30
0.0
 10
31.7460079003
 20
119.1074959799
 30
0.0
 10
31.6623250813
 20
119.4253368924
 30
0.0
 10
31.6225399545
 20
119.637531299
 30
0.0
 10
31.6071775586
 20
119.7423389997
 30
0.0
  0
SPLINE
  5
331
100
AcDbEntity
  8
0
100
AcDbSpline
 62
7
  6
CONTINUOUS
 70
0
 71
3
 72
9
 73
5
 74
0
 42
0.0000001
 43
0.0000001
 44
0.0000000001
 40
0.0
 40
0.0
 40
0.0
 40
0.0
 40
0.2570286739
 40
1.0
 40
1.0
 40
1.0
 40
1.0
 10
31.6071775586
 20
120.7221419002
 30
0.0
 10
31.6117360665
 20
120.7479780616
 30
0.0
 10
31.6311824292
 20
120.848181118
 30
0.0
 10
31.6576387075
 20
120.9470715684
 30
0.0
 10
31.6816885261
 20
121.0189930735
 30
0.0
  0
SPLINE
  5
332
100
AcDbEntity
  8
0
100
AcDbSpline
 62
7
  6
CONTINUOUS
 70
0
 71
3
 72
23
 73
19
 74
0
 42
0.0000001
 43
0.0000001
 44
0.0000000001
 40
0.0
 40
0.0
 40
0.0
 40
0.0
 40
0.0485002426
 40
0.1000480702
 40
0.1546737209
 40
0.2122745262
 40
0.272637572
 40
0.3354610366
 40
0.4003722177
 40
0.4669429468
 40
0.5347033343
 40
0.6031557114
 40
0.6717855035
 40
0.7400744466
 40
0.8075141817
 40
0.873609334
 40
0.9379167257
 40
1.0
 40
1.0
 40
1.0
 40
1.0
 10
47.2139947007
 20
108.6610027932
 30
0.0
 10
47.1328414333
 20
108.6771904135
 30
0.0
 10
46.967561019
 20
108.7219027103
 30
0.0
 10
46.7219981968
 20
108.8198764132
 30
0.0
 10
46.4739916692
 20
108.949588752
 30
0.0
 10
46.2263098835
 20
109.1095443509
 30
0.0
 10
45.9816577369
 20
109.2979418299
 30
0.0
 10
45.742751712
 20
109.5126670221
 30
0.0
 10
45.5122534373
 20
109.7513151847
 30
0.0
 10
45.2927455823
 20
110.0112122413
 30
0.0
 10
45.0866896421
 20
110.2894387475
 30
0.0
 10
44.8964005383
 20
110.5828657254
 30
0.0
 10
44.7240169529
 20
110.8881910342
 30
0.0
 10
44.5714795748
 20
111.2019841189
 30
0.0
 10
44.4405122845
 20
111.5207108532
 30
0.0
 10
44.3325610079
 20
111.8408105495
 30
0.0
 10
44.2488781889
 20
112.1586514619
 30
0.0
 10
44.2090930621
 20
112.3708458686
 30
0.0
 10
44.1937306662
 20
112.4756535692
 30
0.0
  0
SPLINE
  5
333
100
AcDbEntity
  8
0
100
AcDbSpline
 62
7
  6
CONTINUOUS
 70
0
 71
3
 72
9
 73
5
 74
0
 42
0.0000001
 43
0.0000001
 44
0.0000000001
 40
0.0
 40
0.0
 40
0.0
 40
0.0
 40
0.2570286739
 40
1.0
 40
1.0
 40
1.0
 40
1.0
 10
44.1937306662
 20
113.4554564698
 30
0.0
 10
44.1982891741
 20
113.4812926312
 30
0.0
 10
44.2177355369
 20
113.5814956876
 30
0.0
 10
44.2441918151
 20
113.6803861379
 30
0.0
 10
44.2682416337
 20
113.752307643
 30
0.0
  0
SPLINE
  5
334
100
AcDbEntity
  8
0
100
AcDbSpline
 62
7
  6
CONTINUOUS
 70
0
 71
3
 72
23
 73
19
 74
0
 42
0.0000001
 43
0.0000001
 44
0.0000000001
 40
0.0
 40
0.0
 40
0.0
 40
0.0
 40
0.0485002426
 40
0.1000480702
 40
0.1546737209
 40
0.2122745262
 40
0.272637572
 40
0.3354610366
 40
0.4003722177
 40
0.4669429468
 40
0.5347033343
 40
0.6031557114
 40
0.6717855035
 40
0.7400744466
 40
0.8075141817
 40
0.873609334
 40
0.9379167257
 40
1.0
 40
1.0
 40
1.0
 40
1.0
 10
59.8005478083
 20
101.3943173628
 30
0.0
 10
59.7193945409
 20
101.4105049831
 30
0.0
 10
59.5541141266
 20
101.4552172799
 30
0.0
 10
59.3085513044
 20
101.5531909828
 30
0.0
 10
59.0605447769
 20
101.6829033215
 30
0.0
 10
58.8128629912
 20
101.8428589205
 30
0.0
 10
58.5682108445
 20
102.0312563995
 30
0.0
 10
58.3293048196
 20
102.2459815916
 30
0.0
 10
58.0988065449
 20
102.4846297542
 30
0.0
 10
57.8792986899
 20
102.7445268109
 30
0.0
 10
57.6732427497
 20
103.0227533171
 30
0.0
 10
57.4829536459
 20
103.3161802949
 30
0.0
 10
57.3105700605
 20
103.6215056037
 30
0.0
 10
57.1580326824
 20
103.9352986884
 30
0.0
 10
57.0270653921
 20
104.2540254228
 30
0.0
 10
56.9191141155
 20
104.574125119
 30
0.0
 10
56.8354312965
 20
104.8919660314
 30
0.0
 10
56.7956461697
 20
105.1041604381
 30
0.0
 10
56.7802837738
 20
105.2089681387
 30
0.0
  0
SPLINE
  5
335
100
AcDbEntity
  8
0
100
AcDbSpline
 62
7
  6
CONTINUOUS
 70
0
 71
3
 72
9
 73
5
 74
0
 42
0.0000001
 43
0.0000001
 44
0.0000000001
 40
0.0
 40
0.0
 40
0.0
 40
0.0
 40
0.2570286739
 40
1.0
 40
1.0
 40
1.0
 40
1.0
 10
56.7802837738
 20
106.1887710393
 30
0.0
 10
56.7848422817
 20
106.2146072007
 30
0.0
 10
56.8042886445
 20
106.3148102571
 30
0.0
 10
56.8307449228
 20
106.4137007075
 30
0.0
 10
56.8547947414
 20
106.4856222125
 30
0.0
  0
SPLINE
  5
336
100
AcDbEntity
  8
0
100
AcDbSpline
 62
7
  6
CONTINUOUS
 70
0
 71
3
 72
23
 73
19
 74
0
 42
0.0000001
 43
0.0000001
 44
0.0000000001
 40
0.0
 40
0.0
 40
0.0
 40
0.0
 40
0.0485002426
 40
0.1000480702
 40
0.1546737209
 40
0.2122745262
 40
0.272637572
 40
0.3354610366
 40
0.4003722177
 40
0.4669429468
 40
0.5347033343
 40
0.6031557114
 40
0.6717855035
 40
0.7400744466
 40
0.8075141817
 40
0.873609334
 40
0.9379167257
 40
1.0
 40
1.0
 40
1.0
 40
1.0
 10
72.3871009159
 20
94.1276319323
 30
0.0
 10
72.3059476486
 20
94.1438195526
 30
0.0
 10
72.1406672343
 20
94.1885318494
 30
0.0
 10
71.895104412
 20
94.2865055523
 30
0.0
 10
71.6470978845
 20
94.4162178911
 30
0.0
 10
71.3994160988
 20
94.57617349
 30
0.0
 10
71.1547639521
 20
94.764570969
 30
0.0
 10
70.9158579272
 20
94.9792961611
 30
0.0
 10
70.6853596525
 20
95.2179443237
 30
0.0
 10
70.4658517975
 20
95.4778413804
 30
0.0
 10
70.2597958574
 20
95.7560678866
 30
0.0
 10
70.0695067535
 20
96.0494948645
 30
0.0
 10
69.8971231681
 20
96.3548201733
 30
0.0
 10
69.74458579
 20
96.668613258
 30
0.0
 10
69.6136184998
 20
96.9873399923
 30
0.0
 10
69.5056672231
 20
97.3074396886
 30
0.0
 10
69.4219844041
 20
97.625280601
 30
0.0
 10
69.3821992773
 20
97.8374750076
 30
0.0
 10
69.3668368814
 20
97.9422827083
 30
0.0
  0
SPLINE
  5
337
100
AcDbEntity
  8
0
100
AcDbSpline
 62
7
  6
CONTINUOUS
 70
0
 71
3
 72
9
 73
5
 74
0
 42
0.0000001
 43
0.0000001
 44
0.0000000001
 40
0.0
 40
0.0
 40
0.0
 40
0.0
 40
0.2570286739
 40
1.0
 40
1.0
 40
1.0
 40
1.0
 10
69.3668368814
 20
98.9220856088
 30
0.0
 10
69.3713953893
 20
98.9479217702
 30
0.0
 10
69.3908417521
 20
99.0481248266
 30
0.0
 10
69.4172980304
 20
99.147015277
 30
0.0
 10
69.441347849
 20
99.2189367821
 30
0.0
  0
SPLINE
  5
338
100
AcDbEntity
  8
0
100
AcDbSpline
 62
7
  6
CONTINUOUS
 70
0
 71
3
 72
11
 73
7
 74
0
 42
0.0000001
 43
0.0000001
 44
0.0000000001
 40
0.0
 40
0.0
 40
0.0
 40
0.0
 40
0.289777178
 40
0.5490714024
 40
0.7822268829
 40
1.0
 40
1.0
 40
1.0
 40
1.0
 10
14.3856275831
 20
68.8967666067
 30
0.0
 10
14.3856275831
 20
68.7954036404
 30
0.0
 10
14.4009539212
 20
68.6026812088
 30
0.0
 10
14.4790585013
 20
68.3379062391
 30
0.0
 10
14.6104344518
 20
68.1230534574
 30
0.0
 10
14.7338886648
 20
68.0192945078
 30
0.0
 10
14.7998595753
 20
67.981207043
 30
0.0
  0
SPLINE
  5
339
100
AcDbEntity
  8
0
100
AcDbSpline
 62
7
  6
CONTINUOUS
 70
0
 71
3
 72
12
 73
8
 74
0
 42
0.0000001
 43
0.0000001
 44
0.0000000001
 40
0.0
 40
0.0
 40
0.0
 40
0.0
 40
0.1081609636
 40
0.2183678068
 40
0.4513466778
 40
0.710443771
 40
1.0
 40
1.0
 40
1.0
 40
1.0
 10
24.757328253
 20
87.5934873961
 30
0.0
 10
24.7983162102
 20
87.6171516644
 30
0.0
 10
24.8771384426
 20
87.6721360811
 30
0.0
 10
25.0184659549
 20
87.8112199579
 30
0.0
 10
25.1585207453
 20
88.0394487128
 30
0.0
 10
25.255894864
 20
88.3703022036
 30
0.0
 10
25.2751173504
 20
88.6112331989
 30
0.0
 10
25.2751173504
 20
88.7379363352
 30
0.0
  0
SPLINE
  5
33A
100
AcDbEntity
  8
0
100
AcDbSpline
 62
7
  6
CONTINUOUS
 70
0
 71
3
 72
15
 73
11
 74
0
 42
0.0000001
 43
0.0000001
 44
0.0000000001
 40
0.0
 40
0.0
 40
0.0
 40
0.0
 40
0.1141462769
 40
0.2373347432
 40
0.3669750849
 40
0.4999983967
 40
0.6330219315
 40
0.7626629244
 40
0.8858524171
 40
1.0
 40
1.0
 40
1.0
 40
1.0
 10
15.7998352576
 20
104.822858851
 30
0.0
 10
15.7030283746
 20
104.7669677047
 30
0.0
 10
15.5118044219
 20
104.6329056476
 30
0.0
 10
15.2486749122
 20
104.3867557387
 30
0.0
 10
15.0062171434
 20
104.095746437
 30
0.0
 10
14.793506052
 20
103.7708746878
 30
0.0
 10
14.618515824
 20
103.42422418
 30
0.0
 10
14.487724097
 20
103.0687426661
 30
0.0
 10
14.4061170067
 20
102.7177878401
 30
0.0
 10
14.3856275831
 20
102.4851497809
 30
0.0
 10
14.3856275831
 20
102.373365709
 30
0.0
  0
SPLINE
  5
33B
100
AcDbEntity
  8
0
100
AcDbSpline
 62
7
  6
CONTINUOUS
 70
0
 71
3
 72
12
 73
8
 74
0
 42
0.0000001
 43
0.0000001
 44
0.0000000001
 40
0.0
 40
0.0
 40
0.0
 40
0.0
 40
0.2895552427
 40
0.5486519846
 40
0.7816312595
 40
0.8918385311
 40
1.0
 40
1.0
 40
1.0
 40
1.0
 10
21.8102796972
 20
92.7795720752
 30
0.0
 10
21.7005542521
 20
92.8429206573
 30
0.0
 10
21.4822960473
 20
92.9467338788
 30
0.0
 10
21.1470902052
 20
93.0278271268
 30
0.0
 10
20.8794180339
 20
93.0206493105
 30
0.0
 10
20.6883087067
 20
92.9677992398
 30
0.0
 10
20.6012815335
 20
92.9270306034
 30
0.0
 10
20.5602944817
 20
92.9033668578
 30
0.0
  0
SPLINE
  5
33C
100
AcDbEntity
  8
0
100
AcDbSpline
 62
7
  6
CONTINUOUS
 70
0
 71
3
 72
15
 73
11
 74
0
 42
0.0000001
 43
0.0000001
 44
0.0000000001
 40
0.0
 40
0.0
 40
0.0
 40
0.0
 40
0.1141474765
 40
0.2373368178
 40
0.3669776594
 40
0.5000010819
 40
0.633024354
 40
0.7626647561
 40
0.8858534048
 40
1.0
 40
1.0
 40
1.0
 40
1.0
 10
25.2751173504
 20
88.7379363352
 30
0.0
 10
25.2751173504
 20
88.8776663785
 30
0.0
 10
25.2495053707
 20
89.1684638171
 30
0.0
 10
25.1474956425
 20
89.6071569337
 30
0.0
 10
24.9840045952
 20
90.0515080974
 30
0.0
 10
24.7652649534
 20
90.4848202237
 30
0.0
 10
24.4993738323
 20
90.8909086649
 30
0.0
 10
24.1962990466
 20
91.254668858
 30
0.0
 10
23.8673843611
 20
91.5623546728
 30
0.0
 10
23.6283525548
 20
91.7299309675
 30
0.0
 10
23.5073430375
 20
91.7997942643
 30
0.0
  0
SPLINE
  5
33D
100
AcDbEntity
  8
0
100
AcDbSpline
 62
7
  6
CONTINUOUS
 70
0
 71
3
 72
9
 73
5
 74
0
 42
0.0000001
 43
0.0000001
 44
0.0000000001
 40
0.0
 40
0.0
 40
0.0
 40
0.0
 40
0.5057197547
 40
1.0
 40
1.0
 40
1.0
 40
1.0
 10
27.4846644473
 20
60.7123511295
 30
0.0
 10
27.4422128186
 20
60.7190957031
 30
0.0
 10
27.3591978563
 20
60.7395884746
 30
0.0
 10
27.2813741916
 20
60.77516424
 30
0.0
 10
27.2449907378
 20
60.7961697635
 30
0.0
  0
SPLINE
  5
33E
100
AcDbEntity
  8
0
100
AcDbSpline
 62
7
  6
CONTINUOUS
 70
0
 71
3
 72
11
 73
7
 74
0
 42
0.0000001
 43
0.0000001
 44
0.0000000001
 40
0.0
 40
0.0
 40
0.0
 40
0.0
 40
0.2895401978
 40
0.5491171512
 40
0.782255066
 40
1.0
 40
1.0
 40
1.0
 40
1.0
 10
31.9925590556
 20
109.7626734903
 30
0.0
 10
31.9925590556
 20
109.8031843888
 30
0.0
 10
31.9987446955
 20
109.8802696036
 30
0.0
 10
32.0299071509
 20
109.9861982774
 30
0.0
 10
32.0824723232
 20
110.0721832271
 30
0.0
 10
32.1318869008
 20
110.1136307041
 30
0.0
 10
32.1582710073
 20
110.1288634781
 30
0.0
  0
SPLINE
  5
33F
100
AcDbEntity
  8
0
100
AcDbSpline
 62
7
  6
CONTINUOUS
 70
0
 71
3
 72
15
 73
11
 74
0
 42
0.0000001
 43
0.0000001
 44
0.0000000001
 40
0.0
 40
0.0
 40
0.0
 40
0.0
 40
0.1141475829
 40
0.2373370756
 40
0.3669780685
 40
0.5000016033
 40
0.6330249151
 40
0.7626652568
 40
0.8858537231
 40
1.0
 40
1.0
 40
1.0
 40
1.0
 10
26.8307587457
 20
95.1883284294
 30
0.0
 10
26.8307587457
 20
95.3001125014
 30
0.0
 10
26.8512481692
 20
95.5327505606
 30
0.0
 10
26.9328552595
 20
95.8837053866
 30
0.0
 10
27.0636469866
 20
96.2391869004
 30
0.0
 10
27.2386372145
 20
96.5858374083
 30
0.0
 10
27.451348306
 20
96.9107091575
 30
0.0
 10
27.6938060748
 20
97.2017184591
 30
0.0
 10
27.9569355845
 20
97.447868368
 30
0.0
 10
28.1481595372
 20
97.5819304251
 30
0.0
 10
28.2449664201
 20
97.6378215714
 30
0.0
  0
SPLINE
  5
340
100
AcDbEntity
  8
0
100
AcDbSpline
 62
7
  6
CONTINUOUS
 70
0
 71
3
 72
10
 73
6
 74
0
 42
0.0000001
 43
0.0000001
 44
0.0000000001
 40
0.0
 40
0.0
 40
0.0
 40
0.0
 40
0.2248935737
 40
0.5923481879
 40
1.0
 40
1.0
 40
1.0
 40
1.0
 10
25.0484863244
 20
87.8854913054
 30
0.0
 10
24.982725296
 20
87.8828116022
 30
0.0
 10
24.8086363426
 20
87.8921084976
 30
0.0
 10
24.5232922725
 20
87.966928219
 30
0.0
 10
24.3177644696
 20
88.0658772408
 30
0.0
 10
24.2144468747
 20
88.1255263326
 30
0.0
  0
SPLINE
  5
341
100
AcDbEntity
  8
0
100
AcDbSpline
 62
7
  6
CONTINUOUS
 70
0
 71
3
 72
12
 73
8
 74
0
 42
0.0000001
 43
0.0000001
 44
0.0000000001
 40
0.0
 40
0.0
 40
0.0
 40
0.0
 40
0.1081609636
 40
0.2183678068
 40
0.4513466778
 40
0.710443771
 40
1.0
 40
1.0
 40
1.0
 40
1.0
 10
20.5602944817
 20
92.9033668578
 30
0.0
 10
20.5193065246
 20
92.8797025895
 30
0.0
 10
20.4404842921
 20
92.8247181728
 30
0.0
 10
20.2991567798
 20
92.685634296
 30
0.0
 10
20.1591019894
 20
92.4574055411
 30
0.0
 10
20.0617278707
 20
92.1265520502
 30
0.0
 10
20.0425053843
 20
91.8856210549
 30
0.0
 10
20.0425053843
 20
91.7589179187
 30
0.0
  0
SPLINE
  5
342
100
AcDbEntity
  8
0
100
AcDbSpline
 62
7
  6
CONTINUOUS
 70
0
 71
3
 72
11
 73
7
 74
0
 42
0.0000001
 43
0.0000001
 44
0.0000000001
 40
0.0
 40
0.0
 40
0.0
 40
0.0
 40
0.2177460211
 40
0.4508843679
 40
0.7104607696
 40
1.0
 40
1.0
 40
1.0
 40
1.0
 10
32.1582710073
 20
110.1288634781
 30
0.0
 10
32.1846545407
 20
110.1440959211
 30
0.0
 10
32.2452549443
 20
110.1661658784
 30
0.0
 10
32.3460000725
 20
110.1686965921
 30
0.0
 10
32.4533154139
 20
110.1427213994
 30
0.0
 10
32.5231642246
 20
110.1095373172
 30
0.0
 10
32.5582468358
 20
110.0892828204
 30
0.0
  0
SPLINE
  5
343
100
AcDbEntity
  8
0
100
AcDbSpline
 62
7
  6
CONTINUOUS
 70
0
 71
3
 72
15
 73
11
 74
0
 42
0.0000001
 43
0.0000001
 44
0.0000000001
 40
0.0
 40
0.0
 40
0.0
 40
0.0
 40
0.1141474765
 40
0.2373368178
 40
0.3669776594
 40
0.5000010819
 40
0.633024354
 40
0.7626647561
 40
0.8858534048
 40
1.0
 40
1.0
 40
1.0
 40
1.0
 10
20.0425053843
 20
91.7589179187
 30
0.0
 10
20.0425053843
 20
91.6191878754
 30
0.0
 10
20.068117364
 20
91.3283904368
 30
0.0
 10
20.1701270922
 20
90.8896973202
 30
0.0
 10
20.3336181395
 20
90.4453461565
 30
0.0
 10
20.5523577813
 20
90.0120340301
 30
0.0
 10
20.8182489024
 20
89.605945589
 30
0.0
 10
21.1213236882
 20
89.2421853958
 30
0.0
 10
21.4502383736
 20
88.934499581
 30
0.0
 10
21.6892701799
 20
88.7669232864
 30
0.0
 10
21.8102796972
 20
88.6970599895
 30
0.0
  0
SPLINE
  5
344
100
AcDbEntity
  8
0
100
AcDbSpline
 62
7
  6
CONTINUOUS
 70
0
 71
3
 72
12
 73
8
 74
0
 42
0.0000001
 43
0.0000001
 44
0.0000000001
 40
0.0
 40
0.0
 40
0.0
 40
0.0
 40
0.2895552427
 40
0.5486519846
 40
0.7816312595
 40
0.8918385311
 40
1.0
 40
1.0
 40
1.0
 40
1.0
 10
23.5073430375
 20
87.7172821787
 30
0.0
 10
23.6170684826
 20
87.6539335966
 30
0.0
 10
23.8353266874
 20
87.5501203751
 30
0.0
 10
24.1705325295
 20
87.4690271271
 30
0.0
 10
24.4382047008
 20
87.4762049433
 30
0.0
 10
24.629314028
 20
87.529055014
 30
0.0
 10
24.7163412012
 20
87.5698236505
 30
0.0
 10
24.757328253
 20
87.5934873961
 30
0.0
  0
SPLINE
  5
345
100
AcDbEntity
  8
0
100
AcDbSpline
 62
7
  6
CONTINUOUS
 70
0
 71
3
 72
11
 73
7
 74
0
 42
0.0000001
 43
0.0000001
 44
0.0000000001
 40
0.0
 40
0.0
 40
0.0
 40
0.0
 40
0.2177731171
 40
0.4509285976
 40
0.710222822
 40
1.0
 40
1.0
 40
1.0
 40
1.0
 10
27.2449907378
 20
60.7961697635
 30
0.0
 10
27.1790198274
 20
60.8342572282
 30
0.0
 10
27.0555656144
 20
60.9380161779
 30
0.0
 10
26.9241896639
 20
61.1528689596
 30
0.0
 10
26.8460850838
 20
61.4176439293
 30
0.0
 10
26.8307587457
 20
61.6103663608
 30
0.0
 10
26.8307587457
 20
61.7117293271
 30
0.0
  0
SPLINE
  5
346
100
AcDbEntity
  8
0
100
AcDbSpline
 62
7
  6
CONTINUOUS
 70
0
 71
3
 72
9
 73
5
 74
0
 42
0.0000001
 43
0.0000001
 44
0.0000000001
 40
0.0
 40
0.0
 40
0.0
 40
0.0
 40
0.2776686783
 40
1.0
 40
1.0
 40
1.0
 40
1.0
 10
20.7496092215
 20
92.1671620725
 30
0.0
 10
20.7496092215
 20
92.2480428073
 30
0.0
 10
20.7642791676
 20
92.5381992878
 30
0.0
 10
20.8462208758
 20
92.8317295472
 30
0.0
 10
20.9587551248
 20
93.0095103634
 30
0.0
  0
SPLINE
  5
347
100
AcDbEntity
  8
0
100
AcDbSpline
 62
7
  6
CONTINUOUS
 70
0
 71
3
 72
15
 73
11
 74
0
 42
0.0000001
 43
0.0000001
 44
0.0000000001
 40
0.0
 40
0.0
 40
0.0
 40
0.0
 40
0.1141465952
 40
0.2373352439
 40
0.366975646
 40
0.4999989181
 40
0.6330223406
 40
0.7626631822
 40
0.8858525235
 40
1.0
 40
1.0
 40
1.0
 40
1.0
 10
22.5173835344
 20
89.1053041434
 30
0.0
 10
22.3963740171
 20
89.1751674403
 30
0.0
 10
22.1573422108
 20
89.3427437349
 30
0.0
 10
21.8284275254
 20
89.6504295497
 30
0.0
 10
21.5253527396
 20
90.0141897428
 30
0.0
 10
21.2594616185
 20
90.420278184
 30
0.0
 10
21.0407219768
 20
90.8535903103
 30
0.0
 10
20.8772309294
 20
91.2979414741
 30
0.0
 10
20.7752212012
 20
91.7366345907
 30
0.0
 10
20.7496092215
 20
92.0274320292
 30
0.0
 10
20.7496092215
 20
92.1671620725
 30
0.0
  0
SPLINE
  5
348
100
AcDbEntity
  8
0
100
AcDbSpline
 62
7
  6
CONTINUOUS
 70
0
 71
3
 72
9
 73
5
 74
0
 42
0.0000001
 43
0.0000001
 44
0.0000000001
 40
0.0
 40
0.0
 40
0.0
 40
0.0
 40
0.4766988263
 40
1.0
 40
1.0
 40
1.0
 40
1.0
 10
32.7703797533
 20
109.966810594
 30
0.0
 10
32.825695527
 20
109.9348747397
 30
0.0
 10
32.9334801362
 20
109.8533405053
 30
0.0
 10
33.0241567894
 20
109.753774898
 30
0.0
 10
33.0671397048
 20
109.69837754
 30
0.0
  0
SPLINE
  5
349
100
AcDbEntity
  8
0
100
AcDbSpline
 62
7
  6
CONTINUOUS
 70
0
 71
3
 72
11
 73
7
 74
0
 42
0.0000001
 43
0.0000001
 44
0.0000000001
 40
0.0
 40
0.0
 40
0.0
 40
0.0
 40
0.289777178
 40
0.5490714024
 40
0.7822268829
 40
1.0
 40
1.0
 40
1.0
 40
1.0
 10
27.2550245808
 20
61.4667848744
 30
0.0
 10
27.2550245808
 20
61.3654219081
 30
0.0
 10
27.2703509188
 20
61.1726994766
 30
0.0
 10
27.348455499
 20
60.9079245069
 30
0.0
 10
27.4798314495
 20
60.6930717252
 30
0.0
 10
27.6032856624
 20
60.5893127755
 30
0.0
 10
27.6692565729
 20
60.5512253108
 30
0.0
  0
SPLINE
  5
34A
100
AcDbEntity
  8
0
100
AcDbSpline
 62
7
  6
CONTINUOUS
 70
0
 71
3
 72
12
 73
8
 74
0
 42
0.0000001
 43
0.0000001
 44
0.0000000001
 40
0.0
 40
0.0
 40
0.0
 40
0.0
 40
0.1081609636
 40
0.2183678068
 40
0.4513466778
 40
0.710443771
 40
1.0
 40
1.0
 40
1.0
 40
1.0
 10
37.6267252507
 20
80.1635056638
 30
0.0
 10
37.6677132078
 20
80.1871699321
 30
0.0
 10
37.7465354403
 20
80.2421543488
 30
0.0
 10
37.8878629525
 20
80.3812382256
 30
0.0
 10
38.0279177429
 20
80.6094669805
 30
0.0
 10
38.1252918617
 20
80.9403204714
 30
0.0
 10
38.1445143481
 20
81.1812514667
 30
0.0
 10
38.1445143481
 20
81.3079546029
 30
0.0
  0
SPLINE
  5
34B
100
AcDbEntity
  8
0
100
AcDbSpline
 62
7
  6
CONTINUOUS
 70
0
 71
3
 72
15
 73
11
 74
0
 42
0.0000001
 43
0.0000001
 44
0.0000000001
 40
0.0
 40
0.0
 40
0.0
 40
0.0
 40
0.1141462769
 40
0.2373347432
 40
0.3669750849
 40
0.4999983967
 40
0.6330219315
 40
0.7626629244
 40
0.8858524171
 40
1.0
 40
1.0
 40
1.0
 40
1.0
 10
28.6692322552
 20
97.3928771187
 30
0.0
 10
28.5724253723
 20
97.3369859724
 30
0.0
 10
28.3812014195
 20
97.2029239153
 30
0.0
 10
28.1180719099
 20
96.9567740064
 30
0.0
 10
27.8756141411
 20
96.6657647048
 30
0.0
 10
27.6629030496
 20
96.3408929555
 30
0.0
 10
27.4879128216
 20
95.9942424477
 30
0.0
 10
27.3571210946
 20
95.6387609339
 30
0.0
 10
27.2755140043
 20
95.2878061079
 30
0.0
 10
27.2550245808
 20
95.0551680487
 30
0.0
 10
27.2550245808
 20
94.9433839767
 30
0.0
  0
SPLINE
  5
34C
100
AcDbEntity
  8
0
100
AcDbSpline
 62
7
  6
CONTINUOUS
 70
0
 71
3
 72
12
 73
8
 74
0
 42
0.0000001
 43
0.0000001
 44
0.0000000001
 40
0.0
 40
0.0
 40
0.0
 40
0.0
 40
0.2895552427
 40
0.5486519846
 40
0.7816312595
 40
0.8918385311
 40
1.0
 40
1.0
 40
1.0
 40
1.0
 10
34.6796766949
 20
85.3495903429
 30
0.0
 10
34.5699512498
 20
85.412938925
 30
0.0
 10
34.351693045
 20
85.5167521465
 30
0.0
 10
34.0164872029
 20
85.5978453945
 30
0.0
 10
33.7488150316
 20
85.5906675783
 30
0.0
 10
33.5577057044
 20
85.5378175076
 30
0.0
 10
33.4706785312
 20
85.4970488711
 30
0.0
 10
33.4296914794
 20
85.4733851255
 30
0.0
  0
SPLINE
  5
34D
100
AcDbEntity
  8
0
100
AcDbSpline
 62
7
  6
CONTINUOUS
 70
0
 71
3
 72
15
 73
11
 74
0
 42
0.0000001
 43
0.0000001
 44
0.0000000001
 40
0.0
 40
0.0
 40
0.0
 40
0.0
 40
0.1141474765
 40
0.2373368178
 40
0.3669776594
 40
0.5000010819
 40
0.633024354
 40
0.7626647561
 40
0.8858534048
 40
1.0
 40
1.0
 40
1.0
 40
1.0
 10
38.1445143481
 20
81.3079546029
 30
0.0
 10
38.1445143481
 20
81.4476846462
 30
0.0
 10
38.1189023684
 20
81.7384820848
 30
0.0
 10
38.0168926402
 20
82.1771752014
 30
0.0
 10
37.8534015928
 20
82.6215263651
 30
0.0
 10
37.6346619511
 20
83.0548384915
 30
0.0
 10
37.36877083
 20
83.4609269326
 30
0.0
 10
37.0656960442
 20
83.8246871258
 30
0.0
 10
36.7367813588
 20
84.1323729406
 30
0.0
 10
36.4977495525
 20
84.2999492352
 30
0.0
 10
36.3767400352
 20
84.3698125321
 30
0.0
  0
SPLINE
  5
34E
100
AcDbEntity
  8
0
100
AcDbSpline
 62
7
  6
CONTINUOUS
 70
0
 71
3
 72
11
 73
7
 74
0
 42
0.0000001
 43
0.0000001
 44
0.0000000001
 40
0.0
 40
0.0
 40
0.0
 40
0.0
 40
0.2895401978
 40
0.5491171512
 40
0.782255066
 40
1.0
 40
1.0
 40
1.0
 40
1.0
 10
44.8619560533
 20
102.332691758
 30
0.0
 10
44.8619560533
 20
102.3732026566
 30
0.0
 10
44.8681416932
 20
102.4502878713
 30
0.0
 10
44.8993041485
 20
102.5562165451
 30
0.0
 10
44.9518693209
 20
102.6422014948
 30
0.0
 10
45.0012838984
 20
102.6836489718
 30
0.0
 10
45.027668005
 20
102.6988817458
 30
0.0
  0
SPLINE
  5
34F
100
AcDbEntity
  8
0
100
AcDbSpline
 62
7
  6
CONTINUOUS
 70
0
 71
3
 72
15
 73
11
 74
0
 42
0.0000001
 43
0.0000001
 44
0.0000000001
 40
0.0
 40
0.0
 40
0.0
 40
0.0
 40
0.1141475829
 40
0.2373370756
 40
0.3669780685
 40
0.5000016033
 40
0.6330249151
 40
0.7626652568
 40
0.8858537231
 40
1.0
 40
1.0
 40
1.0
 40
1.0
 10
39.7001557434
 20
87.7583466972
 30
0.0
 10
39.7001557434
 20
87.8701307691
 30
0.0
 10
39.7206451669
 20
88.1027688283
 30
0.0
 10
39.8022522572
 20
88.4537236543
 30
0.0
 10
39.9330439842
 20
88.8092051682
 30
0.0
 10
40.1080342122
 20
89.155855676
 30
0.0
 10
40.3207453037
 20
89.4807274252
 30
0.0
 10
40.5632030725
 20
89.7717367269
 30
0.0
 10
40.8263325821
 20
90.0178866358
 30
0.0
 10
41.0175565349
 20
90.1519486929
 30
0.0
 10
41.1143634178
 20
90.2078398392
 30
0.0
  0
SPLINE
  5
350
100
AcDbEntity
  8
0
100
AcDbSpline
 62
7
  6
CONTINUOUS
 70
0
 71
3
 72
10
 73
6
 74
0
 42
0.0000001
 43
0.0000001
 44
0.0000000001
 40
0.0
 40
0.0
 40
0.0
 40
0.0
 40
0.2248935737
 40
0.5923481879
 40
1.0
 40
1.0
 40
1.0
 40
1.0
 10
37.9178833221
 20
80.4555095731
 30
0.0
 10
37.8521222937
 20
80.4528298699
 30
0.0
 10
37.6780333403
 20
80.4621267653
 30
0.0
 10
37.3926892702
 20
80.5369464867
 30
0.0
 10
37.1871614673
 20
80.6358955085
 30
0.0
 10
37.0838438724
 20
80.6955446003
 30
0.0
  0
SPLINE
  5
351
100
AcDbEntity
  8
0
100
AcDbSpline
 62
7
  6
CONTINUOUS
 70
0
 71
3
 72
12
 73
8
 74
0
 42
0.0000001
 43
0.0000001
 44
0.0000000001
 40
0.0
 40
0.0
 40
0.0
 40
0.0
 40
0.1081609636
 40
0.2183678068
 40
0.4513466778
 40
0.710443771
 40
1.0
 40
1.0
 40
1.0
 40
1.0
 10
33.4296914794
 20
85.4733851255
 30
0.0
 10
33.3887035222
 20
85.4497208572
 30
0.0
 10
33.3098812898
 20
85.3947364405
 30
0.0
 10
33.1685537775
 20
85.2556525637
 30
0.0
 10
33.0284989871
 20
85.0274238088
 30
0.0
 10
32.9311248684
 20
84.696570318
 30
0.0
 10
32.911902382
 20
84.4556393226
 30
0.0
 10
32.911902382
 20
84.3289361864
 30
0.0
  0
SPLINE
  5
352
100
AcDbEntity
  8
0
100
AcDbSpline
 62
7
  6
CONTINUOUS
 70
0
 71
3
 72
11
 73
7
 74
0
 42
0.0000001
 43
0.0000001
 44
0.0000000001
 40
0.0
 40
0.0
 40
0.0
 40
0.0
 40
0.2195882419
 40
0.4534776408
 40
0.7122540966
 40
1.0
 40
1.0
 40
1.0
 40
1.0
 10
45.027668005
 20
102.6988817458
 30
0.0
 10
45.0528991948
 20
102.7134488872
 30
0.0
 10
45.1104237085
 20
102.7349228392
 30
0.0
 10
45.2060515584
 20
102.7392727572
 30
0.0
 10
45.3081712885
 20
102.717425889
 30
0.0
 10
45.3749597129
 20
102.6880163752
 30
0.0
 10
45.408581351
 20
102.6699304644
 30
0.0
  0
SPLINE
  5
353
100
AcDbEntity
  8
0
100
AcDbSpline
 62
7
  6
CONTINUOUS
 70
0
 71
3
 72
15
 73
11
 74
0
 42
0.0000001
 43
0.0000001
 44
0.0000000001
 40
0.0
 40
0.0
 40
0.0
 40
0.0
 40
0.1141474765
 40
0.2373368178
 40
0.3669776594
 40
0.5000010819
 40
0.633024354
 40
0.7626647561
 40
0.8858534048
 40
1.0
 40
1.0
 40
1.0
 40
1.0
 10
32.911902382
 20
84.3289361864
 30
0.0
 10
32.911902382
 20
84.1892061431
 30
0.0
 10
32.9375143617
 20
83.8984087045
 30
0.0
 10
33.0395240899
 20
83.4597155879
 30
0.0
 10
33.2030151372
 20
83.0153644242
 30
0.0
 10
33.421754779
 20
82.5820522979
 30
0.0
 10
33.6876459
 20
82.1759638567
 30
0.0
 10
33.9907206858
 20
81.8122036636
 30
0.0
 10
34.3196353712
 20
81.5045178488
 30
0.0
 10
34.5586671776
 20
81.3369415541
 30
0.0
 10
34.6796766949
 20
81.2670782573
 30
0.0
  0
SPLINE
  5
354
100
AcDbEntity
  8
0
100
AcDbSpline
 62
7
  6
CONTINUOUS
 70
0
 71
3
 72
12
 73
8
 74
0
 42
0.0000001
 43
0.0000001
 44
0.0000000001
 40
0.0
 40
0.0
 40
0.0
 40
0.0
 40
0.2895552427
 40
0.5486519846
 40
0.7816312595
 40
0.8918385311
 40
1.0
 40
1.0
 40
1.0
 40
1.0
 10
36.3767400352
 20
80.2873004464
 30
0.0
 10
36.4864654803
 20
80.2239518643
 30
0.0
 10
36.704723685
 20
80.1201386428
 30
0.0
 10
37.0399295272
 20
80.0390453948
 30
0.0
 10
37.3076016985
 20
80.0462232111
 30
0.0
 10
37.4987110257
 20
80.0990732818
 30
0.0
 10
37.5857381989
 20
80.1398419182
 30
0.0
 10
37.6267252507
 20
80.1635056638
 30
0.0
  0
SPLINE
  5
355
100
AcDbEntity
  8
0
100
AcDbSpline
 62
7
  6
CONTINUOUS
 70
0
 71
3
 72
11
 73
7
 74
0
 42
0.0000001
 43
0.0000001
 44
0.0000000001
 40
0.0
 40
0.0
 40
0.0
 40
0.0
 40
0.2191106668
 40
0.4556813571
 40
0.7154086949
 40
1.0
 40
1.0
 40
1.0
 40
1.0
 10
39.9935860444
 20
53.4552719266
 30
0.0
 10
39.9452746538
 20
53.499888211
 30
0.0
 10
39.8577645898
 20
53.6074044688
 30
0.0
 10
39.7660166819
 20
53.8033906984
 30
0.0
 10
39.7112019415
 20
54.0326064841
 30
0.0
 10
39.7001557434
 20
54.1963331655
 30
0.0
 10
39.7001557434
 20
54.2817475948
 30
0.0
  0
SPLINE
  5
356
100
AcDbEntity
  8
0
100
AcDbSpline
 62
7
  6
CONTINUOUS
 70
0
 71
3
 72
9
 73
5
 74
0
 42
0.0000001
 43
0.0000001
 44
0.0000000001
 40
0.0
 40
0.0
 40
0.0
 40
0.0
 40
0.2776686783
 40
1.0
 40
1.0
 40
1.0
 40
1.0
 10
33.6190062192
 20
84.7371803403
 30
0.0
 10
33.6190062192
 20
84.8180610751
 30
0.0
 10
33.6336761653
 20
85.1082175555
 30
0.0
 10
33.7156178735
 20
85.4017478149
 30
0.0
 10
33.8281521225
 20
85.5795286311
 30
0.0
  0
SPLINE
  5
357
100
AcDbEntity
  8
0
100
AcDbSpline
 62
7
  6
CONTINUOUS
 70
0
 71
3
 72
15
 73
11
 74
0
 42
0.0000001
 43
0.0000001
 44
0.0000000001
 40
0.0
 40
0.0
 40
0.0
 40
0.0
 40
0.1141465952
 40
0.2373352439
 40
0.366975646
 40
0.4999989181
 40
0.6330223406
 40
0.7626631822
 40
0.8858525235
 40
1.0
 40
1.0
 40
1.0
 40
1.0
 10
35.3867805321
 20
81.6753224111
 30
0.0
 10
35.2657710148
 20
81.745185708
 30
0.0
 10
35.0267392085
 20
81.9127620026
 30
0.0
 10
34.697824523
 20
82.2204478174
 30
0.0
 10
34.3947497373
 20
82.5842080106
 30
0.0
 10
34.1288586162
 20
82.9902964517
 30
0.0
 10
33.9101189744
 20
83.4236085781
 30
0.0
 10
33.7466279271
 20
83.8679597418
 30
0.0
 10
33.6446181989
 20
84.3066528584
 30
0.0
 10
33.6190062192
 20
84.597450297
 30
0.0
 10
33.6190062192
 20
84.7371803403
 30
0.0
  0
SPLINE
  5
358
100
AcDbEntity
  8
0
100
AcDbSpline
 62
7
  6
CONTINUOUS
 70
0
 71
3
 72
11
 73
7
 74
0
 42
0.0000001
 43
0.0000001
 44
0.0000000001
 40
0.0
 40
0.0
 40
0.0
 40
0.0
 40
0.289777178
 40
0.5490714024
 40
0.7822268829
 40
1.0
 40
1.0
 40
1.0
 40
1.0
 10
39.5587337984
 20
54.3633957458
 30
0.0
 10
39.5587337984
 20
54.2620327794
 30
0.0
 10
39.5740601364
 20
54.0693103479
 30
0.0
 10
39.6521647165
 20
53.8045353782
 30
0.0
 10
39.783540667
 20
53.5896825965
 30
0.0
 10
39.90699488
 20
53.4859236469
 30
0.0
 10
39.9729657905
 20
53.4478361821
 30
0.0
  0
SPLINE
  5
359
100
AcDbEntity
  8
0
100
AcDbSpline
 62
7
  6
CONTINUOUS
 70
0
 71
3
 72
12
 73
8
 74
0
 42
0.0000001
 43
0.0000001
 44
0.0000000001
 40
0.0
 40
0.0
 40
0.0
 40
0.0
 40
0.1081609636
 40
0.2183678068
 40
0.4513466778
 40
0.710443771
 40
1.0
 40
1.0
 40
1.0
 40
1.0
 10
49.9304344682
 20
73.0601165352
 30
0.0
 10
49.9714224254
 20
73.0837808035
 30
0.0
 10
50.0502446578
 20
73.1387652202
 30
0.0
 10
50.1915721701
 20
73.277849097
 30
0.0
 10
50.3316269605
 20
73.5060778519
 30
0.0
 10
50.4290010792
 20
73.8369313427
 30
0.0
 10
50.4482235656
 20
74.077862338
 30
0.0
 10
50.4482235656
 20
74.2045654743
 30
0.0
  0
SPLINE
  5
35A
100
AcDbEntity
  8
0
100
AcDbSpline
 62
7
  6
CONTINUOUS
 70
0
 71
3
 72
15
 73
11
 74
0
 42
0.0000001
 43
0.0000001
 44
0.0000000001
 40
0.0
 40
0.0
 40
0.0
 40
0.0
 40
0.1141462769
 40
0.2373347432
 40
0.3669750849
 40
0.4999983967
 40
0.6330219315
 40
0.7626629244
 40
0.8858524171
 40
1.0
 40
1.0
 40
1.0
 40
1.0
 10
40.9729414728
 20
90.2894879901
 30
0.0
 10
40.8761345899
 20
90.2335968438
 30
0.0
 10
40.6849106371
 20
90.0995347867
 30
0.0
 10
40.4217811274
 20
89.8533848778
 30
0.0
 10
40.1793233587
 20
89.5623755761
 30
0.0
 10
39.9666122672
 20
89.2375038269
 30
0.0
 10
39.7916220392
 20
88.8908533191
 30
0.0
 10
39.6608303122
 20
88.5353718052
 30
0.0
 10
39.5792232219
 20
88.1844169792
 30
0.0
 10
39.5587337984
 20
87.95177892
 30
0.0
 10
39.5587337984
 20
87.8399948481
 30
0.0
  0
SPLINE
  5
35B
100
AcDbEntity
  8
0
100
AcDbSpline
 62
7
  6
CONTINUOUS
 70
0
 71
3
 72
12
 73
8
 74
0
 42
0.0000001
 43
0.0000001
 44
0.0000000001
 40
0.0
 40
0.0
 40
0.0
 40
0.0
 40
0.2895552427
 40
0.5486519846
 40
0.7816312595
 40
0.8918385311
 40
1.0
 40
1.0
 40
1.0
 40
1.0
 10
46.9833859124
 20
78.2462012143
 30
0.0
 10
46.8736604674
 20
78.3095497964
 30
0.0
 10
46.6554022626
 20
78.4133630178
 30
0.0
 10
46.3201964204
 20
78.4944562658
 30
0.0
 10
46.0525242491
 20
78.4872784496
 30
0.0
 10
45.8614149219
 20
78.4344283789
 30
0.0
 10
45.7743877487
 20
78.3936597424
 30
0.0
 10
45.733400697
 20
78.3699959969
 30
0.0
  0
SPLINE
  5
35C
100
AcDbEntity
  8
0
100
AcDbSpline
 62
7
  6
CONTINUOUS
 70
0
 71
3
 72
15
 73
11
 74
0
 42
0.0000001
 43
0.0000001
 44
0.0000000001
 40
0.0
 40
0.0
 40
0.0
 40
0.0
 40
0.1141474765
 40
0.2373368178
 40
0.3669776594
 40
0.5000010819
 40
0.633024354
 40
0.7626647561
 40
0.8858534048
 40
1.0
 40
1.0
 40
1.0
 40
1.0
 10
50.4482235656
 20
74.2045654743
 30
0.0
 10
50.4482235656
 20
74.3442955176
 30
0.0
 10
50.422611586
 20
74.6350929561
 30
0.0
 10
50.3206018577
 20
75.0737860727
 30
0.0
 10
50.1571108104
 20
75.5181372365
 30
0.0
 10
49.9383711686
 20
75.9514493628
 30
0.0
 10
49.6724800476
 20
76.357537804
 30
0.0
 10
49.3694052618
 20
76.7212979971
 30
0.0
 10
49.0404905764
 20
77.0289838119
 30
0.0
 10
48.80145877
 20
77.1965601066
 30
0.0
 10
48.6804492528
 20
77.2664234034
 30
0.0
  0
SPLINE
  5
35D
100
AcDbEntity
  8
0
100
AcDbSpline
 62
7
  6
CONTINUOUS
 70
0
 71
3
 72
9
 73
5
 74
0
 42
0.0000001
 43
0.0000001
 44
0.0000000001
 40
0.0
 40
0.0
 40
0.0
 40
0.0
 40
0.5057197547
 40
1.0
 40
1.0
 40
1.0
 40
1.0
 10
52.6577706626
 20
46.1789802686
 30
0.0
 10
52.6153190338
 20
46.1857248422
 30
0.0
 10
52.5323040715
 20
46.2062176136
 30
0.0
 10
52.4544804068
 20
46.241793379
 30
0.0
 10
52.4180969531
 20
46.2627989026
 30
0.0
  0
SPLINE
  5
35E
100
AcDbEntity
  8
0
100
AcDbSpline
 62
7
  6
CONTINUOUS
 70
0
 71
3
 72
11
 73
7
 74
0
 42
0.0000001
 43
0.0000001
 44
0.0000000001
 40
0.0
 40
0.0
 40
0.0
 40
0.0
 40
0.2895401978
 40
0.5491171512
 40
0.782255066
 40
1.0
 40
1.0
 40
1.0
 40
1.0
 10
57.1656652709
 20
95.2293026294
 30
0.0
 10
57.1656652709
 20
95.2698135279
 30
0.0
 10
57.1718509107
 20
95.3468987427
 30
0.0
 10
57.2030133661
 20
95.4528274164
 30
0.0
 10
57.2555785384
 20
95.5388123661
 30
0.0
 10
57.304993116
 20
95.5802598432
 30
0.0
 10
57.3313772226
 20
95.5954926171
 30
0.0
  0
SPLINE
  5
35F
100
AcDbEntity
  8
0
100
AcDbSpline
 62
7
  6
CONTINUOUS
 70
0
 71
3
 72
15
 73
11
 74
0
 42
0.0000001
 43
0.0000001
 44
0.0000000001
 40
0.0
 40
0.0
 40
0.0
 40
0.0
 40
0.1141475829
 40
0.2373370756
 40
0.3669780685
 40
0.5000016033
 40
0.6330249151
 40
0.7626652568
 40
0.8858537231
 40
1.0
 40
1.0
 40
1.0
 40
1.0
 10
52.003864961
 20
80.6549575685
 30
0.0
 10
52.003864961
 20
80.7667416404
 30
0.0
 10
52.0243543845
 20
80.9993796996
 30
0.0
 10
52.1059614748
 20
81.3503345257
 30
0.0
 10
52.2367532018
 20
81.7058160395
 30
0.0
 10
52.4117434298
 20
82.0524665473
 30
0.0
 10
52.6244545212
 20
82.3773382966
 30
0.0
 10
52.86691229
 20
82.6683475982
 30
0.0
 10
53.1300417997
 20
82.9144975071
 30
0.0
 10
53.3212657525
 20
83.0485595642
 30
0.0
 10
53.4180726354
 20
83.1044507105
 30
0.0
  0
SPLINE
  5
360
100
AcDbEntity
  8
0
100
AcDbSpline
 62
7
  6
CONTINUOUS
 70
0
 71
3
 72
10
 73
6
 74
0
 42
0.0000001
 43
0.0000001
 44
0.0000000001
 40
0.0
 40
0.0
 40
0.0
 40
0.0
 40
0.2248935737
 40
0.5923481879
 40
1.0
 40
1.0
 40
1.0
 40
1.0
 10
50.2215925396
 20
73.3521204445
 30
0.0
 10
50.1558315112
 20
73.3494407413
 30
0.0
 10
49.9817425578
 20
73.3587376366
 30
0.0
 10
49.6963984877
 20
73.433557358
 30
0.0
 10
49.4908706848
 20
73.5325063799
 30
0.0
 10
49.38755309
 20
73.5921554716
 30
0.0
  0
SPLINE
  5
361
100
AcDbEntity
  8
0
100
AcDbSpline
 62
7
  6
CONTINUOUS
 70
0
 71
3
 72
12
 73
8
 74
0
 42
0.0000001
 43
0.0000001
 44
0.0000000001
 40
0.0
 40
0.0
 40
0.0
 40
0.0
 40
0.1081609636
 40
0.2183678068
 40
0.4513466778
 40
0.710443771
 40
1.0
 40
1.0
 40
1.0
 40
1.0
 10
45.733400697
 20
78.3699959969
 30
0.0
 10
45.6924127398
 20
78.3463317286
 30
0.0
 10
45.6135905073
 20
78.2913473118
 30
0.0
 10
45.4722629951
 20
78.152263435
 30
0.0
 10
45.3322082047
 20
77.9240346802
 30
0.0
 10
45.234834086
 20
77.5931811893
 30
0.0
 10
45.2156115995
 20
77.352250194
 30
0.0
 10
45.2156115995
 20
77.2255470577
 30
0.0
  0
SPLINE
  5
362
100
AcDbEntity
  8
0
100
AcDbSpline
 62
7
  6
CONTINUOUS
 70
0
 71
3
 72
11
 73
7
 74
0
 42
0.0000001
 43
0.0000001
 44
0.0000000001
 40
0.0
 40
0.0
 40
0.0
 40
0.0
 40
0.2177460211
 40
0.4508843679
 40
0.7104607696
 40
1.0
 40
1.0
 40
1.0
 40
1.0
 10
57.3313772226
 20
95.5954926171
 30
0.0
 10
57.357760756
 20
95.6107250602
 30
0.0
 10
57.4183611595
 20
95.6327950174
 30
0.0
 10
57.5191062878
 20
95.6353257312
 30
0.0
 10
57.6264216291
 20
95.6093505385
 30
0.0
 10
57.6962704398
 20
95.5761664562
 30
0.0
 10
57.731353051
 20
95.5559119595
 30
0.0
  0
SPLINE
  5
363
100
AcDbEntity
  8
0
100
AcDbSpline
 62
7
  6
CONTINUOUS
 70
0
 71
3
 72
15
 73
11
 74
0
 42
0.0000001
 43
0.0000001
 44
0.0000000001
 40
0.0
 40
0.0
 40
0.0
 40
0.0
 40
0.1141474765
 40
0.2373368178
 40
0.3669776594
 40
0.5000010819
 40
0.633024354
 40
0.7626647561
 40
0.8858534048
 40
1.0
 40
1.0
 40
1.0
 40
1.0
 10
45.2156115995
 20
77.2255470577
 30
0.0
 10
45.2156115995
 20
77.0858170144
 30
0.0
 10
45.2412235792
 20
76.7950195759
 30
0.0
 10
45.3432333074
 20
76.3563264593
 30
0.0
 10
45.5067243548
 20
75.9119752955
 30
0.0
 10
45.7254639965
 20
75.4786631692
 30
0.0
 10
45.9913551176
 20
75.072574728
 30
0.0
 10
46.2944299034
 20
74.7088145349
 30
0.0
 10
46.6233445888
 20
74.4011287201
 30
0.0
 10
46.8623763951
 20
74.2335524255
 30
0.0
 10
46.9833859124
 20
74.1636891286
 30
0.0
  0
SPLINE
  5
364
100
AcDbEntity
  8
0
100
AcDbSpline
 62
7
  6
CONTINUOUS
 70
0
 71
3
 72
12
 73
8
 74
0
 42
0.0000001
 43
0.0000001
 44
0.0000000001
 40
0.0
 40
0.0
 40
0.0
 40
0.0
 40
0.2895552427
 40
0.5486519846
 40
0.7816312595
 40
0.8918385311
 40
1.0
 40
1.0
 40
1.0
 40
1.0
 10
48.6804492528
 20
73.1839113178
 30
0.0
 10
48.7901746978
 20
73.1205627357
 30
0.0
 10
49.0084329026
 20
73.0167495142
 30
0.0
 10
49.3436387448
 20
72.9356562662
 30
0.0
 10
49.611310916
 20
72.9428340824
 30
0.0
 10
49.8024202433
 20
72.9956841531
 30
0.0
 10
49.8894474164
 20
73.0364527896
 30
0.0
 10
49.9304344682
 20
73.0601165352
 30
0.0
  0
SPLINE
  5
365
100
AcDbEntity
  8
0
100
AcDbSpline
 62
7
  6
CONTINUOUS
 70
0
 71
3
 72
11
 73
7
 74
0
 42
0.0000001
 43
0.0000001
 44
0.0000000001
 40
0.0
 40
0.0
 40
0.0
 40
0.0
 40
0.2177731171
 40
0.4509285976
 40
0.710222822
 40
1.0
 40
1.0
 40
1.0
 40
1.0
 10
52.4180969531
 20
46.2627989026
 30
0.0
 10
52.3521260426
 20
46.3008863673
 30
0.0
 10
52.2286718296
 20
46.404645317
 30
0.0
 10
52.0972958791
 20
46.6194980986
 30
0.0
 10
52.019191299
 20
46.8842730683
 30
0.0
 10
52.003864961
 20
47.0769954999
 30
0.0
 10
52.003864961
 20
47.1783584662
 30
0.0
  0
SPLINE
  5
366
100
AcDbEntity
  8
0
100
AcDbSpline
 62
7
  6
CONTINUOUS
 70
0
 71
3
 72
9
 73
5
 74
0
 42
0.0000001
 43
0.0000001
 44
0.0000000001
 40
0.0
 40
0.0
 40
0.0
 40
0.0
 40
0.2776686783
 40
1.0
 40
1.0
 40
1.0
 40
1.0
 10
45.9227154368
 20
77.6337912116
 30
0.0
 10
45.9227154368
 20
77.7146719464
 30
0.0
 10
45.9373853828
 20
78.0048284269
 30
0.0
 10
46.0193270911
 20
78.2983586863
 30
0.0
 10
46.1318613401
 20
78.4761395025
 30
0.0
  0
SPLINE
  5
367
100
AcDbEntity
  8
0
100
AcDbSpline
 62
7
  6
CONTINUOUS
 70
0
 71
3
 72
15
 73
11
 74
0
 42
0.0000001
 43
0.0000001
 44
0.0000000001
 40
0.0
 40
0.0
 40
0.0
 40
0.0
 40
0.1141465952
 40
0.2373352439
 40
0.366975646
 40
0.4999989181
 40
0.6330223406
 40
0.7626631822
 40
0.8858525235
 40
1.0
 40
1.0
 40
1.0
 40
1.0
 10
47.6904897496
 20
74.5719332825
 30
0.0
 10
47.5694802323
 20
74.6417965793
 30
0.0
 10
47.330448426
 20
74.809372874
 30
0.0
 10
47.0015337406
 20
75.1170586888
 30
0.0
 10
46.6984589548
 20
75.4808188819
 30
0.0
 10
46.4325678337
 20
75.8869073231
 30
0.0
 10
46.213828192
 20
76.3202194494
 30
0.0
 10
46.0503371446
 20
76.7645706131
 30
0.0
 10
45.9483274164
 20
77.2032637298
 30
0.0
 10
45.9227154368
 20
77.4940611683
 30
0.0
 10
45.9227154368
 20
77.6337912116
 30
0.0
  0
SPLINE
  5
368
100
AcDbEntity
  8
0
100
AcDbSpline
 62
7
  6
CONTINUOUS
 70
0
 71
3
 72
9
 73
5
 74
0
 42
0.0000001
 43
0.0000001
 44
0.0000000001
 40
0.0
 40
0.0
 40
0.0
 40
0.0
 40
0.4766988263
 40
1.0
 40
1.0
 40
1.0
 40
1.0
 10
57.9434859685
 20
95.4334397331
 30
0.0
 10
57.9988017422
 20
95.4015038788
 30
0.0
 10
58.1065863515
 20
95.3199696443
 30
0.0
 10
58.1972630047
 20
95.2204040371
 30
0.0
 10
58.2402459201
 20
95.1650066791
 30
0.0
  0
SPLINE
  5
369
100
AcDbEntity
  8
0
100
AcDbSpline
 62
7
  6
CONTINUOUS
 70
0
 71
3
 72
11
 73
7
 74
0
 42
0.0000001
 43
0.0000001
 44
0.0000000001
 40
0.0
 40
0.0
 40
0.0
 40
0.0
 40
0.289777178
 40
0.5490714024
 40
0.7822268829
 40
1.0
 40
1.0
 40
1.0
 40
1.0
 10
52.428130796
 20
46.9334140135
 30
0.0
 10
52.428130796
 20
46.8320510472
 30
0.0
 10
52.4434571341
 20
46.6393286156
 30
0.0
 10
52.5215617142
 20
46.3745536459
 30
0.0
 10
52.6529376647
 20
46.1597008642
 30
0.0
 10
52.7763918777
 20
46.0559419146
 30
0.0
 10
52.8423627882
 20
46.0178544499
 30
0.0
  0
SPLINE
  5
36A
100
AcDbEntity
  8
0
100
AcDbSpline
 62
7
  6
CONTINUOUS
 70
0
 71
3
 72
12
 73
8
 74
0
 42
0.0000001
 43
0.0000001
 44
0.0000000001
 40
0.0
 40
0.0
 40
0.0
 40
0.0
 40
0.1081609636
 40
0.2183678068
 40
0.4513466778
 40
0.710443771
 40
1.0
 40
1.0
 40
1.0
 40
1.0
 10
62.7998314659
 20
65.6301348029
 30
0.0
 10
62.8408194231
 20
65.6537990712
 30
0.0
 10
62.9196416555
 20
65.7087834879
 30
0.0
 10
63.0609691678
 20
65.8478673647
 30
0.0
 10
63.2010239582
 20
66.0760961196
 30
0.0
 10
63.2983980769
 20
66.4069496104
 30
0.0
 10
63.3176205633
 20
66.6478806058
 30
0.0
 10
63.3176205633
 20
66.774583742
 30
0.0
  0
SPLINE
  5
36B
100
AcDbEntity
  8
0
100
AcDbSpline
 62
7
  6
CONTINUOUS
 70
0
 71
3
 72
15
 73
11
 74
0
 42
0.0000001
 43
0.0000001
 44
0.0000000001
 40
0.0
 40
0.0
 40
0.0
 40
0.0
 40
0.1141462769
 40
0.2373347432
 40
0.3669750849
 40
0.4999983967
 40
0.6330219315
 40
0.7626629244
 40
0.8858524171
 40
1.0
 40
1.0
 40
1.0
 40
1.0
 10
53.8423384705
 20
82.8595062578
 30
0.0
 10
53.7455315876
 20
82.8036151115
 30
0.0
 10
53.5543076348
 20
82.6695530544
 30
0.0
 10
53.2911781251
 20
82.4234031455
 30
0.0
 10
53.0487203563
 20
82.1323938438
 30
0.0
 10
52.8360092649
 20
81.8075220946
 30
0.0
 10
52.6610190369
 20
81.4608715868
 30
0.0
 10
52.5302273099
 20
81.1053900729
 30
0.0
 10
52.4486202196
 20
80.7544352469
 30
0.0
 10
52.428130796
 20
80.5217971877
 30
0.0
 10
52.428130796
 20
80.4100131158
 30
0.0
  0
SPLINE
  5
36C
100
AcDbEntity
  8
0
100
AcDbSpline
 62
7
  6
CONTINUOUS
 70
0
 71
3
 72
12
 73
8
 74
0
 42
0.0000001
 43
0.0000001
 44
0.0000000001
 40
0.0
 40
0.0
 40
0.0
 40
0.0
 40
0.2895552427
 40
0.5486519846
 40
0.7816312595
 40
0.8918385311
 40
1.0
 40
1.0
 40
1.0
 40
1.0
 10
59.8527829101
 20
70.816219482
 30
0.0
 10
59.743057465
 20
70.8795680641
 30
0.0
 10
59.5247992602
 20
70.9833812856
 30
0.0
 10
59.1895934181
 20
71.0644745336
 30
0.0
 10
58.9219212468
 20
71.0572967173
 30
0.0
 10
58.7308119196
 20
71.0044466466
 30
0.0
 10
58.6437847464
 20
70.9636780102
 30
0.0
 10
58.6027976946
 20
70.9400142646
 30
0.0
  0
SPLINE
  5
36D
100
AcDbEntity
  8
0
100
AcDbSpline
 62
7
  6
CONTINUOUS
 70
0
 71
3
 72
15
 73
11
 74
0
 42
0.0000001
 43
0.0000001
 44
0.0000000001
 40
0.0
 40
0.0
 40
0.0
 40
0.0
 40
0.1141474765
 40
0.2373368178
 40
0.3669776594
 40
0.5000010819
 40
0.633024354
 40
0.7626647561
 40
0.8858534048
 40
1.0
 40
1.0
 40
1.0
 40
1.0
 10
63.3176205633
 20
66.774583742
 30
0.0
 10
63.3176205633
 20
66.9143137853
 30
0.0
 10
63.2920085836
 20
67.2051112239
 30
0.0
 10
63.1899988554
 20
67.6438043405
 30
0.0
 10
63.0265078081
 20
68.0881555042
 30
0.0
 10
62.8077681663
 20
68.5214676305
 30
0.0
 10
62.5418770452
 20
68.9275560717
 30
0.0
 10
62.2388022595
 20
69.2913162648
 30
0.0
 10
61.909887574
 20
69.5990020796
 30
0.0
 10
61.6708557677
 20
69.7665783743
 30
0.0
 10
61.5498462504
 20
69.8364416711
 30
0.0
  0
SPLINE
  5
36E
100
AcDbEntity
  8
0
100
AcDbSpline
 62
7
  6
CONTINUOUS
 70
0
 71
3
 72
11
 73
7
 74
0
 42
0.0000001
 43
0.0000001
 44
0.0000000001
 40
0.0
 40
0.0
 40
0.0
 40
0.0
 40
0.2897757032
 40
0.5490693955
 40
0.7822254653
 40
1.0
 40
1.0
 40
1.0
 40
1.0
 10
66.2874696331
 20
38.9318602074
 30
0.0
 10
66.1996905225
 20
38.8811812168
 30
0.0
 10
66.0251322211
 20
38.7980969839
 30
0.0
 10
65.7567892394
 20
38.7333528028
 30
0.0
 10
65.5050428809
 20
38.7397000327
 30
0.0
 10
65.3534626772
 20
38.7947309665
 30
0.0
 10
65.2874939508
 20
38.8328171703
 30
0.0
  0
SPLINE
  5
36F
100
AcDbEntity
  8
0
100
AcDbSpline
 62
7
  6
CONTINUOUS
 70
0
 71
3
 72
11
 73
7
 74
0
 42
0.0000001
 43
0.0000001
 44
0.0000000001
 40
0.0
 40
0.0
 40
0.0
 40
0.0
 40
0.2895401978
 40
0.5491171512
 40
0.782255066
 40
1.0
 40
1.0
 40
1.0
 40
1.0
 10
70.0350622685
 20
87.7993208971
 30
0.0
 10
70.0350622685
 20
87.8398317956
 30
0.0
 10
70.0412479084
 20
87.9169170104
 30
0.0
 10
70.0724103638
 20
88.0228456842
 30
0.0
 10
70.1249755361
 20
88.1088306339
 30
0.0
 10
70.1743901137
 20
88.1502781109
 30
0.0
 10
70.2007742202
 20
88.1655108849
 30
0.0
  0
SPLINE
  5
370
100
AcDbEntity
  8
0
100
AcDbSpline
 62
7
  6
CONTINUOUS
 70
0
 71
3
 72
15
 73
11
 74
0
 42
0.0000001
 43
0.0000001
 44
0.0000000001
 40
0.0
 40
0.0
 40
0.0
 40
0.0
 40
0.1141475829
 40
0.2373370756
 40
0.3669780685
 40
0.5000016033
 40
0.6330249151
 40
0.7626652568
 40
0.8858537231
 40
1.0
 40
1.0
 40
1.0
 40
1.0
 10
64.8732619586
 20
73.2249758362
 30
0.0
 10
64.8732619586
 20
73.3367599082
 30
0.0
 10
64.8937513822
 20
73.5693979674
 30
0.0
 10
64.9753584725
 20
73.9203527934
 30
0.0
 10
65.1061501995
 20
74.2758343072
 30
0.0
 10
65.2811404274
 20
74.6224848151
 30
0.0
 10
65.4938515189
 20
74.9473565643
 30
0.0
 10
65.7363092877
 20
75.2383658659
 30
0.0
 10
65.9994387974
 20
75.4845157748
 30
0.0
 10
66.1906627501
 20
75.618577832
 30
0.0
 10
66.2874696331
 20
75.6744689782
 30
0.0
  0
SPLINE
  5
371
100
AcDbEntity
  8
0
100
AcDbSpline
 62
7
  6
CONTINUOUS
 70
0
 71
3
 72
10
 73
6
 74
0
 42
0.0000001
 43
0.0000001
 44
0.0000000001
 40
0.0
 40
0.0
 40
0.0
 40
0.0
 40
0.2248935737
 40
0.5923481879
 40
1.0
 40
1.0
 40
1.0
 40
1.0
 10
63.0909895373
 20
65.9221387122
 30
0.0
 10
63.0252285089
 20
65.919459009
 30
0.0
 10
62.8511395555
 20
65.9287559044
 30
0.0
 10
62.5657954854
 20
66.0035756258
 30
0.0
 10
62.3602676825
 20
66.1025246476
 30
0.0
 10
62.2569500877
 20
66.1621737394
 30
0.0
  0
SPLINE
  5
372
100
AcDbEntity
  8
0
100
AcDbSpline
 62
7
  6
CONTINUOUS
 70
0
 71
3
 72
12
 73
8
 74
0
 42
0.0000001
 43
0.0000001
 44
0.0000000001
 40
0.0
 40
0.0
 40
0.0
 40
0.0
 40
0.1081609636
 40
0.2183678068
 40
0.4513466778
 40
0.710443771
 40
1.0
 40
1.0
 40
1.0
 40
1.0
 10
58.6027976946
 20
70.9400142646
 30
0.0
 10
58.5618097375
 20
70.9163499963
 30
0.0
 10
58.482987505
 20
70.8613655796
 30
0.0
 10
58.3416599928
 20
70.7222817028
 30
0.0
 10
58.2016052023
 20
70.4940529479
 30
0.0
 10
58.1042310836
 20
70.163199457
 30
0.0
 10
58.0850085972
 20
69.9222684617
 30
0.0
 10
58.0850085972
 20
69.7955653255
 30
0.0
  0
SPLINE
  5
373
100
AcDbEntity
  8
0
100
AcDbSpline
 62
7
  6
CONTINUOUS
 70
0
 71
3
 72
11
 73
7
 74
0
 42
0.0000001
 43
0.0000001
 44
0.0000000001
 40
0.0
 40
0.0
 40
0.0
 40
0.0
 40
0.2195882419
 40
0.4534776408
 40
0.7122540966
 40
1.0
 40
1.0
 40
1.0
 40
1.0
 10
70.2007742202
 20
88.1655108849
 30
0.0
 10
70.22600541
 20
88.1800780262
 30
0.0
 10
70.2835299237
 20
88.2015519783
 30
0.0
 10
70.3791577736
 20
88.2059018963
 30
0.0
 10
70.4812775037
 20
88.1840550281
 30
0.0
 10
70.5480659281
 20
88.1546455143
 30
0.0
 10
70.5816875662
 20
88.1365596035
 30
0.0
  0
SPLINE
  5
374
100
AcDbEntity
  8
0
100
AcDbSpline
 62
7
  6
CONTINUOUS
 70
0
 71
3
 72
15
 73
11
 74
0
 42
0.0000001
 43
0.0000001
 44
0.0000000001
 40
0.0
 40
0.0
 40
0.0
 40
0.0
 40
0.1141474765
 40
0.2373368178
 40
0.3669776594
 40
0.5000010819
 40
0.633024354
 40
0.7626647561
 40
0.8858534048
 40
1.0
 40
1.0
 40
1.0
 40
1.0
 10
58.0850085972
 20
69.7955653255
 30
0.0
 10
58.0850085972
 20
69.6558352822
 30
0.0
 10
58.1106205769
 20
69.3650378436
 30
0.0
 10
58.2126303051
 20
68.926344727
 30
0.0
 10
58.3761213524
 20
68.4819935633
 30
0.0
 10
58.5948609942
 20
68.0486814369
 30
0.0
 10
58.8607521153
 20
67.6425929958
 30
0.0
 10
59.1638269011
 20
67.2788328026
 30
0.0
 10
59.4927415865
 20
66.9711469878
 30
0.0
 10
59.7317733928
 20
66.8035706932
 30
0.0
 10
59.8527829101
 20
66.7337073963
 30
0.0
  0
SPLINE
  5
375
100
AcDbEntity
  8
0
100
AcDbSpline
 62
7
  6
CONTINUOUS
 70
0
 71
3
 72
12
 73
8
 74
0
 42
0.0000001
 43
0.0000001
 44
0.0000000001
 40
0.0
 40
0.0
 40
0.0
 40
0.0
 40
0.2895552427
 40
0.5486519846
 40
0.7816312595
 40
0.8918385311
 40
1.0
 40
1.0
 40
1.0
 40
1.0
 10
61.5498462504
 20
65.7539295855
 30
0.0
 10
61.6595716955
 20
65.6905810034
 30
0.0
 10
61.8778299003
 20
65.5867677819
 30
0.0
 10
62.2130357424
 20
65.5056745339
 30
0.0
 10
62.4807079137
 20
65.5128523502
 30
0.0
 10
62.6718172409
 20
65.5657024208
 30
0.0
 10
62.7588444141
 20
65.6064710573
 30
0.0
 10
62.7998314659
 20
65.6301348029
 30
0.0
  0
SPLINE
  5
376
100
AcDbEntity
  8
0
100
AcDbSpline
 62
7
  6
CONTINUOUS
 70
0
 71
3
 72
11
 73
7
 74
0
 42
0.0000001
 43
0.0000001
 44
0.0000000001
 40
0.0
 40
0.0
 40
0.0
 40
0.0
 40
0.2177731171
 40
0.4509285976
 40
0.710222822
 40
1.0
 40
1.0
 40
1.0
 40
1.0
 10
65.2874939508
 20
38.8328171703
 30
0.0
 10
65.2215230403
 20
38.870904635
 30
0.0
 10
65.0980688273
 20
38.9746635847
 30
0.0
 10
64.9666928768
 20
39.1895163664
 30
0.0
 10
64.8885882967
 20
39.4542913361
 30
0.0
 10
64.8732619586
 20
39.6470137676
 30
0.0
 10
64.8732619586
 20
39.7483767339
 30
0.0
  0
SPLINE
  5
377
100
AcDbEntity
  8
0
100
AcDbSpline
 62
7
  6
CONTINUOUS
 70
0
 71
3
 72
9
 73
5
 74
0
 42
0.0000001
 43
0.0000001
 44
0.0000000001
 40
0.0
 40
0.0
 40
0.0
 40
0.0
 40
0.2776686783
 40
1.0
 40
1.0
 40
1.0
 40
1.0
 10
58.7921124344
 20
70.2038094793
 30
0.0
 10
58.7921124344
 20
70.2846902141
 30
0.0
 10
58.8067823805
 20
70.5748466946
 30
0.0
 10
58.8887240888
 20
70.868376954
 30
0.0
 10
59.0012583378
 20
71.0461577702
 30
0.0
  0
SPLINE
  5
378
100
AcDbEntity
  8
0
100
AcDbSpline
 62
7
  6
CONTINUOUS
 70
0
 71
3
 72
15
 73
11
 74
0
 42
0.0000001
 43
0.0000001
 44
0.0000000001
 40
0.0
 40
0.0
 40
0.0
 40
0.0
 40
0.1141465952
 40
0.2373352439
 40
0.366975646
 40
0.4999989181
 40
0.6330223406
 40
0.7626631822
 40
0.8858525235
 40
1.0
 40
1.0
 40
1.0
 40
1.0
 10
60.5598867473
 20
67.1419515502
 30
0.0
 10
60.43887723
 20
67.2118148471
 30
0.0
 10
60.1998454237
 20
67.3793911417
 30
0.0
 10
59.8709307383
 20
67.6870769565
 30
0.0
 10
59.5678559525
 20
68.0508371496
 30
0.0
 10
59.3019648314
 20
68.4569255908
 30
0.0
 10
59.0832251897
 20
68.8902377171
 30
0.0
 10
58.9197341423
 20
69.3345888809
 30
0.0
 10
58.8177244141
 20
69.7732819975
 30
0.0
 10
58.7921124344
 20
70.064079436
 30
0.0
 10
58.7921124344
 20
70.2038094793
 30
0.0
  0
SPLINE
  5
379
100
AcDbEntity
  8
0
100
AcDbSpline
 62
7
  6
CONTINUOUS
 70
0
 71
3
 72
11
 73
7
 74
0
 42
0.0000001
 43
0.0000001
 44
0.0000000001
 40
0.0
 40
0.0
 40
0.0
 40
0.0
 40
0.2177807728
 40
0.4509253888
 40
0.7102607591
 40
1.0
 40
1.0
 40
1.0
 40
1.0
 10
34.1375210179
 20
115.2331413566
 30
0.0
 10
34.2463869176
 20
115.2959691768
 30
0.0
 10
34.4500438362
 20
115.4672233032
 30
0.0
 10
34.6668633442
 20
115.821712467
 30
0.0
 10
34.7956871111
 20
116.2586064329
 30
0.0
 10
34.8210003114
 20
116.5765918154
 30
0.0
 10
34.8210003114
 20
116.7438179764
 30
0.0
  0
SPLINE
  5
37A
100
AcDbEntity
  8
0
100
AcDbSpline
 62
7
  6
CONTINUOUS
 70
0
 71
3
 72
11
 73
7
 74
0
 42
0.0000001
 43
0.0000001
 44
0.0000000001
 40
0.0
 40
0.0
 40
0.0
 40
0.0
 40
0.2372539654
 40
0.5000012591
 40
0.7627478695
 40
1.0
 40
1.0
 40
1.0
 40
1.0
 10
33.3360698886
 20
108.8892028841
 30
0.0
 10
33.3360698886
 20
109.0051287672
 30
0.0
 10
33.2926056229
 20
109.2496017917
 30
0.0
 10
33.1409998677
 20
109.5930780902
 30
0.0
 10
32.9193426296
 20
109.8961088896
 30
0.0
 10
32.7293547145
 20
110.0559845459
 30
0.0
 10
32.6289601634
 20
110.1139460557
 30
0.0
  0
SPLINE
  5
37B
100
AcDbEntity
  8
0
100
AcDbSpline
 62
7
  6
CONTINUOUS
 70
0
 71
3
 72
11
 73
7
 74
0
 42
0.0000001
 43
0.0000001
 44
0.0000000001
 40
0.0
 40
0.0
 40
0.0
 40
0.0
 40
0.2895391946
 40
0.5491157945
 40
0.7822541179
 40
1.0
 40
1.0
 40
1.0
 40
1.0
 10
32.3461162734
 20
110.2772423575
 30
0.0
 10
32.3022630156
 20
110.3025604749
 30
0.0
 10
32.2149519574
 20
110.3440405339
 30
0.0
 10
32.0808077719
 20
110.3765096012
 30
0.0
 10
31.9548763606
 20
110.3733461464
 30
0.0
 10
31.8791258736
 20
110.3457587389
 30
0.0
 10
31.8461464885
 20
110.32671818
 30
0.0
  0
SPLINE
  5
37C
100
AcDbEntity
  8
0
100
AcDbSpline
 62
7
  6
CONTINUOUS
 70
0
 71
3
 72
17
 73
13
 74
0
 42
0.0000001
 43
0.0000001
 44
0.0000000001
 40
0.0
 40
0.0
 40
0.0
 40
0.0
 40
0.1286933306
 40
0.270277787
 40
0.4174336961
 40
0.561777819
 40
0.6954482037
 40
0.8127106558
 40
0.864676834
 40
0.9125094922
 40
0.9571395962
 40
1.0
 40
1.0
 40
1.0
 40
1.0
 10
34.8210003114
 20
116.7438179764
 30
0.0
 10
34.8210003114
 20
117.0258961822
 30
0.0
 10
34.7420953589
 20
117.6189865182
 30
0.0
 10
34.4475398434
 20
118.489800268
 30
0.0
 10
33.9937109665
 20
119.328681996
 30
0.0
 10
33.4170335189
 20
120.0668346237
 30
0.0
 10
32.764639559
 20
120.6446433981
 30
0.0
 10
32.1741198758
 20
120.9674629767
 30
0.0
 10
31.712214281
 20
121.0904233911
 30
0.0
 10
31.3942943952
 20
121.1137335033
 30
0.0
 10
31.0982494765
 20
121.0704171035
 30
0.0
 10
30.9189218337
 20
120.9958411127
 30
0.0
 10
30.837555419
 20
120.9488835761
 30
0.0
  0
SPLINE
  5
37D
100
AcDbEntity
  8
0
100
AcDbSpline
 62
7
  6
CONTINUOUS
 70
0
 71
3
 72
13
 73
9
 74
0
 42
0.0000001
 43
0.0000001
 44
0.0000000001
 40
0.0
 40
0.0
 40
0.0
 40
0.0
 40
0.1142253587
 40
0.237559206
 40
0.5000004539
 40
0.7624414493
 40
0.885775028
 40
1.0
 40
1.0
 40
1.0
 40
1.0
 10
48.3266788918
 20
132.5429909963
 30
0.0
 10
48.4234666046
 20
132.4871118484
 30
0.0
 10
48.6352121419
 20
132.3885389388
 30
0.0
 10
49.1044161646
 20
132.2459847003
 30
0.0
 10
49.7408944957
 20
132.1767829709
 30
0.0
 10
50.3773722964
 20
132.2459875704
 30
0.0
 10
50.8465746868
 20
132.3885441594
 30
0.0
 10
51.0583190344
 20
132.4871181383
 30
0.0
 10
51.1551060166
 20
132.542997795
 30
0.0
  0
SPLINE
  5
37E
100
AcDbEntity
  8
0
100
AcDbSpline
 62
7
  6
CONTINUOUS
 70
0
 71
3
 72
11
 73
7
 74
0
 42
0.0000001
 43
0.0000001
 44
0.0000000001
 40
0.0
 40
0.0
 40
0.0
 40
0.0
 40
0.2897048043
 40
0.5490913404
 40
0.7822177947
 40
1.0
 40
1.0
 40
1.0
 40
1.0
 10
56.1048328771
 20
135.4007068721
 30
0.0
 10
56.1925901019
 20
135.451373227
 30
0.0
 10
56.3518038296
 20
135.5610347303
 30
0.0
 10
56.5420864167
 20
135.7610130592
 30
0.0
 10
56.6624529429
 20
135.9822375419
 30
0.0
 10
56.6906034611
 20
136.1410123581
 30
0.0
 10
56.690603447
 20
136.2171883811
 30
0.0
  0
SPLINE
  5
37F
100
AcDbEntity
  8
0
100
AcDbSpline
 62
7
  6
CONTINUOUS
 70
0
 71
3
 72
11
 73
7
 74
0
 42
0.0000001
 43
0.0000001
 44
0.0000000001
 40
0.0
 40
0.0
 40
0.0
 40
0.0
 40
0.2177817009
 40
0.4509079353
 40
0.7102947134
 40
1.0
 40
1.0
 40
1.0
 40
1.0
 10
44.2053479203
 20
135.4006830766
 30
0.0
 10
44.2053479344
 20
135.3245062491
 30
0.0
 10
44.2334990449
 20
135.1657296279
 30
0.0
 10
44.3538681726
 20
134.9445029917
 30
0.0
 10
44.5441546488
 20
134.7445231901
 30
0.0
 10
44.7033713997
 20
134.6348612278
 30
0.0
 10
44.7911302661
 20
134.5841947689
 30
0.0
  0
SPLINE
  5
380
100
AcDbEntity
  8
0
100
AcDbSpline
 62
7
  6
CONTINUOUS
 70
0
 71
3
 72
11
 73
7
 74
0
 42
0.0000001
 43
0.0000001
 44
0.0000000001
 40
0.0
 40
0.0
 40
0.0
 40
0.0
 40
0.217745073
 40
0.4508830113
 40
0.7104597664
 40
1.0
 40
1.0
 40
1.0
 40
1.0
 10
31.8461464885
 20
110.32671818
 30
0.0
 10
31.8131663439
 20
110.3076771825
 30
0.0
 10
31.7513980794
 20
110.2558678407
 30
0.0
 10
31.6856916687
 20
110.1483866231
 30
0.0
 10
31.6467385377
 20
110.0159758267
 30
0.0
 10
31.6390065482
 20
109.9196193251
 30
0.0
 10
31.6390065482
 20
109.8689806949
 30
0.0
  0
SPLINE
  5
381
100
AcDbEntity
  8
0
100
AcDbSpline
 62
7
  6
CONTINUOUS
 70
0
 71
3
 72
11
 73
7
 74
0
 42
0.0000001
 43
0.0000001
 44
0.0000000001
 40
0.0
 40
0.0
 40
0.0
 40
0.0
 40
0.2897048043
 40
0.5490913404
 40
0.7822177947
 40
1.0
 40
1.0
 40
1.0
 40
1.0
 10
44.7911184902
 20
136.2171645856
 30
0.0
 10
44.7033612654
 20
136.1664982307
 30
0.0
 10
44.5441475377
 20
136.0568367274
 30
0.0
 10
44.3538649506
 20
135.8568583985
 30
0.0
 10
44.2334984244
 20
135.6356339158
 30
0.0
 10
44.2053479061
 20
135.4768590996
 30
0.0
 10
44.2053479203
 20
135.4006830766
 30
0.0
  0
SPLINE
  5
382
100
AcDbEntity
  8
0
100
AcDbSpline
 62
7
  6
CONTINUOUS
 70
0
 71
3
 72
11
 73
7
 74
0
 42
0.0000001
 43
0.0000001
 44
0.0000000001
 40
0.0
 40
0.0
 40
0.0
 40
0.0
 40
0.2177807728
 40
0.4509253888
 40
0.7102607591
 40
1.0
 40
1.0
 40
1.0
 40
1.0
 10
30.837555419
 20
120.9488835761
 30
0.0
 10
30.7286895193
 20
120.8860557559
 30
0.0
 10
30.5250326007
 20
120.7148016295
 30
0.0
 10
30.3082130926
 20
120.3603124657
 30
0.0
 10
30.1793893257
 20
119.9234184998
 30
0.0
 10
30.1540761254
 20
119.6054331173
 30
0.0
 10
30.1540761254
 20
119.4382069563
 30
0.0
  0
SPLINE
  5
383
100
AcDbEntity
  8
0
100
AcDbSpline
 62
7
  6
CONTINUOUS
 70
0
 71
3
 72
13
 73
9
 74
0
 42
0.0000001
 43
0.0000001
 44
0.0000000001
 40
0.0
 40
0.0
 40
0.0
 40
0.0
 40
0.1142253587
 40
0.237559206
 40
0.5000004539
 40
0.7624414493
 40
0.885775028
 40
1.0
 40
1.0
 40
1.0
 40
1.0
 10
52.5692724755
 20
139.0748804614
 30
0.0
 10
52.4724847627
 20
139.1307596093
 30
0.0
 10
52.2607392254
 20
139.2293325189
 30
0.0
 10
51.7915352027
 20
139.3718867574
 30
0.0
 10
51.1550568716
 20
139.4410884868
 30
0.0
 10
50.5185790709
 20
139.3718838873
 30
0.0
 10
50.0493766805
 20
139.2293272983
 30
0.0
 10
49.8376323329
 20
139.1307533194
 30
0.0
 10
49.7408453507
 20
139.0748736627
 30
0.0
  0
SPLINE
  5
384
100
AcDbEntity
  8
0
100
AcDbSpline
 62
7
  6
CONTINUOUS
 70
0
 71
3
 72
11
 73
7
 74
0
 42
0.0000001
 43
0.0000001
 44
0.0000000001
 40
0.0
 40
0.0
 40
0.0
 40
0.0
 40
0.2177817009
 40
0.4509079353
 40
0.7102947134
 40
1.0
 40
1.0
 40
1.0
 40
1.0
 10
56.690603447
 20
136.2171883811
 30
0.0
 10
56.6906034329
 20
136.2933652086
 30
0.0
 10
56.6624523224
 20
136.4521418298
 30
0.0
 10
56.5420831947
 20
136.673368466
 30
0.0
 10
56.3517967185
 20
136.8733482676
 30
0.0
 10
56.1925799676
 20
136.9830102299
 30
0.0
 10
56.1048211012
 20
137.0336766888
 30
0.0
  0
SPLINE
  5
385
100
AcDbEntity
  8
0
100
AcDbSpline
 62
7
  6
CONTINUOUS
 70
0
 71
3
 72
17
 73
13
 74
0
 42
0.0000001
 43
0.0000001
 44
0.0000000001
 40
0.0
 40
0.0
 40
0.0
 40
0.0
 40
0.1286933306
 40
0.270277787
 40
0.4174336961
 40
0.561777819
 40
0.6954482037
 40
0.8127106558
 40
0.864676834
 40
0.9125094922
 40
0.9571395962
 40
1.0
 40
1.0
 40
1.0
 40
1.0
 10
30.1540761254
 20
119.4382069563
 30
0.0
 10
30.1540761254
 20
119.1561287505
 30
0.0
 10
30.2329810779
 20
118.5630384145
 30
0.0
 10
30.5275365934
 20
117.6922246647
 30
0.0
 10
30.9813654703
 20
116.8533429367
 30
0.0
 10
31.558042918
 20
116.115190309
 30
0.0
 10
32.2104368778
 20
115.5373815346
 30
0.0
 10
32.800956561
 20
115.214561956
 30
0.0
 10
33.2628621559
 20
115.0916015416
 30
0.0
 10
33.5807820416
 20
115.0682914294
 30
0.0
 10
33.8768269603
 20
115.1116078292
 30
0.0
 10
34.0561546031
 20
115.18618382
 30
0.0
 10
34.1375210179
 20
115.2331413566
 30
0.0
  0
SPLINE
  5
386
100
AcDbEntity
  8
0
100
AcDbSpline
 62
7
  6
CONTINUOUS
 70
0
 71
3
 72
11
 73
7
 74
0
 42
0.0000001
 43
0.0000001
 44
0.0000000001
 40
0.0
 40
0.0
 40
0.0
 40
0.0
 40
0.2177807728
 40
0.4509253888
 40
0.7102607591
 40
1.0
 40
1.0
 40
1.0
 40
1.0
 10
46.7240741255
 20
107.9664559261
 30
0.0
 10
46.8329400252
 20
108.0292837463
 30
0.0
 10
47.0365969438
 20
108.2005378728
 30
0.0
 10
47.2534164519
 20
108.5550270366
 30
0.0
 10
47.3822402187
 20
108.9919210025
 30
0.0
 10
47.407553419
 20
109.3099063849
 30
0.0
 10
47.407553419
 20
109.477132546
 30
0.0
  0
SPLINE
  5
387
100
AcDbEntity
  8
0
100
AcDbSpline
 62
7
  6
CONTINUOUS
 70
0
 71
3
 72
11
 73
7
 74
0
 42
0.0000001
 43
0.0000001
 44
0.0000000001
 40
0.0
 40
0.0
 40
0.0
 40
0.0
 40
0.2372539654
 40
0.5000012591
 40
0.7627478695
 40
1.0
 40
1.0
 40
1.0
 40
1.0
 10
45.9226229962
 20
101.6225174536
 30
0.0
 10
45.9226229962
 20
101.7384433367
 30
0.0
 10
45.8791587306
 20
101.9829163613
 30
0.0
 10
45.7275529753
 20
102.3263926597
 30
0.0
 10
45.5058957372
 20
102.6294234591
 30
0.0
 10
45.3159078221
 20
102.7892991154
 30
0.0
 10
45.2155132711
 20
102.8472606252
 30
0.0
  0
SPLINE
  5
388
100
AcDbEntity
  8
0
100
AcDbSpline
 62
7
  6
CONTINUOUS
 70
0
 71
3
 72
11
 73
7
 74
0
 42
0.0000001
 43
0.0000001
 44
0.0000000001
 40
0.0
 40
0.0
 40
0.0
 40
0.0
 40
0.2895391946
 40
0.5491157945
 40
0.7822541179
 40
1.0
 40
1.0
 40
1.0
 40
1.0
 10
44.932669381
 20
103.0105569271
 30
0.0
 10
44.8888161232
 20
103.0358750445
 30
0.0
 10
44.801505065
 20
103.0773551034
 30
0.0
 10
44.6673608795
 20
103.1098241707
 30
0.0
 10
44.5414294683
 20
103.1066607159
 30
0.0
 10
44.4656789812
 20
103.0790733084
 30
0.0
 10
44.4326995962
 20
103.0600327495
 30
0.0
  0
SPLINE
  5
389
100
AcDbEntity
  8
0
100
AcDbSpline
 62
7
  6
CONTINUOUS
 70
0
 71
3
 72
17
 73
13
 74
0
 42
0.0000001
 43
0.0000001
 44
0.0000000001
 40
0.0
 40
0.0
 40
0.0
 40
0.0
 40
0.1286933306
 40
0.270277787
 40
0.4174336961
 40
0.561777819
 40
0.6954482037
 40
0.8127106558
 40
0.864676834
 40
0.9125094922
 40
0.9571395962
 40
1.0
 40
1.0
 40
1.0
 40
1.0
 10
47.407553419
 20
109.477132546
 30
0.0
 10
47.407553419
 20
109.7592107518
 30
0.0
 10
47.3286484665
 20
110.3523010877
 30
0.0
 10
47.034092951
 20
111.2231148376
 30
0.0
 10
46.5802640741
 20
112.0619965655
 30
0.0
 10
46.0035866265
 20
112.8001491932
 30
0.0
 10
45.3511926666
 20
113.3779579677
 30
0.0
 10
44.7606729835
 20
113.7007775462
 30
0.0
 10
44.2987673886
 20
113.8237379606
 30
0.0
 10
43.9808475028
 20
113.8470480728
 30
0.0
 10
43.6848025841
 20
113.803731673
 30
0.0
 10
43.5054749413
 20
113.7291556823
 30
0.0
 10
43.4241085266
 20
113.6821981457
 30
0.0
  0
SPLINE
  5
38A
100
AcDbEntity
  8
0
100
AcDbSpline
 62
7
  6
CONTINUOUS
 70
0
 71
3
 72
13
 73
9
 74
0
 42
0.0000001
 43
0.0000001
 44
0.0000000001
 40
0.0
 40
0.0
 40
0.0
 40
0.0
 40
0.1142253587
 40
0.237559206
 40
0.5000004539
 40
0.7624414493
 40
0.885775028
 40
1.0
 40
1.0
 40
1.0
 40
1.0
 10
60.9132319995
 20
125.2763055658
 30
0.0
 10
61.0100197122
 20
125.220426418
 30
0.0
 10
61.2217652495
 20
125.1218535083
 30
0.0
 10
61.6909692722
 20
124.9792992699
 30
0.0
 10
62.3274476033
 20
124.9100975404
 30
0.0
 10
62.963925404
 20
124.9793021399
 30
0.0
 10
63.4331277944
 20
125.1218587289
 30
0.0
 10
63.644872142
 20
125.2204327079
 30
0.0
 10
63.7416591242
 20
125.2763123645
 30
0.0
  0
SPLINE
  5
38B
100
AcDbEntity
  8
0
100
AcDbSpline
 62
7
  6
CONTINUOUS
 70
0
 71
3
 72
11
 73
7
 74
0
 42
0.0000001
 43
0.0000001
 44
0.0000000001
 40
0.0
 40
0.0
 40
0.0
 40
0.0
 40
0.2897048043
 40
0.5490913404
 40
0.7822177947
 40
1.0
 40
1.0
 40
1.0
 40
1.0
 10
68.6913859847
 20
128.1340214416
 30
0.0
 10
68.7791432095
 20
128.1846877965
 30
0.0
 10
68.9383569372
 20
128.2943492999
 30
0.0
 10
69.1286395243
 20
128.4943276288
 30
0.0
 10
69.2490060505
 20
128.7155521115
 30
0.0
 10
69.2771565688
 20
128.8743269277
 30
0.0
 10
69.2771565546
 20
128.9505029506
 30
0.0
  0
SPLINE
  5
38C
100
AcDbEntity
  8
0
100
AcDbSpline
 62
7
  6
CONTINUOUS
 70
0
 71
3
 72
11
 73
7
 74
0
 42
0.0000001
 43
0.0000001
 44
0.0000000001
 40
0.0
 40
0.0
 40
0.0
 40
0.0
 40
0.2177817009
 40
0.4509079353
 40
0.7102947134
 40
1.0
 40
1.0
 40
1.0
 40
1.0
 10
56.7919010279
 20
128.1339976462
 30
0.0
 10
56.791901042
 20
128.0578208186
 30
0.0
 10
56.8200521525
 20
127.8990441974
 30
0.0
 10
56.9404212802
 20
127.6778175613
 30
0.0
 10
57.1307077564
 20
127.4778377597
 30
0.0
 10
57.2899245073
 20
127.3681757973
 30
0.0
 10
57.3776833737
 20
127.3175093384
 30
0.0
  0
SPLINE
  5
38D
100
AcDbEntity
  8
0
100
AcDbSpline
 62
7
  6
CONTINUOUS
 70
0
 71
3
 72
9
 73
5
 74
0
 42
0.0000001
 43
0.0000001
 44
0.0000000001
 40
0.0
 40
0.0
 40
0.0
 40
0.0
 40
0.2480492105
 40
1.0
 40
1.0
 40
1.0
 40
1.0
 10
46.7240741255
 20
49.1782818928
 30
0.0
 10
46.7477912689
 20
49.1919693415
 30
0.0
 10
46.841337523
 20
49.2506874116
 30
0.0
 10
46.9258254759
 20
49.3236112461
 30
0.0
 10
46.9826658403
 20
49.3841099265
 30
0.0
  0
SPLINE
  5
38E
100
AcDbEntity
  8
0
100
AcDbSpline
 62
7
  6
CONTINUOUS
 70
0
 71
3
 72
11
 73
7
 74
0
 42
0.0000001
 43
0.0000001
 44
0.0000000001
 40
0.0
 40
0.0
 40
0.0
 40
0.0
 40
0.217745073
 40
0.4508830113
 40
0.7104597664
 40
1.0
 40
1.0
 40
1.0
 40
1.0
 10
44.4326995962
 20
103.0600327495
 30
0.0
 10
44.3997194515
 20
103.0409917521
 30
0.0
 10
44.337951187
 20
102.9891824103
 30
0.0
 10
44.2722447763
 20
102.8817011926
 30
0.0
 10
44.2332916453
 20
102.7492903963
 30
0.0
 10
44.2255596559
 20
102.6529338947
 30
0.0
 10
44.2255596559
 20
102.6022952644
 30
0.0
  0
SPLINE
  5
38F
100
AcDbEntity
  8
0
100
AcDbSpline
 62
7
  6
CONTINUOUS
 70
0
 71
3
 72
11
 73
7
 74
0
 42
0.0000001
 43
0.0000001
 44
0.0000000001
 40
0.0
 40
0.0
 40
0.0
 40
0.0
 40
0.2897048043
 40
0.5490913404
 40
0.7822177947
 40
1.0
 40
1.0
 40
1.0
 40
1.0
 10
57.3776715979
 20
128.9504791552
 30
0.0
 10
57.289914373
 20
128.8998128003
 30
0.0
 10
57.1307006453
 20
128.7901512969
 30
0.0
 10
56.9404180582
 20
128.590172968
 30
0.0
 10
56.820051532
 20
128.3689484853
 30
0.0
 10
56.7919010138
 20
128.2101736691
 30
0.0
 10
56.7919010279
 20
128.1339976462
 30
0.0
  0
SPLINE
  5
390
100
AcDbEntity
  8
0
100
AcDbSpline
 62
7
  6
CONTINUOUS
 70
0
 71
3
 72
11
 73
7
 74
0
 42
0.0000001
 43
0.0000001
 44
0.0000000001
 40
0.0
 40
0.0
 40
0.0
 40
0.0
 40
0.2177807728
 40
0.4509253888
 40
0.7102607591
 40
1.0
 40
1.0
 40
1.0
 40
1.0
 10
43.4241085266
 20
113.6821981457
 30
0.0
 10
43.3152426269
 20
113.6193703255
 30
0.0
 10
43.1115857083
 20
113.448116199
 30
0.0
 10
42.8947662002
 20
113.0936270352
 30
0.0
 10
42.7659424333
 20
112.6567330693
 30
0.0
 10
42.740629233
 20
112.3387476869
 30
0.0
 10
42.740629233
 20
112.1715215258
 30
0.0
  0
SPLINE
  5
391
100
AcDbEntity
  8
0
100
AcDbSpline
 62
7
  6
CONTINUOUS
 70
0
 71
3
 72
13
 73
9
 74
0
 42
0.0000001
 43
0.0000001
 44
0.0000000001
 40
0.0
 40
0.0
 40
0.0
 40
0.0
 40
0.1142253587
 40
0.237559206
 40
0.5000004539
 40
0.7624414493
 40
0.885775028
 40
1.0
 40
1.0
 40
1.0
 40
1.0
 10
65.1558255831
 20
131.808195031
 30
0.0
 10
65.0590378703
 20
131.8640741788
 30
0.0
 10
64.847292333
 20
131.9626470885
 30
0.0
 10
64.3780883103
 20
132.1052013269
 30
0.0
 10
63.7416099792
 20
132.1744030564
 30
0.0
 10
63.1051321785
 20
132.1051984569
 30
0.0
 10
62.6359297881
 20
131.9626418679
 30
0.0
 10
62.4241854405
 20
131.8640678889
 30
0.0
 10
62.3273984583
 20
131.8081882323
 30
0.0
  0
SPLINE
  5
392
100
AcDbEntity
  8
0
100
AcDbSpline
 62
7
  6
CONTINUOUS
 70
0
 71
3
 72
11
 73
7
 74
0
 42
0.0000001
 43
0.0000001
 44
0.0000000001
 40
0.0
 40
0.0
 40
0.0
 40
0.0
 40
0.2177817009
 40
0.4509079353
 40
0.7102947134
 40
1.0
 40
1.0
 40
1.0
 40
1.0
 10
69.2771565546
 20
128.9505029506
 30
0.0
 10
69.2771565405
 20
129.0266797781
 30
0.0
 10
69.24900543
 20
129.1854563994
 30
0.0
 10
69.1286363023
 20
129.4066830355
 30
0.0
 10
68.9383498261
 20
129.6066628371
 30
0.0
 10
68.7791330752
 20
129.7163247995
 30
0.0
 10
68.6913742088
 20
129.7669912584
 30
0.0
  0
SPLINE
  5
393
100
AcDbEntity
  8
0
100
AcDbSpline
 62
7
  6
CONTINUOUS
 70
0
 71
3
 72
16
 73
12
 74
0
 42
0.0000001
 43
0.0000001
 44
0.0000000001
 40
0.0
 40
0.0
 40
0.0
 40
0.0
 40
0.1519928684
 40
0.3028064364
 40
0.4478525205
 40
0.5831043833
 40
0.7056539982
 40
0.8143763059
 40
0.9107642002
 40
0.9558853941
 40
1.0
 40
1.0
 40
1.0
 40
1.0
 10
43.1780478958
 20
51.5602807347
 30
0.0
 10
43.2768878517
 20
51.3440945544
 30
0.0
 10
43.5014674954
 20
50.9254997312
 30
0.0
 10
43.9072993509
 20
50.3524849264
 30
0.0
 10
44.3661876995
 20
49.8556510724
 30
0.0
 10
44.857628422
 20
49.4574014163
 30
0.0
 10
45.3607602392
 20
49.1756158049
 30
0.0
 10
45.8549563597
 20
49.023390432
 30
0.0
 10
46.2534326849
 20
49.0148552684
 30
0.0
 10
46.5365064613
 20
49.0853661437
 30
0.0
 10
46.6643181773
 20
49.1437960163
 30
0.0
 10
46.7240741255
 20
49.1782818928
 30
0.0
  0
SPLINE
  5
394
100
AcDbEntity
  8
0
100
AcDbSpline
 62
7
  6
CONTINUOUS
 70
0
 71
3
 72
17
 73
13
 74
0
 42
0.0000001
 43
0.0000001
 44
0.0000000001
 40
0.0
 40
0.0
 40
0.0
 40
0.0
 40
0.1286933306
 40
0.270277787
 40
0.4174336961
 40
0.561777819
 40
0.6954482037
 40
0.8127106558
 40
0.864676834
 40
0.9125094922
 40
0.9571395962
 40
1.0
 40
1.0
 40
1.0
 40
1.0
 10
42.740629233
 20
112.1715215258
 30
0.0
 10
42.740629233
 20
111.88944332
 30
0.0
 10
42.8195341855
 20
111.2963529841
 30
0.0
 10
43.114089701
 20
110.4255392342
 30
0.0
 10
43.5679185779
 20
109.5866575063
 30
0.0
 10
44.1445960256
 20
108.8485048785
 30
0.0
 10
44.7969899854
 20
108.2706961041
 30
0.0
 10
45.3875096686
 20
107.9478765256
 30
0.0
 10
45.8494152635
 20
107.8249161111
 30
0.0
 10
46.1673351492
 20
107.8016059989
 30
0.0
 10
46.463380068
 20
107.8449223988
 30
0.0
 10
46.6427077107
 20
107.9194983895
 30
0.0
 10
46.7240741255
 20
107.9664559261
 30
0.0
  0
SPLINE
  5
395
100
AcDbEntity
  8
0
100
AcDbSpline
 62
7
  6
CONTINUOUS
 70
0
 71
3
 72
11
 73
7
 74
0
 42
0.0000001
 43
0.0000001
 44
0.0000000001
 40
0.0
 40
0.0
 40
0.0
 40
0.0
 40
0.2177807728
 40
0.4509253888
 40
0.7102607591
 40
1.0
 40
1.0
 40
1.0
 40
1.0
 10
59.3106272331
 20
100.6997704957
 30
0.0
 10
59.4194931328
 20
100.7625983158
 30
0.0
 10
59.6231500514
 20
100.9338524423
 30
0.0
 10
59.8399695595
 20
101.2883416061
 30
0.0
 10
59.9687933263
 20
101.725235572
 30
0.0
 10
59.9941065266
 20
102.0432209544
 30
0.0
 10
59.9941065266
 20
102.2104471155
 30
0.0
  0
SPLINE
  5
396
100
AcDbEntity
  8
0
100
AcDbSpline
 62
7
  6
CONTINUOUS
 70
0
 71
3
 72
11
 73
7
 74
0
 42
0.0000001
 43
0.0000001
 44
0.0000000001
 40
0.0
 40
0.0
 40
0.0
 40
0.0
 40
0.2372539654
 40
0.5000012591
 40
0.7627478695
 40
1.0
 40
1.0
 40
1.0
 40
1.0
 10
58.5091761038
 20
94.3558320231
 30
0.0
 10
58.5091761038
 20
94.4717579063
 30
0.0
 10
58.4657118382
 20
94.7162309308
 30
0.0
 10
58.314106083
 20
95.0597072293
 30
0.0
 10
58.0924488448
 20
95.3627380287
 30
0.0
 10
57.9024609298
 20
95.522613685
 30
0.0
 10
57.8020663787
 20
95.5805751948
 30
0.0
  0
SPLINE
  5
397
100
AcDbEntity
  8
0
100
AcDbSpline
 62
7
  6
CONTINUOUS
 70
0
 71
3
 72
11
 73
7
 74
0
 42
0.0000001
 43
0.0000001
 44
0.0000000001
 40
0.0
 40
0.0
 40
0.0
 40
0.0
 40
0.2895391946
 40
0.5491157945
 40
0.7822541179
 40
1.0
 40
1.0
 40
1.0
 40
1.0
 10
57.5192224886
 20
95.7438714966
 30
0.0
 10
57.4753692308
 20
95.769189614
 30
0.0
 10
57.3880581726
 20
95.810669673
 30
0.0
 10
57.2539139871
 20
95.8431387403
 30
0.0
 10
57.1279825759
 20
95.8399752854
 30
0.0
 10
57.0522320888
 20
95.812387878
 30
0.0
 10
57.0192527038
 20
95.7933473191
 30
0.0
  0
SPLINE
  5
398
100
AcDbEntity
  8
0
100
AcDbSpline
 62
7
  6
CONTINUOUS
 70
0
 71
3
 72
17
 73
13
 74
0
 42
0.0000001
 43
0.0000001
 44
0.0000000001
 40
0.0
 40
0.0
 40
0.0
 40
0.0
 40
0.1286933306
 40
0.270277787
 40
0.4174336961
 40
0.561777819
 40
0.6954482037
 40
0.8127106558
 40
0.864676834
 40
0.9125094922
 40
0.9571395962
 40
1.0
 40
1.0
 40
1.0
 40
1.0
 10
59.9941065266
 20
102.2104471155
 30
0.0
 10
59.9941065266
 20
102.4925253213
 30
0.0
 10
59.9152015741
 20
103.0856156573
 30
0.0
 10
59.6206460586
 20
103.9564294071
 30
0.0
 10
59.1668171817
 20
104.7953111351
 30
0.0
 10
58.5901397341
 20
105.5334637628
 30
0.0
 10
57.9377457742
 20
106.1112725372
 30
0.0
 10
57.3472260911
 20
106.4340921158
 30
0.0
 10
56.8853204962
 20
106.5570525302
 30
0.0
 10
56.5674006105
 20
106.5803626424
 30
0.0
 10
56.2713556917
 20
106.5370462425
 30
0.0
 10
56.0920280489
 20
106.4624702518
 30
0.0
 10
56.0106616342
 20
106.4155127152
 30
0.0
  0
SPLINE
  5
399
100
AcDbEntity
  8
0
100
AcDbSpline
 62
7
  6
CONTINUOUS
 70
0
 71
3
 72
13
 73
9
 74
0
 42
0.0000001
 43
0.0000001
 44
0.0000000001
 40
0.0
 40
0.0
 40
0.0
 40
0.0
 40
0.1142253587
 40
0.237559206
 40
0.5000004539
 40
0.7624414493
 40
0.885775028
 40
1.0
 40
1.0
 40
1.0
 40
1.0
 10
73.4997851071
 20
118.0096201353
 30
0.0
 10
73.5965728198
 20
117.9537409875
 30
0.0
 10
73.8083183571
 20
117.8551680779
 30
0.0
 10
74.2775223798
 20
117.7126138394
 30
0.0
 10
74.9140007109
 20
117.6434121099
 30
0.0
 10
75.5504785117
 20
117.7126167094
 30
0.0
 10
76.0196809021
 20
117.8551732984
 30
0.0
 10
76.2314252497
 20
117.9537472774
 30
0.0
 10
76.3282122318
 20
118.009626934
 30
0.0
  0
SPLINE
  5
39A
100
AcDbEntity
  8
0
100
AcDbSpline
 62
7
  6
CONTINUOUS
 70
0
 71
3
 72
11
 73
7
 74
0
 42
0.0000001
 43
0.0000001
 44
0.0000000001
 40
0.0
 40
0.0
 40
0.0
 40
0.0
 40
0.2897048043
 40
0.5490913404
 40
0.7822177947
 40
1.0
 40
1.0
 40
1.0
 40
1.0
 10
81.2779390923
 20
120.8673360111
 30
0.0
 10
81.3656963171
 20
120.9180023661
 30
0.0
 10
81.5249100448
 20
121.0276638694
 30
0.0
 10
81.7151926319
 20
121.2276421983
 30
0.0
 10
81.8355591581
 20
121.448866681
 30
0.0
 10
81.8637096764
 20
121.6076414972
 30
0.0
 10
81.8637096623
 20
121.6838175202
 30
0.0
  0
SPLINE
  5
39B
100
AcDbEntity
  8
0
100
AcDbSpline
 62
7
  6
CONTINUOUS
 70
0
 71
3
 72
11
 73
7
 74
0
 42
0.0000001
 43
0.0000001
 44
0.0000000001
 40
0.0
 40
0.0
 40
0.0
 40
0.0
 40
0.2177817009
 40
0.4509079353
 40
0.7102947134
 40
1.0
 40
1.0
 40
1.0
 40
1.0
 10
69.3784541355
 20
120.8673122157
 30
0.0
 10
69.3784541496
 20
120.7911353882
 30
0.0
 10
69.4066052601
 20
120.632358767
 30
0.0
 10
69.5269743878
 20
120.4111321308
 30
0.0
 10
69.717260864
 20
120.2111523292
 30
0.0
 10
69.8764776149
 20
120.1014903669
 30
0.0
 10
69.9642364813
 20
120.0508239079
 30
0.0
  0
SPLINE
  5
39C
100
AcDbEntity
  8
0
100
AcDbSpline
 62
7
  6
CONTINUOUS
 70
0
 71
3
 72
11
 73
7
 74
0
 42
0.0000001
 43
0.0000001
 44
0.0000000001
 40
0.0
 40
0.0
 40
0.0
 40
0.0
 40
0.217745073
 40
0.4508830113
 40
0.7104597664
 40
1.0
 40
1.0
 40
1.0
 40
1.0
 10
57.0192527038
 20
95.7933473191
 30
0.0
 10
56.9862725591
 20
95.7743063216
 30
0.0
 10
56.9245042946
 20
95.7224969798
 30
0.0
 10
56.8587978839
 20
95.6150157621
 30
0.0
 10
56.8198447529
 20
95.4826049658
 30
0.0
 10
56.8121127635
 20
95.3862484642
 30
0.0
 10
56.8121127635
 20
95.335609834
 30
0.0
  0
SPLINE
  5
39D
100
AcDbEntity
  8
0
100
AcDbSpline
 62
7
  6
CONTINUOUS
 70
0
 71
3
 72
11
 73
7
 74
0
 42
0.0000001
 43
0.0000001
 44
0.0000000001
 40
0.0
 40
0.0
 40
0.0
 40
0.0
 40
0.2897048043
 40
0.5490913404
 40
0.7822177947
 40
1.0
 40
1.0
 40
1.0
 40
1.0
 10
69.9642247055
 20
121.6837937247
 30
0.0
 10
69.8764674807
 20
121.6331273698
 30
0.0
 10
69.7172537529
 20
121.5234658664
 30
0.0
 10
69.5269711659
 20
121.3234875376
 30
0.0
 10
69.4066046396
 20
121.1022630549
 30
0.0
 10
69.3784541214
 20
120.9434882387
 30
0.0
 10
69.3784541355
 20
120.8673122157
 30
0.0
  0
SPLINE
  5
39E
100
AcDbEntity
  8
0
100
AcDbSpline
 62
7
  6
CONTINUOUS
 70
0
 71
3
 72
11
 73
7
 74
0
 42
0.0000001
 43
0.0000001
 44
0.0000000001
 40
0.0
 40
0.0
 40
0.0
 40
0.0
 40
0.2177807728
 40
0.4509253888
 40
0.7102607591
 40
1.0
 40
1.0
 40
1.0
 40
1.0
 10
56.0106616342
 20
106.4155127152
 30
0.0
 10
55.9017957345
 20
106.352684895
 30
0.0
 10
55.6981388159
 20
106.1814307685
 30
0.0
 10
55.4813193078
 20
105.8269416047
 30
0.0
 10
55.352495541
 20
105.3900476388
 30
0.0
 10
55.3271823407
 20
105.0720622564
 30
0.0
 10
55.3271823407
 20
104.9048360953
 30
0.0
  0
SPLINE
  5
39F
100
AcDbEntity
  8
0
100
AcDbSpline
 62
7
  6
CONTINUOUS
 70
0
 71
3
 72
13
 73
9
 74
0
 42
0.0000001
 43
0.0000001
 44
0.0000000001
 40
0.0
 40
0.0
 40
0.0
 40
0.0
 40
0.1142253587
 40
0.237559206
 40
0.5000004539
 40
0.7624414493
 40
0.885775028
 40
1.0
 40
1.0
 40
1.0
 40
1.0
 10
77.7423786907
 20
124.5415096005
 30
0.0
 10
77.645590978
 20
124.5973887484
 30
0.0
 10
77.4338454406
 20
124.695961658
 30
0.0
 10
76.9646414179
 20
124.8385158965
 30
0.0
 10
76.3281630869
 20
124.9077176259
 30
0.0
 10
75.6916852861
 20
124.8385130264
 30
0.0
 10
75.2224828957
 20
124.6959564374
 30
0.0
 10
75.0107385481
 20
124.5973824584
 30
0.0
 10
74.913951566
 20
124.5415028018
 30
0.0
  0
SPLINE
  5
3A0
100
AcDbEntity
  8
0
100
AcDbSpline
 62
7
  6
CONTINUOUS
 70
0
 71
3
 72
11
 73
7
 74
0
 42
0.0000001
 43
0.0000001
 44
0.0000000001
 40
0.0
 40
0.0
 40
0.0
 40
0.0
 40
0.2177817009
 40
0.4509079353
 40
0.7102947134
 40
1.0
 40
1.0
 40
1.0
 40
1.0
 10
81.8637096623
 20
121.6838175202
 30
0.0
 10
81.8637096481
 20
121.7599943477
 30
0.0
 10
81.8355585377
 20
121.9187709689
 30
0.0
 10
81.71518941
 20
122.1399976051
 30
0.0
 10
81.5249029338
 20
122.3399774066
 30
0.0
 10
81.3656861828
 20
122.449639369
 30
0.0
 10
81.2779273164
 20
122.5003058279
 30
0.0
  0
SPLINE
  5
3A1
100
AcDbEntity
  8
0
100
AcDbSpline
 62
7
  6
CONTINUOUS
 70
0
 71
3
 72
17
 73
13
 74
0
 42
0.0000001
 43
0.0000001
 44
0.0000000001
 40
0.0
 40
0.0
 40
0.0
 40
0.0
 40
0.1286933306
 40
0.270277787
 40
0.4174336961
 40
0.561777819
 40
0.6954482037
 40
0.8127106558
 40
0.864676834
 40
0.9125094922
 40
0.9571395962
 40
1.0
 40
1.0
 40
1.0
 40
1.0
 10
55.3271823407
 20
104.9048360953
 30
0.0
 10
55.3271823407
 20
104.6227578895
 30
0.0
 10
55.4060872932
 20
104.0296675536
 30
0.0
 10
55.7006428087
 20
103.1588538038
 30
0.0
 10
56.1544716856
 20
102.3199720758
 30
0.0
 10
56.7311491332
 20
101.5818194481
 30
0.0
 10
57.3835430931
 20
101.0040106737
 30
0.0
 10
57.9740627762
 20
100.6811910951
 30
0.0
 10
58.4359683711
 20
100.5582306807
 30
0.0
 10
58.7538882568
 20
100.5349205685
 30
0.0
 10
59.0499331756
 20
100.5782369683
 30
0.0
 10
59.2292608184
 20
100.652812959
 30
0.0
 10
59.3106272331
 20
100.6997704957
 30
0.0
  0
SPLINE
  5
3A2
100
AcDbEntity
  8
0
100
AcDbSpline
 62
7
  6
CONTINUOUS
 70
0
 71
3
 72
11
 73
7
 74
0
 42
0.0000001
 43
0.0000001
 44
0.0000000001
 40
0.0
 40
0.0
 40
0.0
 40
0.0
 40
0.2177807728
 40
0.4509253888
 40
0.7102607591
 40
1.0
 40
1.0
 40
1.0
 40
1.0
 10
71.8971803407
 20
93.4330850652
 30
0.0
 10
72.0060462404
 20
93.4959128854
 30
0.0
 10
72.209703159
 20
93.6671670118
 30
0.0
 10
72.4265226671
 20
94.0216561757
 30
0.0
 10
72.555346434
 20
94.4585501415
 30
0.0
 10
72.5806596342
 20
94.776535524
 30
0.0
 10
72.5806596342
 20
94.943761685
 30
0.0
  0
SPLINE
  5
3A3
100
AcDbEntity
  8
0
100
AcDbSpline
 62
7
  6
CONTINUOUS
 70
0
 71
3
 72
16
 73
12
 74
0
 42
0.0000001
 43
0.0000001
 44
0.0000000001
 40
0.0
 40
0.0
 40
0.0
 40
0.0
 40
0.0428754737
 40
0.0875228203
 40
0.1869225177
 40
0.3042332339
 40
0.4379533132
 40
0.5823547606
 40
0.7295663871
 40
0.8712576854
 40
1.0
 40
1.0
 40
1.0
 40
1.0
 10
79.9688546168
 20
89.6142667678
 30
0.0
 10
79.9392729829
 20
89.6313460705
 30
0.0
 10
79.8740855526
 20
89.6585073183
 30
0.0
 10
79.7254377643
 20
89.6802161016
 30
0.0
 10
79.515622716
 20
89.6392891221
 30
0.0
 10
79.2684432979
 20
89.5036986942
 30
0.0
 10
79.0308405643
 20
89.2935610991
 30
0.0
 10
78.8212707727
 20
89.025174118
 30
0.0
 10
78.6561545695
 20
88.720128528
 30
0.0
 10
78.5490845304
 20
88.4034382638
 30
0.0
 10
78.5203648393
 20
88.1877467942
 30
0.0
 10
78.5203648393
 20
88.0851801707
 30
0.0
  0
SPLINE
  5
3A4
100
AcDbEntity
  8
0
100
AcDbSpline
 62
7
  6
CONTINUOUS
 70
0
 71
3
 72
11
 73
7
 74
0
 42
0.0000001
 43
0.0000001
 44
0.0000000001
 40
0.0
 40
0.0
 40
0.0
 40
0.0
 40
0.2372539654
 40
0.5000012591
 40
0.7627478695
 40
1.0
 40
1.0
 40
1.0
 40
1.0
 10
71.0957292114
 20
87.0891465927
 30
0.0
 10
71.0957292114
 20
87.2050724758
 30
0.0
 10
71.0522649458
 20
87.4495455003
 30
0.0
 10
70.9006591906
 20
87.7930217988
 30
0.0
 10
70.6790019524
 20
88.0960525982
 30
0.0
 10
70.4890140374
 20
88.2559282545
 30
0.0
 10
70.3886194863
 20
88.3138897643
 30
0.0
  0
SPLINE
  5
3A5
100
AcDbEntity
  8
0
100
AcDbSpline
 62
7
  6
CONTINUOUS
 70
0
 71
3
 72
11
 73
7
 74
0
 42
0.0000001
 43
0.0000001
 44
0.0000000001
 40
0.0
 40
0.0
 40
0.0
 40
0.0
 40
0.2895391946
 40
0.5491157945
 40
0.7822541179
 40
1.0
 40
1.0
 40
1.0
 40
1.0
 10
70.1057755962
 20
88.4771860661
 30
0.0
 10
70.0619223384
 20
88.5025041836
 30
0.0
 10
69.9746112802
 20
88.5439842425
 30
0.0
 10
69.8404670947
 20
88.5764533098
 30
0.0
 10
69.7145356835
 20
88.573289855
 30
0.0
 10
69.6387851964
 20
88.5457024475
 30
0.0
 10
69.6058058114
 20
88.5266618886
 30
0.0
  0
SPLINE
  5
3A6
100
AcDbEntity
  8
0
100
AcDbSpline
 62
7
  6
CONTINUOUS
 70
0
 71
3
 72
17
 73
13
 74
0
 42
0.0000001
 43
0.0000001
 44
0.0000000001
 40
0.0
 40
0.0
 40
0.0
 40
0.0
 40
0.1286933306
 40
0.270277787
 40
0.4174336961
 40
0.561777819
 40
0.6954482037
 40
0.8127106558
 40
0.864676834
 40
0.9125094922
 40
0.9571395962
 40
1.0
 40
1.0
 40
1.0
 40
1.0
 10
72.5806596342
 20
94.943761685
 30
0.0
 10
72.5806596342
 20
95.2258398908
 30
0.0
 10
72.5017546817
 20
95.8189302268
 30
0.0
 10
72.2071991663
 20
96.6897439766
 30
0.0
 10
71.7533702893
 20
97.5286257046
 30
0.0
 10
71.1766928417
 20
98.2667783323
 30
0.0
 10
70.5242988819
 20
98.8445871067
 30
0.0
 10
69.9337791987
 20
99.1674066853
 30
0.0
 10
69.4718736038
 20
99.2903670997
 30
0.0
 10
69.1539537181
 20
99.3136772119
 30
0.0
 10
68.8579087993
 20
99.2703608121
 30
0.0
 10
68.6785811566
 20
99.1957848214
 30
0.0
 10
68.5972147418
 20
99.1488272847
 30
0.0
  0
SPLINE
  5
3A7
100
AcDbEntity
  8
0
100
AcDbSpline
 62
7
  6
CONTINUOUS
 70
0
 71
3
 72
16
 73
12
 74
0
 42
0.0000001
 43
0.0000001
 44
0.0000000001
 40
0.0
 40
0.0
 40
0.0
 40
0.0
 40
0.0428754737
 40
0.0875228203
 40
0.1869225177
 40
0.3042332339
 40
0.4379533132
 40
0.5823547606
 40
0.7295663871
 40
0.8712576854
 40
1.0
 40
1.0
 40
1.0
 40
1.0
 10
102.5961774077
 20
95.3295579376
 30
0.0
 10
102.5665957738
 20
95.3466372402
 30
0.0
 10
102.5014083435
 20
95.3737984881
 30
0.0
 10
102.3527605551
 20
95.3955072713
 30
0.0
 10
102.1429455068
 20
95.3545802918
 30
0.0
 10
101.8957660888
 20
95.2189898639
 30
0.0
 10
101.6581633551
 20
95.0088522688
 30
0.0
 10
101.4485935636
 20
94.7404652877
 30
0.0
 10
101.2834773603
 20
94.4354196977
 30
0.0
 10
101.1764073212
 20
94.1187294335
 30
0.0
 10
101.1476876301
 20
93.9030379639
 30
0.0
 10
101.1476876301
 20
93.8004713404
 30
0.0
  0
SPLINE
  5
3A8
100
AcDbEntity
  8
0
100
AcDbSpline
 62
7
  6
CONTINUOUS
 70
0
 71
3
 72
16
 73
12
 74
0
 42
0.0000001
 43
0.0000001
 44
0.0000000001
 40
0.0
 40
0.0
 40
0.0
 40
0.0
 40
0.0428754737
 40
0.0875228203
 40
0.1869225177
 40
0.3042332339
 40
0.4379533132
 40
0.5823547606
 40
0.7295663871
 40
0.8712576854
 40
1.0
 40
1.0
 40
1.0
 40
1.0
 10
79.9688546168
 20
42.2571265743
 30
0.0
 10
79.9392729829
 20
42.274205877
 30
0.0
 10
79.8740855526
 20
42.3013671248
 30
0.0
 10
79.7254377643
 20
42.3230759081
 30
0.0
 10
79.515622716
 20
42.2821489286
 30
0.0
 10
79.2684432979
 20
42.1465585007
 30
0.0
 10
79.0308405643
 20
41.9364209055
 30
0.0
 10
78.8212707727
 20
41.6680339245
 30
0.0
 10
78.6561545695
 20
41.3629883344
 30
0.0
 10
78.5490845304
 20
41.0462980703
 30
0.0
 10
78.5203648393
 20
40.8306066006
 30
0.0
 10
78.5203648393
 20
40.7280399772
 30
0.0
  0
SPLINE
  5
3A9
100
AcDbEntity
  8
0
100
AcDbSpline
 62
7
  6
CONTINUOUS
 70
0
 71
3
 72
16
 73
12
 74
0
 42
0.0000001
 43
0.0000001
 44
0.0000000001
 40
0.0
 40
0.0
 40
0.0
 40
0.0
 40
0.0428754737
 40
0.0875228203
 40
0.1869225177
 40
0.3042332339
 40
0.4379533132
 40
0.5823547606
 40
0.7295663871
 40
0.8712576854
 40
1.0
 40
1.0
 40
1.0
 40
1.0
 10
102.5961774077
 20
62.6694612524
 30
0.0
 10
102.5665957738
 20
62.686540555
 30
0.0
 10
102.5014083435
 20
62.7137018029
 30
0.0
 10
102.3527605551
 20
62.7354105862
 30
0.0
 10
102.1429455068
 20
62.6944836067
 30
0.0
 10
101.8957660888
 20
62.5588931787
 30
0.0
 10
101.6581633551
 20
62.3487555836
 30
0.0
 10
101.4485935636
 20
62.0803686025
 30
0.0
 10
101.2834773603
 20
61.7753230125
 30
0.0
 10
101.1764073212
 20
61.4586327483
 30
0.0
 10
101.1476876301
 20
61.2429412787
 30
0.0
 10
101.1476876301
 20
61.1403746552
 30
0.0
  0
SPLINE
  5
3AA
100
AcDbEntity
  8
0
100
AcDbSpline
 62
7
  6
CONTINUOUS
 70
0
 71
3
 72
11
 73
7
 74
0
 42
0.0000001
 43
0.0000001
 44
0.0000000001
 40
0.0
 40
0.0
 40
0.0
 40
0.0
 40
0.2895463391
 40
0.5491378616
 40
0.7822784713
 40
1.0
 40
1.0
 40
1.0
 40
1.0
 10
100.8825236912
 20
43.8407323378
 30
0.0
 10
100.8825236912
 20
43.7862942786
 30
0.0
 10
100.8908360099
 20
43.6827068945
 30
0.0
 10
100.9327117952
 20
43.5403579491
 30
0.0
 10
101.0033556657
 20
43.4248247191
 30
0.0
 10
101.0697416647
 20
43.3691179116
 30
0.0
 10
101.1051915154
 20
43.3486505253
 30
0.0
  0
SPLINE
  5
3AB
100
AcDbEntity
  8
0
100
AcDbSpline
 62
7
  6
CONTINUOUS
 70
0
 71
3
 72
11
 73
7
 74
0
 42
0.0000001
 43
0.0000001
 44
0.0000000001
 40
0.0
 40
0.0
 40
0.0
 40
0.0
 40
0.2895463391
 40
0.5491378616
 40
0.7822784713
 40
1.0
 40
1.0
 40
1.0
 40
1.0
 10
101.1476876301
 20
61.1403746552
 30
0.0
 10
101.1476876301
 20
61.0796065892
 30
0.0
 10
101.1569664975
 20
60.9639741604
 30
0.0
 10
101.2037115602
 20
60.805073012
 30
0.0
 10
101.2825698343
 20
60.6761056855
 30
0.0
 10
101.3566751355
 20
60.6139213423
 30
0.0
 10
101.3962470619
 20
60.5910740273
 30
0.0
  0
SPLINE
  5
3AC
100
AcDbEntity
  8
0
100
AcDbSpline
 62
7
  6
CONTINUOUS
 70
0
 71
3
 72
11
 73
7
 74
0
 42
0.0000001
 43
0.0000001
 44
0.0000000001
 40
0.0
 40
0.0
 40
0.0
 40
0.0
 40
0.2895463391
 40
0.5491378616
 40
0.7822784713
 40
1.0
 40
1.0
 40
1.0
 40
1.0
 10
78.5203648393
 20
40.7280399772
 30
0.0
 10
78.5203648393
 20
40.6672719111
 30
0.0
 10
78.5296437067
 20
40.5516394824
 30
0.0
 10
78.5763887694
 20
40.392738334
 30
0.0
 10
78.6552470435
 20
40.2637710075
 30
0.0
 10
78.7293523446
 20
40.2015866642
 30
0.0
 10
78.768924271
 20
40.1787393493
 30
0.0
  0
SPLINE
  5
3AD
100
AcDbEntity
  8
0
100
AcDbSpline
 62
7
  6
CONTINUOUS
 70
0
 71
3
 72
11
 73
7
 74
0
 42
0.0000001
 43
0.0000001
 44
0.0000000001
 40
0.0
 40
0.0
 40
0.0
 40
0.0
 40
0.2895463391
 40
0.5491378616
 40
0.7822784713
 40
1.0
 40
1.0
 40
1.0
 40
1.0
 10
101.1476876301
 20
93.8004713404
 30
0.0
 10
101.1476876301
 20
93.7397032744
 30
0.0
 10
101.1569664975
 20
93.6240708456
 30
0.0
 10
101.2037115602
 20
93.4651696972
 30
0.0
 10
101.2825698343
 20
93.3362023707
 30
0.0
 10
101.3566751355
 20
93.2740180275
 30
0.0
 10
101.3962470619
 20
93.2511707125
 30
0.0
  0
SPLINE
  5
3AE
100
AcDbEntity
  8
0
100
AcDbSpline
 62
7
  6
CONTINUOUS
 70
0
 71
3
 72
11
 73
7
 74
0
 42
0.0000001
 43
0.0000001
 44
0.0000000001
 40
0.0
 40
0.0
 40
0.0
 40
0.0
 40
0.2895463391
 40
0.5491378616
 40
0.7822784713
 40
1.0
 40
1.0
 40
1.0
 40
1.0
 10
78.5203648393
 20
88.0851801707
 30
0.0
 10
78.5203648393
 20
88.0244121047
 30
0.0
 10
78.5296437067
 20
87.9087796759
 30
0.0
 10
78.5763887694
 20
87.7498785275
 30
0.0
 10
78.6552470435
 20
87.620911201
 30
0.0
 10
78.7293523446
 20
87.5587268578
 30
0.0
 10
78.768924271
 20
87.5358795428
 30
0.0
  0
SPLINE
  5
3AF
100
AcDbEntity
  8
0
100
AcDbSpline
 62
7
  6
CONTINUOUS
 70
0
 71
3
 72
13
 73
9
 74
0
 42
0.0000001
 43
0.0000001
 44
0.0000000001
 40
0.0
 40
0.0
 40
0.0
 40
0.0
 40
0.1142253587
 40
0.237559206
 40
0.5000004539
 40
0.7624414493
 40
0.885775028
 40
1.0
 40
1.0
 40
1.0
 40
1.0
 10
86.0863382147
 20
110.7429347049
 30
0.0
 10
86.1831259274
 20
110.687055557
 30
0.0
 10
86.3948714648
 20
110.5884826474
 30
0.0
 10
86.8640754874
 20
110.4459284089
 30
0.0
 10
87.5005538185
 20
110.3767266795
 30
0.0
 10
88.1370316193
 20
110.445931279
 30
0.0
 10
88.6062340097
 20
110.588487868
 30
0.0
 10
88.8179783573
 20
110.6870618469
 30
0.0
 10
88.9147653394
 20
110.7429415036
 30
0.0
  0
SPLINE
  5
3B0
100
AcDbEntity
  8
0
100
AcDbSpline
 62
7
  6
CONTINUOUS
 70
0
 71
3
 72
11
 73
7
 74
0
 42
0.0000001
 43
0.0000001
 44
0.0000000001
 40
0.0
 40
0.0
 40
0.0
 40
0.0
 40
0.2897048043
 40
0.5490913404
 40
0.7822177947
 40
1.0
 40
1.0
 40
1.0
 40
1.0
 10
93.8644921999
 20
113.6006505807
 30
0.0
 10
93.9522494247
 20
113.6513169356
 30
0.0
 10
94.1114631525
 20
113.760978439
 30
0.0
 10
94.3017457395
 20
113.9609567678
 30
0.0
 10
94.4221122657
 20
114.1821812505
 30
0.0
 10
94.450262784
 20
114.3409560667
 30
0.0
 10
94.4502627699
 20
114.4171320897
 30
0.0
  0
SPLINE
  5
3B1
100
AcDbEntity
  8
0
100
AcDbSpline
 62
7
  6
CONTINUOUS
 70
0
 71
3
 72
16
 73
12
 74
0
 42
0.0000001
 43
0.0000001
 44
0.0000000001
 40
0.0
 40
0.0
 40
0.0
 40
0.0
 40
0.0428754737
 40
0.0875228203
 40
0.1869225177
 40
0.3042332339
 40
0.4379533132
 40
0.5823547606
 40
0.7295663871
 40
0.8712576854
 40
1.0
 40
1.0
 40
1.0
 40
1.0
 10
102.1801291169
 20
45.2105390811
 30
0.0
 10
102.1536289032
 20
45.2258392897
 30
0.0
 10
102.0952318302
 20
45.2501712409
 30
0.0
 10
101.9620681865
 20
45.2696186926
 30
0.0
 10
101.7741088724
 20
45.2329549401
 30
0.0
 10
101.5526773104
 20
45.1114885151
 30
0.0
 10
101.3398248615
 20
44.9232402528
 30
0.0
 10
101.1520852565
 20
44.6828102489
 30
0.0
 10
101.0041686578
 20
44.4095402412
 30
0.0
 10
100.9082517478
 20
44.1258385462
 30
0.0
 10
100.8825236912
 20
43.932614938
 30
0.0
 10
100.8825236912
 20
43.8407323378
 30
0.0
  0
SPLINE
  5
3B2
100
AcDbEntity
  8
0
100
AcDbSpline
 62
7
  6
CONTINUOUS
 70
0
 71
3
 72
11
 73
7
 74
0
 42
0.0000001
 43
0.0000001
 44
0.0000000001
 40
0.0
 40
0.0
 40
0.0
 40
0.0
 40
0.2177817009
 40
0.4509079353
 40
0.7102947134
 40
1.0
 40
1.0
 40
1.0
 40
1.0
 10
81.9650072431
 20
113.6006267852
 30
0.0
 10
81.9650072572
 20
113.5244499577
 30
0.0
 10
81.9931583677
 20
113.3656733365
 30
0.0
 10
82.1135274954
 20
113.1444467003
 30
0.0
 10
82.3038139716
 20
112.9444668988
 30
0.0
 10
82.4630307225
 20
112.8348049364
 30
0.0
 10
82.550789589
 20
112.7841384775
 30
0.0
  0
SPLINE
  5
3B3
100
AcDbEntity
  8
0
100
AcDbSpline
 62
7
  6
CONTINUOUS
 70
0
 71
3
 72
11
 73
7
 74
0
 42
0.0000001
 43
0.0000001
 44
0.0000000001
 40
0.0
 40
0.0
 40
0.0
 40
0.0
 40
0.217745073
 40
0.4508830113
 40
0.7104597664
 40
1.0
 40
1.0
 40
1.0
 40
1.0
 10
69.6058058114
 20
88.5266618886
 30
0.0
 10
69.5728256667
 20
88.5076208911
 30
0.0
 10
69.5110574022
 20
88.4558115494
 30
0.0
 10
69.4453509915
 20
88.3483303317
 30
0.0
 10
69.4063978605
 20
88.2159195353
 30
0.0
 10
69.3986658711
 20
88.1195630338
 30
0.0
 10
69.3986658711
 20
88.0689244035
 30
0.0
  0
SPLINE
  5
3B4
100
AcDbEntity
  8
0
100
AcDbSpline
 62
7
  6
CONTINUOUS
 70
0
 71
3
 72
11
 73
7
 74
0
 42
0.0000001
 43
0.0000001
 44
0.0000000001
 40
0.0
 40
0.0
 40
0.0
 40
0.0
 40
0.2895463391
 40
0.5491378616
 40
0.7822784713
 40
1.0
 40
1.0
 40
1.0
 40
1.0
 10
80.2174140486
 20
41.7078259464
 30
0.0
 10
80.2174140486
 20
41.7685940125
 30
0.0
 10
80.2081351812
 20
41.8842264412
 30
0.0
 10
80.1613901185
 20
42.0431275896
 30
0.0
 10
80.0825318444
 20
42.1720949161
 30
0.0
 10
80.0084265432
 20
42.2342792594
 30
0.0
 10
79.9688546168
 20
42.2571265743
 30
0.0
  0
SPLINE
  5
3B5
100
AcDbEntity
  8
0
100
AcDbSpline
 62
7
  6
CONTINUOUS
 70
0
 71
3
 72
11
 73
7
 74
0
 42
0.0000001
 43
0.0000001
 44
0.0000000001
 40
0.0
 40
0.0
 40
0.0
 40
0.0
 40
0.2895463391
 40
0.5491378616
 40
0.7822784713
 40
1.0
 40
1.0
 40
1.0
 40
1.0
 10
102.8447368394
 20
94.7802573097
 30
0.0
 10
102.8447368394
 20
94.8410253757
 30
0.0
 10
102.835457972
 20
94.9566578045
 30
0.0
 10
102.7887129093
 20
95.1155589529
 30
0.0
 10
102.7098546352
 20
95.2445262793
 30
0.0
 10
102.6357493341
 20
95.3067106226
 30
0.0
 10
102.5961774077
 20
95.3295579376
 30
0.0
  0
SPLINE
  5
3B6
100
AcDbEntity
  8
0
100
AcDbSpline
 62
7
  6
CONTINUOUS
 70
0
 71
3
 72
11
 73
7
 74
0
 42
0.0000001
 43
0.0000001
 44
0.0000000001
 40
0.0
 40
0.0
 40
0.0
 40
0.0
 40
0.2895463391
 40
0.5491378616
 40
0.7822784713
 40
1.0
 40
1.0
 40
1.0
 40
1.0
 10
80.2174140486
 20
89.06496614
 30
0.0
 10
80.2174140486
 20
89.125734206
 30
0.0
 10
80.2081351812
 20
89.2413666348
 30
0.0
 10
80.1613901185
 20
89.4002677831
 30
0.0
 10
80.0825318444
 20
89.5292351096
 30
0.0
 10
80.0084265432
 20
89.5914194529
 30
0.0
 10
79.9688546168
 20
89.6142667678
 30
0.0
  0
SPLINE
  5
3B7
100
AcDbEntity
  8
0
100
AcDbSpline
 62
7
  6
CONTINUOUS
 70
0
 71
3
 72
16
 73
12
 74
0
 42
0.0000001
 43
0.0000001
 44
0.0000000001
 40
0.0
 40
0.0
 40
0.0
 40
0.0
 40
0.0428754737
 40
0.0875228203
 40
0.1869225177
 40
0.3042332339
 40
0.4379533132
 40
0.5823547606
 40
0.7295663871
 40
0.8712576854
 40
1.0
 40
1.0
 40
1.0
 40
1.0
 10
101.3962470619
 20
93.2511707125
 30
0.0
 10
101.4258286958
 20
93.2340914099
 30
0.0
 10
101.4910161261
 20
93.206930162
 30
0.0
 10
101.6396639144
 20
93.1852213787
 30
0.0
 10
101.8494789627
 20
93.2261483582
 30
0.0
 10
102.0966583807
 20
93.3617387862
 30
0.0
 10
102.3342611144
 20
93.5718763813
 30
0.0
 10
102.543830906
 20
93.8402633623
 30
0.0
 10
102.7089471092
 20
94.1453089524
 30
0.0
 10
102.8160171483
 20
94.4619992165
 30
0.0
 10
102.8447368394
 20
94.6776906862
 30
0.0
 10
102.8447368394
 20
94.7802573097
 30
0.0
  0
SPLINE
  5
3B8
100
AcDbEntity
  8
0
100
AcDbSpline
 62
7
  6
CONTINUOUS
 70
0
 71
3
 72
11
 73
7
 74
0
 42
0.0000001
 43
0.0000001
 44
0.0000000001
 40
0.0
 40
0.0
 40
0.0
 40
0.0
 40
0.2897048043
 40
0.5490913404
 40
0.7822177947
 40
1.0
 40
1.0
 40
1.0
 40
1.0
 10
82.5507778131
 20
114.4171082943
 30
0.0
 10
82.4630205883
 20
114.3664419393
 30
0.0
 10
82.3038068605
 20
114.256780436
 30
0.0
 10
82.1135242735
 20
114.0568021071
 30
0.0
 10
81.9931577473
 20
113.8355776244
 30
0.0
 10
81.965007229
 20
113.6768028082
 30
0.0
 10
81.9650072431
 20
113.6006267852
 30
0.0
  0
SPLINE
  5
3B9
100
AcDbEntity
  8
0
100
AcDbSpline
 62
7
  6
CONTINUOUS
 70
0
 71
3
 72
11
 73
7
 74
0
 42
0.0000001
 43
0.0000001
 44
0.0000000001
 40
0.0
 40
0.0
 40
0.0
 40
0.0
 40
0.2177807728
 40
0.4509253888
 40
0.7102607591
 40
1.0
 40
1.0
 40
1.0
 40
1.0
 10
68.5972147418
 20
99.1488272847
 30
0.0
 10
68.4883488421
 20
99.0859994646
 30
0.0
 10
68.2846919235
 20
98.9147453381
 30
0.0
 10
68.0678724154
 20
98.5602561743
 30
0.0
 10
67.9390486486
 20
98.1233622084
 30
0.0
 10
67.9137354483
 20
97.805376826
 30
0.0
 10
67.9137354483
 20
97.6381506649
 30
0.0
  0
SPLINE
  5
3BA
100
AcDbEntity
  8
0
100
AcDbSpline
 62
7
  6
CONTINUOUS
 70
0
 71
3
 72
16
 73
12
 74
0
 42
0.0000001
 43
0.0000001
 44
0.0000000001
 40
0.0
 40
0.0
 40
0.0
 40
0.0
 40
0.0428754737
 40
0.0875228203
 40
0.1869225177
 40
0.3042332339
 40
0.4379533132
 40
0.5823547606
 40
0.7295663871
 40
0.8712576854
 40
1.0
 40
1.0
 40
1.0
 40
1.0
 10
78.768924271
 20
87.5358795428
 30
0.0
 10
78.7985059049
 20
87.5188002401
 30
0.0
 10
78.8636933352
 20
87.4916389923
 30
0.0
 10
79.0123411236
 20
87.469930209
 30
0.0
 10
79.2221561719
 20
87.5108571885
 30
0.0
 10
79.4693355899
 20
87.6464476164
 30
0.0
 10
79.7069383236
 20
87.8565852116
 30
0.0
 10
79.9165081151
 20
88.1249721926
 30
0.0
 10
80.0816243184
 20
88.4300177827
 30
0.0
 10
80.1886943575
 20
88.7467080468
 30
0.0
 10
80.2174140486
 20
88.9623995165
 30
0.0
 10
80.2174140486
 20
89.06496614
 30
0.0
  0
SPLINE
  5
3BB
100
AcDbEntity
  8
0
100
AcDbSpline
 62
7
  6
CONTINUOUS
 70
0
 71
3
 72
13
 73
9
 74
0
 42
0.0000001
 43
0.0000001
 44
0.0000000001
 40
0.0
 40
0.0
 40
0.0
 40
0.0
 40
0.1142253587
 40
0.237559206
 40
0.5000004539
 40
0.7624414493
 40
0.885775028
 40
1.0
 40
1.0
 40
1.0
 40
1.0
 10
90.3289317983
 20
117.2748241701
 30
0.0
 10
90.2321440856
 20
117.3307033179
 30
0.0
 10
90.0203985482
 20
117.4292762275
 30
0.0
 10
89.5511945255
 20
117.571830466
 30
0.0
 10
88.9147161945
 20
117.6410321955
 30
0.0
 10
88.2782383937
 20
117.571827596
 30
0.0
 10
87.8090360033
 20
117.429271007
 30
0.0
 10
87.5972916557
 20
117.330697028
 30
0.0
 10
87.5005046736
 20
117.2748173714
 30
0.0
  0
SPLINE
  5
3BC
100
AcDbEntity
  8
0
100
AcDbSpline
 62
7
  6
CONTINUOUS
 70
0
 71
3
 72
16
 73
12
 74
0
 42
0.0000001
 43
0.0000001
 44
0.0000000001
 40
0.0
 40
0.0
 40
0.0
 40
0.0
 40
0.0428754737
 40
0.0875228203
 40
0.1869225177
 40
0.3042332339
 40
0.4379533132
 40
0.5823547606
 40
0.7295663871
 40
0.8712576854
 40
1.0
 40
1.0
 40
1.0
 40
1.0
 10
101.3962470619
 20
60.5910740273
 30
0.0
 10
101.4258286958
 20
60.5739947247
 30
0.0
 10
101.4910161261
 20
60.5468334768
 30
0.0
 10
101.6396639144
 20
60.5251246935
 30
0.0
 10
101.8494789627
 20
60.566051673
 30
0.0
 10
102.0966583807
 20
60.701642101
 30
0.0
 10
102.3342611144
 20
60.9117796961
 30
0.0
 10
102.543830906
 20
61.1801666772
 30
0.0
 10
102.7089471092
 20
61.4852122672
 30
0.0
 10
102.8160171483
 20
61.8019025314
 30
0.0
 10
102.8447368394
 20
62.017594001
 30
0.0
 10
102.8447368394
 20
62.1201606245
 30
0.0
  0
SPLINE
  5
3BD
100
AcDbEntity
  8
0
100
AcDbSpline
 62
7
  6
CONTINUOUS
 70
0
 71
3
 72
16
 73
12
 74
0
 42
0.0000001
 43
0.0000001
 44
0.0000000001
 40
0.0
 40
0.0
 40
0.0
 40
0.0
 40
0.0428754737
 40
0.0875228203
 40
0.1869225177
 40
0.3042332339
 40
0.4379533132
 40
0.5823547606
 40
0.7295663871
 40
0.8712576854
 40
1.0
 40
1.0
 40
1.0
 40
1.0
 10
101.1051915154
 20
43.3486505253
 30
0.0
 10
101.1316917291
 20
43.3333503167
 30
0.0
 10
101.1900888021
 20
43.3090183655
 30
0.0
 10
101.3232524458
 20
43.2895709138
 30
0.0
 10
101.51121176
 20
43.3262346663
 30
0.0
 10
101.7326433219
 20
43.4477010913
 30
0.0
 10
101.9454957708
 20
43.6359493536
 30
0.0
 10
102.1332353758
 20
43.8763793575
 30
0.0
 10
102.2811519745
 20
44.1496493652
 30
0.0
 10
102.3770688846
 20
44.4333510602
 30
0.0
 10
102.4027969412
 20
44.6265746684
 30
0.0
 10
102.4027969412
 20
44.7184572686
 30
0.0
  0
SPLINE
  5
3BE
100
AcDbEntity
  8
0
100
AcDbSpline
 62
7
  6
CONTINUOUS
 70
0
 71
3
 72
11
 73
7
 74
0
 42
0.0000001
 43
0.0000001
 44
0.0000000001
 40
0.0
 40
0.0
 40
0.0
 40
0.0
 40
0.2177817009
 40
0.4509079353
 40
0.7102947134
 40
1.0
 40
1.0
 40
1.0
 40
1.0
 10
94.4502627699
 20
114.4171320897
 30
0.0
 10
94.4502627558
 20
114.4933089172
 30
0.0
 10
94.4221116453
 20
114.6520855384
 30
0.0
 10
94.3017425176
 20
114.8733121746
 30
0.0
 10
94.1114560414
 20
115.0732919762
 30
0.0
 10
93.9522392905
 20
115.1829539385
 30
0.0
 10
93.864480424
 20
115.2336203975
 30
0.0
  0
SPLINE
  5
3BF
100
AcDbEntity
  8
0
100
AcDbSpline
 62
7
  6
CONTINUOUS
 70
0
 71
3
 72
16
 73
12
 74
0
 42
0.0000001
 43
0.0000001
 44
0.0000000001
 40
0.0
 40
0.0
 40
0.0
 40
0.0
 40
0.0428754737
 40
0.0875228203
 40
0.1869225177
 40
0.3042332339
 40
0.4379533132
 40
0.5823547606
 40
0.7295663871
 40
0.8712576854
 40
1.0
 40
1.0
 40
1.0
 40
1.0
 10
78.768924271
 20
40.1787393493
 30
0.0
 10
78.7985059049
 20
40.1616600466
 30
0.0
 10
78.8636933352
 20
40.1344987988
 30
0.0
 10
79.0123411236
 20
40.1127900155
 30
0.0
 10
79.2221561719
 20
40.153716995
 30
0.0
 10
79.4693355899
 20
40.2893074229
 30
0.0
 10
79.7069383236
 20
40.4994450181
 30
0.0
 10
79.9165081151
 20
40.7678319991
 30
0.0
 10
80.0816243184
 20
41.0728775891
 30
0.0
 10
80.1886943575
 20
41.3895678533
 30
0.0
 10
80.2174140486
 20
41.605259323
 30
0.0
 10
80.2174140486
 20
41.7078259464
 30
0.0
  0
SPLINE
  5
3C0
100
AcDbEntity
  8
0
100
AcDbSpline
 62
7
  6
CONTINUOUS
 70
0
 71
3
 72
11
 73
7
 74
0
 42
0.0000001
 43
0.0000001
 44
0.0000000001
 40
0.0
 40
0.0
 40
0.0
 40
0.0
 40
0.2895463391
 40
0.5491378616
 40
0.7822784713
 40
1.0
 40
1.0
 40
1.0
 40
1.0
 10
102.4027969412
 20
44.7184572686
 30
0.0
 10
102.4027969412
 20
44.7728953277
 30
0.0
 10
102.3944846224
 20
44.8764827119
 30
0.0
 10
102.3526088371
 20
45.0188316573
 30
0.0
 10
102.2819649666
 20
45.1343648873
 30
0.0
 10
102.2155789676
 20
45.1900716948
 30
0.0
 10
102.1801291169
 20
45.2105390811
 30
0.0
  0
SPLINE
  5
3C1
100
AcDbEntity
  8
0
100
AcDbSpline
 62
7
  6
CONTINUOUS
 70
0
 71
3
 72
17
 73
13
 74
0
 42
0.0000001
 43
0.0000001
 44
0.0000000001
 40
0.0
 40
0.0
 40
0.0
 40
0.0
 40
0.1286933306
 40
0.270277787
 40
0.4174336961
 40
0.561777819
 40
0.6954482037
 40
0.8127106558
 40
0.864676834
 40
0.9125094922
 40
0.9571395962
 40
1.0
 40
1.0
 40
1.0
 40
1.0
 10
67.9137354483
 20
97.6381506649
 30
0.0
 10
67.9137354483
 20
97.3560724591
 30
0.0
 10
67.9926404008
 20
96.7629821231
 30
0.0
 10
68.2871959163
 20
95.8921683733
 30
0.0
 10
68.7410247932
 20
95.0532866453
 30
0.0
 10
69.3177022408
 20
94.3151340176
 30
0.0
 10
69.9700962007
 20
93.7373252432
 30
0.0
 10
70.5606158838
 20
93.4145056646
 30
0.0
 10
71.0225214787
 20
93.2915452502
 30
0.0
 10
71.3404413645
 20
93.268235138
 30
0.0
 10
71.6364862832
 20
93.3115515379
 30
0.0
 10
71.815813926
 20
93.3861275286
 30
0.0
 10
71.8971803407
 20
93.4330850652
 30
0.0
  0
SPLINE
  5
3C2
100
AcDbEntity
  8
0
100
AcDbSpline
 62
7
  6
CONTINUOUS
 70
0
 71
3
 72
11
 73
7
 74
0
 42
0.0000001
 43
0.0000001
 44
0.0000000001
 40
0.0
 40
0.0
 40
0.0
 40
0.0
 40
0.2895463391
 40
0.5491378616
 40
0.7822784713
 40
1.0
 40
1.0
 40
1.0
 40
1.0
 10
102.8447368394
 20
62.1201606245
 30
0.0
 10
102.8447368394
 20
62.1809286905
 30
0.0
 10
102.835457972
 20
62.2965611193
 30
0.0
 10
102.7887129093
 20
62.4554622677
 30
0.0
 10
102.7098546352
 20
62.5844295942
 30
0.0
 10
102.6357493341
 20
62.6466139374
 30
0.0
 10
102.5961774077
 20
62.6694612524
 30
0.0
  0
ENDSEC
  0
SECTION
  2
OBJECTS
  0
DICTIONARY
  5
C
100
AcDbDictionary
280
0
281
1
  3
ACAD_GROUP
350
D
  3
ACAD_MLINESTYLE
350
17
  3
ACAD_LAYOUT
350
1A
  3
ACAD_PLOTSETTINGS
350
19
  3
ACAD_PLOTSTYLENAME
350
E
  0
DICTIONARY
  5
D
102
{ACAD_REACTORS
330
C
102
}
100
AcDbDictionary
280
0
281
1
  0
ACDBDICTIONARYWDFLT
  5
E
102
{ACAD_REACTORS
330
C
102
}
100
AcDbDictionary
281
1
  3
Normal
350
F
100
AcDbDictionaryWithDefault
340
F
  0
DICTIONARY
  5
17
102
{ACAD_REACTORS
330
C
102
}
100
AcDbDictionary
280
0
281
1
  3
Standard
350
18
  0
DICTIONARY
  5
19
102
{ACAD_REACTORS
330
C
102
}
100
AcDbDictionary
281
1
  0
DICTIONARY
  5
1A
102
{ACAD_REACTORS
330
C
102
}
100
AcDbDictionary
281
1
  3
Model
350
3C3
  3
Layout1
350
3C4
  0
ACDBPLACEHOLDER
  5
F
102
{ACAD_REACTORS
330
E
102
}
  0
MLINESTYLE
  5
18
102
{ACAD_REACTORS
330
17
102
}
100
AcDbMlineStyle
  2
STANDARD
 70
0
  3

 62
256
 51
90.0
 52
90.0
 71
2
 49
0.5
 62
256
  6
BYLAYER
 49
-0.5
 62
256
  6
BYLAYER
  0
LAYOUT
  5
3C3
102
{ACAD_REACTORS
330
1A
102
}
100
AcDbPlotSettings
  1

  2
none_device
  4

  6

 40
0.0
 41
0.0
 42
0.0
 43
0.0
 44
210.0
 45
297.0
 46
0.0
 47
0.0
 48
0.0
 49
0.0
140
0.0
141
0.0
142
1.0
143
1.0
 70
1024
 72
1
 73
0
 74
0
  7

 75
0
147
1.0
148
0.0
149
0.0
100
AcDbLayout
  1
Model
 70
0
 71
0
 10
0.0
 20
0.0
 11
210.0
 21
297.0
 12
0.0
 22
0.0
 32
0.0
 14
0.0
 24
0.0
 34
0.0
 15
0.0
 25
0.0
 35
0.0
146
0.0
 13
0.0
 23
0.0
 33
0.0
 16
1.0
 26
0.0
 36
0.0
 17
0.0
 27
1.0
 37
0.0
 76
0
330
210
345
0
346
0
  0
LAYOUT
  5
3C4
102
{ACAD_REACTORS
330
1A
102
}
100
AcDbPlotSettings
  1

  2
none_device
  4

  6

 40
0.0
 41
0.0
 42
0.0
 43
0.0
 44
210.0
 45
297.0
 46
0.0
 47
0.0
 48
0.0
 49
0.0
140
0.0
141
0.0
142
1.0
143
1.0
 70
0
 72
1
 73
0
 74
0
  7

 75
0
147
1.0
148
0.0
149
0.0
100
AcDbLayout
  1
Layout1
 70
0
 71
1
 10
0.0
 20
0.0
 11
210.0
 21
297.0
 12
0.0
 22
0.0
 32
0.0
 14
0.0
 24
0.0
 34
0.0
 15
0.0
 25
0.0
 35
0.0
146
0.0
 13
0.0
 23
0.0
 33
0.0
 16
1.0
 26
0.0
 36
0.0
 17
0.0
 27
1.0
 37
0.0
 76
0
330
211
345
0
346
0
  0
ENDSEC
  0
EOF
