999
DXF file: C:\Users\sesa63760\Dev\_Creo\CAD\MCADFD0002233_3D-CAD\drw0001_1.dxf
999
Pro/ENGINEER 2019471 by Parametric Technology Corporation
  0
SECTION
  2
HEADER
  9
$ACADVER
  1
AC1024
  9
$DWGCODEPAGE
  3
ANSI_1252
  9
$EXTMAX
 10
93.9251945189
 20
132.8370608196
 30
0.0
  9
$EXTMIN
 10
0.0
 20
0.0
 30
0.0
  9
$LIMMIN
 10
0.0
 20
0.0
  9
$LIMMAX
 10
93.9251945189
 20
132.8370608196
  9
$VIEWCTR
 10
46.9625972595
 20
66.4185304098
  9
$VIEWSIZE
 40
132.8370608196
  9
$CLAYER
  8
0
  9
$LTSCALE
 40
8.659008409
  9
$CELTYPE
  6
BYLAYER
  9
$DIMSCALE
 40
1.0
  9
$DIMASZ
 40
1.1181570776
  9
$DIMEXO
 40
1.0
  9
$DIMDLI
 40
5.982587628
  9
$DIMEXE
 40
1.0
  9
$DIMCEN
 40
1.4169286487
  9
$DIMLFAC
 40
1.0
  9
$DIMBLK
  1
_FILLED
  9
$DIMALT
 70
0
  9
$DIMALTF
 40
0.0393700787
  9
$DIMTXT
 40
1.5654199086
  9
$DIMTOL
 70
1
  9
$DIMLIM
 70
0
  9
$DIMTFAC
 40
1.0
  9
$DIMTP
 40
0.01
  9
$DIMTM
 40
0.01
  9
$DIMGAP
 40
0.625
  9
$DIMDSEP
 70
46
  9
$AUNITS
 70
0
  9
$PDMODE
 70
3
  9
$PDSIZE
 40
0.3125
  9
$HANDSEED
  5
358
  9
$TILEMODE
 70
1
  9
$MEASUREMENT
 70
1
  9
$INSUNITS
 70
4
  0
ENDSEC
  0
SECTION
  2
CLASSES
  0
CLASS
  1
ACDBDICTIONARYWDFLT
  2
AcDbDictionaryWithDefault
  3
AutoCAD 2000
 90
0
 91
1
280
0
281
0
  0
CLASS
  1
ACDBPLACEHOLDER
  2
AcDbPlaceHolder
  3
AutoCAD 2000
 90
0
 91
1
280
0
281
0
  0
CLASS
  1
LAYOUT
  2
AcDbLayout
  3
AutoCAD 2000
 90
0
 91
0
280
0
281
0
  0
ENDSEC
  0
SECTION
  2
TABLES
  0
TABLE
  2
VPORT
  5
8
100
AcDbSymbolTable
 70
2
  0
VPORT
  5
1F4
100
AcDbSymbolTableRecord
100
AcDbViewportTableRecord
  2
*ACTIVE
 70
0
 10
0.0
 20
0.0
 11
1.0
 21
1.0
 12
46.9625972595
 22
66.4185304098
 13
0.0
 23
0.0
 14
1.0
 24
1.0
 15
0.0
 25
0.0
 16
0.0
 26
0.0
 36
1.0
 17
0.0
 27
0.0
 37
0.0
 40
132.8370608196
 41
0.7070707071
 42
50.0
 43
0.0
 44
0.0
 50
0.0
 51
0.0
 71
0
 72
100
 73
1
 74
1
 75
0
 76
0
 77
0
 78
0
  0
ENDTAB
  0
TABLE
  2
LTYPE
  5
5
100
AcDbSymbolTable
 70
6
  0
LTYPE
  5
14
100
AcDbSymbolTableRecord
100
AcDbLinetypeTableRecord
  2
BYBLOCK
 70
0
  3

 72
65
 73
0
 40
0.0
  0
LTYPE
  5
15
100
AcDbSymbolTableRecord
100
AcDbLinetypeTableRecord
  2
BYLAYER
 70
0
  3

 72
65
 73
0
 40
0.0
  0
LTYPE
  5
16
100
AcDbSymbolTableRecord
100
AcDbLinetypeTableRecord
  2
CONTINUOUS
 70
64
  3
Solid line
 72
65
 73
0
 40
0.0
  0
LTYPE
  5
1F5
100
AcDbSymbolTableRecord
100
AcDbLinetypeTableRecord
  2
CENTER
 70
64
  3
____ _ ____ _ ____ _ ____ _ ____ _ ____ _ ____
 72
65
 73
4
 40
0.6
 49
0.375
 74
0
 49
-0.075
 74
0
 49
0.075
 74
0
 49
-0.075
 74
0
  0
LTYPE
  5
1F6
100
AcDbSymbolTableRecord
100
AcDbLinetypeTableRecord
  2
HIDDEN
 70
64
  3
- - - - - - - - - - - - - - - - - - - -
 72
65
 73
2
 40
0.2
 49
0.1
 74
0
 49
-0.1
 74
0
  0
LTYPE
  5
1F7
100
AcDbSymbolTableRecord
100
AcDbLinetypeTableRecord
  2
PHANTOM
 70
64
  3
_____ _ _ _____ _ _ _____ _ _ _____
 72
65
 73
6
 40
0.8
 49
0.45
 74
0
 49
-0.05
 74
0
 49
0.1
 74
0
 49
-0.05
 74
0
 49
0.1
 74
0
 49
-0.05
 74
0
  0
LTYPE
  5
1F8
100
AcDbSymbolTableRecord
100
AcDbLinetypeTableRecord
  2
DOT
 70
64
  3
. . . . . . . . . . . . . . . . . . . .
 72
65
 73
2
 40
0.2
 49
0.1
 74
0
 49
-0.1
 74
0
  0
LTYPE
  5
1F9
100
AcDbSymbolTableRecord
100
AcDbLinetypeTableRecord
  2
DASHED
 70
64
  3
- - - - - - - - - - - - - - - - - - - -
 72
65
 73
2
 40
0.2
 49
0.1
 74
0
 49
-0.1
 74
0
  0
ENDTAB
  0
TABLE
  2
LAYER
  5
2
100
AcDbSymbolTable
 70
36
  0
LAYER
  5
10
100
AcDbSymbolTableRecord
100
AcDbLayerTableRecord
  2
0
 70
0
 62
7
  6
CONTINUOUS
370
-3
390
F
  0
LAYER
  5
1FA
100
AcDbSymbolTableRecord
100
AcDbLayerTableRecord
  2
DEFAULT_1
 70
0
 62
7
  6
CENTER
370
-3
390
F
  0
LAYER
  5
1FB
100
AcDbSymbolTableRecord
100
AcDbLayerTableRecord
  2
DEFAULT_2
 70
0
 62
8
  6
HIDDEN
370
-3
390
F
  0
LAYER
  5
1FC
100
AcDbSymbolTableRecord
100
AcDbLayerTableRecord
  2
DEFAULT_3
 70
0
 62
7
  6
PHANTOM
370
-3
390
F
  0
LAYER
  5
1FD
100
AcDbSymbolTableRecord
100
AcDbLayerTableRecord
  2
00_COMPONENTS
 70
0
 62
7
  6
CONTINUOUS
370
-3
390
F
  0
LAYER
  5
1FE
100
AcDbSymbolTableRecord
100
AcDbLayerTableRecord
  2
01_1_DEFAULT_DATUMS
 70
0
 62
7
  6
CONTINUOUS
370
-3
390
F
  0
LAYER
  5
1FF
100
AcDbSymbolTableRecord
100
AcDbLayerTableRecord
  2
01_PLANES
 70
0
 62
7
  6
CONTINUOUS
370
-3
390
F
  0
LAYER
  5
200
100
AcDbSymbolTableRecord
100
AcDbLayerTableRecord
  2
02_COORD_SYS
 70
0
 62
7
  6
CONTINUOUS
370
-3
390
F
  0
LAYER
  5
201
100
AcDbSymbolTableRecord
100
AcDbLayerTableRecord
  2
03_AXES
 70
0
 62
7
  6
CONTINUOUS
370
-3
390
F
  0
LAYER
  5
202
100
AcDbSymbolTableRecord
100
AcDbLayerTableRecord
  2
04_POINTS
 70
0
 62
7
  6
CONTINUOUS
370
-3
390
F
  0
LAYER
  5
203
100
AcDbSymbolTableRecord
100
AcDbLayerTableRecord
  2
05_CURVES
 70
0
 62
7
  6
CONTINUOUS
370
-3
390
F
  0
LAYER
  5
204
100
AcDbSymbolTableRecord
100
AcDbLayerTableRecord
  2
06_SURFS
 70
0
 62
7
  6
CONTINUOUS
370
-3
390
F
  0
LAYER
  5
205
100
AcDbSymbolTableRecord
100
AcDbLayerTableRecord
  2
07_COSMETICS
 70
0
 62
7
  6
CONTINUOUS
370
-3
390
F
  0
LAYER
  5
206
100
AcDbSymbolTableRecord
100
AcDbLayerTableRecord
  2
10_NOTES
 70
0
 62
7
  6
CONTINUOUS
370
-3
390
F
  0
LAYER
  5
207
100
AcDbSymbolTableRecord
100
AcDbLayerTableRecord
  2
11_NOTES_PUB
 70
0
 62
7
  6
CONTINUOUS
370
-3
390
F
  0
LAYER
  5
208
100
AcDbSymbolTableRecord
100
AcDbLayerTableRecord
  2
13_REF_GTOL
 70
0
 62
7
  6
CONTINUOUS
370
-3
390
F
  0
LAYER
  5
209
100
AcDbSymbolTableRecord
100
AcDbLayerTableRecord
  2
16_MISC
 70
0
 62
7
  6
CONTINUOUS
370
-3
390
F
  0
LAYER
  5
20A
100
AcDbSymbolTableRecord
100
AcDbLayerTableRecord
  2
17_NO_PRINT
 70
0
 62
7
  6
CONTINUOUS
370
-3
390
F
  0
LAYER
  5
20B
100
AcDbSymbolTableRecord
100
AcDbLayerTableRecord
  2
18_DATUM_CAMS_JOINTS
 70
0
 62
7
  6
CONTINUOUS
370
-3
390
F
  0
LAYER
  5
20C
100
AcDbSymbolTableRecord
100
AcDbLayerTableRecord
  2
19_DATUM_FUNCTIONAL
 70
0
 62
7
  6
CONTINUOUS
370
-3
390
F
  0
LAYER
  5
20D
100
AcDbSymbolTableRecord
100
AcDbLayerTableRecord
  2
20_DATUM_KINEMATIC_SCHEME
 70
0
 62
7
  6
CONTINUOUS
370
-3
390
F
  0
ENDTAB
  0
TABLE
  2
STYLE
  5
3
100
AcDbSymbolTable
 70
1
  0
STYLE
  5
11
100
AcDbSymbolTableRecord
100
AcDbTextStyleTableRecord
  2
STANDARD
 70
0
 40
0.0
 41
0.8
 50
0.0
 71
0
 42
0.2
  3
txt
  4

  0
STYLE
  5
20E
100
AcDbSymbolTableRecord
100
AcDbTextStyleTableRecord
  2
TEXTSTYLE_1
 70
0
 40
0.0
 41
0.8
 50
0.0
 71
0
 42
0.2
  3
gdt
  4

  0
ENDTAB
  0
TABLE
  2
VIEW
  5
6
100
AcDbSymbolTable
 70
0
  0
ENDTAB
  0
TABLE
  2
UCS
  5
7
100
AcDbSymbolTable
 70
0
  0
ENDTAB
  0
TABLE
  2
APPID
  5
9
100
AcDbSymbolTable
 70
1
  0
APPID
  5
20F
100
AcDbSymbolTableRecord
100
AcDbRegAppTableRecord
  2
ACAD
 70
0
  0
ENDTAB
  0
TABLE
  2
BLOCK_RECORD
  5
1
100
AcDbSymbolTable
 70
0
  0
BLOCK_RECORD
  5
210
100
AcDbSymbolTableRecord
100
AcDbBlockTableRecord
  2
*Model_Space
  0
BLOCK_RECORD
  5
211
100
AcDbSymbolTableRecord
100
AcDbBlockTableRecord
  2
*Paper_Space
  0
BLOCK_RECORD
  5
212
100
AcDbSymbolTableRecord
100
AcDbBlockTableRecord
  2
_FILLED
  0
ENDTAB
  0
TABLE
  2
DIMSTYLE
  5
A
100
AcDbSymbolTable
 70
1
100
AcDbDimStyleTable
 71
0
  0
DIMSTYLE
105
213
100
AcDbSymbolTableRecord
100
AcDbDimStyleTableRecord
  2
STANDARD
 70
0
  3

  4

 40
1.0
 41
1.1181570776
 42
1.0
 43
0.38
 44
1.0
 45
0.0
 46
0.0
 47
0.01
 48
0.01
140
1.5654199086
141
0.09
142
0.0
143
25.4
144
1.0
145
0.0
146
1.0
147
0.625
 71
1
 72
0
 73
0
 74
0
 75
0
 76
0
 77
1
 78
8
 79
2
170
0
171
1
172
0
173
0
174
0
175
0
176
0
177
0
178
0
270
2
179
2
271
2
272
2
273
2
274
2
275
0
280
0
281
0
282
0
283
1
284
8
285
0
286
0
287
3
288
0
340
11
278
46
341
212
342
212
343
212
344
212
  0
ENDTAB
  0
ENDSEC
  0
SECTION
  2
BLOCKS
  0
BLOCK
  5
20
100
AcDbEntity
  8
0
100
AcDbBlockBegin
  2
*Model_Space
 70
0
 10
0.0
 20
0.0
 30
0.0
  3
*Model_Space
  1

  0
ENDBLK
  5
21
100
AcDbEntity
  8
0
100
AcDbBlockEnd
  0
BLOCK
  5
1C
100
AcDbEntity
  8
0
100
AcDbBlockBegin
  2
*Paper_Space
 70
0
 10
0.0
 20
0.0
 30
0.0
  3
*Paper_Space
  1

  0
ENDBLK
  5
1D
100
AcDbEntity
  8
0
100
AcDbBlockEnd
  0
BLOCK
  5
214
100
AcDbEntity
  8
0
100
AcDbBlockBegin
  2
_FILLED
 70
64
 10
0.0
 20
0.0
  3
_FILLED
  1

  0
SOLID
  5
215
100
AcDbEntity
  8
0
  6
BYBLOCK
 62
0
100
AcDbTrace
 10
0.0
 20
0.0
 11
-1.0
 21
0.25
 12
-1.0
 22
-0.25
 13
-1.0
 23
-0.25
  0
ENDBLK
  5
216
100
AcDbEntity
  8
0
  6
BYBLOCK
 62
0
100
AcDbBlockEnd
  0
ENDSEC
  0
SECTION
  2
ENTITIES
  0
LINE
  5
217
100
AcDbEntity
  8
0
100
AcDbLine
 62
7
  6
CONTINUOUS
 10
18.313149093
 20
33.5359016408
 11
16.6467298214
 21
34.2167679855
  0
LINE
  5
218
100
AcDbEntity
  8
0
100
AcDbLine
 62
7
  6
CONTINUOUS
 10
16.9903015982
 20
35.3786236043
 11
17.1319396499
 21
35.3092599865
  0
LINE
  5
219
100
AcDbEntity
  8
0
100
AcDbLine
 62
7
  6
CONTINUOUS
 10
16.6467520324
 20
34.2168222941
 11
16.4039676802
 21
34.3357891061
  0
LINE
  5
21A
100
AcDbEntity
  8
0
100
AcDbLine
 62
7
  6
CONTINUOUS
 10
16.4039676802
 20
34.3357891061
 11
13.9997945338
 21
35.7238077182
  0
LINE
  5
21B
100
AcDbEntity
  8
0
100
AcDbLine
 62
7
  6
CONTINUOUS
 10
49.6274294329
 20
16.4498561964
 11
24.1714793276
 21
31.1465233591
  0
LINE
  5
21C
100
AcDbEntity
  8
0
100
AcDbLine
 62
7
  6
CONTINUOUS
 10
16.9903015981
 20
35.3786236044
 11
14.5154175601
 21
36.8074662452
  0
LINE
  5
21D
100
AcDbEntity
  8
0
100
AcDbLine
 62
7
  6
CONTINUOUS
 10
17.3502668065
 20
35.2615517403
 11
15.053170526
 21
36.5877508935
  0
LINE
  5
21E
100
AcDbEntity
  8
0
100
AcDbLine
 62
7
  6
CONTINUOUS
 10
26.6036819233
 20
30.5232335571
 11
26.2610643153
 21
30.7210394503
  0
LINE
  5
21F
100
AcDbEntity
  8
0
100
AcDbLine
 62
7
  6
CONTINUOUS
 10
25.4335125015
 20
31.198815904
 11
25.0907231584
 21
31.3967209463
  0
LINE
  5
220
100
AcDbEntity
  8
0
100
AcDbLine
 62
7
  6
CONTINUOUS
 10
12.423517969
 20
39.5391999595
 11
13.0967444928
 21
39.1505212378
  0
LINE
  5
221
100
AcDbEntity
  8
0
100
AcDbLine
 62
7
  6
CONTINUOUS
 10
21.1486358636
 20
34.5018647541
 11
37.8794680743
 21
24.8425327967
  0
LINE
  5
222
100
AcDbEntity
  8
0
100
AcDbLine
 62
7
  6
CONTINUOUS
 10
10.8963102831
 20
46.1876212049
 11
10.8963102831
 21
48.3350602747
  0
LINE
  5
223
100
AcDbEntity
  8
0
100
AcDbLine
 62
7
  6
CONTINUOUS
 10
10.8963102831
 20
49.0829361567
 11
10.8963102831
 21
51.2303752265
  0
LINE
  5
224
100
AcDbEntity
  8
0
100
AcDbLine
 62
7
  6
CONTINUOUS
 10
24.1714793276
 20
97.2832191466
 11
57.8222680991
 21
116.7113951317
  0
LINE
  5
225
100
AcDbEntity
  8
0
100
AcDbLine
 62
7
  6
CONTINUOUS
 10
37.1928083541
 20
103.5640693583
 11
53.45619661
 21
112.9536848973
  0
LINE
  5
226
100
AcDbEntity
  8
0
100
AcDbLine
 62
7
  6
CONTINUOUS
 10
53.456199554
 20
112.5454424431
 11
37.8999151353
 21
103.564071058
  0
LINE
  5
227
100
AcDbEntity
  8
0
100
AcDbLine
 62
7
  6
CONTINUOUS
 10
16.9903015981
 20
35.3786236044
 11
17.1924094139
 21
35.296046301
  0
LINE
  5
228
100
AcDbEntity
  8
0
100
AcDbLine
 62
7
  6
CONTINUOUS
 10
15.053170526
 20
36.5877508935
 11
14.5154175601
 21
36.8074662452
  0
LINE
  5
229
100
AcDbEntity
  8
0
100
AcDbLine
 62
7
  6
CONTINUOUS
 10
19.9027430563
 20
35.7691831124
 11
21.5693962418
 21
35.088221195
  0
LINE
  5
22A
100
AcDbEntity
  8
0
100
AcDbLine
 62
7
  6
CONTINUOUS
 10
17.2534873055
 20
36.8677137937
 11
16.9846108225
 21
36.9775714695
  0
LINE
  5
22B
100
AcDbEntity
  8
0
100
AcDbLine
 62
7
  6
CONTINUOUS
 10
14.0814858721
 20
39.0724553624
 11
14.6192388379
 21
38.8527400107
  0
LINE
  5
22C
100
AcDbEntity
  8
0
100
AcDbLine
 62
7
  6
CONTINUOUS
 10
12.0092933275
 20
40.4547722551
 11
13.3115128358
 21
39.7029524799
  0
LINE
  5
22D
100
AcDbEntity
  8
0
100
AcDbLine
 62
7
  6
CONTINUOUS
 10
21.5032101063
 20
34.9735808483
 11
37.4652434328
 21
25.7581050924
  0
LINE
  5
22E
100
AcDbEntity
  8
0
100
AcDbLine
 62
7
  6
CONTINUOUS
 10
22.792716636
 20
36.6622152074
 11
22.4790705683
 21
36.8432947525
  0
LINE
  5
22F
100
AcDbEntity
  8
0
100
AcDbLine
 62
7
  6
CONTINUOUS
 10
26.505042693
 20
35.3562110457
 11
22.792716636
 21
37.499475007
  0
LINE
  5
230
100
AcDbEntity
  8
0
100
AcDbLine
 62
7
  6
CONTINUOUS
 10
14.6115851604
 20
42.222746612
 11
12.0092933275
 21
43.7251465134
  0
LINE
  5
231
100
AcDbEntity
  8
0
100
AcDbLine
 62
7
  6
CONTINUOUS
 10
16.8111613628
 20
41.2376599503
 11
19.2860454008
 21
39.8088173095
  0
LINE
  5
232
100
AcDbEntity
  8
0
100
AcDbLine
 62
7
  6
CONTINUOUS
 10
12.0092933275
 20
40.4547722551
 11
12.0092933275
 21
43.7251465134
  0
LINE
  5
233
100
AcDbEntity
  8
0
100
AcDbLine
 62
7
  6
CONTINUOUS
 10
12.0092933275
 20
56.7954796524
 11
12.0092933275
 21
73.9313713574
  0
LINE
  5
234
100
AcDbEntity
  8
0
100
AcDbLine
 62
7
  6
CONTINUOUS
 10
12.0093157017
 20
49.2058545878
 11
12.0093157017
 21
45.1094862742
  0
LINE
  5
235
100
AcDbEntity
  8
0
100
AcDbLine
 62
7
  6
CONTINUOUS
 10
13.0346248031
 20
44.5175371801
 11
13.0346248031
 21
48.6139054938
  0
LINE
  5
236
100
AcDbEntity
  8
0
100
AcDbLine
 62
7
  6
CONTINUOUS
 10
25.0907231584
 20
95.6094062774
 11
25.2321439259
 21
95.6910551082
  0
LINE
  5
237
100
AcDbEntity
  8
0
100
AcDbLine
 62
7
  6
CONTINUOUS
 10
38.6070370796
 20
103.1558232488
 11
53.456199554
 21
111.728940026
  0
LINE
  5
238
100
AcDbEntity
  8
0
100
AcDbLine
 62
7
  6
CONTINUOUS
 10
25.4179308729
 20
95.420497089
 11
25.5593516404
 21
95.5021459198
  0
LINE
  5
239
100
AcDbEntity
  8
0
100
AcDbLine
 62
7
  6
CONTINUOUS
 10
26.2670578153
 20
94.9302645109
 11
26.4084785827
 21
95.0119133416
  0
LINE
  5
23A
100
AcDbEntity
  8
0
100
AcDbLine
 62
7
  6
CONTINUOUS
 10
26.6036819233
 20
94.7359188882
 11
26.7451026907
 21
94.8175677189
  0
LINE
  5
23B
100
AcDbEntity
  8
0
100
AcDbLine
 62
7
  6
CONTINUOUS
 10
43.6097902494
 20
104.4315824893
 11
48.4180963425
 21
107.2076427356
  0
LINE
  5
23C
100
AcDbEntity
  8
0
100
AcDbLine
 62
7
  6
CONTINUOUS
 10
25.4335125015
 20
93.2529996059
 11
25.5749332689
 21
93.3346484367
  0
LINE
  5
23D
100
AcDbEntity
  8
0
100
AcDbLine
 62
7
  6
CONTINUOUS
 10
26.6036819233
 20
92.5774172589
 11
26.7451026907
 21
92.6590660897
  0
LINE
  5
23E
100
AcDbEntity
  8
0
100
AcDbLine
 62
7
  6
CONTINUOUS
 10
15.3079619787
 20
40.1817981223
 11
14.7702090128
 21
40.4015134739
  0
LINE
  5
23F
100
AcDbEntity
  8
0
100
AcDbLine
 62
7
  6
CONTINUOUS
 10
18.1612345531
 20
39.089423706
 11
17.8923580701
 21
39.1992813818
  0
LINE
  5
240
100
AcDbEntity
  8
0
100
AcDbLine
 62
7
  6
CONTINUOUS
 10
16.8111613628
 20
41.2376599503
 11
16.6695233111
 21
41.3070235681
  0
LINE
  5
241
100
AcDbEntity
  8
0
100
AcDbLine
 62
7
  6
CONTINUOUS
 10
12.0093157017
 20
45.1094862742
 11
13.0346248031
 21
44.5175371801
  0
LINE
  5
242
100
AcDbEntity
  8
0
100
AcDbLine
 62
7
  6
CONTINUOUS
 10
20.1057220546
 20
40.4351296349
 11
21.1310311561
 21
39.8431805409
  0
LINE
  5
243
100
AcDbEntity
  8
0
100
AcDbLine
 62
7
  6
CONTINUOUS
 10
20.1057220546
 20
42.2676639199
 11
15.894706448
 21
44.6988399133
  0
LINE
  5
244
100
AcDbEntity
  8
0
100
AcDbLine
 62
7
  6
CONTINUOUS
 10
20.1057220546
 20
43.7449606259
 11
16.0594818187
 21
46.0810056669
  0
LINE
  5
245
100
AcDbEntity
  8
0
100
AcDbLine
 62
7
  6
CONTINUOUS
 10
21.1310311561
 20
43.9395488545
 11
20.1057220546
 21
44.5314979486
  0
LINE
  5
246
100
AcDbEntity
  8
0
100
AcDbLine
 62
7
  6
CONTINUOUS
 10
13.0346248031
 20
48.6139054938
 11
12.0093157017
 21
49.2058545878
  0
LINE
  5
247
100
AcDbEntity
  8
0
100
AcDbLine
 62
7
  6
CONTINUOUS
 10
26.1787219732
 20
31.5978088832
 11
26.2670578153
 21
31.3924669246
  0
LINE
  5
248
100
AcDbEntity
  8
0
100
AcDbLine
 62
7
  6
CONTINUOUS
 10
26.2610643153
 20
30.7210394503
 11
25.7926806793
 21
31.8206848859
  0
LINE
  5
249
100
AcDbEntity
  8
0
100
AcDbLine
 62
7
  6
CONTINUOUS
 10
15.7216193845
 20
55.3764088118
 11
16.0292112877
 21
53.539667003
  0
LINE
  5
24A
100
AcDbEntity
  8
0
100
AcDbLine
 62
7
  6
CONTINUOUS
 10
15.4404536376
 20
63.7293883087
 11
15.4404508749
 21
64.0835908792
  0
LINE
  5
24B
100
AcDbEntity
  8
0
100
AcDbLine
 62
7
  6
CONTINUOUS
 10
15.7216193845
 20
55.3764088119
 11
15.7216193845
 21
54.6522156911
  0
LINE
  5
24C
100
AcDbEntity
  8
0
100
AcDbLine
 62
7
  6
CONTINUOUS
 10
16.0341275015
 20
61.5855205311
 11
16.0341134531
 21
63.3866525822
  0
LINE
  5
24D
100
AcDbEntity
  8
0
100
AcDbLine
 62
7
  6
CONTINUOUS
 10
16.3876794201
 20
61.7896426081
 11
16.3876657932
 21
63.5367383137
  0
LINE
  5
24E
100
AcDbEntity
  8
0
100
AcDbLine
 62
7
  6
CONTINUOUS
 10
16.4046600755
 20
63.1727160329
 11
16.4046741239
 21
61.3715940324
  0
LINE
  5
24F
100
AcDbEntity
  8
0
100
AcDbLine
 62
7
  6
CONTINUOUS
 10
17.0005221027
 20
63.1829199366
 11
17.0005248655
 21
62.8287073155
  0
LINE
  5
250
100
AcDbEntity
  8
0
100
AcDbLine
 62
7
  6
CONTINUOUS
 10
28.5104759196
 20
90.5027908965
 11
27.9447928498
 21
90.1761955734
  0
LINE
  5
251
100
AcDbEntity
  8
0
100
AcDbLine
 62
7
  6
CONTINUOUS
 10
62.5602172463
 20
109.6571402087
 11
64.6815287579
 21
110.8818726703
  0
LINE
  5
252
100
AcDbEntity
  8
0
100
AcDbLine
 62
7
  6
CONTINUOUS
 10
20.1057220546
 20
40.4351296349
 11
20.1057220546
 21
44.5314979486
  0
LINE
  5
253
100
AcDbEntity
  8
0
100
AcDbLine
 62
7
  6
CONTINUOUS
 10
21.1310311561
 20
39.8431805409
 11
21.1310311561
 21
43.9395488545
  0
LINE
  5
254
100
AcDbEntity
  8
0
100
AcDbLine
 62
7
  6
CONTINUOUS
 10
22.792716636
 20
51.2940012666
 11
22.792716636
 21
50.5698081459
  0
LINE
  5
255
100
AcDbEntity
  8
0
100
AcDbLine
 62
7
  6
CONTINUOUS
 10
22.792716636
 20
37.499475007
 11
22.792716636
 21
36.6622152074
  0
LINE
  5
256
100
AcDbEntity
  8
0
100
AcDbLine
 62
7
  6
CONTINUOUS
 10
54.7820838688
 20
103.5334759449
 11
49.9737777758
 21
100.7574156986
  0
LINE
  5
257
100
AcDbEntity
  8
0
100
AcDbLine
 62
7
  6
CONTINUOUS
 10
47.0569860759
 20
98.2773532869
 11
62.6132704946
 21
107.2587246721
  0
LINE
  5
258
100
AcDbEntity
  8
0
100
AcDbLine
 62
7
  6
CONTINUOUS
 10
63.3203772758
 20
107.2587263718
 11
47.0569890199
 21
97.8691108327
  0
LINE
  5
259
100
AcDbEntity
  8
0
100
AcDbLine
 62
7
  6
CONTINUOUS
 10
63.3203772758
 20
106.8504751632
 11
47.0569890199
 21
97.4608596242
  0
LINE
  5
25A
100
AcDbEntity
  8
0
100
AcDbLine
 62
7
  6
CONTINUOUS
 10
67.6513896035
 20
109.1672615013
 11
69.2703745492
 21
110.101977316
  0
LINE
  5
25B
100
AcDbEntity
  8
0
100
AcDbLine
 62
7
  6
CONTINUOUS
 10
13.4235010019
 20
76.3808644994
 11
24.1714793276
 21
82.5861756383
  0
LINE
  5
25C
100
AcDbEntity
  8
0
100
AcDbLine
 62
7
  6
CONTINUOUS
 10
49.9207834067
 20
96.2157357769
 11
66.1841716626
 21
105.605351316
  0
LINE
  5
25D
100
AcDbEntity
  8
0
100
AcDbLine
 62
7
  6
CONTINUOUS
 10
70.196984614
 20
107.697594785
 11
71.8159695597
 21
108.6323105997
  0
LINE
  5
25E
100
AcDbEntity
  8
0
100
AcDbLine
 62
7
  6
CONTINUOUS
 10
14.4793962478
 20
44.2578174964
 11
13.0346248031
 21
44.5175371801
  0
LINE
  5
25F
100
AcDbEntity
  8
0
100
AcDbLine
 62
7
  6
CONTINUOUS
 10
22.6496234575
 20
49.7174567246
 11
16.0292112877
 21
53.539667003
  0
LINE
  5
260
100
AcDbEntity
  8
0
100
AcDbLine
 62
7
  6
CONTINUOUS
 10
12.0092933275
 20
56.7954796524
 11
15.7216193845
 21
54.6522156911
  0
LINE
  5
261
100
AcDbEntity
  8
0
100
AcDbLine
 62
7
  6
CONTINUOUS
 10
22.792716636
 20
50.5698081459
 11
26.505042693
 21
48.4265441847
  0
LINE
  5
262
100
AcDbEntity
  8
0
100
AcDbLine
 62
7
  6
CONTINUOUS
 10
22.792716636
 20
51.2940012667
 11
15.7216193845
 21
55.3764088119
  0
LINE
  5
263
100
AcDbEntity
  8
0
100
AcDbLine
 62
7
  6
CONTINUOUS
 10
24.1714793276
 20
31.1465233591
 11
24.1714793276
 21
32.7566647481
  0
LINE
  5
264
100
AcDbEntity
  8
0
100
AcDbLine
 62
7
  6
CONTINUOUS
 10
24.1714793276
 20
82.5861756383
 11
24.1714793276
 21
97.2832191466
  0
LINE
  5
265
100
AcDbEntity
  8
0
100
AcDbLine
 62
7
  6
CONTINUOUS
 10
25.0907231584
 20
31.3967209463
 11
25.0907231584
 21
32.2259510813
  0
LINE
  5
266
100
AcDbEntity
  8
0
100
AcDbLine
 62
7
  6
CONTINUOUS
 10
25.0907231584
 20
93.4509046482
 11
25.0907231584
 21
95.6094062774
  0
LINE
  5
267
100
AcDbEntity
  8
0
100
AcDbLine
 62
7
  6
CONTINUOUS
 10
25.4335125015
 20
94.7181039554
 11
25.4335125015
 21
93.2529996059
  0
LINE
  5
268
100
AcDbEntity
  8
0
100
AcDbLine
 62
7
  6
CONTINUOUS
 10
25.4335125015
 20
32.028046039
 11
25.4335125015
 21
31.198815904
  0
LINE
  5
269
100
AcDbEntity
  8
0
100
AcDbLine
 62
7
  6
CONTINUOUS
 10
25.5749332689
 20
94.3860840266
 11
25.5749332689
 21
93.3346484367
  0
LINE
  5
26A
100
AcDbEntity
  8
0
100
AcDbLine
 62
7
  6
CONTINUOUS
 10
25.5749332689
 20
31.9463985679
 11
25.5749332689
 21
31.2804647348
  0
LINE
  5
26B
100
AcDbEntity
  8
0
100
AcDbLine
 62
7
  6
CONTINUOUS
 10
26.2670578153
 20
31.3924669246
 11
26.2670578153
 21
31.5468093147
  0
LINE
  5
26C
100
AcDbEntity
  8
0
100
AcDbLine
 62
7
  6
CONTINUOUS
 10
26.2670578153
 20
93.4466506264
 11
26.2670578153
 21
94.9302645109
  0
LINE
  5
26D
100
AcDbEntity
  8
0
100
AcDbLine
 62
7
  6
CONTINUOUS
 10
26.505042693
 20
48.4265441847
 11
26.505042693
 21
35.3562110457
  0
LINE
  5
26E
100
AcDbEntity
  8
0
100
AcDbLine
 62
7
  6
CONTINUOUS
 10
26.6036819233
 20
94.7359188882
 11
26.6036819233
 21
92.5774172589
  0
LINE
  5
26F
100
AcDbEntity
  8
0
100
AcDbLine
 62
7
  6
CONTINUOUS
 10
26.6036819233
 20
31.352463692
 11
26.6036819233
 21
30.5232335571
  0
LINE
  5
270
100
AcDbEntity
  8
0
100
AcDbLine
 62
7
  6
CONTINUOUS
 10
26.7451026907
 20
94.8175677189
 11
26.7451026907
 21
92.6590660897
  0
LINE
  5
271
100
AcDbEntity
  8
0
100
AcDbLine
 62
7
  6
CONTINUOUS
 10
26.7451026907
 20
31.270816221
 11
26.7451026907
 21
30.6048823879
  0
LINE
  5
272
100
AcDbEntity
  8
0
100
AcDbLine
 62
7
  6
CONTINUOUS
 10
66.1841746066
 20
105.1971088618
 11
50.6278901879
 21
96.2157374766
  0
LINE
  5
273
100
AcDbEntity
  8
0
100
AcDbLine
 62
7
  6
CONTINUOUS
 10
51.3350121323
 20
95.8074896675
 11
66.1841746066
 21
104.3806064446
  0
LINE
  5
274
100
AcDbEntity
  8
0
100
AcDbLine
 62
7
  6
CONTINUOUS
 10
69.7020987857
 20
105.5338662603
 11
69.947764857
 21
105.6757007861
  0
LINE
  5
275
100
AcDbEntity
  8
0
100
AcDbLine
 62
7
  6
CONTINUOUS
 10
32.5604577882
 20
83.4879746578
 11
31.9947747185
 21
83.1613793347
  0
LINE
  5
276
100
AcDbEntity
  8
0
100
AcDbLine
 62
7
  6
CONTINUOUS
 10
56.3377653021
 20
97.0832489079
 11
61.1460713951
 21
99.8593091542
  0
LINE
  5
277
100
AcDbEntity
  8
0
100
AcDbLine
 62
7
  6
CONTINUOUS
 10
73.1668454597
 20
105.982983616
 11
71.045533948
 21
104.7582511544
  0
LINE
  5
278
100
AcDbEntity
  8
0
100
AcDbLine
 62
7
  6
CONTINUOUS
 10
18.5564464401
 20
59.1655019287
 11
13.8831582666
 21
61.8635650754
  0
LINE
  5
279
100
AcDbEntity
  8
0
100
AcDbLine
 62
7
  6
CONTINUOUS
 10
13.2559116399
 20
39.6066462049
 11
15.894706448
 21
44.6988399133
  0
LINE
  5
27A
100
AcDbEntity
  8
0
100
AcDbLine
 62
7
  6
CONTINUOUS
 10
14.0814858721
 20
39.0724553624
 11
14.7702090128
 21
40.4015134739
  0
LINE
  5
27B
100
AcDbEntity
  8
0
100
AcDbLine
 62
7
  6
CONTINUOUS
 10
14.6192388379
 20
38.8527400107
 11
15.3079619787
 21
40.1817981223
  0
LINE
  5
27C
100
AcDbEntity
  8
0
100
AcDbLine
 62
7
  6
CONTINUOUS
 10
41.2384509723
 20
83.1544573152
 11
40.6727679025
 21
82.8278619921
  0
LINE
  5
27D
100
AcDbEntity
  8
0
100
AcDbLine
 62
7
  6
CONTINUOUS
 10
15.4322900802
 20
67.9168941642
 11
15.0787381616
 21
67.7127720873
  0
LINE
  5
27E
100
AcDbEntity
  8
0
100
AcDbLine
 62
7
  6
CONTINUOUS
 10
15.1787376767
 20
67.5395668125
 11
12.6331638627
 21
66.0698878585
  0
LINE
  5
27F
100
AcDbEntity
  8
0
100
AcDbLine
 62
7
  6
CONTINUOUS
 10
16.7822841284
 20
67.7831785399
 11
16.4287322098
 21
67.579056463
  0
LINE
  5
280
100
AcDbEntity
  8
0
100
AcDbLine
 62
7
  6
CONTINUOUS
 10
16.4287320806
 20
67.4157561149
 11
13.8831582666
 21
65.946077161
  0
LINE
  5
281
100
AcDbEntity
  8
0
100
AcDbLine
 62
7
  6
CONTINUOUS
 10
16.4046741239
 20
61.3715940324
 11
16.0341275015
 21
61.5855205311
  0
LINE
  5
282
100
AcDbEntity
  8
0
100
AcDbLine
 62
7
  6
CONTINUOUS
 10
16.4046709397
 20
61.7798329483
 11
16.3876794201
 21
61.7896426081
  0
LINE
  5
283
100
AcDbEntity
  8
0
100
AcDbLine
 62
7
  6
CONTINUOUS
 10
17.0005248655
 20
62.8287073155
 11
16.4046600755
 21
63.1727160329
  0
LINE
  5
284
100
AcDbEntity
  8
0
100
AcDbLine
 62
7
  6
CONTINUOUS
 10
16.0341134531
 20
63.3866525822
 11
15.4404536376
 21
63.7293883087
  0
LINE
  5
285
100
AcDbEntity
  8
0
100
AcDbLine
 62
7
  6
CONTINUOUS
 10
15.4404508749
 20
64.0835908792
 11
17.0005221027
 21
63.1829199366
  0
LINE
  5
286
100
AcDbEntity
  8
0
100
AcDbLine
 62
7
  6
CONTINUOUS
 10
13.8831582666
 20
65.946077161
 11
18.5564464401
 21
63.2480140144
  0
LINE
  5
287
100
AcDbEntity
  8
0
100
AcDbLine
 62
7
  6
CONTINUOUS
 10
67.5100589215
 20
96.1851423636
 11
62.7017528284
 21
93.4090821172
  0
LINE
  5
288
100
AcDbEntity
  8
0
100
AcDbLine
 62
7
  6
CONTINUOUS
 10
59.7849611286
 20
90.9290197056
 11
75.3412455473
 21
99.9103910907
  0
LINE
  5
289
100
AcDbEntity
  8
0
100
AcDbLine
 62
7
  6
CONTINUOUS
 10
76.0483523284
 20
99.9103927904
 11
59.7849640725
 21
90.5207772514
  0
LINE
  5
28A
100
AcDbEntity
  8
0
100
AcDbLine
 62
7
  6
CONTINUOUS
 10
76.0483523284
 20
99.5021415818
 11
59.7849640725
 21
90.1125260428
  0
LINE
  5
28B
100
AcDbEntity
  8
0
100
AcDbLine
 62
7
  6
CONTINUOUS
 10
15.7472078286
 20
63.9064918662
 11
15.4404536376
 21
63.7293883087
  0
LINE
  5
28C
100
AcDbEntity
  8
0
100
AcDbLine
 62
7
  6
CONTINUOUS
 10
16.3408676441
 20
63.5637561398
 11
16.0341134531
 21
63.3866525822
  0
LINE
  5
28D
100
AcDbEntity
  8
0
100
AcDbLine
 62
7
  6
CONTINUOUS
 10
49.6274294329
 20
82.5865519839
 11
83.2782182044
 21
102.0147279689
  0
LINE
  5
28E
100
AcDbEntity
  8
0
100
AcDbLine
 62
7
  6
CONTINUOUS
 10
16.7114229707
 20
63.3498246158
 11
16.4046600755
 21
63.1727160329
  0
LINE
  5
28F
100
AcDbEntity
  8
0
100
AcDbLine
 62
7
  6
CONTINUOUS
 10
21.0956562397
 20
64.7213671506
 11
16.4287320806
 21
67.4157561149
  0
LINE
  5
290
100
AcDbEntity
  8
0
100
AcDbLine
 62
7
  6
CONTINUOUS
 10
16.4287322098
 20
67.579056463
 11
21.0956586322
 21
64.8846658273
  0
LINE
  5
291
100
AcDbEntity
  8
0
100
AcDbLine
 62
7
  6
CONTINUOUS
 10
16.7822841284
 20
67.7831785399
 11
21.4503064989
 21
65.0881551725
  0
LINE
  5
292
100
AcDbEntity
  8
0
100
AcDbLine
 62
7
  6
CONTINUOUS
 10
37.1928083541
 20
103.5640693583
 11
37.1928083541
 21
103.1558181497
  0
LINE
  5
293
100
AcDbEntity
  8
0
100
AcDbLine
 62
7
  6
CONTINUOUS
 10
37.4652434328
 20
25.7581050924
 11
37.4652434328
 21
59.2347041947
  0
LINE
  5
294
100
AcDbEntity
  8
0
100
AcDbLine
 62
7
  6
CONTINUOUS
 10
19.7199770889
 20
37.5438281923
 11
19.0312539481
 21
36.2147700807
  0
LINE
  5
295
100
AcDbEntity
  8
0
100
AcDbLine
 62
7
  6
CONTINUOUS
 10
19.9027430563
 20
35.7691831124
 11
21.8310705978
 21
39.490358152
  0
LINE
  5
296
100
AcDbEntity
  8
0
100
AcDbLine
 62
7
  6
CONTINUOUS
 10
22.792716636
 20
37.4484255162
 11
21.5693962418
 21
35.088221195
  0
LINE
  5
297
100
AcDbEntity
  8
0
100
AcDbLine
 62
7
  6
CONTINUOUS
 10
21.0967545802
 20
64.8840330956
 11
21.4503064989
 21
65.0881551725
  0
LINE
  5
298
100
AcDbEntity
  8
0
100
AcDbLine
 62
7
  6
CONTINUOUS
 10
18.5564464401
 20
63.2480140144
 11
21.100674044
 21
64.7169157382
  0
LINE
  5
299
100
AcDbEntity
  8
0
100
AcDbLine
 62
7
  6
CONTINUOUS
 10
16.3876794201
 20
61.7896426081
 11
16.0341275015
 21
61.5855205311
  0
LINE
  5
29A
100
AcDbEntity
  8
0
100
AcDbLine
 62
7
  6
CONTINUOUS
 10
45.2884328409
 20
76.1396410764
 11
44.7227497711
 21
75.8130457533
  0
LINE
  5
29B
100
AcDbEntity
  8
0
100
AcDbLine
 62
7
  6
CONTINUOUS
 10
37.4652434328
 20
59.2347041947
 11
12.0092933275
 21
73.9313713574
  0
LINE
  5
29C
100
AcDbEntity
  8
0
100
AcDbLine
 62
7
  6
CONTINUOUS
 10
13.4235010019
 20
76.3808644994
 11
38.8794511072
 21
61.6841973367
  0
LINE
  5
29D
100
AcDbEntity
  8
0
100
AcDbLine
 62
7
  6
CONTINUOUS
 10
25.4179308729
 20
95.420497089
 11
26.2670578153
 21
93.4466506264
  0
LINE
  5
29E
100
AcDbEntity
  8
0
100
AcDbLine
 62
7
  6
CONTINUOUS
 10
26.2670578153
 20
93.857040506
 11
25.5593516404
 21
95.5021459198
  0
LINE
  5
29F
100
AcDbEntity
  8
0
100
AcDbLine
 62
7
  6
CONTINUOUS
 10
26.2610643153
 20
92.7752231522
 11
25.4335125015
 21
94.7181039554
  0
LINE
  5
2A0
100
AcDbEntity
  8
0
100
AcDbLine
 62
7
  6
CONTINUOUS
 10
43.6097902494
 20
104.4315824893
 11
43.6097902494
 21
103.7783945626
  0
LINE
  5
2A1
100
AcDbEntity
  8
0
100
AcDbLine
 62
7
  6
CONTINUOUS
 10
22.3488325958
 20
60.5095330316
 11
19.806440844
 21
59.0416912312
  0
LINE
  5
2A2
100
AcDbEntity
  8
0
100
AcDbLine
 62
7
  6
CONTINUOUS
 10
22.7992020773
 20
60.5459611696
 11
22.4456501587
 21
60.3418390926
  0
LINE
  5
2A3
100
AcDbEntity
  8
0
100
AcDbLine
 62
7
  6
CONTINUOUS
 10
47.0569890199
 20
97.8691108327
 11
47.0569890199
 21
97.4608596242
  0
LINE
  5
2A4
100
AcDbEntity
  8
0
100
AcDbLine
 62
7
  6
CONTINUOUS
 10
38.8794511072
 20
61.6841973367
 11
49.6274294329
 21
67.8895084755
  0
LINE
  5
2A5
100
AcDbEntity
  8
0
100
AcDbLine
 62
7
  6
CONTINUOUS
 10
48.4180963425
 20
101.0023832667
 11
48.4180963425
 21
107.2076427356
  0
LINE
  5
2A6
100
AcDbEntity
  8
0
100
AcDbLine
 62
7
  6
CONTINUOUS
 10
49.6274294329
 20
16.4498561964
 11
49.6274294329
 21
31.1468997047
  0
LINE
  5
2A7
100
AcDbEntity
  8
0
100
AcDbLine
 62
7
  6
CONTINUOUS
 10
49.6274294329
 20
67.8895084755
 11
49.6274294329
 21
82.5865519839
  0
LINE
  5
2A8
100
AcDbEntity
  8
0
100
AcDbLine
 62
7
  6
CONTINUOUS
 10
49.9207834067
 20
96.2157357769
 11
49.9207834067
 21
95.8074845684
  0
LINE
  5
2A9
100
AcDbEntity
  8
0
100
AcDbLine
 62
7
  6
CONTINUOUS
 10
51.2465234672
 20
107.2076495343
 11
51.2465234672
 21
101.4922313799
  0
LINE
  5
2AA
100
AcDbEntity
  8
0
100
AcDbLine
 62
7
  6
CONTINUOUS
 10
81.1642605726
 20
82.0146856525
 11
80.5985775029
 21
81.6880903294
  0
LINE
  5
2AB
100
AcDbEntity
  8
0
100
AcDbLine
 62
7
  6
CONTINUOUS
 10
49.6274294329
 20
67.8895084755
 11
24.1714793276
 21
82.5861756383
  0
LINE
  5
2AC
100
AcDbEntity
  8
0
100
AcDbLine
 62
7
  6
CONTINUOUS
 10
53.456199554
 20
111.728940026
 11
53.456199554
 21
112.5454424431
  0
LINE
  5
2AD
100
AcDbEntity
  8
0
100
AcDbLine
 62
7
  6
CONTINUOUS
 10
54.7820720929
 20
103.5334759449
 11
54.7820720929
 21
105.1664457617
  0
LINE
  5
2AE
100
AcDbEntity
  8
0
100
AcDbLine
 62
7
  6
CONTINUOUS
 10
56.3377653021
 20
97.0832489079
 11
56.3377653021
 21
96.4300609812
  0
LINE
  5
2AF
100
AcDbEntity
  8
0
100
AcDbLine
 62
7
  6
CONTINUOUS
 10
83.1909615909
 20
81.306839487
 11
82.3030513025
 21
80.794207303
  0
LINE
  5
2B0
100
AcDbEntity
  8
0
100
AcDbLine
 62
7
  6
CONTINUOUS
 10
81.6592332587
 20
52.498118335
 11
80.5985775029
 21
53.1104743678
  0
LINE
  5
2B1
100
AcDbEntity
  8
0
100
AcDbLine
 62
7
  6
CONTINUOUS
 10
84.4876486075
 20
52.4980901163
 11
80.5985775029
 21
54.7433955698
  0
LINE
  5
2B2
100
AcDbEntity
  8
0
100
AcDbLine
 62
7
  6
CONTINUOUS
 10
59.7849640725
 20
90.5207772514
 11
59.7849640725
 21
90.1125260428
  0
LINE
  5
2B3
100
AcDbEntity
  8
0
100
AcDbLine
 62
7
  6
CONTINUOUS
 10
26.6036819233
 20
92.5774172589
 11
26.2610643153
 21
92.7752231522
  0
LINE
  5
2B4
100
AcDbEntity
  8
0
100
AcDbLine
 62
7
  6
CONTINUOUS
 10
25.4335125015
 20
93.2529996059
 11
25.0907231584
 21
93.4509046482
  0
LINE
  5
2B5
100
AcDbEntity
  8
0
100
AcDbLine
 62
7
  6
CONTINUOUS
 10
61.1460713951
 20
93.6540496853
 11
61.1460713951
 21
99.8593091542
  0
LINE
  5
2B6
100
AcDbEntity
  8
0
100
AcDbLine
 62
7
  6
CONTINUOUS
 10
63.3203772758
 20
107.2587263718
 11
63.3203772758
 21
106.8504751632
  0
LINE
  5
2B7
100
AcDbEntity
  8
0
100
AcDbLine
 62
7
  6
CONTINUOUS
 10
63.9744985199
 20
99.8593159529
 11
63.9744985199
 21
94.1438977985
  0
LINE
  5
2B8
100
AcDbEntity
  8
0
100
AcDbLine
 62
7
  6
CONTINUOUS
 10
64.6815287579
 20
108.4324281431
 11
64.6815287579
 21
110.8818726703
  0
LINE
  5
2B9
100
AcDbEntity
  8
0
100
AcDbLine
 62
7
  6
CONTINUOUS
 10
25.0907231584
 20
95.6094062774
 11
25.4179308729
 21
95.420497089
  0
LINE
  5
2BA
100
AcDbEntity
  8
0
100
AcDbLine
 62
7
  6
CONTINUOUS
 10
26.2670578153
 20
94.9302645109
 11
26.6036819233
 21
94.7359188882
  0
LINE
  5
2BB
100
AcDbEntity
  8
0
100
AcDbLine
 62
7
  6
CONTINUOUS
 10
26.7451026907
 20
94.8175677189
 11
26.4084785827
 21
95.0119133416
  0
LINE
  5
2BC
100
AcDbEntity
  8
0
100
AcDbLine
 62
7
  6
CONTINUOUS
 10
25.5593516404
 20
95.5021459198
 11
25.2321439259
 21
95.6910551082
  0
LINE
  5
2BD
100
AcDbEntity
  8
0
100
AcDbLine
 62
7
  6
CONTINUOUS
 10
49.6274294329
 20
82.5865519839
 11
24.1714793276
 21
97.2832191466
  0
LINE
  5
2BE
100
AcDbEntity
  8
0
100
AcDbLine
 62
7
  6
CONTINUOUS
 10
66.1841746066
 20
104.3806064446
 11
66.1841746066
 21
105.1971088618
  0
LINE
  5
2BF
100
AcDbEntity
  8
0
100
AcDbLine
 62
7
  6
CONTINUOUS
 10
67.5100471456
 20
96.1851423636
 11
67.5100471456
 21
97.8181121803
  0
LINE
  5
2C0
100
AcDbEntity
  8
0
100
AcDbLine
 62
7
  6
CONTINUOUS
 10
67.6513896035
 20
109.1672615013
 11
67.6160350226
 21
106.7382284891
  0
LINE
  5
2C1
100
AcDbEntity
  8
0
100
AcDbLine
 62
7
  6
CONTINUOUS
 10
25.4335125015
 20
31.198815904
 11
25.5749332689
 21
31.2804647348
  0
LINE
  5
2C2
100
AcDbEntity
  8
0
100
AcDbLine
 62
7
  6
CONTINUOUS
 10
26.6036819233
 20
30.5232335571
 11
26.7451026907
 21
30.6048823879
  0
LINE
  5
2C3
100
AcDbEntity
  8
0
100
AcDbLine
 62
7
  6
CONTINUOUS
 10
70.232339195
 20
105.2277387428
 11
70.196984614
 21
107.697594785
  0
LINE
  5
2C4
100
AcDbEntity
  8
0
100
AcDbLine
 62
7
  6
CONTINUOUS
 10
76.0483523284
 20
99.9103927904
 11
76.0483523284
 21
99.5021415818
  0
LINE
  5
2C5
100
AcDbEntity
  8
0
100
AcDbLine
 62
7
  6
CONTINUOUS
 10
81.6592332587
 20
52.498118335
 11
80.5985775029
 21
51.8857521042
  0
LINE
  5
2C6
100
AcDbEntity
  8
0
100
AcDbLine
 62
7
  6
CONTINUOUS
 10
59.7849640725
 20
90.1125260428
 11
49.9207834067
 21
95.8074845684
  0
LINE
  5
2C7
100
AcDbEntity
  8
0
100
AcDbLine
 62
7
  6
CONTINUOUS
 10
47.0569890199
 20
97.4608596242
 11
37.1928083541
 21
103.1558181497
  0
LINE
  5
2C8
100
AcDbEntity
  8
0
100
AcDbLine
 62
7
  6
CONTINUOUS
 10
59.7849640725
 20
90.5207772514
 11
49.9207834067
 21
96.2157357769
  0
LINE
  5
2C9
100
AcDbEntity
  8
0
100
AcDbLine
 62
7
  6
CONTINUOUS
 10
47.0569890199
 20
97.8691108327
 11
37.1928083541
 21
103.5640693583
  0
LINE
  5
2CA
100
AcDbEntity
  8
0
100
AcDbLine
 62
7
  6
CONTINUOUS
 10
37.8999151353
 20
103.564071058
 11
47.0569860759
 21
98.2773532869
  0
LINE
  5
2CB
100
AcDbEntity
  8
0
100
AcDbLine
 62
7
  6
CONTINUOUS
 10
50.6278901879
 20
96.2157374766
 11
59.7849611286
 21
90.9290197056
  0
LINE
  5
2CC
100
AcDbEntity
  8
0
100
AcDbLine
 62
7
  6
CONTINUOUS
 10
69.947764857
 20
105.6757007861
 11
69.2703745492
 21
110.101977316
  0
LINE
  5
2CD
100
AcDbEntity
  8
0
100
AcDbLine
 62
7
  6
CONTINUOUS
 10
80.5985775029
 20
81.6880903294
 11
80.5985775029
 21
51.8857521042
  0
LINE
  5
2CE
100
AcDbEntity
  8
0
100
AcDbLine
 62
7
  6
CONTINUOUS
 10
84.4876486075
 20
90.5471027545
 11
83.1909615909
 21
81.306839487
  0
LINE
  5
2CF
100
AcDbEntity
  8
0
100
AcDbLine
 62
7
  6
CONTINUOUS
 10
81.6592332587
 20
50.8651135008
 11
84.4876486075
 21
52.4980901163
  0
LINE
  5
2D0
100
AcDbEntity
  8
0
100
AcDbLine
 62
7
  6
CONTINUOUS
 10
49.6274294329
 20
31.1468997047
 11
38.8794511072
 21
24.9415885658
  0
LINE
  5
2D1
100
AcDbEntity
  8
0
100
AcDbLine
 62
7
  6
CONTINUOUS
 10
82.3030513025
 20
80.794207303
 11
80.6766708304
 21
81.733177264
  0
LINE
  5
2D2
100
AcDbEntity
  8
0
100
AcDbLine
 62
7
  6
CONTINUOUS
 10
61.5703819785
 20
93.4090793977
 11
56.3377700124
 21
96.4300609812
  0
LINE
  5
2D3
100
AcDbEntity
  8
0
100
AcDbLine
 62
7
  6
CONTINUOUS
 10
48.8424069259
 20
100.7574129791
 11
43.6097949598
 21
103.7783945626
  0
LINE
  5
2D4
100
AcDbEntity
  8
0
100
AcDbLine
 62
7
  6
CONTINUOUS
 10
81.6592332587
 20
52.498118335
 11
81.6592332587
 21
50.8651135008
  0
LINE
  5
2D5
100
AcDbEntity
  8
0
100
AcDbLine
 62
7
  6
CONTINUOUS
 10
84.4876486075
 20
94.7929153236
 11
84.4876486075
 21
90.5471027545
  0
LINE
  5
2D6
100
AcDbEntity
  8
0
100
AcDbLine
 62
7
  6
CONTINUOUS
 10
84.4876486075
 20
52.4980901163
 11
84.4876486075
 21
36.5762929822
  0
LINE
  5
2D7
100
AcDbEntity
  8
0
100
AcDbLine
 62
7
  6
CONTINUOUS
 10
45.2884328409
 20
23.2302844464
 11
44.7227497711
 21
22.9036891233
  0
LINE
  5
2D8
100
AcDbEntity
  8
0
100
AcDbLine
 62
7
  6
CONTINUOUS
 10
51.2465234672
 20
107.2076495343
 11
54.7820720929
 21
105.1664457617
  0
LINE
  5
2D9
100
AcDbEntity
  8
0
100
AcDbLine
 62
7
  6
CONTINUOUS
 10
63.9744985199
 20
99.8593159529
 11
67.5100471456
 21
97.8181121803
  0
LINE
  5
2DA
100
AcDbEntity
  8
0
100
AcDbLine
 62
7
  6
CONTINUOUS
 10
82.3030513025
 20
80.794207303
 11
81.1642605726
 21
82.0146856525
  0
LINE
  5
2DB
100
AcDbEntity
  8
0
100
AcDbLine
 62
7
  6
CONTINUOUS
 10
53.456199554
 20
111.728940026
 11
61.9061485502
 21
106.8504700641
  0
LINE
  5
2DC
100
AcDbEntity
  8
0
100
AcDbLine
 62
7
  6
CONTINUOUS
 10
66.1841746066
 20
104.3806064446
 11
74.6341236029
 21
99.5021364827
  0
LINE
  5
2DD
100
AcDbEntity
  8
0
100
AcDbLine
 62
7
  6
CONTINUOUS
 10
83.2782182044
 20
102.0147279689
 11
84.4876486075
 21
94.7929153236
  0
LINE
  5
2DE
100
AcDbEntity
  8
0
100
AcDbLine
 62
7
  6
CONTINUOUS
 10
84.4876486075
 20
36.5762929822
 11
49.6274294329
 21
16.4498561964
  0
LINE
  5
2DF
100
AcDbEntity
  8
0
100
AcDbLine
 62
7
  6
CONTINUOUS
 10
75.3412455473
 20
99.9103910907
 11
66.1841746066
 21
105.1971088618
  0
LINE
  5
2E0
100
AcDbEntity
  8
0
100
AcDbLine
 62
7
  6
CONTINUOUS
 10
62.6132704946
 20
107.2587246721
 11
53.456199554
 21
112.5454424431
  0
LINE
  5
2E1
100
AcDbEntity
  8
0
100
AcDbLine
 62
7
  6
CONTINUOUS
 10
53.45619661
 20
112.9536848973
 11
63.3203772758
 21
107.2587263718
  0
LINE
  5
2E2
100
AcDbEntity
  8
0
100
AcDbLine
 62
7
  6
CONTINUOUS
 10
66.1841716626
 20
105.605351316
 11
76.0483523284
 21
99.9103927904
  0
LINE
  5
2E3
100
AcDbEntity
  8
0
100
AcDbLine
 62
7
  6
CONTINUOUS
 10
62.5602172463
 20
109.6571402087
 11
71.045533948
 21
104.7582511544
  0
LINE
  5
2E4
100
AcDbEntity
  8
0
100
AcDbLine
 62
7
  6
CONTINUOUS
 10
69.947764857
 20
105.6757007861
 11
70.2282448312
 21
105.5137692608
  0
LINE
  5
2E5
100
AcDbEntity
  8
0
100
AcDbLine
 62
7
  6
CONTINUOUS
 10
64.6815287579
 20
110.8818726703
 11
67.6513896035
 21
109.1672615013
  0
LINE
  5
2E6
100
AcDbEntity
  8
0
100
AcDbLine
 62
7
  6
CONTINUOUS
 10
70.196984614
 20
107.697594785
 11
73.1668454597
 21
105.982983616
  0
LINE
  5
2E7
100
AcDbEntity
  8
0
100
AcDbLine
 62
7
  6
CONTINUOUS
 10
83.2782182044
 20
102.0147279689
 11
71.8159695597
 21
108.6323105997
  0
LINE
  5
2E8
100
AcDbEntity
  8
0
100
AcDbLine
 62
7
  6
CONTINUOUS
 10
69.2703745492
 20
110.101977316
 11
57.8222680991
 21
116.7113951317
  0
ARC
  5
2E9
100
AcDbEntity
  8
0
100
AcDbCircle
 62
7
  6
CONTINUOUS
 10
8.3543807263
 20
43.9587148948
 40
3.6220450903
100
AcDbArc
 50
17.6829894389
 51
22.4315525089
  0
ARC
  5
2EA
100
AcDbEntity
  8
0
100
AcDbCircle
 62
7
  6
CONTINUOUS
 10
17.4897050816
 20
37.437296296
 40
1.2168501487
100
AcDbArc
 50
234.6455738711
 51
239.003583833
  0
ARC
  5
2EB
100
AcDbEntity
  8
0
100
AcDbCircle
 62
7
  6
CONTINUOUS
 10
17.9316071362
 20
38.5213208568
 40
1.2128774801
100
AcDbArc
 50
73.0423938188
 51
81.444615374
  0
ARC
  5
2EC
100
AcDbEntity
  8
0
100
AcDbCircle
 62
7
  6
CONTINUOUS
 10
17.4795865984
 20
37.4206967316
 40
1.1974101552
100
AcDbArc
 50
239.0095670236
 51
247.768891661
  0
SPLINE
  5
2ED
100
AcDbEntity
  8
0
100
AcDbSpline
 62
7
  6
CONTINUOUS
 70
0
 71
3
 72
15
 73
11
 74
0
 42
0.0000001
 43
0.0000001
 44
0.0000000001
 40
0.0
 40
0.0
 40
0.0
 40
0.0
 40
0.1080133794
 40
0.2180618555
 40
0.3319995742
 40
0.4513613273
 40
0.5772747891
 40
0.7104908741
 40
0.8514274924
 40
1.0
 40
1.0
 40
1.0
 40
1.0
 10
19.8064399273
 20
59.041692819
 30
0.0
 10
19.7654518843
 20
59.0180285052
 30
0.0
 10
19.6784250235
 20
58.9772815215
 30
0.0
 10
19.5376168982
 20
58.9383404256
 30
0.0
 10
19.3875087339
 20
58.9215933041
 30
0.0
 10
19.2297047618
 20
58.9270923035
 30
0.0
 10
19.0657229401
 20
58.9545901279
 30
0.0
 10
18.8970813092
 20
59.003752014
 30
0.0
 10
18.7253895663
 20
59.0740324107
 30
0.0
 10
18.6128257659
 20
59.1329520462
 30
0.0
 10
18.5564464401
 20
59.1655019287
 30
0.0
  0
SPLINE
  5
2EE
100
AcDbEntity
  8
0
100
AcDbSpline
 62
7
  6
CONTINUOUS
 70
0
 71
3
 72
15
 73
11
 74
0
 42
0.0000001
 43
0.0000001
 44
0.0000000001
 40
0.0
 40
0.0
 40
0.0
 40
0.0
 40
0.1141583883
 40
0.2373249807
 40
0.3669750402
 40
0.4999983537
 40
0.6330218962
 40
0.7626726246
 40
0.8858402706
 40
1.0
 40
1.0
 40
1.0
 40
1.0
 10
13.8831582666
 20
61.8635650754
 30
0.0
 10
13.7621366339
 20
61.9334353669
 30
0.0
 10
13.5231044716
 20
62.1009897218
 30
0.0
 10
13.1942157357
 20
62.408698981
 30
0.0
 10
12.8911194361
 20
62.7724189961
 30
0.0
 10
12.625240324
 20
63.1785284843
 30
0.0
 10
12.4064740845
 20
63.6118398523
 30
0.0
 10
12.243025893
 20
64.0561894327
 30
0.0
 10
12.1409799624
 20
64.4948724287
 30
0.0
 10
12.1153850446
 20
64.7856600102
 30
0.0
 10
12.1153839538
 20
64.925404606
 30
0.0
  0
SPLINE
  5
2EF
100
AcDbEntity
  8
0
100
AcDbSpline
 62
7
  6
CONTINUOUS
 70
0
 71
3
 72
15
 73
11
 74
0
 42
0.0000001
 43
0.0000001
 44
0.0000000001
 40
0.0
 40
0.0
 40
0.0
 40
0.0
 40
0.1485733395
 40
0.2895106092
 40
0.422727107
 40
0.5486407033
 40
0.6680022923
 40
0.7819395721
 40
0.8919873937
 40
1.0
 40
1.0
 40
1.0
 40
1.0
 10
12.1153839538
 20
64.925404606
 30
0.0
 10
12.1153834456
 20
64.9905084943
 30
0.0
 10
12.1206374857
 20
65.1174573425
 30
0.0
 10
12.145616837
 20
65.30129569
 30
0.0
 10
12.187361402
 20
65.4719326908
 30
0.0
 10
12.2455387847
 20
65.6277013504
 30
0.0
 10
12.3196798578
 20
65.7671194571
 30
0.0
 10
12.4092397578
 20
65.8887486235
 30
0.0
 10
12.5133711594
 20
65.9912254486
 30
0.0
 10
12.5921753588
 20
66.0462211616
 30
0.0
 10
12.6331647794
 20
66.0698862708
 30
0.0
  0
SPLINE
  5
2F0
100
AcDbEntity
  8
0
100
AcDbSpline
 62
7
  6
CONTINUOUS
 70
0
 71
3
 72
15
 73
11
 74
0
 42
0.0000001
 43
0.0000001
 44
0.0000000001
 40
0.0
 40
0.0
 40
0.0
 40
0.0
 40
0.1080133794
 40
0.2180618555
 40
0.3319995742
 40
0.4513613273
 40
0.5772747891
 40
0.7104908741
 40
0.8514274924
 40
1.0
 40
1.0
 40
1.0
 40
1.0
 10
12.6331647794
 20
66.0698862708
 30
0.0
 10
12.6741528223
 20
66.0935505845
 30
0.0
 10
12.7611796832
 20
66.1342975682
 30
0.0
 10
12.9019878085
 20
66.1732386642
 30
0.0
 10
13.0520959728
 20
66.1899857856
 30
0.0
 10
13.2098999449
 20
66.1844867862
 30
0.0
 10
13.3738817666
 20
66.1569889619
 30
0.0
 10
13.5425233975
 20
66.1078270757
 30
0.0
 10
13.7142151404
 20
66.037546679
 30
0.0
 10
13.8267789408
 20
65.9786270436
 30
0.0
 10
13.8831582666
 20
65.946077161
 30
0.0
  0
SPLINE
  5
2F1
100
AcDbEntity
  8
0
100
AcDbSpline
 62
7
  6
CONTINUOUS
 70
0
 71
3
 72
15
 73
11
 74
0
 42
0.0000001
 43
0.0000001
 44
0.0000000001
 40
0.0
 40
0.0
 40
0.0
 40
0.0
 40
0.1141583883
 40
0.2373249807
 40
0.3669750402
 40
0.4999983537
 40
0.6330218962
 40
0.7626726246
 40
0.8858402706
 40
1.0
 40
1.0
 40
1.0
 40
1.0
 10
18.5564464401
 20
63.2480140144
 30
0.0
 10
18.6774680728
 20
63.1781437229
 30
0.0
 10
18.9165002351
 20
63.010589368
 30
0.0
 10
19.245388971
 20
62.7028801087
 30
0.0
 10
19.5484852706
 20
62.3391600937
 30
0.0
 10
19.8143643827
 20
61.9330506054
 30
0.0
 10
20.0331306222
 20
61.4997392375
 30
0.0
 10
20.1965788138
 20
61.0553896571
 30
0.0
 10
20.298624744
 20
60.616706661
 30
0.0
 10
20.3242196625
 20
60.3259190796
 30
0.0
 10
20.3242207529
 20
60.1861744838
 30
0.0
  0
SPLINE
  5
2F2
100
AcDbEntity
  8
0
100
AcDbSpline
 62
7
  6
CONTINUOUS
 70
0
 71
3
 72
15
 73
11
 74
0
 42
0.0000001
 43
0.0000001
 44
0.0000000001
 40
0.0
 40
0.0
 40
0.0
 40
0.0
 40
0.1485733394
 40
0.2895106092
 40
0.422727107
 40
0.5486407033
 40
0.6680022923
 40
0.7819395721
 40
0.8919873937
 40
1.0
 40
1.0
 40
1.0
 40
1.0
 10
20.3242207529
 20
60.1861744838
 30
0.0
 10
20.3242212609
 20
60.1210705955
 30
0.0
 10
20.3189672208
 20
59.9941217472
 30
0.0
 10
20.2939878698
 20
59.8102833997
 30
0.0
 10
20.2522433047
 20
59.6396463989
 30
0.0
 10
20.1940659219
 20
59.4838777393
 30
0.0
 10
20.1199248489
 20
59.3444596326
 30
0.0
 10
20.0303649489
 20
59.2228304663
 30
0.0
 10
19.9262335473
 20
59.1203536411
 30
0.0
 10
19.8474293479
 20
59.0653579282
 30
0.0
 10
19.8064399273
 20
59.041692819
 30
0.0
  0
SPLINE
  5
2F3
100
AcDbEntity
  8
0
100
AcDbSpline
 62
7
  6
CONTINUOUS
 70
0
 71
3
 72
15
 73
11
 74
0
 42
0.0000001
 43
0.0000001
 44
0.0000000001
 40
0.0
 40
0.0
 40
0.0
 40
0.0
 40
0.1114672641
 40
0.2253122499
 40
0.3433764556
 40
0.466621899
 40
0.5950544538
 40
0.7278200236
 40
0.8634414789
 40
1.0
 40
1.0
 40
1.0
 40
1.0
 10
16.9846152912
 20
36.9775824022
 30
0.0
 10
16.9212057223
 20
37.0034897816
 30
0.0
 10
16.7993319828
 20
37.0729462351
 30
0.0
 10
16.6468150067
 20
37.2217307213
 30
0.0
 10
16.5300068197
 20
37.4083791868
 30
0.0
 10
16.4537018579
 20
37.6241562852
 30
0.0
 10
16.420679008
 20
37.8595566228
 30
0.0
 10
16.4320088592
 20
38.1044793057
 30
0.0
 10
16.4870063622
 20
38.3483781716
 30
0.0
 10
16.5513429094
 20
38.5038082417
 30
0.0
 10
16.5899527762
 20
38.5783153311
 30
0.0
  0
SPLINE
  5
2F4
100
AcDbEntity
  8
0
100
AcDbSpline
 62
7
  6
CONTINUOUS
 70
0
 71
3
 72
15
 73
11
 74
0
 42
0.0000001
 43
0.0000001
 44
0.0000000001
 40
0.0
 40
0.0
 40
0.0
 40
0.0
 40
0.1129725683
 40
0.227786508
 40
0.3459642488
 40
0.4684800868
 40
0.5956738277
 40
0.727259619
 40
0.8624448818
 40
1.0
 40
1.0
 40
1.0
 40
1.0
 10
16.7576778366
 20
36.4221533413
 30
0.0
 10
16.8402494926
 20
36.3884136905
 30
0.0
 10
17.0150542257
 20
36.3390734761
 30
0.0
 10
17.2898792062
 20
36.3245062758
 30
0.0
 10
17.5690303714
 20
36.3690341495
 30
0.0
 10
17.8429813771
 20
36.4707066636
 30
0.0
 10
18.1028602712
 20
36.6257322684
 30
0.0
 10
18.3403744637
 20
36.8287698698
 30
0.0
 10
18.547873417
 20
37.0729936039
 30
0.0
 10
18.6613115733
 20
37.2571631196
 30
0.0
 10
18.7112819516
 20
37.3535930675
 30
0.0
  0
SPLINE
  5
2F5
100
AcDbEntity
  8
0
100
AcDbSpline
 62
7
  6
CONTINUOUS
 70
0
 71
3
 72
13
 73
9
 74
0
 42
0.0000001
 43
0.0000001
 44
0.0000000001
 40
0.0
 40
0.0
 40
0.0
 40
0.0
 40
0.2048687467
 40
0.3203824218
 40
0.4442103719
 40
0.5754975014
 40
0.7129766064
 40
1.0
 40
1.0
 40
1.0
 40
1.0
 10
16.0594818187
 20
46.0810056669
 30
0.0
 10
16.1023456355
 20
45.9928538089
 30
0.0
 10
16.141165678
 20
45.8408585804
 30
0.0
 10
16.1520812615
 20
45.6285145289
 30
0.0
 10
16.1400967888
 20
45.4511143809
 30
0.0
 10
16.1077383782
 20
45.2657835864
 30
0.0
 10
16.0373915056
 20
45.0090427819
 30
0.0
 10
15.9578906916
 20
44.8207692147
 30
0.0
 10
15.894706448
 20
44.6988399133
 30
0.0
  0
SPLINE
  5
2F6
100
AcDbEntity
  8
0
100
AcDbSpline
 62
7
  6
CONTINUOUS
 70
0
 71
3
 72
15
 73
11
 74
0
 42
0.0000001
 43
0.0000001
 44
0.0000000001
 40
0.0
 40
0.0
 40
0.0
 40
0.0
 40
0.1130068076
 40
0.2278093993
 40
0.3459867787
 40
0.4684997444
 40
0.5956911995
 40
0.7272714068
 40
0.8624499174
 40
1.0
 40
1.0
 40
1.0
 40
1.0
 10
17.1319188767
 20
35.3092091462
 30
0.0
 10
17.2122213674
 20
35.276397116
 30
0.0
 10
17.3821841111
 20
35.2284025232
 30
0.0
 10
17.6493957551
 20
35.2142831126
 30
0.0
 10
17.920780286
 20
35.2575683448
 30
0.0
 10
18.1871126279
 20
35.3564316624
 30
0.0
 10
18.4397631463
 20
35.5071493065
 30
0.0
 10
18.6706665722
 20
35.7045454254
 30
0.0
 10
18.8723916078
 20
35.9419757898
 30
0.0
 10
18.9826734047
 20
36.1210221558
 30
0.0
 10
19.0312539481
 20
36.2147700807
 30
0.0
  0
SPLINE
  5
2F7
100
AcDbEntity
  8
0
100
AcDbSpline
 62
7
  6
CONTINUOUS
 70
0
 71
3
 72
15
 73
11
 74
0
 42
0.0000001
 43
0.0000001
 44
0.0000000001
 40
0.0
 40
0.0
 40
0.0
 40
0.0
 40
0.1115040297
 40
0.2260810911
 40
0.345038286
 40
0.4688990605
 40
0.597432181
 40
0.7297554327
 40
0.8644913642
 40
1.0
 40
1.0
 40
1.0
 40
1.0
 10
13.9997945338
 20
35.7238077182
 30
0.0
 10
13.8600961971
 20
35.8044607659
 30
0.0
 10
13.5957992207
 20
36.0032229499
 30
0.0
 10
13.2740442968
 20
36.3900296201
 30
0.0
 10
13.0344060195
 20
36.852414663
 30
0.0
 10
12.8854525555
 20
37.3719558964
 30
0.0
 10
12.8318718294
 20
37.928843733
 30
0.0
 10
12.8752109511
 20
38.5021857831
 30
0.0
 10
13.0134030206
 20
39.0703982799
 30
0.0
 10
13.1657163246
 20
39.4325924983
 30
0.0
 10
13.2559116399
 20
39.6066462049
 30
0.0
  0
SPLINE
  5
2F8
100
AcDbEntity
  8
0
100
AcDbSpline
 62
7
  6
CONTINUOUS
 70
0
 71
3
 72
15
 73
11
 74
0
 42
0.0000001
 43
0.0000001
 44
0.0000000001
 40
0.0
 40
0.0
 40
0.0
 40
0.0
 40
0.1355047692
 40
0.270246438
 40
0.4025676372
 40
0.5311011404
 40
0.6549620603
 40
0.7739176171
 40
0.8884991394
 40
1.0
 40
1.0
 40
1.0
 40
1.0
 10
19.7199770889
 20
37.5438281923
 30
0.0
 10
19.7725895603
 20
37.6453566989
 30
0.0
 10
19.8614367595
 20
37.856639053
 30
0.0
 10
19.9420575224
 20
38.1880945961
 30
0.0
 10
19.9673336339
 20
38.5225482333
 30
0.0
 10
19.9360827425
 20
38.8473989266
 30
0.0
 10
19.8491889996
 20
39.1504624725
 30
0.0
 10
19.7094039144
 20
39.420192541
 30
0.0
 10
19.5217055723
 20
39.6458233499
 30
0.0
 10
19.3675338412
 20
39.7617710008
 30
0.0
 10
19.2860454008
 20
39.8088173095
 30
0.0
  0
SPLINE
  5
2F9
100
AcDbEntity
  8
0
100
AcDbSpline
 62
7
  6
CONTINUOUS
 70
0
 71
3
 72
18
 73
14
 74
0
 42
0.0000001
 43
0.0000001
 44
0.0000000001
 40
0.0
 40
0.0
 40
0.0
 40
0.0
 40
0.0564501286
 40
0.1131165509
 40
0.1702411578
 40
0.2280409939
 40
0.3461659357
 40
0.4686272636
 40
0.5957619368
 40
0.6610744877
 40
0.7274004894
 40
0.8625072551
 40
1.0
 40
1.0
 40
1.0
 40
1.0
 10
18.3131451865
 20
33.5358920045
 30
0.0
 10
18.3819509741
 20
33.507795263
 30
0.0
 10
18.5231074962
 20
33.4591712286
 30
0.0
 10
18.7422764209
 20
33.410199336
 30
0.0
 10
18.9673079366
 20
33.3854773501
 30
0.0
 10
19.2746390895
 20
33.3850721169
 30
0.0
 10
19.6655892863
 20
33.4473701965
 30
0.0
 10
20.1220641035
 20
33.616810274
 30
0.0
 10
20.4801315621
 20
33.8303728884
 30
0.0
 10
20.7486835139
 20
34.0405312576
 30
0.0
 10
21.0068550458
 20
34.2791469596
 30
0.0
 10
21.2970525223
 20
34.6206085936
 30
0.0
 10
21.486095505
 20
34.9275055232
 30
0.0
 10
21.5693962227
 20
35.0882211581
 30
0.0
  0
SPLINE
  5
2FA
100
AcDbEntity
  8
0
100
AcDbSpline
 62
7
  6
CONTINUOUS
 70
0
 71
3
 72
18
 73
14
 74
0
 42
0.0000001
 43
0.0000001
 44
0.0000000001
 40
0.0
 40
0.0
 40
0.0
 40
0.0
 40
0.1364859066
 40
0.2720111509
 40
0.3388838804
 40
0.4048394679
 40
0.5331956833
 40
0.6563733523
 40
0.7743709554
 40
0.8317970721
 40
0.888367233
 40
0.9443382023
 40
1.0
 40
1.0
 40
1.0
 40
1.0
 10
18.7112819516
 20
37.3535930675
 30
0.0
 10
18.7691998122
 20
37.4653596075
 30
0.0
 10
18.865705479
 20
37.6984535856
 30
0.0
 10
18.9347874113
 20
38.0049491174
 30
0.0
 10
18.9568564717
 20
38.2517751085
 30
0.0
 10
18.9566077554
 20
38.4929333882
 30
0.0
 10
18.9156449146
 20
38.7848635204
 30
0.0
 10
18.8012605557
 20
39.1084421443
 30
0.0
 10
18.6536828272
 20
39.3441324468
 30
0.0
 10
18.5091351631
 20
39.5025150035
 30
0.0
 10
18.3896984296
 20
39.6047052266
 30
0.0
 10
18.2597205511
 20
39.6901247684
 30
0.0
 10
18.166814077
 20
39.7352811018
 30
0.0
 10
18.119291056
 20
39.7546995101
 30
0.0
  0
SPLINE
  5
2FB
100
AcDbEntity
  8
0
100
AcDbSpline
 62
7
  6
CONTINUOUS
 70
0
 71
3
 72
14
 73
10
 74
0
 42
0.0000001
 43
0.0000001
 44
0.0000000001
 40
0.0
 40
0.0
 40
0.0
 40
0.0
 40
0.2721654736
 40
0.4038431897
 40
0.531141488
 40
0.6537538621
 40
0.7720277847
 40
0.8869357738
 40
1.0
 40
1.0
 40
1.0
 40
1.0
 10
16.5899527762
 20
38.5783153311
 30
0.0
 10
16.6558141248
 20
38.7054107551
 30
0.0
 10
16.7824195304
 20
38.8814496899
 30
0.0
 10
16.9955419831
 20
39.0635025662
 30
0.0
 10
17.1688188597
 20
39.1669130868
 30
0.0
 10
17.3514441686
 20
39.234686434
 30
0.0
 10
17.5375485799
 20
39.264376104
 30
0.0
 10
17.7207679798
 20
39.254660818
 30
0.0
 10
17.8373044329
 20
39.2217620025
 30
0.0
 10
17.8923536014
 20
39.1992704492
 30
0.0
  0
SPLINE
  5
2FC
100
AcDbEntity
  8
0
100
AcDbSpline
 62
7
  6
CONTINUOUS
 70
0
 71
3
 72
15
 73
11
 74
0
 42
0.0000001
 43
0.0000001
 44
0.0000000001
 40
0.0
 40
0.0
 40
0.0
 40
0.0
 40
0.1117859399
 40
0.2269817523
 40
0.3465427178
 40
0.4707546441
 40
0.5992680063
 40
0.7311989738
 40
0.8652837425
 40
1.0
 40
1.0
 40
1.0
 40
1.0
 10
16.7855958858
 20
36.4448475443
 30
0.0
 10
16.7098798591
 20
36.4985589972
 30
0.0
 10
16.5681947195
 20
36.625638085
 30
0.0
 10
16.3989487139
 20
36.8608346395
 30
0.0
 10
16.2757058527
 20
37.1343310927
 30
0.0
 10
16.2024314604
 20
37.4363686763
 30
0.0
 10
16.1812407008
 20
37.756578941
 30
0.0
 10
16.2126260447
 20
38.0840919203
 30
0.0
 10
16.2953674421
 20
38.4077035342
 30
0.0
 10
16.3830901983
 20
38.614072052
 30
0.0
 10
16.434563424
 20
38.713402108
 30
0.0
  0
SPLINE
  5
2FD
100
AcDbEntity
  8
0
100
AcDbSpline
 62
7
  6
CONTINUOUS
 70
0
 71
3
 72
15
 73
11
 74
0
 42
0.0000001
 43
0.0000001
 44
0.0000000001
 40
0.0
 40
0.0
 40
0.0
 40
0.0
 40
0.1129725683
 40
0.227786508
 40
0.3459642488
 40
0.4684800868
 40
0.5956738277
 40
0.727259619
 40
0.8624448818
 40
1.0
 40
1.0
 40
1.0
 40
1.0
 10
18.119291056
 20
39.7546995101
 30
0.0
 10
18.0367194001
 20
39.7884391609
 30
0.0
 10
17.861914667
 20
39.8377793752
 30
0.0
 10
17.5870896864
 20
39.8523465755
 30
0.0
 10
17.3079385213
 20
39.8078187018
 30
0.0
 10
17.0339875156
 20
39.7061461878
 30
0.0
 10
16.7741086215
 20
39.5511205829
 30
0.0
 10
16.536594429
 20
39.3480829816
 30
0.0
 10
16.3290954757
 20
39.1038592475
 30
0.0
 10
16.2156573194
 20
38.9196897318
 30
0.0
 10
16.1656869411
 20
38.8232597838
 30
0.0
  0
SPLINE
  5
2FE
100
AcDbEntity
  8
0
100
AcDbSpline
 62
7
  6
CONTINUOUS
 70
0
 71
3
 72
15
 73
11
 74
0
 42
0.0000001
 43
0.0000001
 44
0.0000000001
 40
0.0
 40
0.0
 40
0.0
 40
0.0
 40
0.1130068076
 40
0.2278093993
 40
0.3459867787
 40
0.4684997444
 40
0.5956911995
 40
0.7272714068
 40
0.8624499174
 40
1.0
 40
1.0
 40
1.0
 40
1.0
 10
16.6695440843
 20
41.3070744084
 30
0.0
 10
16.5892415936
 20
41.3398864387
 30
0.0
 10
16.4192788498
 20
41.3878810314
 30
0.0
 10
16.1520672058
 20
41.4020004421
 30
0.0
 10
15.880682675
 20
41.3587152099
 30
0.0
 10
15.614350333
 20
41.2598518922
 30
0.0
 10
15.3616998146
 20
41.1091342481
 30
0.0
 10
15.1307963887
 20
40.9117381293
 30
0.0
 10
14.9290713531
 20
40.6743077648
 30
0.0
 10
14.8187895563
 20
40.4952613988
 30
0.0
 10
14.7702090128
 20
40.4015134739
 30
0.0
  0
SPLINE
  5
2FF
100
AcDbEntity
  8
0
100
AcDbSpline
 62
7
  6
CONTINUOUS
 70
0
 71
3
 72
15
 73
11
 74
0
 42
0.0000001
 43
0.0000001
 44
0.0000000001
 40
0.0
 40
0.0
 40
0.0
 40
0.0
 40
0.1114672641
 40
0.2253122499
 40
0.3433764556
 40
0.466621899
 40
0.5950544538
 40
0.7278200236
 40
0.8634414789
 40
1.0
 40
1.0
 40
1.0
 40
1.0
 10
17.8923536014
 20
39.1992704492
 30
0.0
 10
17.9557631704
 20
39.1733630697
 30
0.0
 10
18.0776369099
 20
39.1039066162
 30
0.0
 10
18.2301538859
 20
38.95512213
 30
0.0
 10
18.346962073
 20
38.7684736645
 30
0.0
 10
18.4232670348
 20
38.5526965661
 30
0.0
 10
18.4562898847
 20
38.3172962286
 30
0.0
 10
18.4449600334
 20
38.0723735457
 30
0.0
 10
18.3899625305
 20
37.8284746798
 30
0.0
 10
18.3256259833
 20
37.6730446096
 30
0.0
 10
18.2870161165
 20
37.5985375203
 30
0.0
  0
SPLINE
  5
300
100
AcDbEntity
  8
0
100
AcDbSpline
 62
7
  6
CONTINUOUS
 70
0
 71
3
 72
18
 73
14
 74
0
 42
0.0000001
 43
0.0000001
 44
0.0000000001
 40
0.0
 40
0.0
 40
0.0
 40
0.0
 40
0.1374954544
 40
0.2726032228
 40
0.3389291827
 40
0.4042413788
 40
0.5313746389
 40
0.6538342366
 40
0.771957627
 40
0.8297571005
 40
0.8868820784
 40
0.9435490462
 40
1.0
 40
1.0
 40
1.0
 40
1.0
 10
19.9027430564
 20
35.7691831125
 30
0.0
 10
19.8194571159
 20
35.6084627182
 30
0.0
 10
19.6304439911
 20
35.3015559469
 30
0.0
 10
19.3402805491
 20
34.9600787528
 30
0.0
 10
19.0821348142
 20
34.7214514671
 30
0.0
 10
18.8136082758
 20
34.5112832024
 30
0.0
 10
18.45556937
 20
34.2977086645
 30
0.0
 10
17.9991232305
 20
34.1282555695
 30
0.0
 10
17.6081919123
 20
34.0659496049
 30
0.0
 10
17.300873384
 20
34.0663531239
 30
0.0
 10
17.0758479052
 20
34.0910643128
 30
0.0
 10
16.856682328
 20
34.1400291996
 30
0.0
 10
16.7155331894
 20
34.1886690631
 30
0.0
 10
16.6467357968
 20
34.2167825615
 30
0.0
  0
SPLINE
  5
301
100
AcDbEntity
  8
0
100
AcDbSpline
 62
7
  6
CONTINUOUS
 70
0
 71
3
 72
14
 73
10
 74
0
 42
0.0000001
 43
0.0000001
 44
0.0000000001
 40
0.0
 40
0.0
 40
0.0
 40
0.0
 40
0.1130621272
 40
0.2279675081
 40
0.3462393919
 40
0.4688516715
 40
0.5961514618
 40
0.7278308859
 40
1.0
 40
1.0
 40
1.0
 40
1.0
 10
17.2534917879
 20
36.867724769
 30
0.0
 10
17.3085397399
 20
36.8452332004
 30
0.0
 10
17.4250740546
 20
36.8123358266
 30
0.0
 10
17.6082895352
 20
36.8026198478
 30
0.0
 10
17.7943918648
 20
36.8323062157
 30
0.0
 10
17.9770175378
 20
36.9000777203
 30
0.0
 10
18.1502963949
 20
37.0034880259
 30
0.0
 10
18.3634228077
 20
37.1855417069
 30
0.0
 10
18.490030388
 20
37.3615827554
 30
0.0
 10
18.5558925995
 20
37.4886798444
 30
0.0
  0
SPLINE
  5
302
100
AcDbEntity
  8
0
100
AcDbSpline
 62
7
  6
CONTINUOUS
 70
0
 71
3
 72
15
 73
11
 74
0
 42
0.0000001
 43
0.0000001
 44
0.0000000001
 40
0.0
 40
0.0
 40
0.0
 40
0.0
 40
0.1115008721
 40
0.226082407
 40
0.3450379699
 40
0.4688988934
 40
0.5974323952
 40
0.7297535897
 40
0.8644952445
 40
1.0
 40
1.0
 40
1.0
 40
1.0
 10
15.053170526
 20
36.5877508935
 30
0.0
 10
14.9716820772
 20
36.634797207
 30
0.0
 10
14.8175103328
 20
36.7507448748
 30
0.0
 10
14.6298119791
 20
36.9763757078
 30
0.0
 10
14.4900269006
 20
37.2461058016
 30
0.0
 10
14.4031331689
 20
37.5491693577
 30
0.0
 10
14.371882291
 20
37.8740200503
 30
0.0
 10
14.3971584165
 20
38.2084736688
 30
0.0
 10
14.4777791778
 20
38.5399291838
 30
0.0
 10
14.5666263718
 20
38.7512115144
 30
0.0
 10
14.6192388379
 20
38.8527400107
 30
0.0
  0
SPLINE
  5
303
100
AcDbEntity
  8
0
100
AcDbSpline
 62
7
  6
CONTINUOUS
 70
0
 71
3
 72
13
 73
9
 74
0
 42
0.0000001
 43
0.0000001
 44
0.0000000001
 40
0.0
 40
0.0
 40
0.0
 40
0.0
 40
0.2698973881
 40
0.5280708344
 40
0.6515742719
 40
0.7710093359
 40
0.8868510971
 40
1.0
 40
1.0
 40
1.0
 40
1.0
 10
15.3079619787
 20
40.1817981223
 30
0.0
 10
15.3939527928
 20
40.3477382254
 30
0.0
 10
15.6056459166
 20
40.6520578045
 30
0.0
 10
15.9611067511
 20
40.9413790648
 30
0.0
 10
16.2756588344
 20
41.0912086376
 30
0.0
 10
16.5159830728
 20
41.159193694
 30
0.0
 10
16.7574806918
 20
41.1822307236
 30
0.0
 10
16.9165062962
 20
41.1668798461
 30
0.0
 10
16.9933575797
 20
41.1516143518
 30
0.0
  0
SPLINE
  5
304
100
AcDbEntity
  8
0
100
AcDbSpline
 62
7
  6
CONTINUOUS
 70
0
 71
3
 72
15
 73
11
 74
0
 42
0.0000001
 43
0.0000001
 44
0.0000000001
 40
0.0
 40
0.0
 40
0.0
 40
0.0
 40
0.1355047692
 40
0.270246438
 40
0.4025676372
 40
0.5311011404
 40
0.6549620603
 40
0.7739176171
 40
0.8884991394
 40
1.0
 40
1.0
 40
1.0
 40
1.0
 10
14.0814858721
 20
39.0724553624
 30
0.0
 10
14.0288734006
 20
38.9709268557
 30
0.0
 10
13.9400262015
 20
38.7596445017
 30
0.0
 10
13.8594054385
 20
38.4281889585
 30
0.0
 10
13.834129327
 20
38.0937353214
 30
0.0
 10
13.8653802184
 20
37.7688846281
 30
0.0
 10
13.9522739613
 20
37.4658210822
 30
0.0
 10
14.0920590465
 20
37.1960910137
 30
0.0
 10
14.2797573886
 20
36.9704602048
 30
0.0
 10
14.4339291197
 20
36.8545125539
 30
0.0
 10
14.5154175601
 20
36.8074662452
 30
0.0
  0
SPLINE
  5
305
100
AcDbEntity
  8
0
100
AcDbSpline
 62
7
  6
CONTINUOUS
 70
0
 71
3
 72
18
 73
14
 74
0
 42
0.0000001
 43
0.0000001
 44
0.0000000001
 40
0.0
 40
0.0
 40
0.0
 40
0.0
 40
0.1364859066
 40
0.2720111509
 40
0.3388838804
 40
0.4048394679
 40
0.5331956833
 40
0.6563733523
 40
0.7743709554
 40
0.8317970721
 40
0.888367233
 40
0.9443382023
 40
1.0
 40
1.0
 40
1.0
 40
1.0
 10
16.1656869411
 20
38.8232597838
 30
0.0
 10
16.1077690805
 20
38.7114932438
 30
0.0
 10
16.0112634137
 20
38.4783992658
 30
0.0
 10
15.9421814814
 20
38.171903734
 30
0.0
 10
15.920112421
 20
37.9250777428
 30
0.0
 10
15.9203611373
 20
37.6839194631
 30
0.0
 10
15.9613239781
 20
37.391989331
 30
0.0
 10
16.075708337
 20
37.0684107071
 30
0.0
 10
16.2232860655
 20
36.8327204046
 30
0.0
 10
16.3678337295
 20
36.6743378479
 30
0.0
 10
16.487270463
 20
36.5721476248
 30
0.0
 10
16.6172483415
 20
36.4867280829
 30
0.0
 10
16.7101548157
 20
36.4415717496
 30
0.0
 10
16.7576778366
 20
36.4221533413
 30
0.0
  0
SPLINE
  5
306
100
AcDbEntity
  8
0
100
AcDbSpline
 62
7
  6
CONTINUOUS
 70
0
 71
3
 72
13
 73
9
 74
0
 42
0.0000001
 43
0.0000001
 44
0.0000000001
 40
0.0
 40
0.0
 40
0.0
 40
0.0
 40
0.2692031963
 40
0.5272523968
 40
0.650911591
 40
0.7706055511
 40
0.8867075137
 40
1.0
 40
1.0
 40
1.0
 40
1.0
 10
16.434563424
 20
38.713402108
 30
0.0
 10
16.5204533054
 20
38.879147437
 30
0.0
 10
16.7308359171
 20
39.1839490144
 30
0.0
 10
17.0823936963
 20
39.4775078683
 30
0.0
 10
17.3941759945
 20
39.634316714
 30
0.0
 10
17.6331814677
 20
39.7092384752
 30
0.0
 10
17.8743994309
 20
39.7409156312
 30
0.0
 10
18.0343555662
 20
39.7324042605
 30
0.0
 10
18.1120413012
 20
39.7207020697
 30
0.0
  0
SPLINE
  5
307
100
AcDbEntity
  8
0
100
AcDbSpline
 62
7
  6
CONTINUOUS
 70
0
 71
3
 72
15
 73
11
 74
0
 42
0.0000001
 43
0.0000001
 44
0.0000000001
 40
0.0
 40
0.0
 40
0.0
 40
0.0
 40
0.1365575564
 40
0.2721757413
 40
0.4049396169
 40
0.5333712753
 40
0.656618184
 40
0.7746848654
 40
0.8885318525
 40
1.0
 40
1.0
 40
1.0
 40
1.0
 10
18.5558925995
 20
37.4886798444
 30
0.0
 10
18.5945022063
 20
37.5631864323
 30
0.0
 10
18.6588382771
 20
37.7186139486
 30
0.0
 10
18.7138352376
 20
37.9625091648
 30
0.0
 10
18.7251677799
 20
38.2074281352
 30
0.0
 10
18.6921468752
 20
38.4428281265
 30
0.0
 10
18.6158435328
 20
38.658607915
 30
0.0
 10
18.499034368
 20
38.8452602158
 30
0.0
 10
18.3465156614
 20
38.9940480606
 30
0.0
 10
18.2246399566
 20
39.0635046315
 30
0.0
 10
18.1612300707
 20
39.0894127307
 30
0.0
  0
SPLINE
  5
308
100
AcDbEntity
  8
0
100
AcDbSpline
 62
7
  6
CONTINUOUS
 70
0
 71
3
 72
14
 73
10
 74
0
 42
0.0000001
 43
0.0000001
 44
0.0000000001
 40
0.0
 40
0.0
 40
0.0
 40
0.0
 40
0.2721654736
 40
0.4038431897
 40
0.531141488
 40
0.6537538621
 40
0.7720277847
 40
0.8869357738
 40
1.0
 40
1.0
 40
1.0
 40
1.0
 10
18.2870161165
 20
37.5985375203
 30
0.0
 10
18.2211547679
 20
37.4714420963
 30
0.0
 10
18.0945493623
 20
37.2954031614
 30
0.0
 10
17.8814269096
 20
37.1133502852
 30
0.0
 10
17.708150033
 20
37.0099397645
 30
0.0
 10
17.5255247241
 20
36.9421664173
 30
0.0
 10
17.3394203128
 20
36.9124767473
 30
0.0
 10
17.1562009129
 20
36.9221920334
 30
0.0
 10
17.0396644598
 20
36.9550908488
 30
0.0
 10
16.9846152912
 20
36.9775824022
 30
0.0
  0
SPLINE
  5
309
100
AcDbEntity
  8
0
100
AcDbSpline
 62
7
  6
CONTINUOUS
 70
0
 71
3
 72
11
 73
7
 74
0
 42
0.0000001
 43
0.0000001
 44
0.0000000001
 40
0.0
 40
0.0
 40
0.0
 40
0.0
 40
0.2897042895
 40
0.5490907647
 40
0.7822174449
 40
1.0
 40
1.0
 40
1.0
 40
1.0
 10
12.0092933275
 20
40.4547722551
 30
0.0
 10
12.0092933275
 20
40.3534355089
 30
0.0
 10
12.024657384
 20
40.1607146979
 30
0.0
 10
12.1027068058
 20
39.8959266748
 30
0.0
 10
12.2341161859
 20
39.6810667972
 30
0.0
 10
12.3575496446
 20
39.5772974179
 30
0.0
 10
12.4235229587
 20
39.5392086022
 30
0.0
  0
SPLINE
  5
30A
100
AcDbEntity
  8
0
100
AcDbSpline
 62
7
  6
CONTINUOUS
 70
0
 71
3
 72
10
 73
6
 74
0
 42
0.0000001
 43
0.0000001
 44
0.0000000001
 40
0.0
 40
0.0
 40
0.0
 40
0.0
 40
0.4609344213
 40
0.7205744294
 40
1.0
 40
1.0
 40
1.0
 40
1.0
 10
22.6086500396
 20
60.7509269804
 30
0.0
 10
22.6968769339
 20
60.8685250676
 30
0.0
 10
22.7932966453
 20
61.0846519962
 30
0.0
 10
22.8535438205
 20
61.3980554633
 30
0.0
 10
22.8634305526
 20
61.5703866937
 30
0.0
 10
22.8634305526
 20
61.6595092215
 30
0.0
  0
SPLINE
  5
30B
100
AcDbEntity
  8
0
100
AcDbSpline
 62
7
  6
CONTINUOUS
 70
0
 71
3
 72
15
 73
11
 74
0
 42
0.0000001
 43
0.0000001
 44
0.0000000001
 40
0.0
 40
0.0
 40
0.0
 40
0.0
 40
0.1141229605
 40
0.2373462928
 40
0.366971064
 40
0.4999983279
 40
0.633025824
 40
0.762651271
 40
0.8858756957
 40
1.0
 40
1.0
 40
1.0
 40
1.0
 10
13.4235010019
 20
76.3808644994
 30
0.0
 10
13.3267141193
 20
76.3249849002
 30
0.0
 10
13.1354998294
 20
76.1908923061
 30
0.0
 10
12.8723446128
 20
75.9447779172
 30
0.0
 10
12.6298871074
 20
75.6537386381
 30
0.0
 10
12.4171633261
 20
75.3288854514
 30
0.0
 10
12.2421954673
 20
74.982233235
 30
0.0
 10
12.1113775715
 20
74.6267368821
 30
0.0
 10
12.0298140721
 20
74.2757774304
 30
0.0
 10
12.0092933275
 20
74.0431323722
 30
0.0
 10
12.0092933275
 20
73.9313713574
 30
0.0
  0
SPLINE
  5
30C
100
AcDbEntity
  8
0
100
AcDbSpline
 62
7
  6
CONTINUOUS
 70
0
 71
3
 72
9
 73
5
 74
0
 42
0.0000001
 43
0.0000001
 44
0.0000000001
 40
0.0
 40
0.0
 40
0.0
 40
0.0
 40
0.4871979472
 40
1.0
 40
1.0
 40
1.0
 40
1.0
 10
22.4456434224
 20
60.3418507603
 30
0.0
 10
22.3696932556
 20
60.2980012063
 30
0.0
 10
22.1995092589
 20
60.2310459623
 30
0.0
 10
22.0180800112
 20
60.2137682487
 30
0.0
 10
21.9257896713
 20
60.215598986
 30
0.0
  0
SPLINE
  5
30D
100
AcDbEntity
  8
0
100
AcDbSpline
 62
7
  6
CONTINUOUS
 70
0
 71
3
 72
11
 73
7
 74
0
 42
0.0000001
 43
0.0000001
 44
0.0000000001
 40
0.0
 40
0.0
 40
0.0
 40
0.0
 40
0.2374917678
 40
0.5002292484
 40
0.7627409286
 40
1.0
 40
1.0
 40
1.0
 40
1.0
 10
21.1310311561
 20
39.8431805409
 30
0.0
 10
21.4166464842
 20
39.6782841847
 30
0.0
 10
22.046427092
 20
39.3801104446
 30
0.0
 10
23.0394754585
 20
39.0110393442
 30
0.0
 10
24.0367328192
 20
38.6567095259
 30
0.0
 10
24.6731151413
 20
38.3726397587
 30
0.0
 10
24.9584436584
 20
38.2078929098
 30
0.0
  0
SPLINE
  5
30E
100
AcDbEntity
  8
0
100
AcDbSpline
 62
7
  6
CONTINUOUS
 70
0
 71
3
 72
12
 73
8
 74
0
 42
0.0000001
 43
0.0000001
 44
0.0000000001
 40
0.0
 40
0.0
 40
0.0
 40
0.0
 40
0.1081630284
 40
0.2183736393
 40
0.4513413857
 40
0.7104803079
 40
1.0
 40
1.0
 40
1.0
 40
1.0
 10
44.4727403503
 20
76.2460773451
 30
0.0
 10
44.5309499804
 20
76.2796708459
 30
0.0
 10
44.6428518633
 20
76.357793469
 30
0.0
 10
44.843548828
 20
76.5552652688
 30
0.0
 10
45.042450829
 20
76.8793677452
 30
0.0
 10
45.1806776802
 20
77.3491850774
 30
0.0
 10
45.2079983611
 20
77.6913043342
 30
0.0
 10
45.2079983611
 20
77.8711991941
 30
0.0
  0
SPLINE
  5
30F
100
AcDbEntity
  8
0
100
AcDbSpline
 62
7
  6
CONTINUOUS
 70
0
 71
3
 72
20
 73
16
 74
0
 42
0.0000001
 43
0.0000001
 44
0.0000000001
 40
0.0
 40
0.0
 40
0.0
 40
0.0
 40
0.0428311165
 40
0.0874318074
 40
0.1352331515
 40
0.1871653812
 40
0.2436342584
 40
0.3046152438
 40
0.3697404223
 40
0.43837508
 40
0.5826261616
 40
0.7296916147
 40
0.8711894125
 40
0.9376086258
 40
1.0
 40
1.0
 40
1.0
 40
1.0
 10
44.7227379291
 20
75.8130662678
 30
0.0
 10
44.6228835278
 20
75.755438475
 30
0.0
 10
44.4028104128
 20
75.6639093712
 30
0.0
 10
44.0394839563
 20
75.6107463408
 30
0.0
 10
43.6493379301
 20
75.6393790181
 30
0.0
 10
43.2410349039
 20
75.7479108766
 30
0.0
 10
42.8225776756
 20
75.9328373454
 30
0.0
 10
42.4022888646
 20
76.1899236485
 30
0.0
 10
41.9887320635
 20
76.5137280449
 30
0.0
 10
41.4489892328
 20
77.0335725716
 30
0.0
 10
40.8492318145
 20
77.8016997005
 30
0.0
 10
40.2924727336
 20
78.8305785015
 30
0.0
 10
39.9842930593
 20
79.7414705137
 30
0.0
 10
39.8568061094
 20
80.4589184312
 30
0.0
 10
39.83396445
 20
80.8058874008
 30
0.0
 10
39.83396445
 20
80.9738289285
 30
0.0
  0
SPLINE
  5
310
100
AcDbEntity
  8
0
100
AcDbSpline
 62
7
  6
CONTINUOUS
 70
0
 71
3
 72
13
 73
9
 74
0
 42
0.0000001
 43
0.0000001
 44
0.0000000001
 40
0.0
 40
0.0
 40
0.0
 40
0.0
 40
0.1116596483
 40
0.2303079275
 40
0.3545653965
 40
0.4829104646
 40
0.7443647369
 40
1.0
 40
1.0
 40
1.0
 40
1.0
 10
22.792716636
 20
50.5698081459
 30
0.0
 10
22.7895872167
 20
50.3186615609
 30
0.0
 10
22.7494967233
 20
49.8007293991
 30
0.0
 10
22.601386942
 20
49.0157252231
 30
0.0
 10
22.3663286135
 20
48.2130434757
 30
0.0
 10
21.9413932876
 20
47.1362226173
 30
0.0
 10
21.235285888
 20
45.8595581799
 30
0.0
 10
20.5058168458
 20
44.9445064645
 30
0.0
 10
20.1057220546
 20
44.5314979486
 30
0.0
  0
SPLINE
  5
311
100
AcDbEntity
  8
0
100
AcDbSpline
 62
7
  6
CONTINUOUS
 70
0
 71
3
 72
11
 73
7
 74
0
 42
0.0000001
 43
0.0000001
 44
0.0000000001
 40
0.0
 40
0.0
 40
0.0
 40
0.0
 40
0.2893975675
 40
0.5491290883
 40
0.7823145228
 40
1.0
 40
1.0
 40
1.0
 40
1.0
 10
13.7009994593
 20
46.9504506276
 30
0.0
 10
13.7009994593
 20
46.9150212813
 30
0.0
 10
13.7064444866
 20
46.8475780066
 30
0.0
 10
13.7336576445
 20
46.7548622872
 30
0.0
 10
13.7796966795
 20
46.6796385258
 30
0.0
 10
13.8229038369
 20
46.6433346457
 30
0.0
 10
13.8459929824
 20
46.6300261705
 30
0.0
  0
SPLINE
  5
312
100
AcDbEntity
  8
0
100
AcDbSpline
 62
7
  6
CONTINUOUS
 70
0
 71
3
 72
9
 73
5
 74
0
 42
0.0000001
 43
0.0000001
 44
0.0000000001
 40
0.0
 40
0.0
 40
0.0
 40
0.0
 40
0.2676449608
 40
1.0
 40
1.0
 40
1.0
 40
1.0
 10
12.0092933275
 20
43.7251465134
 30
0.0
 10
12.0077685265
 20
43.8457563266
 30
0.0
 10
11.9873819482
 20
44.2959267794
 30
0.0
 10
11.905664245
 20
44.7444946295
 30
0.0
 10
11.8052903571
 20
45.0589118573
 30
0.0
  0
SPLINE
  5
313
100
AcDbEntity
  8
0
100
AcDbSpline
 62
7
  6
CONTINUOUS
 70
0
 71
3
 72
12
 73
8
 74
0
 42
0.0000001
 43
0.0000001
 44
0.0000000001
 40
0.0
 40
0.0
 40
0.0
 40
0.0
 40
0.1081630284
 40
0.2183736393
 40
0.4513413857
 40
0.7104803079
 40
1.0
 40
1.0
 40
1.0
 40
1.0
 10
31.7447652976
 20
83.5944109265
 30
0.0
 10
31.8029749278
 20
83.6280044272
 30
0.0
 10
31.9148768106
 20
83.7061270503
 30
0.0
 10
32.1155737753
 20
83.9035988501
 30
0.0
 10
32.3144757764
 20
84.2277013266
 30
0.0
 10
32.4527026276
 20
84.6975186588
 30
0.0
 10
32.4800233084
 20
85.0396379156
 30
0.0
 10
32.4800233084
 20
85.2195327755
 30
0.0
  0
SPLINE
  5
314
100
AcDbEntity
  8
0
100
AcDbSpline
 62
7
  6
CONTINUOUS
 70
0
 71
3
 72
11
 73
7
 74
0
 42
0.0000001
 43
0.0000001
 44
0.0000000001
 40
0.0
 40
0.0
 40
0.0
 40
0.0
 40
0.4236429254
 40
0.7269658373
 40
0.9139684541
 40
1.0
 40
1.0
 40
1.0
 40
1.0
 10
10.9045079162
 20
48.5649692475
 30
0.0
 10
10.9045079162
 20
48.5324740199
 30
0.0
 10
10.9040035436
 20
48.4767076768
 30
0.0
 10
10.9010368694
 20
48.4066456767
 30
0.0
 10
10.8984242141
 20
48.3625341725
 30
0.0
 10
10.896313511
 20
48.3416565507
 30
0.0
 10
10.8963111325
 20
48.3350575629
 30
0.0
  0
SPLINE
  5
315
100
AcDbEntity
  8
0
100
AcDbSpline
 62
7
  6
CONTINUOUS
 70
0
 71
3
 72
17
 73
13
 74
0
 42
0.0000001
 43
0.0000001
 44
0.0000000001
 40
0.0
 40
0.0
 40
0.0
 40
0.0
 40
0.0550372427
 40
0.1112120726
 40
0.1695855216
 40
0.2303354282
 40
0.3577074468
 40
0.4906278201
 40
0.6256545206
 40
0.7586933321
 40
0.8848620205
 40
1.0
 40
1.0
 40
1.0
 40
1.0
 10
23.5685882539
 20
41.2535244624
 30
0.0
 10
23.5685882539
 20
41.2858452862
 30
0.0
 10
23.5792707515
 20
41.3515728697
 30
0.0
 10
23.6239152409
 20
41.4418321995
 30
0.0
 10
23.6897544446
 20
41.5218412272
 30
0.0
 10
23.7996444557
 20
41.6168018985
 30
0.0
 10
23.9641411431
 20
41.7118817485
 30
0.0
 10
24.1815781927
 20
41.7949958835
 30
0.0
 10
24.4114190745
 20
41.849351537
 30
0.0
 10
24.6428469839
 20
41.8710617918
 30
0.0
 10
24.8632359225
 20
41.8537014411
 30
0.0
 10
24.9999839811
 20
41.8069472922
 30
0.0
 10
25.0585402798
 20
41.7731393702
 30
0.0
  0
SPLINE
  5
316
100
AcDbEntity
  8
0
100
AcDbSpline
 62
7
  6
CONTINUOUS
 70
0
 71
3
 72
20
 73
16
 74
0
 42
0.0000001
 43
0.0000001
 44
0.0000000001
 40
0.0
 40
0.0
 40
0.0
 40
0.0
 40
0.0428311165
 40
0.0874318074
 40
0.1352331515
 40
0.1871653812
 40
0.2436342584
 40
0.3046152438
 40
0.3697404223
 40
0.43837508
 40
0.5826261616
 40
0.7296916147
 40
0.8711894125
 40
0.9376086258
 40
1.0
 40
1.0
 40
1.0
 40
1.0
 10
31.9947628764
 20
83.1613998492
 30
0.0
 10
31.8949084751
 20
83.1037720564
 30
0.0
 10
31.6748353602
 20
83.0122429525
 30
0.0
 10
31.3115089036
 20
82.9590799221
 30
0.0
 10
30.9213628775
 20
82.9877125995
 30
0.0
 10
30.5130598512
 20
83.0962444579
 30
0.0
 10
30.094602623
 20
83.2811709267
 30
0.0
 10
29.674313812
 20
83.5382572299
 30
0.0
 10
29.2607570108
 20
83.8620616262
 30
0.0
 10
28.7210141801
 20
84.3819061529
 30
0.0
 10
28.1212567618
 20
85.1500332819
 30
0.0
 10
27.5644976809
 20
86.1789120829
 30
0.0
 10
27.2563180066
 20
87.089804095
 30
0.0
 10
27.1288310567
 20
87.8072520126
 30
0.0
 10
27.1059893973
 20
88.1542209822
 30
0.0
 10
27.1059893973
 20
88.3221625099
 30
0.0
  0
SPLINE
  5
317
100
AcDbEntity
  8
0
100
AcDbSpline
 62
7
  6
CONTINUOUS
 70
0
 71
3
 72
11
 73
7
 74
0
 42
0.0000001
 43
0.0000001
 44
0.0000000001
 40
0.0
 40
0.0
 40
0.0
 40
0.0
 40
0.2177434119
 40
0.4508805377
 40
0.710457812
 40
1.0
 40
1.0
 40
1.0
 40
1.0
 10
56.1034978446
 20
96.7566563046
 30
0.0
 10
56.103497854
 20
96.726191526
 30
0.0
 10
56.1146852118
 20
96.6626753124
 30
0.0
 10
56.1628676188
 20
96.5741629097
 30
0.0
 10
56.2390226687
 20
96.4942137083
 30
0.0
 10
56.3026869139
 20
96.4503157593
 30
0.0
 10
56.3377700124
 20
96.4300609812
 30
0.0
  0
SPLINE
  5
318
100
AcDbEntity
  8
0
100
AcDbSpline
 62
7
  6
CONTINUOUS
 70
0
 71
3
 72
11
 73
7
 74
0
 42
0.0000001
 43
0.0000001
 44
0.0000000001
 40
0.0
 40
0.0
 40
0.0
 40
0.0
 40
0.2177434119
 40
0.4508805377
 40
0.710457812
 40
1.0
 40
1.0
 40
1.0
 40
1.0
 10
43.3755227919
 20
104.104989886
 30
0.0
 10
43.3755228014
 20
104.0745251073
 30
0.0
 10
43.3867101592
 20
104.0110088938
 30
0.0
 10
43.4348925662
 20
103.922496491
 30
0.0
 10
43.5110476161
 20
103.8425472897
 30
0.0
 10
43.5747118613
 20
103.7986493407
 30
0.0
 10
43.6097949598
 20
103.7783945626
 30
0.0
  0
SPLINE
  5
319
100
AcDbEntity
  8
0
100
AcDbSpline
 62
7
  6
CONTINUOUS
 70
0
 71
3
 72
12
 73
8
 74
0
 42
0.0000001
 43
0.0000001
 44
0.0000000001
 40
0.0
 40
0.0
 40
0.0
 40
0.0
 40
0.1081630284
 40
0.2183736393
 40
0.4513413857
 40
0.7104803079
 40
1.0
 40
1.0
 40
1.0
 40
1.0
 10
44.4727403503
 20
23.3367207151
 30
0.0
 10
44.5309499804
 20
23.3703142159
 30
0.0
 10
44.6428518633
 20
23.448436839
 30
0.0
 10
44.843548828
 20
23.6459086388
 30
0.0
 10
45.042450829
 20
23.9700111152
 30
0.0
 10
45.1806776802
 20
24.4398284474
 30
0.0
 10
45.2079983611
 20
24.7819477042
 30
0.0
 10
45.2079983611
 20
24.9618425642
 30
0.0
  0
SPLINE
  5
31A
100
AcDbEntity
  8
0
100
AcDbSpline
 62
7
  6
CONTINUOUS
 70
0
 71
3
 72
17
 73
13
 74
0
 42
0.0000001
 43
0.0000001
 44
0.0000000001
 40
0.0
 40
0.0
 40
0.0
 40
0.0
 40
0.0441112394
 40
0.0892282405
 40
0.1855993064
 40
0.2383533507
 40
0.2944937111
 40
0.4169995747
 40
0.5522027061
 40
0.6972072367
 40
0.8479996137
 40
1.0
 40
1.0
 40
1.0
 40
1.0
 10
44.7227379291
 20
22.9037096378
 30
0.0
 10
44.6494643279
 20
22.8614221087
 30
0.0
 10
44.4927412097
 20
22.789752372
 30
0.0
 10
44.1457346117
 20
22.7032462705
 30
0.0
 10
43.7659875836
 20
22.7110996281
 30
0.0
 10
43.3816179207
 20
22.7985564841
 30
0.0
 10
42.9629364211
 20
22.9489497649
 30
0.0
 10
42.434089253
 20
23.245005096
 30
0.0
 10
41.8314734639
 20
23.7326998751
 30
0.0
 10
41.2684639758
 20
24.3415144492
 30
0.0
 10
40.7703890896
 20
25.0437713347
 30
0.0
 10
40.4946073633
 20
25.5568672066
 30
0.0
 10
40.3731706302
 20
25.8218901583
 30
0.0
  0
SPLINE
  5
31B
100
AcDbEntity
  8
0
100
AcDbSpline
 62
7
  6
CONTINUOUS
 70
0
 71
3
 72
11
 73
7
 74
0
 42
0.0000001
 43
0.0000001
 44
0.0000000001
 40
0.0
 40
0.0
 40
0.0
 40
0.0
 40
0.2638345373
 40
0.5199958055
 40
0.7654879672
 40
1.0
 40
1.0
 40
1.0
 40
1.0
 10
23.8664344517
 20
40.8448169316
 30
0.0
 10
23.8262814636
 20
40.8680027544
 30
0.0
 10
23.7504052702
 20
40.9197973748
 30
0.0
 10
23.6544513167
 20
41.0154271081
 30
0.0
 10
23.5863833558
 20
41.1274017479
 30
0.0
 10
23.5685882539
 20
41.2123111955
 30
0.0
 10
23.5685882539
 20
41.2535244624
 30
0.0
  0
SPLINE
  5
31C
100
AcDbEntity
  8
0
100
AcDbSpline
 62
7
  6
CONTINUOUS
 70
0
 71
3
 72
16
 73
12
 74
0
 42
0.0000001
 43
0.0000001
 44
0.0000000001
 40
0.0
 40
0.0
 40
0.0
 40
0.0
 40
0.0428755151
 40
0.0875161207
 40
0.1869217599
 40
0.3042393126
 40
0.437962533
 40
0.5823660413
 40
0.7295547149
 40
0.8712848126
 40
1.0
 40
1.0
 40
1.0
 40
1.0
 10
14.5459513084
 20
47.8424169001
 30
0.0
 10
14.5286882339
 20
47.8523672553
 30
0.0
 10
14.4906590062
 20
47.8681806511
 30
0.0
 10
14.4039635213
 20
47.8809306835
 30
0.0
 10
14.281558875
 20
47.8570132219
 30
0.0
 10
14.1373772879
 20
47.777916865
 30
0.0
 10
13.9987738339
 20
47.6553252323
 30
0.0
 10
13.8765474108
 20
47.4987645802
 30
0.0
 10
13.7801982814
 20
47.3208289413
 30
0.0
 10
13.7177734829
 20
47.1360887049
 30
0.0
 10
13.7009994593
 20
47.0102681534
 30
0.0
 10
13.7009994593
 20
46.9504506276
 30
0.0
  0
SPLINE
  5
31D
100
AcDbEntity
  8
0
100
AcDbSpline
 62
7
  6
CONTINUOUS
 70
0
 71
3
 72
10
 73
6
 74
0
 42
0.0000001
 43
0.0000001
 44
0.0000000001
 40
0.0
 40
0.0
 40
0.0
 40
0.0
 40
0.2276114316
 40
0.5961745492
 40
1.0
 40
1.0
 40
1.0
 40
1.0
 10
22.3757547822
 20
39.3067036773
 30
0.0
 10
22.4438403127
 20
39.1821631555
 30
0.0
 10
22.5964696665
 20
38.8415204147
 30
0.0
 10
22.7507786072
 20
38.2335128438
 30
0.0
 10
22.7895332474
 20
37.7512769763
 30
0.0
 10
22.792716636
 20
37.499475007
 30
0.0
  0
SPLINE
  5
31E
100
AcDbEntity
  8
0
100
AcDbSpline
 62
7
  6
CONTINUOUS
 70
0
 71
3
 72
13
 73
9
 74
0
 42
0.0000001
 43
0.0000001
 44
0.0000000001
 40
0.0
 40
0.0
 40
0.0
 40
0.0
 40
0.1203723284
 40
0.2487425998
 40
0.3811964653
 40
0.513752588
 40
0.7683434197
 40
1.0
 40
1.0
 40
1.0
 40
1.0
 10
10.8963104727
 20
51.2303754609
 30
0.0
 10
10.8963145369
 20
51.4587254738
 30
0.0
 10
10.9420825062
 20
51.9306455837
 30
0.0
 10
11.0949292136
 20
52.6380458763
 30
0.0
 10
11.2959365418
 20
53.3569351327
 30
0.0
 10
11.5777984475
 20
54.3013578092
 30
0.0
 10
11.8865373272
 20
55.4347515277
 30
0.0
 10
12.0038178527
 20
56.3560540998
 30
0.0
 10
12.0092933275
 20
56.7954796524
 30
0.0
  0
SPLINE
  5
31F
100
AcDbEntity
  8
0
100
AcDbSpline
 62
7
  6
CONTINUOUS
 70
0
 71
3
 72
9
 73
5
 74
0
 42
0.0000001
 43
0.0000001
 44
0.0000000001
 40
0.0
 40
0.0
 40
0.0
 40
0.0
 40
0.2550584161
 40
1.0
 40
1.0
 40
1.0
 40
1.0
 10
10.8963111461
 20
49.0829369106
 30
0.0
 10
10.8963122823
 20
49.0388937514
 30
0.0
 10
10.898184694
 20
48.8662187707
 30
0.0
 10
10.9045079162
 20
48.6936048021
 30
0.0
 10
10.9045079162
 20
48.5649692475
 30
0.0
  0
SPLINE
  5
320
100
AcDbEntity
  8
0
100
AcDbSpline
 62
7
  6
CONTINUOUS
 70
0
 71
3
 72
14
 73
10
 74
0
 42
0.0000001
 43
0.0000001
 44
0.0000000001
 40
0.0
 40
0.0
 40
0.0
 40
0.0
 40
0.0523118464
 40
0.1263465822
 40
0.2226741737
 40
0.3405945632
 40
0.4788560767
 40
0.6359468108
 40
1.0
 40
1.0
 40
1.0
 40
1.0
 10
10.8963104752
 20
46.1876207328
 30
0.0
 10
10.8963080396
 20
46.1599564593
 30
0.0
 10
10.9133279998
 20
46.0937618944
 30
0.0
 10
10.9665712091
 20
45.9885332012
 30
0.0
 10
11.0547296913
 20
45.8634807299
 30
0.0
 10
11.1785336555
 20
45.7237753286
 30
0.0
 10
11.3379055381
 20
45.5738144005
 30
0.0
 10
11.6099171303
 20
45.3552007483
 30
0.0
 10
11.8425843962
 20
45.2057464605
 30
0.0
 10
12.0093157017
 20
45.1094862742
 30
0.0
  0
SPLINE
  5
321
100
AcDbEntity
  8
0
100
AcDbSpline
 62
7
  6
CONTINUOUS
 70
0
 71
3
 72
15
 73
11
 74
0
 42
0.0000001
 43
0.0000001
 44
0.0000000001
 40
0.0
 40
0.0
 40
0.0
 40
0.0
 40
0.1141241598
 40
0.2373483675
 40
0.3669736385
 40
0.5000010132
 40
0.6330282465
 40
0.7626531028
 40
0.8858766831
 40
1.0
 40
1.0
 40
1.0
 40
1.0
 10
22.8634305526
 20
61.6595092215
 30
0.0
 10
22.8634305526
 20
61.7992103965
 30
0.0
 10
22.8377794763
 20
62.0900164603
 30
0.0
 10
22.7358242665
 20
62.5287152054
 30
0.0
 10
22.5723006029
 20
62.9730848204
 30
0.0
 10
22.353588987
 20
63.4063990822
 30
0.0
 10
22.0876820353
 20
63.812464376
 30
0.0
 10
21.7846075416
 20
64.176262172
 30
0.0
 10
21.4556606042
 20
64.4839036885
 30
0.0
 10
21.216640797
 20
64.6515182641
 30
0.0
 10
21.0956562397
 20
64.7213671506
 30
0.0
  0
SPLINE
  5
322
100
AcDbEntity
  8
0
100
AcDbSpline
 62
7
  6
CONTINUOUS
 70
0
 71
3
 72
11
 73
7
 74
0
 42
0.0000001
 43
0.0000001
 44
0.0000000001
 40
0.0
 40
0.0
 40
0.0
 40
0.0
 40
0.289702329
 40
0.5490881649
 40
0.7822156415
 40
1.0
 40
1.0
 40
1.0
 40
1.0
 10
16.4287320806
 20
67.4157561149
 30
0.0
 10
16.3190350204
 20
67.4790883094
 30
0.0
 10
16.1008121953
 20
67.5829011855
 30
0.0
 10
15.7653993708
 20
67.6638973731
 30
0.0
 10
15.4506840161
 20
67.6559288374
 30
0.0
 10
15.2612085688
 20
67.5871667303
 30
0.0
 10
15.178743914
 20
67.5395560091
 30
0.0
  0
SPLINE
  5
323
100
AcDbEntity
  8
0
100
AcDbSpline
 62
7
  6
CONTINUOUS
 70
0
 71
3
 72
9
 73
5
 74
0
 42
0.0000001
 43
0.0000001
 44
0.0000000001
 40
0.0
 40
0.0
 40
0.0
 40
0.0
 40
0.5131351734
 40
1.0
 40
1.0
 40
1.0
 40
1.0
 10
14.7055660573
 20
67.3185263813
 30
0.0
 10
14.7502700342
 20
67.4009336678
 30
0.0
 10
14.8566767278
 20
67.5523066248
 30
0.0
 10
15.0017099574
 20
67.6682845755
 30
0.0
 10
15.0787448978
 20
67.7127604196
 30
0.0
  0
SPLINE
  5
324
100
AcDbEntity
  8
0
100
AcDbSpline
 62
7
  6
CONTINUOUS
 70
0
 71
3
 72
11
 73
7
 74
0
 42
0.0000001
 43
0.0000001
 44
0.0000000001
 40
0.0
 40
0.0
 40
0.0
 40
0.0
 40
0.289702809
 40
0.549088757
 40
0.7822160314
 40
1.0
 40
1.0
 40
1.0
 40
1.0
 10
38.8794511072
 20
24.9415885658
 30
0.0
 10
38.7916947046
 20
24.8909226856
 30
0.0
 10
38.6171189458
 20
24.8078719274
 30
0.0
 10
38.3487922412
 20
24.7430734574
 30
0.0
 10
38.0970230085
 20
24.7494460569
 30
0.0
 10
37.9454441753
 20
24.8044538546
 30
0.0
 10
37.8794730641
 20
24.8425414395
 30
0.0
  0
SPLINE
  5
325
100
AcDbEntity
  8
0
100
AcDbSpline
 62
7
  6
CONTINUOUS
 70
0
 71
3
 72
20
 73
16
 74
0
 42
0.0000001
 43
0.0000001
 44
0.0000000001
 40
0.0
 40
0.0
 40
0.0
 40
0.0
 40
0.0623920538
 40
0.1288103465
 40
0.2703039457
 40
0.4173652809
 40
0.5616165422
 40
0.6302527498
 40
0.6953793592
 40
0.7563616966
 40
0.8128309687
 40
0.8647637845
 40
0.9125657162
 40
0.9571671359
 40
1.0
 40
1.0
 40
1.0
 40
1.0
 10
45.2079983611
 20
77.8711991941
 30
0.0
 10
45.2079983611
 20
78.0184087954
 30
0.0
 10
45.1879764958
 20
78.322541495
 30
0.0
 10
45.0762311326
 20
78.9514053139
 30
0.0
 10
44.8061078849
 20
79.7498212515
 30
0.0
 10
44.3181025279
 20
80.6516653299
 30
0.0
 10
43.7924003074
 20
81.3249635514
 30
0.0
 10
43.3192895735
 20
81.7806378614
 30
0.0
 10
42.956782641
 20
82.0644739751
 30
0.0
 10
42.5883804843
 20
82.2898349183
 30
0.0
 10
42.2215778471
 20
82.4519290564
 30
0.0
 10
41.8636821054
 20
82.5470724501
 30
0.0
 10
41.5216970037
 20
82.5721738798
 30
0.0
 10
41.2032198283
 20
82.525569516
 30
0.0
 10
41.0103078064
 20
82.4453453296
 30
0.0
 10
40.9227773233
 20
82.3948304003
 30
0.0
  0
SPLINE
  5
326
100
AcDbEntity
  8
0
100
AcDbSpline
 62
7
  6
CONTINUOUS
 70
0
 71
3
 72
12
 73
8
 74
0
 42
0.0000001
 43
0.0000001
 44
0.0000000001
 40
0.0
 40
0.0
 40
0.0
 40
0.0
 40
0.2895257727
 40
0.5486612408
 40
0.7816278471
 40
0.89183755
 40
1.0
 40
1.0
 40
1.0
 40
1.0
 10
39.83396445
 20
80.9738289285
 30
0.0
 10
39.83396445
 20
81.1790656463
 30
0.0
 10
39.8651317699
 20
81.5693731092
 30
0.0
 10
40.0228307074
 20
82.1053637301
 30
0.0
 10
40.2497477244
 20
82.4751076461
 30
0.0
 10
40.4787039447
 20
82.7003995989
 30
0.0
 10
40.6063720175
 20
82.7895163695
 30
0.0
 10
40.6727797445
 20
82.8278414776
 30
0.0
  0
SPLINE
  5
327
100
AcDbEntity
  8
0
100
AcDbSpline
 62
7
  6
CONTINUOUS
 70
0
 71
3
 72
20
 73
16
 74
0
 42
0.0000001
 43
0.0000001
 44
0.0000000001
 40
0.0
 40
0.0
 40
0.0
 40
0.0
 40
0.0623920538
 40
0.1288103465
 40
0.2703039457
 40
0.4173652809
 40
0.5616165422
 40
0.6302527498
 40
0.6953793592
 40
0.7563616966
 40
0.8128309687
 40
0.8647637845
 40
0.9125657162
 40
0.9571671359
 40
1.0
 40
1.0
 40
1.0
 40
1.0
 10
32.4800233084
 20
85.2195327755
 30
0.0
 10
32.4800233084
 20
85.3667423767
 30
0.0
 10
32.4600014432
 20
85.6708750764
 30
0.0
 10
32.3482560799
 20
86.2997388953
 30
0.0
 10
32.0781328322
 20
87.0981548328
 30
0.0
 10
31.5901274753
 20
87.9999989113
 30
0.0
 10
31.0644252548
 20
88.6732971327
 30
0.0
 10
30.5913145209
 20
89.1289714428
 30
0.0
 10
30.2288075883
 20
89.4128075565
 30
0.0
 10
29.8604054317
 20
89.6381684997
 30
0.0
 10
29.4936027944
 20
89.8002626378
 30
0.0
 10
29.1357070528
 20
89.8954060314
 30
0.0
 10
28.7937219511
 20
89.9205074612
 30
0.0
 10
28.4752447756
 20
89.8739030973
 30
0.0
 10
28.2823327537
 20
89.7936789109
 30
0.0
 10
28.1948022707
 20
89.7431639816
 30
0.0
  0
SPLINE
  5
328
100
AcDbEntity
  8
0
100
AcDbSpline
 62
7
  6
CONTINUOUS
 70
0
 71
3
 72
12
 73
8
 74
0
 42
0.0000001
 43
0.0000001
 44
0.0000000001
 40
0.0
 40
0.0
 40
0.0
 40
0.0
 40
0.2895257727
 40
0.5486612408
 40
0.7816278471
 40
0.89183755
 40
1.0
 40
1.0
 40
1.0
 40
1.0
 10
27.1059893973
 20
88.3221625099
 30
0.0
 10
27.1059893973
 20
88.5273992277
 30
0.0
 10
27.1371567173
 20
88.9177066906
 30
0.0
 10
27.2948556548
 20
89.4536973114
 30
0.0
 10
27.5217726717
 20
89.8234412275
 30
0.0
 10
27.7507288921
 20
90.0487331803
 30
0.0
 10
27.8783969648
 20
90.1378499508
 30
0.0
 10
27.9448046919
 20
90.176175059
 30
0.0
  0
SPLINE
  5
329
100
AcDbEntity
  8
0
100
AcDbSpline
 62
7
  6
CONTINUOUS
 70
0
 71
3
 72
11
 73
7
 74
0
 42
0.0000001
 43
0.0000001
 44
0.0000000001
 40
0.0
 40
0.0
 40
0.0
 40
0.0
 40
0.2897048043
 40
0.5490913404
 40
0.7822177947
 40
1.0
 40
1.0
 40
1.0
 40
1.0
 10
67.5100589215
 20
96.1851423636
 30
0.0
 10
67.5978161463
 20
96.2358087185
 30
0.0
 10
67.757029874
 20
96.3454702218
 30
0.0
 10
67.9473124611
 20
96.5454485507
 30
0.0
 10
68.0676789873
 20
96.7666730334
 30
0.0
 10
68.0958295055
 20
96.9254478496
 30
0.0
 10
68.0958294914
 20
97.0016238726
 30
0.0
  0
SPLINE
  5
32A
100
AcDbEntity
  8
0
100
AcDbSpline
 62
7
  6
CONTINUOUS
 70
0
 71
3
 72
11
 73
7
 74
0
 42
0.0000001
 43
0.0000001
 44
0.0000000001
 40
0.0
 40
0.0
 40
0.0
 40
0.0
 40
0.2372531816
 40
0.5000006935
 40
0.7627478297
 40
1.0
 40
1.0
 40
1.0
 40
1.0
 10
61.5703819785
 20
93.4090793977
 30
0.0
 10
61.6506978347
 20
93.3627100655
 30
0.0
 10
61.837459365
 20
93.2950355855
 30
0.0
 10
62.1360684568
 20
93.2626815532
 30
0.0
 10
62.4346769949
 20
93.2950370123
 30
0.0
 10
62.6214376489
 20
93.3627124035
 30
0.0
 10
62.7017528284
 20
93.4090821172
 30
0.0
  0
SPLINE
  5
32B
100
AcDbEntity
  8
0
100
AcDbSpline
 62
7
  6
CONTINUOUS
 70
0
 71
3
 72
11
 73
7
 74
0
 42
0.0000001
 43
0.0000001
 44
0.0000000001
 40
0.0
 40
0.0
 40
0.0
 40
0.0
 40
0.2897048043
 40
0.5490913404
 40
0.7822177947
 40
1.0
 40
1.0
 40
1.0
 40
1.0
 10
54.7820838688
 20
103.5334759449
 30
0.0
 10
54.8698410936
 20
103.5841422998
 30
0.0
 10
55.0290548214
 20
103.6938038032
 30
0.0
 10
55.2193374084
 20
103.8937821321
 30
0.0
 10
55.3397039346
 20
104.1150066148
 30
0.0
 10
55.3678544529
 20
104.273781431
 30
0.0
 10
55.3678544388
 20
104.3499574539
 30
0.0
  0
SPLINE
  5
32C
100
AcDbEntity
  8
0
100
AcDbSpline
 62
7
  6
CONTINUOUS
 70
0
 71
3
 72
11
 73
7
 74
0
 42
0.0000001
 43
0.0000001
 44
0.0000000001
 40
0.0
 40
0.0
 40
0.0
 40
0.0
 40
0.2372531816
 40
0.5000006935
 40
0.7627478297
 40
1.0
 40
1.0
 40
1.0
 40
1.0
 10
48.8424069259
 20
100.7574129791
 30
0.0
 10
48.9227227821
 20
100.7110436469
 30
0.0
 10
49.1094843123
 20
100.6433691669
 30
0.0
 10
49.4080934041
 20
100.6110151346
 30
0.0
 10
49.7067019422
 20
100.6433705937
 30
0.0
 10
49.8934625962
 20
100.7110459849
 30
0.0
 10
49.9737777758
 20
100.7574156986
 30
0.0
  0
SPLINE
  5
32D
100
AcDbEntity
  8
0
100
AcDbSpline
 62
7
  6
CONTINUOUS
 70
0
 71
3
 72
11
 73
7
 74
0
 42
0.0000001
 43
0.0000001
 44
0.0000000001
 40
0.0
 40
0.0
 40
0.0
 40
0.0
 40
0.2277211126
 40
0.4760444732
 40
0.7367391086
 40
1.0
 40
1.0
 40
1.0
 40
1.0
 10
45.2079983611
 20
24.9618425642
 30
0.0
 10
45.2079983611
 20
25.2080575315
 30
0.0
 10
45.1519968056
 20
25.723320486
 30
0.0
 10
44.9352998699
 20
26.4928221593
 30
0.0
 10
44.5938612212
 20
27.2577662351
 30
0.0
 10
44.2930485995
 20
27.74033882
 30
0.0
 10
44.1257077303
 20
27.970594219
 30
0.0
  0
SPLINE
  5
32E
100
AcDbEntity
  8
0
100
AcDbSpline
 62
7
  6
CONTINUOUS
 70
0
 71
3
 72
15
 73
11
 74
0
 42
0.0000001
 43
0.0000001
 44
0.0000000001
 40
0.0
 40
0.0
 40
0.0
 40
0.0
 40
0.1141242661
 40
0.2373486253
 40
0.3669740476
 40
0.5000015346
 40
0.6330288076
 40
0.7626536034
 40
0.8858770013
 40
1.0
 40
1.0
 40
1.0
 40
1.0
 10
37.4652434328
 20
59.2347041947
 30
0.0
 10
37.4652434328
 20
59.346465172
 30
0.0
 10
37.4857641334
 20
59.5791101315
 30
0.0
 10
37.5673276093
 20
59.9300694601
 30
0.0
 10
37.6981454291
 20
60.2855657352
 30
0.0
 10
37.8731132366
 20
60.6322179512
 30
0.0
 10
38.0858369925
 20
60.9570711826
 30
0.0
 10
38.3282945274
 20
61.2481105664
 30
0.0
 10
38.5914498388
 20
61.4942250371
 30
0.0
 10
38.7826641922
 20
61.6283177188
 30
0.0
 10
38.8794511072
 20
61.6841973367
 30
0.0
  0
SPLINE
  5
32F
100
AcDbEntity
  8
0
100
AcDbSpline
 62
7
  6
CONTINUOUS
 70
0
 71
3
 72
13
 73
9
 74
0
 42
0.0000001
 43
0.0000001
 44
0.0000000001
 40
0.0
 40
0.0
 40
0.0
 40
0.0
 40
0.2556352283
 40
0.5170894923
 40
0.6454345636
 40
0.7696920401
 40
0.8883403399
 40
1.0
 40
1.0
 40
1.0
 40
1.0
 10
13.0346248031
 20
48.6139054938
 30
0.0
 10
13.4347195398
 20
49.0269139534
 30
0.0
 10
14.1641885329
 20
49.9419655809
 30
0.0
 10
14.8702959185
 20
51.2186299228
 30
0.0
 10
15.2952312786
 20
52.2954507731
 30
0.0
 10
15.5302896513
 20
53.0981325817
 30
0.0
 10
15.6783994466
 20
53.8831368464
 30
0.0
 10
15.7184899649
 20
54.4010690797
 30
0.0
 10
15.7216193845
 20
54.6522156911
 30
0.0
  0
SPLINE
  5
330
100
AcDbEntity
  8
0
100
AcDbSpline
 62
7
  6
CONTINUOUS
 70
0
 71
3
 72
12
 73
8
 74
0
 42
0.0000001
 43
0.0000001
 44
0.0000000001
 40
0.0
 40
0.0
 40
0.0
 40
0.0
 40
0.1081630284
 40
0.2183736393
 40
0.4513413857
 40
0.7104803079
 40
1.0
 40
1.0
 40
1.0
 40
1.0
 10
28.1948022707
 20
89.7431639816
 30
0.0
 10
28.1365926406
 20
89.7095704809
 30
0.0
 10
28.0246907577
 20
89.6314478578
 30
0.0
 10
27.823993793
 20
89.433976058
 30
0.0
 10
27.6250917919
 20
89.1098735815
 30
0.0
 10
27.4868649407
 20
88.6400562493
 30
0.0
 10
27.4595442599
 20
88.2979369925
 30
0.0
 10
27.4595442599
 20
88.1180421326
 30
0.0
  0
SPLINE
  5
331
100
AcDbEntity
  8
0
100
AcDbSpline
 62
7
  6
CONTINUOUS
 70
0
 71
3
 72
12
 73
8
 74
0
 42
0.0000001
 43
0.0000001
 44
0.0000000001
 40
0.0
 40
0.0
 40
0.0
 40
0.0
 40
0.1081631839
 40
0.218373605
 40
0.4513417169
 40
0.7104802742
 40
1.0
 40
1.0
 40
1.0
 40
1.0
 10
45.2884206972
 20
23.2303054771
 30
0.0
 10
45.3548290354
 20
23.2686304146
 30
0.0
 10
45.4824928131
 20
23.3577547396
 30
0.0
 10
45.7114563332
 20
23.5830408104
 30
0.0
 10
45.9383715778
 20
23.9527917595
 30
0.0
 10
46.0960688526
 20
24.4887801835
 30
0.0
 10
46.1272362934
 20
24.8790852827
 30
0.0
 10
46.1272362934
 20
25.08431751
 30
0.0
  0
SPLINE
  5
332
100
AcDbEntity
  8
0
100
AcDbSpline
 62
7
  6
CONTINUOUS
 70
0
 71
3
 72
11
 73
7
 74
0
 42
0.0000001
 43
0.0000001
 44
0.0000000001
 40
0.0
 40
0.0
 40
0.0
 40
0.0
 40
0.2177833598
 40
0.4509104088
 40
0.7102966711
 40
1.0
 40
1.0
 40
1.0
 40
1.0
 10
22.799195341
 20
60.5459728372
 30
0.0
 10
22.8882591379
 20
60.5973935533
 30
0.0
 10
23.0548938412
 20
60.737483016
 30
0.0
 10
23.2322962323
 20
61.0275440031
 30
0.0
 10
23.33766282
 20
61.3850069754
 30
0.0
 10
23.3584043636
 20
61.6451791918
 30
0.0
 10
23.3584043636
 20
61.7819831779
 30
0.0
  0
SPLINE
  5
333
100
AcDbEntity
  8
0
100
AcDbSpline
 62
7
  6
CONTINUOUS
 70
0
 71
3
 72
11
 73
7
 74
0
 42
0.0000001
 43
0.0000001
 44
0.0000000001
 40
0.0
 40
0.0
 40
0.0
 40
0.0
 40
0.2637204055
 40
0.5242633923
 40
0.7723014279
 40
1.0
 40
1.0
 40
1.0
 40
1.0
 10
44.3770067012
 20
28.1202621731
 30
0.0
 10
44.5605350254
 20
27.8608750276
 30
0.0
 10
44.8901627852
 20
27.3193655655
 30
0.0
 10
45.2639080855
 20
26.4640421985
 30
0.0
 10
45.50059805
 20
25.6058829165
 30
0.0
 10
45.5615532236
 20
25.0320694116
 30
0.0
 10
45.5615532236
 20
24.7577221869
 30
0.0
  0
SPLINE
  5
334
100
AcDbEntity
  8
0
100
AcDbSpline
 62
7
  6
CONTINUOUS
 70
0
 71
3
 72
11
 73
7
 74
0
 42
0.0000001
 43
0.0000001
 44
0.0000000001
 40
0.0
 40
0.0
 40
0.0
 40
0.0
 40
0.2893975675
 40
0.5491290883
 40
0.7823145228
 40
1.0
 40
1.0
 40
1.0
 40
1.0
 10
14.6909448314
 20
47.521992443
 30
0.0
 10
14.6909448314
 20
47.5574217892
 30
0.0
 10
14.6854998041
 20
47.624865064
 30
0.0
 10
14.6582866463
 20
47.7175807833
 30
0.0
 10
14.6122476112
 20
47.7928045448
 30
0.0
 10
14.5690404539
 20
47.8291084248
 30
0.0
 10
14.5459513084
 20
47.8424169001
 30
0.0
  0
SPLINE
  5
335
100
AcDbEntity
  8
0
100
AcDbSpline
 62
7
  6
CONTINUOUS
 70
0
 71
3
 72
15
 73
11
 74
0
 42
0.0000001
 43
0.0000001
 44
0.0000000001
 40
0.0
 40
0.0
 40
0.0
 40
0.0
 40
0.1141242265
 40
0.2373484055
 40
0.3669739183
 40
0.5000012335
 40
0.6330277761
 40
0.7626561381
 40
0.8858725519
 40
1.0
 40
1.0
 40
1.0
 40
1.0
 10
23.3584043636
 20
61.7819831779
 30
0.0
 10
23.3584043636
 20
61.9328603359
 30
0.0
 10
23.3307012913
 20
62.2469305153
 30
0.0
 10
23.2205896925
 20
62.7207249413
 30
0.0
 10
23.0439843493
 20
63.2006434872
 30
0.0
 10
22.8077785602
 20
63.6686232805
 30
0.0
 10
22.5205886592
 20
64.1071699663
 30
0.0
 10
22.193294851
 20
64.5000832594
 30
0.0
 10
21.8380071178
 20
64.8323226891
 30
0.0
 10
21.5798408387
 20
65.0132834022
 30
0.0
 10
21.4492105506
 20
65.0887879043
 30
0.0
  0
SPLINE
  5
336
100
AcDbEntity
  8
0
100
AcDbSpline
 62
7
  6
CONTINUOUS
 70
0
 71
3
 72
18
 73
14
 74
0
 42
0.0000001
 43
0.0000001
 44
0.0000000001
 40
0.0
 40
0.0
 40
0.0
 40
0.0
 40
0.1156430482
 40
0.239337114
 40
0.3681081475
 40
0.4992731366
 40
0.5652626938
 40
0.6310931352
 40
0.696452371
 40
0.7609367946
 40
0.8240531058
 40
0.8852737326
 40
1.0
 40
1.0
 40
1.0
 40
1.0
 10
26.505042693
 20
48.4265441847
 30
0.0
 10
26.5009798
 20
48.1004831387
 30
0.0
 10
26.4367091231
 20
47.4255967513
 30
0.0
 10
26.1845037551
 20
46.4145055814
 30
0.0
 10
25.7426634465
 20
45.419894628
 30
0.0
 10
25.1837756843
 20
44.6758483367
 30
0.0
 10
24.6192882114
 20
44.1908933517
 30
0.0
 10
24.143823608
 20
43.897897255
 30
0.0
 10
23.6304360985
 20
43.688797114
 30
0.0
 10
23.0970975644
 20
43.5694214042
 30
0.0
 10
22.5629063776
 20
43.5394119138
 30
0.0
 10
21.8908631674
 20
43.6093033676
 30
0.0
 10
21.4111930417
 20
43.7778009737
 30
0.0
 10
21.1310311561
 20
43.9395488545
 30
0.0
  0
SPLINE
  5
337
100
AcDbEntity
  8
0
100
AcDbSpline
 62
7
  6
CONTINUOUS
 70
0
 71
3
 72
20
 73
16
 74
0
 42
0.0000001
 43
0.0000001
 44
0.0000000001
 40
0.0
 40
0.0
 40
0.0
 40
0.0
 40
0.0623920538
 40
0.1288103465
 40
0.2703039457
 40
0.4173652809
 40
0.5616165422
 40
0.6302527498
 40
0.6953793592
 40
0.7563616966
 40
0.8128309687
 40
0.8647637845
 40
0.9125657162
 40
0.9571671359
 40
1.0
 40
1.0
 40
1.0
 40
1.0
 10
40.1875193125
 20
80.7697085512
 30
0.0
 10
40.1875193125
 20
80.62249895
 30
0.0
 10
40.2075411778
 20
80.3183662504
 30
0.0
 10
40.319286541
 20
79.6895024315
 30
0.0
 10
40.5894097887
 20
78.8910864939
 30
0.0
 10
41.0774151457
 20
77.9892424155
 30
0.0
 10
41.6031173662
 20
77.315944194
 30
0.0
 10
42.0762281001
 20
76.860269884
 30
0.0
 10
42.4387350326
 20
76.5764337703
 30
0.0
 10
42.8071371893
 20
76.351072827
 30
0.0
 10
43.1739398265
 20
76.188978689
 30
0.0
 10
43.5318355682
 20
76.0938352953
 30
0.0
 10
43.8738206699
 20
76.0687338656
 30
0.0
 10
44.1922978453
 20
76.1153382294
 30
0.0
 10
44.3852098672
 20
76.1955624158
 30
0.0
 10
44.4727403503
 20
76.2460773451
 30
0.0
  0
SPLINE
  5
338
100
AcDbEntity
  8
0
100
AcDbSpline
 62
7
  6
CONTINUOUS
 70
0
 71
3
 72
12
 73
8
 74
0
 42
0.0000001
 43
0.0000001
 44
0.0000000001
 40
0.0
 40
0.0
 40
0.0
 40
0.0
 40
0.2895257727
 40
0.5486612408
 40
0.7816278471
 40
0.89183755
 40
1.0
 40
1.0
 40
1.0
 40
1.0
 10
45.5615532236
 20
77.6670788169
 30
0.0
 10
45.5615532236
 20
77.4618420991
 30
0.0
 10
45.5303859037
 20
77.0715346362
 30
0.0
 10
45.3726869662
 20
76.5355440153
 30
0.0
 10
45.1457699492
 20
76.1658000993
 30
0.0
 10
44.9168137289
 20
75.9405081465
 30
0.0
 10
44.7891456561
 20
75.8513913759
 30
0.0
 10
44.7227379291
 20
75.8130662678
 30
0.0
  0
SPLINE
  5
339
100
AcDbEntity
  8
0
100
AcDbSpline
 62
7
  6
CONTINUOUS
 70
0
 71
3
 72
11
 73
7
 74
0
 42
0.0000001
 43
0.0000001
 44
0.0000000001
 40
0.0
 40
0.0
 40
0.0
 40
0.0
 40
0.2177825102
 40
0.4509091639
 40
0.7102957096
 40
1.0
 40
1.0
 40
1.0
 40
1.0
 10
37.8794730641
 20
24.8425414395
 30
0.0
 10
37.8134997814
 20
24.8806302779
 30
0.0
 10
37.6900663104
 20
24.9843995846
 30
0.0
 10
37.5586569258
 20
25.1992594749
 30
0.0
 10
37.4806075238
 20
25.4640475136
 30
0.0
 10
37.4652434328
 20
25.6567683462
 30
0.0
 10
37.4652434328
 20
25.7581050924
 30
0.0
  0
SPLINE
  5
33A
100
AcDbEntity
  8
0
100
AcDbSpline
 62
7
  6
CONTINUOUS
 70
0
 71
3
 72
11
 73
7
 74
0
 42
0.0000001
 43
0.0000001
 44
0.0000000001
 40
0.0
 40
0.0
 40
0.0
 40
0.0
 40
0.2539190462
 40
0.4991539253
 40
0.7448439888
 40
1.0
 40
1.0
 40
1.0
 40
1.0
 10
25.0585402798
 20
41.7731393702
 30
0.0
 10
25.0904312657
 20
41.7547268682
 30
0.0
 10
25.149558286
 20
41.7115511013
 30
0.0
 10
25.2180710357
 20
41.62629103
 30
0.0
 10
25.2600898242
 20
41.5250624195
 30
0.0
 10
25.2688330791
 20
41.4519880207
 30
0.0
 10
25.2688330791
 20
41.4149839747
 30
0.0
  0
SPLINE
  5
33B
100
AcDbEntity
  8
0
100
AcDbSpline
 62
7
  6
CONTINUOUS
 70
0
 71
3
 72
20
 73
16
 74
0
 42
0.0000001
 43
0.0000001
 44
0.0000000001
 40
0.0
 40
0.0
 40
0.0
 40
0.0
 40
0.0623920538
 40
0.1288103465
 40
0.2703039457
 40
0.4173652809
 40
0.5616165422
 40
0.6302527498
 40
0.6953793592
 40
0.7563616966
 40
0.8128309687
 40
0.8647637845
 40
0.9125657162
 40
0.9571671359
 40
1.0
 40
1.0
 40
1.0
 40
1.0
 10
27.4595442599
 20
88.1180421326
 30
0.0
 10
27.4595442599
 20
87.9708325314
 30
0.0
 10
27.4795661251
 20
87.6666998317
 30
0.0
 10
27.5913114884
 20
87.0378360129
 30
0.0
 10
27.8614347361
 20
86.2394200753
 30
0.0
 10
28.349440093
 20
85.3375759968
 30
0.0
 10
28.8751423135
 20
84.6642777754
 30
0.0
 10
29.3482530475
 20
84.2086034654
 30
0.0
 10
29.71075998
 20
83.9247673516
 30
0.0
 10
30.0791621366
 20
83.6994064084
 30
0.0
 10
30.4459647739
 20
83.5373122703
 30
0.0
 10
30.8038605155
 20
83.4421688767
 30
0.0
 10
31.1458456172
 20
83.4170674469
 30
0.0
 10
31.4643227927
 20
83.4636718108
 30
0.0
 10
31.6572348146
 20
83.5438959972
 30
0.0
 10
31.7447652976
 20
83.5944109265
 30
0.0
  0
SPLINE
  5
33C
100
AcDbEntity
  8
0
100
AcDbSpline
 62
7
  6
CONTINUOUS
 70
0
 71
3
 72
12
 73
8
 74
0
 42
0.0000001
 43
0.0000001
 44
0.0000000001
 40
0.0
 40
0.0
 40
0.0
 40
0.0
 40
0.2895257727
 40
0.5486612408
 40
0.7816278471
 40
0.89183755
 40
1.0
 40
1.0
 40
1.0
 40
1.0
 10
32.833578171
 20
85.0154123983
 30
0.0
 10
32.833578171
 20
84.8101756805
 30
0.0
 10
32.802410851
 20
84.4198682176
 30
0.0
 10
32.6447119135
 20
83.8838775967
 30
0.0
 10
32.4177948966
 20
83.5141336807
 30
0.0
 10
32.1888386762
 20
83.2888417279
 30
0.0
 10
32.0611706035
 20
83.1997249573
 30
0.0
 10
31.9947628764
 20
83.1613998492
 30
0.0
  0
SPLINE
  5
33D
100
AcDbEntity
  8
0
100
AcDbSpline
 62
7
  6
CONTINUOUS
 70
0
 71
3
 72
16
 73
12
 74
0
 42
0.0000001
 43
0.0000001
 44
0.0000000001
 40
0.0
 40
0.0
 40
0.0
 40
0.0
 40
0.0428755151
 40
0.0875161207
 40
0.1869217599
 40
0.3042393126
 40
0.437962533
 40
0.5823660413
 40
0.7295547149
 40
0.8712848126
 40
1.0
 40
1.0
 40
1.0
 40
1.0
 10
13.8459929824
 20
46.6300261705
 30
0.0
 10
13.8632560568
 20
46.6200758152
 30
0.0
 10
13.9012852845
 20
46.6042624194
 30
0.0
 10
13.9879807695
 20
46.5915123871
 30
0.0
 10
14.1103854157
 20
46.6154298486
 30
0.0
 10
14.2545670028
 20
46.6945262055
 30
0.0
 10
14.3931704568
 20
46.8171178382
 30
0.0
 10
14.51539688
 20
46.9736784903
 30
0.0
 10
14.6117460094
 20
47.1516141292
 30
0.0
 10
14.6741708079
 20
47.3363543656
 30
0.0
 10
14.6909448314
 20
47.4621749171
 30
0.0
 10
14.6909448314
 20
47.521992443
 30
0.0
  0
SPLINE
  5
33E
100
AcDbEntity
  8
0
100
AcDbSpline
 62
7
  6
CONTINUOUS
 70
0
 71
3
 72
15
 73
11
 74
0
 42
0.0000001
 43
0.0000001
 44
0.0000000001
 40
0.0
 40
0.0
 40
0.0
 40
0.0
 40
0.1115737642
 40
0.2334454339
 40
0.3615903294
 40
0.4917663121
 40
0.621462629
 40
0.7496941809
 40
0.8760681424
 40
1.0
 40
1.0
 40
1.0
 40
1.0
 10
25.2688330791
 20
41.4149839747
 30
0.0
 10
25.2688330791
 20
41.3485408175
 30
0.0
 10
25.2387917362
 20
41.2089227078
 30
0.0
 10
25.1257178205
 20
41.0220391525
 30
0.0
 10
24.9563872755
 20
40.8673502481
 30
0.0
 10
24.7487374941
 20
40.7604259946
 30
0.0
 10
24.5218182214
 20
40.706668036
 30
0.0
 10
24.2912036517
 20
40.7043023795
 30
0.0
 10
24.0687193173
 20
40.7487237834
 30
0.0
 10
23.930346899
 20
40.8079115171
 30
0.0
 10
23.8664344517
 20
40.8448169316
 30
0.0
  0
SPLINE
  5
33F
100
AcDbEntity
  8
0
100
AcDbSpline
 62
7
  6
CONTINUOUS
 70
0
 71
3
 72
15
 73
11
 74
0
 42
0.0000001
 43
0.0000001
 44
0.0000000001
 40
0.0
 40
0.0
 40
0.0
 40
0.0
 40
0.1350379579
 40
0.2604360259
 40
0.3795848183
 40
0.4964311037
 40
0.6146110095
 40
0.7369076317
 40
0.8650988795
 40
1.0
 40
1.0
 40
1.0
 40
1.0
 10
24.9584436584
 20
38.2078929098
 30
0.0
 10
25.091716911
 20
38.1309417917
 30
0.0
 10
25.3417507011
 20
37.9695373481
 30
0.0
 10
25.6718775689
 20
37.6876927037
 30
0.0
 10
25.9413691158
 20
37.3739216911
 30
0.0
 10
26.1528488204
 20
37.0281683835
 30
0.0
 10
26.3109675546
 20
36.6514016082
 30
0.0
 10
26.4208822407
 20
36.2447874951
 30
0.0
 10
26.486887684
 20
35.8097996103
 30
0.0
 10
26.5030992311
 20
35.5099363984
 30
0.0
 10
26.505042693
 20
35.3562110457
 30
0.0
  0
SPLINE
  5
340
100
AcDbEntity
  8
0
100
AcDbSpline
 62
7
  6
CONTINUOUS
 70
0
 71
3
 72
11
 73
7
 74
0
 42
0.0000001
 43
0.0000001
 44
0.0000000001
 40
0.0
 40
0.0
 40
0.0
 40
0.0
 40
0.2895416688
 40
0.549118971
 40
0.7822562702
 40
1.0
 40
1.0
 40
1.0
 40
1.0
 10
56.3377653021
 20
97.0832489079
 30
0.0
 10
56.302682865
 20
97.0629941743
 30
0.0
 10
56.2390198418
 20
97.0190963443
 30
0.0
 10
56.1628662794
 20
96.9391477601
 30
0.0
 10
56.114684958
 20
96.8506361881
 30
0.0
 10
56.1034978351
 20
96.7871207348
 30
0.0
 10
56.1034978446
 20
96.7566563046
 30
0.0
  0
SPLINE
  5
341
100
AcDbEntity
  8
0
100
AcDbSpline
 62
7
  6
CONTINUOUS
 70
0
 71
3
 72
15
 73
11
 74
0
 42
0.0000001
 43
0.0000001
 44
0.0000000001
 40
0.0
 40
0.0
 40
0.0
 40
0.0
 40
0.1141236058
 40
0.2373475862
 40
0.3669728832
 40
0.5000004526
 40
0.6330279586
 40
0.7626530685
 40
0.8858767805
 40
1.0
 40
1.0
 40
1.0
 40
1.0
 10
63.9744985199
 20
99.8593159529
 30
0.0
 10
63.8777108071
 20
99.9151951008
 30
0.0
 10
63.6659742345
 20
100.0137434852
 30
0.0
 10
63.3212534071
 20
100.1185835614
 30
0.0
 10
62.9479761013
 20
100.1830371807
 30
0.0
 10
62.5602827674
 20
100.2048344481
 30
0.0
 10
62.1725897173
 20
100.183035385
 30
0.0
 10
61.7993132219
 20
100.1185800201
 30
0.0
 10
61.4545937606
 20
100.013738264
 30
0.0
 10
61.2428583773
 20
99.9151888109
 30
0.0
 10
61.1460713951
 20
99.8593091542
 30
0.0
  0
SPLINE
  5
342
100
AcDbEntity
  8
0
100
AcDbSpline
 62
7
  6
CONTINUOUS
 70
0
 71
3
 72
13
 73
9
 74
0
 42
0.0000001
 43
0.0000001
 44
0.0000000001
 40
0.0
 40
0.0
 40
0.0
 40
0.0
 40
0.2499265112
 40
0.3712412888
 40
0.4917704724
 40
0.6132714331
 40
0.7375708604
 40
1.0
 40
1.0
 40
1.0
 40
1.0
 10
12.0093157017
 20
49.2058545878
 30
0.0
 10
11.8341885908
 20
49.3069619851
 30
0.0
 10
11.5899959419
 20
49.4895144867
 30
0.0
 10
11.3271747915
 20
49.7896448524
 30
0.0
 10
11.1665981755
 20
50.0371994932
 30
0.0
 10
11.0427295979
 20
50.3076241984
 30
0.0
 10
10.9251812676
 20
50.7028283213
 30
0.0
 10
10.8963066935
 20
51.0180412245
 30
0.0
 10
10.8963104727
 20
51.2303754609
 30
0.0
  0
SPLINE
  5
343
100
AcDbEntity
  8
0
100
AcDbSpline
 62
7
  6
CONTINUOUS
 70
0
 71
3
 72
20
 73
16
 74
0
 42
0.0000001
 43
0.0000001
 44
0.0000000001
 40
0.0
 40
0.0
 40
0.0
 40
0.0
 40
0.0623915634
 40
0.1288091984
 40
0.2703024453
 40
0.4173641253
 40
0.5616164227
 40
0.6302527492
 40
0.6953793661
 40
0.7563617049
 40
0.8128309787
 40
0.8647637182
 40
0.9125656402
 40
0.9571671288
 40
1.0
 40
1.0
 40
1.0
 40
1.0
 10
33.3992612408
 20
85.3420077213
 30
0.0
 10
33.3992612408
 20
85.5099497514
 30
0.0
 10
33.3764209308
 20
85.8569150572
 30
0.0
 10
33.2489362247
 20
86.5743470661
 30
0.0
 10
32.9407716405
 20
87.4852152968
 30
0.0
 10
32.3840319193
 20
88.5140824265
 30
0.0
 10
31.7842854334
 20
89.2822151901
 30
0.0
 10
31.2445373102
 20
89.8020713471
 30
0.0
 10
30.830972938
 20
90.1258848635
 30
0.0
 10
30.4106827046
 20
90.3829860308
 30
0.0
 10
29.9922183514
 20
90.5679112703
 30
0.0
 10
29.5839147421
 20
90.6764544834
 30
0.0
 10
29.1937629269
 20
90.7050914416
 30
0.0
 10
28.830429294
 20
90.6519240832
 30
0.0
 10
28.610346892
 20
90.5603994269
 30
0.0
 10
28.5104880632
 20
90.5027698659
 30
0.0
  0
SPLINE
  5
344
100
AcDbEntity
  8
0
100
AcDbSpline
 62
7
  6
CONTINUOUS
 70
0
 71
3
 72
20
 73
16
 74
0
 42
0.0000001
 43
0.0000001
 44
0.0000000001
 40
0.0
 40
0.0
 40
0.0
 40
0.0
 40
0.0623915634
 40
0.1288091984
 40
0.2703024453
 40
0.4173641253
 40
0.5616164227
 40
0.6302527492
 40
0.6953793661
 40
0.7563617049
 40
0.8128309787
 40
0.8647637182
 40
0.9125656402
 40
0.9571671288
 40
1.0
 40
1.0
 40
1.0
 40
1.0
 10
46.1272362934
 20
77.99367414
 30
0.0
 10
46.1272362934
 20
78.16161617
 30
0.0
 10
46.1043959835
 20
78.5085814758
 30
0.0
 10
45.9769112773
 20
79.2260134848
 30
0.0
 10
45.6687466932
 20
80.1368817155
 30
0.0
 10
45.1120069719
 20
81.1657488452
 30
0.0
 10
44.5122604861
 20
81.9338816088
 30
0.0
 10
43.9725123628
 20
82.4537377658
 30
0.0
 10
43.5589479906
 20
82.7775512821
 30
0.0
 10
43.1386577573
 20
83.0346524494
 30
0.0
 10
42.720193404
 20
83.2195776889
 30
0.0
 10
42.3118897947
 20
83.3281209021
 30
0.0
 10
41.9217379795
 20
83.3567578602
 30
0.0
 10
41.5584043467
 20
83.3035905018
 30
0.0
 10
41.3383219446
 20
83.2120658455
 30
0.0
 10
41.2384631159
 20
83.1544362845
 30
0.0
  0
SPLINE
  5
345
100
AcDbEntity
  8
0
100
AcDbSpline
 62
7
  6
CONTINUOUS
 70
0
 71
3
 72
12
 73
8
 74
0
 42
0.0000001
 43
0.0000001
 44
0.0000000001
 40
0.0
 40
0.0
 40
0.0
 40
0.0
 40
0.1081631839
 40
0.218373605
 40
0.4513417169
 40
0.7104802742
 40
1.0
 40
1.0
 40
1.0
 40
1.0
 10
32.5604456446
 20
83.4879956884
 30
0.0
 10
32.6268539827
 20
83.5263206259
 30
0.0
 10
32.7545177604
 20
83.615444951
 30
0.0
 10
32.9834812806
 20
83.8407310218
 30
0.0
 10
33.2103965251
 20
84.2104819708
 30
0.0
 10
33.3680937999
 20
84.7464703948
 30
0.0
 10
33.3992612408
 20
85.1367754941
 30
0.0
 10
33.3992612408
 20
85.3420077213
 30
0.0
  0
SPLINE
  5
346
100
AcDbEntity
  8
0
100
AcDbSpline
 62
7
  6
CONTINUOUS
 70
0
 71
3
 72
12
 73
8
 74
0
 42
0.0000001
 43
0.0000001
 44
0.0000000001
 40
0.0
 40
0.0
 40
0.0
 40
0.0
 40
0.1081630284
 40
0.2183736393
 40
0.4513413857
 40
0.7104803079
 40
1.0
 40
1.0
 40
1.0
 40
1.0
 10
40.9227773233
 20
82.3948304003
 30
0.0
 10
40.8645676932
 20
82.3612368995
 30
0.0
 10
40.7526658103
 20
82.2831142764
 30
0.0
 10
40.5519688456
 20
82.0856424766
 30
0.0
 10
40.3530668446
 20
81.7615400002
 30
0.0
 10
40.2148399934
 20
81.291722668
 30
0.0
 10
40.1875193125
 20
80.9496034112
 30
0.0
 10
40.1875193125
 20
80.7697085512
 30
0.0
  0
SPLINE
  5
347
100
AcDbEntity
  8
0
100
AcDbSpline
 62
7
  6
CONTINUOUS
 70
0
 71
3
 72
20
 73
16
 74
0
 42
0.0000001
 43
0.0000001
 44
0.0000000001
 40
0.0
 40
0.0
 40
0.0
 40
0.0
 40
0.0428311165
 40
0.0874318074
 40
0.1352331515
 40
0.1871653812
 40
0.2436342584
 40
0.3046152438
 40
0.3697404223
 40
0.43837508
 40
0.5826261616
 40
0.7296916147
 40
0.8711894125
 40
0.9376086258
 40
1.0
 40
1.0
 40
1.0
 40
1.0
 10
27.9448046919
 20
90.176175059
 30
0.0
 10
28.0446590932
 20
90.2338028517
 30
0.0
 10
28.2647322081
 20
90.3253319556
 30
0.0
 10
28.6280586647
 20
90.378494986
 30
0.0
 10
29.0182046909
 20
90.3498623086
 30
0.0
 10
29.4265077171
 20
90.2413304502
 30
0.0
 10
29.8449649453
 20
90.0564039814
 30
0.0
 10
30.2652537563
 20
89.7993176782
 30
0.0
 10
30.6788105575
 20
89.4755132819
 30
0.0
 10
31.2185533882
 20
88.9556687552
 30
0.0
 10
31.8183108065
 20
88.1875416262
 30
0.0
 10
32.3750698874
 20
87.1586628253
 30
0.0
 10
32.6832495617
 20
86.2477708131
 30
0.0
 10
32.8107365116
 20
85.5303228955
 30
0.0
 10
32.833578171
 20
85.1833539259
 30
0.0
 10
32.833578171
 20
85.0154123983
 30
0.0
  0
SPLINE
  5
348
100
AcDbEntity
  8
0
100
AcDbSpline
 62
7
  6
CONTINUOUS
 70
0
 71
3
 72
11
 73
7
 74
0
 42
0.0000001
 43
0.0000001
 44
0.0000000001
 40
0.0
 40
0.0
 40
0.0
 40
0.0
 40
0.2895416688
 40
0.549118971
 40
0.7822562702
 40
1.0
 40
1.0
 40
1.0
 40
1.0
 10
43.6097902494
 20
104.4315824893
 30
0.0
 10
43.5747078124
 20
104.4113277557
 30
0.0
 10
43.5110447892
 20
104.3674299256
 30
0.0
 10
43.4348912268
 20
104.2874813415
 30
0.0
 10
43.3867099054
 20
104.1989697695
 30
0.0
 10
43.3755227824
 20
104.1354543162
 30
0.0
 10
43.3755227919
 20
104.104989886
 30
0.0
  0
SPLINE
  5
349
100
AcDbEntity
  8
0
100
AcDbSpline
 62
7
  6
CONTINUOUS
 70
0
 71
3
 72
15
 73
11
 74
0
 42
0.0000001
 43
0.0000001
 44
0.0000000001
 40
0.0
 40
0.0
 40
0.0
 40
0.0
 40
0.1141236058
 40
0.2373475862
 40
0.3669728832
 40
0.5000004526
 40
0.6330279586
 40
0.7626530685
 40
0.8858767805
 40
1.0
 40
1.0
 40
1.0
 40
1.0
 10
51.2465234672
 20
107.2076495343
 30
0.0
 10
51.1497357545
 20
107.2635286821
 30
0.0
 10
50.9379991819
 20
107.3620770666
 30
0.0
 10
50.5932783544
 20
107.4669171427
 30
0.0
 10
50.2200010487
 20
107.5313707621
 30
0.0
 10
49.8323077147
 20
107.5531680294
 30
0.0
 10
49.4446146647
 20
107.5313689663
 30
0.0
 10
49.0713381692
 20
107.4669136015
 30
0.0
 10
48.7266187079
 20
107.3620718454
 30
0.0
 10
48.5148833246
 20
107.2635223922
 30
0.0
 10
48.4180963425
 20
107.2076427356
 30
0.0
  0
SPLINE
  5
34A
100
AcDbEntity
  8
0
100
AcDbSpline
 62
7
  6
CONTINUOUS
 70
0
 71
3
 72
12
 73
8
 74
0
 42
0.0000001
 43
0.0000001
 44
0.0000000001
 40
0.0
 40
0.0
 40
0.0
 40
0.0
 40
0.1081631839
 40
0.218373605
 40
0.4513417169
 40
0.7104802742
 40
1.0
 40
1.0
 40
1.0
 40
1.0
 10
45.2884206972
 20
76.1396621071
 30
0.0
 10
45.3548290354
 20
76.1779870446
 30
0.0
 10
45.4824928131
 20
76.2671113696
 30
0.0
 10
45.7114563332
 20
76.4923974404
 30
0.0
 10
45.9383715778
 20
76.8621483895
 30
0.0
 10
46.0960688526
 20
77.3981368135
 30
0.0
 10
46.1272362934
 20
77.7884419127
 30
0.0
 10
46.1272362934
 20
77.99367414
 30
0.0
  0
SPLINE
  5
34B
100
AcDbEntity
  8
0
100
AcDbSpline
 62
7
  6
CONTINUOUS
 70
0
 71
3
 72
11
 73
7
 74
0
 42
0.0000001
 43
0.0000001
 44
0.0000000001
 40
0.0
 40
0.0
 40
0.0
 40
0.0
 40
0.21778431
 40
0.4509117584
 40
0.7102976662
 40
1.0
 40
1.0
 40
1.0
 40
1.0
 10
15.0787448978
 20
67.7127604196
 30
0.0
 10
15.1678067357
 20
67.7641799494
 30
0.0
 10
15.3724401576
 20
67.8384430903
 30
0.0
 10
15.7123327838
 20
67.8470490923
 30
0.0
 10
16.0745786643
 20
67.7595731499
 30
0.0
 10
16.3102593781
 20
67.6474552461
 30
0.0
 10
16.4287322098
 20
67.579056463
 30
0.0
  0
SPLINE
  5
34C
100
AcDbEntity
  8
0
100
AcDbSpline
 62
7
  6
CONTINUOUS
 70
0
 71
3
 72
11
 73
7
 74
0
 42
0.0000001
 43
0.0000001
 44
0.0000000001
 40
0.0
 40
0.0
 40
0.0
 40
0.0
 40
0.2177817009
 40
0.4509079353
 40
0.7102947134
 40
1.0
 40
1.0
 40
1.0
 40
1.0
 10
68.0958294914
 20
97.0016238726
 30
0.0
 10
68.0958294773
 20
97.0778007001
 30
0.0
 10
68.0676783668
 20
97.2365773213
 30
0.0
 10
67.9473092391
 20
97.4578039575
 30
0.0
 10
67.7570227629
 20
97.6577837591
 30
0.0
 10
67.597806012
 20
97.7674457214
 30
0.0
 10
67.5100471456
 20
97.8181121803
 30
0.0
  0
SPLINE
  5
34D
100
AcDbEntity
  8
0
100
AcDbSpline
 62
7
  6
CONTINUOUS
 70
0
 71
3
 72
11
 73
7
 74
0
 42
0.0000001
 43
0.0000001
 44
0.0000000001
 40
0.0
 40
0.0
 40
0.0
 40
0.0
 40
0.2897033281
 40
0.5490895198
 40
0.7822165953
 40
1.0
 40
1.0
 40
1.0
 40
1.0
 10
23.004852445
 20
61.577861101
 30
0.0
 10
23.004852445
 20
61.4410571149
 30
0.0
 10
22.9841109479
 20
61.1808849276
 30
0.0
 10
22.8787443335
 20
60.8234219763
 30
0.0
 10
22.7013419485
 20
60.5333610064
 30
0.0
 10
22.5347072619
 20
60.3932714457
 30
0.0
 10
22.4456434224
 20
60.3418507603
 30
0.0
  0
SPLINE
  5
34E
100
AcDbEntity
  8
0
100
AcDbSpline
 62
7
  6
CONTINUOUS
 70
0
 71
3
 72
15
 73
11
 74
0
 42
0.0000001
 43
0.0000001
 44
0.0000000001
 40
0.0
 40
0.0
 40
0.0
 40
0.0
 40
0.1141274086
 40
0.2373437587
 40
0.3669720958
 40
0.499998629
 40
0.6330259534
 40
0.7626514908
 40
0.8858757352
 40
1.0
 40
1.0
 40
1.0
 40
1.0
 10
21.0956586322
 20
64.8846658273
 30
0.0
 10
21.2262888751
 20
64.8091613513
 30
0.0
 10
21.4844550769
 20
64.6282007665
 30
0.0
 10
21.8397426704
 20
64.295961433
 30
0.0
 10
22.1670364439
 20
63.9030482846
 30
0.0
 10
22.4542263792
 20
63.4645016592
 30
0.0
 10
22.6904322367
 20
62.9965218653
 30
0.0
 10
22.8670376829
 20
62.5166032142
 30
0.0
 10
22.9771493132
 20
62.0428086222
 30
0.0
 10
23.004852445
 20
61.7287383095
 30
0.0
 10
23.004852445
 20
61.577861101
 30
0.0
  0
SPLINE
  5
34F
100
AcDbEntity
  8
0
100
AcDbSpline
 62
7
  6
CONTINUOUS
 70
0
 71
3
 72
12
 73
8
 74
0
 42
0.0000001
 43
0.0000001
 44
0.0000000001
 40
0.0
 40
0.0
 40
0.0
 40
0.0
 40
0.2895257727
 40
0.5486612408
 40
0.7816278471
 40
0.89183755
 40
1.0
 40
1.0
 40
1.0
 40
1.0
 10
45.5615532236
 20
24.7577221869
 30
0.0
 10
45.5615532236
 20
24.5524854691
 30
0.0
 10
45.5303859037
 20
24.1621780062
 30
0.0
 10
45.3726869662
 20
23.6261873853
 30
0.0
 10
45.1457699492
 20
23.2564434693
 30
0.0
 10
44.9168137289
 20
23.0311515165
 30
0.0
 10
44.7891456561
 20
22.9420347459
 30
0.0
 10
44.7227379291
 20
22.9037096378
 30
0.0
  0
SPLINE
  5
350
100
AcDbEntity
  8
0
100
AcDbSpline
 62
7
  6
CONTINUOUS
 70
0
 71
3
 72
17
 73
13
 74
0
 42
0.0000001
 43
0.0000001
 44
0.0000000001
 40
0.0
 40
0.0
 40
0.0
 40
0.0
 40
0.1514538547
 40
0.3021237429
 40
0.4472980894
 40
0.5828079731
 40
0.7056046483
 40
0.7618448196
 40
0.8146523321
 40
0.9109718278
 40
0.955999916
 40
1.0
 40
1.0
 40
1.0
 40
1.0
 10
40.6276289347
 20
25.9668745661
 30
0.0
 10
40.7322299605
 20
25.7303723354
 30
0.0
 10
40.971717018
 20
25.2716185597
 30
0.0
 10
41.4080221811
 20
24.6424223804
 30
0.0
 10
41.9043828647
 20
24.0950866669
 30
0.0
 10
42.437890285
 20
23.655141721
 30
0.0
 10
42.9074296942
 20
23.386827621
 30
0.0
 10
43.2797774538
 20
23.2495937619
 30
0.0
 10
43.6215309372
 20
23.1690635347
 30
0.0
 10
43.9595247323
 20
23.1598556217
 30
0.0
 10
44.2683486905
 20
23.235674875
 30
0.0
 10
44.407670563
 20
23.2991681324
 30
0.0
 10
44.4727403503
 20
23.3367207151
 30
0.0
  0
SPLINE
  5
351
100
AcDbEntity
  8
0
100
AcDbSpline
 62
7
  6
CONTINUOUS
 70
0
 71
3
 72
11
 73
7
 74
0
 42
0.0000001
 43
0.0000001
 44
0.0000000001
 40
0.0
 40
0.0
 40
0.0
 40
0.0
 40
0.2177817009
 40
0.4509079353
 40
0.7102947134
 40
1.0
 40
1.0
 40
1.0
 40
1.0
 10
55.3678544388
 20
104.3499574539
 30
0.0
 10
55.3678544247
 20
104.4261342815
 30
0.0
 10
55.3397033142
 20
104.5849109027
 30
0.0
 10
55.2193341865
 20
104.8061375388
 30
0.0
 10
55.0290477103
 20
105.0061173404
 30
0.0
 10
54.8698309594
 20
105.1157793028
 30
0.0
 10
54.7820720929
 20
105.1664457617
 30
0.0
  0
SPLINE
  5
352
100
AcDbEntity
  8
0
100
AcDbSpline
 62
7
  6
CONTINUOUS
 70
0
 71
3
 72
11
 73
7
 74
0
 42
0.0000001
 43
0.0000001
 44
0.0000000001
 40
0.0
 40
0.0
 40
0.0
 40
0.0
 40
0.2897023329
 40
0.5490881703
 40
0.7822156452
 40
1.0
 40
1.0
 40
1.0
 40
1.0
 10
16.7822841284
 20
67.7831785399
 30
0.0
 10
16.6638112967
 20
67.8515773231
 30
0.0
 10
16.4281306315
 20
67.9636952526
 30
0.0
 10
16.0658847558
 20
68.0511711614
 30
0.0
 10
15.7259921475
 20
68.042565156
 30
0.0
 10
15.521358649
 20
67.9683020786
 30
0.0
 10
15.4322968165
 20
67.9168824965
 30
0.0
  0
SPLINE
  5
353
100
AcDbEntity
  8
0
100
AcDbSpline
 62
7
  6
CONTINUOUS
 70
0
 71
3
 72
20
 73
16
 74
0
 42
0.0000001
 43
0.0000001
 44
0.0000000001
 40
0.0
 40
0.0
 40
0.0
 40
0.0
 40
0.0428311165
 40
0.0874318074
 40
0.1352331515
 40
0.1871653812
 40
0.2436342584
 40
0.3046152438
 40
0.3697404223
 40
0.43837508
 40
0.5826261616
 40
0.7296916147
 40
0.8711894125
 40
0.9376086258
 40
1.0
 40
1.0
 40
1.0
 40
1.0
 10
40.6727797445
 20
82.8278414776
 30
0.0
 10
40.7726341458
 20
82.8854692703
 30
0.0
 10
40.9927072608
 20
82.9769983742
 30
0.0
 10
41.3560337173
 20
83.0301614046
 30
0.0
 10
41.7461797435
 20
83.0015287272
 30
0.0
 10
42.1544827697
 20
82.8929968688
 30
0.0
 10
42.572939998
 20
82.7080704
 30
0.0
 10
42.993228809
 20
82.4509840969
 30
0.0
 10
43.4067856101
 20
82.1271797005
 30
0.0
 10
43.9465284408
 20
81.6073351738
 30
0.0
 10
44.5462858591
 20
80.8392080449
 30
0.0
 10
45.10304494
 20
79.8103292439
 30
0.0
 10
45.4112246143
 20
78.8994372317
 30
0.0
 10
45.5387115642
 20
78.1819893142
 30
0.0
 10
45.5615532236
 20
77.8350203446
 30
0.0
 10
45.5615532236
 20
77.6670788169
 30
0.0
  0
SPLINE
  5
354
100
AcDbEntity
  8
0
100
AcDbSpline
 62
7
  6
CONTINUOUS
 70
0
 71
3
 72
11
 73
7
 74
0
 42
0.0000001
 43
0.0000001
 44
0.0000000001
 40
0.0
 40
0.0
 40
0.0
 40
0.0
 40
0.2277024591
 40
0.4757348325
 40
0.7362744143
 40
1.0
 40
1.0
 40
1.0
 40
1.0
 10
46.1272362934
 20
25.08431751
 30
0.0
 10
46.1272362934
 20
25.358601828
 30
0.0
 10
46.0663110248
 20
25.9322718875
 30
0.0
 10
45.8297268108
 20
26.7902251768
 30
0.0
 10
45.4561478238
 20
27.6453634731
 30
0.0
 10
45.1266631352
 20
28.1867788787
 30
0.0
 10
44.9432078627
 20
28.446129458
 30
0.0
  0
SPLINE
  5
355
100
AcDbEntity
  8
0
100
AcDbSpline
 62
7
  6
CONTINUOUS
 70
0
 71
3
 72
9
 73
5
 74
0
 42
0.0000001
 43
0.0000001
 44
0.0000000001
 40
0.0
 40
0.0
 40
0.0
 40
0.0
 40
0.5116268509
 40
1.0
 40
1.0
 40
1.0
 40
1.0
 10
15.26584698
 20
43.457678007
 30
0.0
 10
15.1682945033
 20
43.6241825313
 30
0.0
 10
14.9403415412
 20
43.9300887817
 30
0.0
 10
14.6389157444
 20
44.1657005852
 30
0.0
 10
14.4793987899
 20
44.2578218991
 30
0.0
  0
ENDSEC
  0
SECTION
  2
OBJECTS
  0
DICTIONARY
  5
C
100
AcDbDictionary
280
0
281
1
  3
ACAD_GROUP
350
D
  3
ACAD_MLINESTYLE
350
17
  3
ACAD_LAYOUT
350
1A
  3
ACAD_PLOTSETTINGS
350
19
  3
ACAD_PLOTSTYLENAME
350
E
  0
DICTIONARY
  5
D
102
{ACAD_REACTORS
330
C
102
}
100
AcDbDictionary
280
0
281
1
  0
ACDBDICTIONARYWDFLT
  5
E
102
{ACAD_REACTORS
330
C
102
}
100
AcDbDictionary
281
1
  3
Normal
350
F
100
AcDbDictionaryWithDefault
340
F
  0
DICTIONARY
  5
17
102
{ACAD_REACTORS
330
C
102
}
100
AcDbDictionary
280
0
281
1
  3
Standard
350
18
  0
DICTIONARY
  5
19
102
{ACAD_REACTORS
330
C
102
}
100
AcDbDictionary
281
1
  0
DICTIONARY
  5
1A
102
{ACAD_REACTORS
330
C
102
}
100
AcDbDictionary
281
1
  3
Model
350
356
  3
Layout1
350
357
  0
ACDBPLACEHOLDER
  5
F
102
{ACAD_REACTORS
330
E
102
}
  0
MLINESTYLE
  5
18
102
{ACAD_REACTORS
330
17
102
}
100
AcDbMlineStyle
  2
STANDARD
 70
0
  3

 62
256
 51
90.0
 52
90.0
 71
2
 49
0.5
 62
256
  6
BYLAYER
 49
-0.5
 62
256
  6
BYLAYER
  0
LAYOUT
  5
356
102
{ACAD_REACTORS
330
1A
102
}
100
AcDbPlotSettings
  1

  2
none_device
  4

  6

 40
0.0
 41
0.0
 42
0.0
 43
0.0
 44
210.0
 45
297.0
 46
0.0
 47
0.0
 48
0.0
 49
0.0
140
0.0
141
0.0
142
1.0
143
1.0
 70
1024
 72
1
 73
0
 74
0
  7

 75
0
147
1.0
148
0.0
149
0.0
100
AcDbLayout
  1
Model
 70
0
 71
0
 10
0.0
 20
0.0
 11
210.0
 21
297.0
 12
0.0
 22
0.0
 32
0.0
 14
0.0
 24
0.0
 34
0.0
 15
0.0
 25
0.0
 35
0.0
146
0.0
 13
0.0
 23
0.0
 33
0.0
 16
1.0
 26
0.0
 36
0.0
 17
0.0
 27
1.0
 37
0.0
 76
0
330
210
345
0
346
0
  0
LAYOUT
  5
357
102
{ACAD_REACTORS
330
1A
102
}
100
AcDbPlotSettings
  1

  2
none_device
  4

  6

 40
0.0
 41
0.0
 42
0.0
 43
0.0
 44
210.0
 45
297.0
 46
0.0
 47
0.0
 48
0.0
 49
0.0
140
0.0
141
0.0
142
1.0
143
1.0
 70
0
 72
1
 73
0
 74
0
  7

 75
0
147
1.0
148
0.0
149
0.0
100
AcDbLayout
  1
Layout1
 70
0
 71
1
 10
0.0
 20
0.0
 11
210.0
 21
297.0
 12
0.0
 22
0.0
 32
0.0
 14
0.0
 24
0.0
 34
0.0
 15
0.0
 25
0.0
 35
0.0
146
0.0
 13
0.0
 23
0.0
 33
0.0
 16
1.0
 26
0.0
 36
0.0
 17
0.0
 27
1.0
 37
0.0
 76
0
330
211
345
0
346
0
  0
ENDSEC
  0
EOF
