999
DXF file: C:\Users\sesa63760\Dev\_Creo\CAD\MCADFD0002234_3D-CAD\drw0001_1.dxf
999
Pro/ENGINEER 2019471 by Parametric Technology Corporation
  0
SECTION
  2
HEADER
  9
$ACADVER
  1
AC1024
  9
$DWGCODEPAGE
  3
ANSI_1252
  9
$EXTMAX
 10
126.4148642028
 20
178.7867365154
 30
0.0
  9
$EXTMIN
 10
0.0
 20
0.0
 30
0.0
  9
$LIMMIN
 10
0.0
 20
0.0
  9
$LIMMAX
 10
126.4148642028
 20
178.7867365154
  9
$VIEWCTR
 10
63.2074321014
 20
89.3933682577
  9
$VIEWSIZE
 40
178.7867365154
  9
$CLAYER
  8
0
  9
$LTSCALE
 40
11.6542465284
  9
$CELTYPE
  6
BYLAYER
  9
$DIMSCALE
 40
1.0
  9
$DIMASZ
 40
1.5049388596
  9
$DIMEXO
 40
1.0
  9
$DIMDLI
 40
8.0520248742
  9
$DIMEXE
 40
1.0
  9
$DIMCEN
 40
1.9070585228
  9
$DIMLFAC
 40
1.0
  9
$DIMBLK
  1
_FILLED
  9
$DIMALT
 70
0
  9
$DIMALTF
 40
0.0393700787
  9
$DIMTXT
 40
2.1069144034
  9
$DIMTOL
 70
1
  9
$DIMLIM
 70
0
  9
$DIMTFAC
 40
1.0
  9
$DIMTP
 40
0.01
  9
$DIMTM
 40
0.01
  9
$DIMGAP
 40
0.625
  9
$DIMDSEP
 70
46
  9
$AUNITS
 70
0
  9
$PDMODE
 70
3
  9
$PDSIZE
 40
0.3125
  9
$HANDSEED
  5
3BB
  9
$TILEMODE
 70
1
  9
$MEASUREMENT
 70
1
  9
$INSUNITS
 70
4
  0
ENDSEC
  0
SECTION
  2
CLASSES
  0
CLASS
  1
ACDBDICTIONARYWDFLT
  2
AcDbDictionaryWithDefault
  3
AutoCAD 2000
 90
0
 91
1
280
0
281
0
  0
CLASS
  1
ACDBPLACEHOLDER
  2
AcDbPlaceHolder
  3
AutoCAD 2000
 90
0
 91
1
280
0
281
0
  0
CLASS
  1
LAYOUT
  2
AcDbLayout
  3
AutoCAD 2000
 90
0
 91
0
280
0
281
0
  0
ENDSEC
  0
SECTION
  2
TABLES
  0
TABLE
  2
VPORT
  5
8
100
AcDbSymbolTable
 70
2
  0
VPORT
  5
1F4
100
AcDbSymbolTableRecord
100
AcDbViewportTableRecord
  2
*ACTIVE
 70
0
 10
0.0
 20
0.0
 11
1.0
 21
1.0
 12
63.2074321014
 22
89.3933682577
 13
0.0
 23
0.0
 14
1.0
 24
1.0
 15
0.0
 25
0.0
 16
0.0
 26
0.0
 36
1.0
 17
0.0
 27
0.0
 37
0.0
 40
178.7867365154
 41
0.7070707071
 42
50.0
 43
0.0
 44
0.0
 50
0.0
 51
0.0
 71
0
 72
100
 73
1
 74
1
 75
0
 76
0
 77
0
 78
0
  0
ENDTAB
  0
TABLE
  2
LTYPE
  5
5
100
AcDbSymbolTable
 70
6
  0
LTYPE
  5
14
100
AcDbSymbolTableRecord
100
AcDbLinetypeTableRecord
  2
BYBLOCK
 70
0
  3

 72
65
 73
0
 40
0.0
  0
LTYPE
  5
15
100
AcDbSymbolTableRecord
100
AcDbLinetypeTableRecord
  2
BYLAYER
 70
0
  3

 72
65
 73
0
 40
0.0
  0
LTYPE
  5
16
100
AcDbSymbolTableRecord
100
AcDbLinetypeTableRecord
  2
CONTINUOUS
 70
64
  3
Solid line
 72
65
 73
0
 40
0.0
  0
LTYPE
  5
1F5
100
AcDbSymbolTableRecord
100
AcDbLinetypeTableRecord
  2
CENTER
 70
64
  3
____ _ ____ _ ____ _ ____ _ ____ _ ____ _ ____
 72
65
 73
4
 40
0.6
 49
0.375
 74
0
 49
-0.075
 74
0
 49
0.075
 74
0
 49
-0.075
 74
0
  0
LTYPE
  5
1F6
100
AcDbSymbolTableRecord
100
AcDbLinetypeTableRecord
  2
HIDDEN
 70
64
  3
- - - - - - - - - - - - - - - - - - - -
 72
65
 73
2
 40
0.2
 49
0.1
 74
0
 49
-0.1
 74
0
  0
LTYPE
  5
1F7
100
AcDbSymbolTableRecord
100
AcDbLinetypeTableRecord
  2
PHANTOM
 70
64
  3
_____ _ _ _____ _ _ _____ _ _ _____
 72
65
 73
6
 40
0.8
 49
0.45
 74
0
 49
-0.05
 74
0
 49
0.1
 74
0
 49
-0.05
 74
0
 49
0.1
 74
0
 49
-0.05
 74
0
  0
LTYPE
  5
1F8
100
AcDbSymbolTableRecord
100
AcDbLinetypeTableRecord
  2
DOT
 70
64
  3
. . . . . . . . . . . . . . . . . . . .
 72
65
 73
2
 40
0.2
 49
0.1
 74
0
 49
-0.1
 74
0
  0
LTYPE
  5
1F9
100
AcDbSymbolTableRecord
100
AcDbLinetypeTableRecord
  2
DASHED
 70
64
  3
- - - - - - - - - - - - - - - - - - - -
 72
65
 73
2
 40
0.2
 49
0.1
 74
0
 49
-0.1
 74
0
  0
ENDTAB
  0
TABLE
  2
LAYER
  5
2
100
AcDbSymbolTable
 70
36
  0
LAYER
  5
10
100
AcDbSymbolTableRecord
100
AcDbLayerTableRecord
  2
0
 70
0
 62
7
  6
CONTINUOUS
370
-3
390
F
  0
LAYER
  5
1FA
100
AcDbSymbolTableRecord
100
AcDbLayerTableRecord
  2
DEFAULT_1
 70
0
 62
7
  6
CENTER
370
-3
390
F
  0
LAYER
  5
1FB
100
AcDbSymbolTableRecord
100
AcDbLayerTableRecord
  2
DEFAULT_2
 70
0
 62
8
  6
HIDDEN
370
-3
390
F
  0
LAYER
  5
1FC
100
AcDbSymbolTableRecord
100
AcDbLayerTableRecord
  2
DEFAULT_3
 70
0
 62
7
  6
PHANTOM
370
-3
390
F
  0
LAYER
  5
1FD
100
AcDbSymbolTableRecord
100
AcDbLayerTableRecord
  2
00_COMPONENTS
 70
0
 62
7
  6
CONTINUOUS
370
-3
390
F
  0
LAYER
  5
1FE
100
AcDbSymbolTableRecord
100
AcDbLayerTableRecord
  2
01_1_DEFAULT_DATUMS
 70
0
 62
7
  6
CONTINUOUS
370
-3
390
F
  0
LAYER
  5
1FF
100
AcDbSymbolTableRecord
100
AcDbLayerTableRecord
  2
01_PLANES
 70
0
 62
7
  6
CONTINUOUS
370
-3
390
F
  0
LAYER
  5
200
100
AcDbSymbolTableRecord
100
AcDbLayerTableRecord
  2
02_COORD_SYS
 70
0
 62
7
  6
CONTINUOUS
370
-3
390
F
  0
LAYER
  5
201
100
AcDbSymbolTableRecord
100
AcDbLayerTableRecord
  2
03_AXES
 70
0
 62
7
  6
CONTINUOUS
370
-3
390
F
  0
LAYER
  5
202
100
AcDbSymbolTableRecord
100
AcDbLayerTableRecord
  2
04_POINTS
 70
0
 62
7
  6
CONTINUOUS
370
-3
390
F
  0
LAYER
  5
203
100
AcDbSymbolTableRecord
100
AcDbLayerTableRecord
  2
05_CURVES
 70
0
 62
7
  6
CONTINUOUS
370
-3
390
F
  0
LAYER
  5
204
100
AcDbSymbolTableRecord
100
AcDbLayerTableRecord
  2
06_SURFS
 70
0
 62
7
  6
CONTINUOUS
370
-3
390
F
  0
LAYER
  5
205
100
AcDbSymbolTableRecord
100
AcDbLayerTableRecord
  2
07_COSMETICS
 70
0
 62
7
  6
CONTINUOUS
370
-3
390
F
  0
LAYER
  5
206
100
AcDbSymbolTableRecord
100
AcDbLayerTableRecord
  2
10_NOTES
 70
0
 62
7
  6
CONTINUOUS
370
-3
390
F
  0
LAYER
  5
207
100
AcDbSymbolTableRecord
100
AcDbLayerTableRecord
  2
11_NOTES_PUB
 70
0
 62
7
  6
CONTINUOUS
370
-3
390
F
  0
LAYER
  5
208
100
AcDbSymbolTableRecord
100
AcDbLayerTableRecord
  2
13_REF_GTOL
 70
0
 62
7
  6
CONTINUOUS
370
-3
390
F
  0
LAYER
  5
209
100
AcDbSymbolTableRecord
100
AcDbLayerTableRecord
  2
16_MISC
 70
0
 62
7
  6
CONTINUOUS
370
-3
390
F
  0
LAYER
  5
20A
100
AcDbSymbolTableRecord
100
AcDbLayerTableRecord
  2
17_NO_PRINT
 70
0
 62
7
  6
CONTINUOUS
370
-3
390
F
  0
LAYER
  5
20B
100
AcDbSymbolTableRecord
100
AcDbLayerTableRecord
  2
18_DATUM_CAMS_JOINTS
 70
0
 62
7
  6
CONTINUOUS
370
-3
390
F
  0
LAYER
  5
20C
100
AcDbSymbolTableRecord
100
AcDbLayerTableRecord
  2
19_DATUM_FUNCTIONAL
 70
0
 62
7
  6
CONTINUOUS
370
-3
390
F
  0
LAYER
  5
20D
100
AcDbSymbolTableRecord
100
AcDbLayerTableRecord
  2
20_DATUM_KINEMATIC_SCHEME
 70
0
 62
7
  6
CONTINUOUS
370
-3
390
F
  0
ENDTAB
  0
TABLE
  2
STYLE
  5
3
100
AcDbSymbolTable
 70
1
  0
STYLE
  5
11
100
AcDbSymbolTableRecord
100
AcDbTextStyleTableRecord
  2
STANDARD
 70
0
 40
0.0
 41
0.8
 50
0.0
 71
0
 42
0.2
  3
txt
  4

  0
STYLE
  5
20E
100
AcDbSymbolTableRecord
100
AcDbTextStyleTableRecord
  2
TEXTSTYLE_1
 70
0
 40
0.0
 41
0.8
 50
0.0
 71
0
 42
0.2
  3
gdt
  4

  0
ENDTAB
  0
TABLE
  2
VIEW
  5
6
100
AcDbSymbolTable
 70
0
  0
ENDTAB
  0
TABLE
  2
UCS
  5
7
100
AcDbSymbolTable
 70
0
  0
ENDTAB
  0
TABLE
  2
APPID
  5
9
100
AcDbSymbolTable
 70
1
  0
APPID
  5
20F
100
AcDbSymbolTableRecord
100
AcDbRegAppTableRecord
  2
ACAD
 70
0
  0
ENDTAB
  0
TABLE
  2
BLOCK_RECORD
  5
1
100
AcDbSymbolTable
 70
0
  0
BLOCK_RECORD
  5
210
100
AcDbSymbolTableRecord
100
AcDbBlockTableRecord
  2
*Model_Space
  0
BLOCK_RECORD
  5
211
100
AcDbSymbolTableRecord
100
AcDbBlockTableRecord
  2
*Paper_Space
  0
BLOCK_RECORD
  5
212
100
AcDbSymbolTableRecord
100
AcDbBlockTableRecord
  2
_FILLED
  0
ENDTAB
  0
TABLE
  2
DIMSTYLE
  5
A
100
AcDbSymbolTable
 70
1
100
AcDbDimStyleTable
 71
0
  0
DIMSTYLE
105
213
100
AcDbSymbolTableRecord
100
AcDbDimStyleTableRecord
  2
STANDARD
 70
0
  3

  4

 40
1.0
 41
1.5049388596
 42
1.0
 43
0.38
 44
1.0
 45
0.0
 46
0.0
 47
0.01
 48
0.01
140
2.1069144034
141
0.09
142
0.0
143
25.4
144
1.0
145
0.0
146
1.0
147
0.625
 71
1
 72
0
 73
0
 74
0
 75
0
 76
0
 77
1
 78
8
 79
2
170
0
171
1
172
0
173
0
174
0
175
0
176
0
177
0
178
0
270
2
179
2
271
2
272
2
273
2
274
2
275
0
280
0
281
0
282
0
283
1
284
8
285
0
286
0
287
3
288
0
340
11
278
46
341
212
342
212
343
212
344
212
  0
ENDTAB
  0
ENDSEC
  0
SECTION
  2
BLOCKS
  0
BLOCK
  5
20
100
AcDbEntity
  8
0
100
AcDbBlockBegin
  2
*Model_Space
 70
0
 10
0.0
 20
0.0
 30
0.0
  3
*Model_Space
  1

  0
ENDBLK
  5
21
100
AcDbEntity
  8
0
100
AcDbBlockEnd
  0
BLOCK
  5
1C
100
AcDbEntity
  8
0
100
AcDbBlockBegin
  2
*Paper_Space
 70
0
 10
0.0
 20
0.0
 30
0.0
  3
*Paper_Space
  1

  0
ENDBLK
  5
1D
100
AcDbEntity
  8
0
100
AcDbBlockEnd
  0
BLOCK
  5
214
100
AcDbEntity
  8
0
100
AcDbBlockBegin
  2
_FILLED
 70
64
 10
0.0
 20
0.0
  3
_FILLED
  1

  0
SOLID
  5
215
100
AcDbEntity
  8
0
  6
BYBLOCK
 62
0
100
AcDbTrace
 10
0.0
 20
0.0
 11
-1.0
 21
0.25
 12
-1.0
 22
-0.25
 13
-1.0
 23
-0.25
  0
ENDBLK
  5
216
100
AcDbEntity
  8
0
  6
BYBLOCK
 62
0
100
AcDbBlockEnd
  0
ENDSEC
  0
SECTION
  2
ENTITIES
  0
LINE
  5
217
100
AcDbEntity
  8
0
100
AcDbLine
 62
7
  6
CONTINUOUS
 10
27.9406568325
 20
127.662460955
 11
61.5914456039
 21
147.09063694
  0
LINE
  5
218
100
AcDbEntity
  8
0
100
AcDbLine
 62
7
  6
CONTINUOUS
 10
40.9619858589
 20
133.9433111667
 11
57.2253741149
 21
143.3329267057
  0
LINE
  5
219
100
AcDbEntity
  8
0
100
AcDbLine
 62
7
  6
CONTINUOUS
 10
14.6654877879
 20
76.5668630132
 11
14.6654877879
 21
78.7143020831
  0
LINE
  5
21A
100
AcDbEntity
  8
0
100
AcDbLine
 62
7
  6
CONTINUOUS
 10
14.6654877879
 20
79.4621779651
 11
14.6654877879
 21
81.6096170349
  0
LINE
  5
21B
100
AcDbEntity
  8
0
100
AcDbLine
 62
7
  6
CONTINUOUS
 10
15.7784708324
 20
70.8340140635
 11
15.7784708324
 21
74.1043883217
  0
LINE
  5
21C
100
AcDbEntity
  8
0
100
AcDbLine
 62
7
  6
CONTINUOUS
 10
15.7784708324
 20
87.1747214608
 11
15.7784708324
 21
104.3106131658
  0
LINE
  5
21D
100
AcDbEntity
  8
0
100
AcDbLine
 62
7
  6
CONTINUOUS
 10
15.7784932065
 20
79.5850963962
 11
15.7784932065
 21
75.4887280825
  0
LINE
  5
21E
100
AcDbEntity
  8
0
100
AcDbLine
 62
7
  6
CONTINUOUS
 10
16.803802308
 20
74.8967789885
 11
16.803802308
 21
78.9931473021
  0
LINE
  5
21F
100
AcDbEntity
  8
0
100
AcDbLine
 62
7
  6
CONTINUOUS
 10
19.2096311425
 20
94.108630117
 11
19.2096283798
 21
94.4628326876
  0
LINE
  5
220
100
AcDbEntity
  8
0
100
AcDbLine
 62
7
  6
CONTINUOUS
 10
57.2253770588
 20
142.9246842515
 11
41.6690926401
 21
133.9433128663
  0
LINE
  5
221
100
AcDbEntity
  8
0
100
AcDbLine
 62
7
  6
CONTINUOUS
 10
28.8599006633
 20
125.9886480858
 11
29.0013214307
 21
126.0702969165
  0
LINE
  5
222
100
AcDbEntity
  8
0
100
AcDbLine
 62
7
  6
CONTINUOUS
 10
42.3762145845
 20
133.5350650572
 11
57.2253770588
 21
142.1081818344
  0
LINE
  5
223
100
AcDbEntity
  8
0
100
AcDbLine
 62
7
  6
CONTINUOUS
 10
29.1871083778
 20
125.7997388974
 11
29.3285291452
 21
125.8813877282
  0
LINE
  5
224
100
AcDbEntity
  8
0
100
AcDbLine
 62
7
  6
CONTINUOUS
 10
30.0362353201
 20
125.3095063192
 11
30.1776560876
 21
125.39115515
  0
LINE
  5
225
100
AcDbEntity
  8
0
100
AcDbLine
 62
7
  6
CONTINUOUS
 10
30.3728594281
 20
125.1151606965
 11
30.5142801956
 21
125.1968095273
  0
LINE
  5
226
100
AcDbEntity
  8
0
100
AcDbLine
 62
7
  6
CONTINUOUS
 10
47.3789677543
 20
134.8108242976
 11
52.1872738473
 21
137.586884544
  0
LINE
  5
227
100
AcDbEntity
  8
0
100
AcDbLine
 62
7
  6
CONTINUOUS
 10
29.2026900064
 20
123.6322414142
 11
29.3441107738
 21
123.713890245
  0
LINE
  5
228
100
AcDbEntity
  8
0
100
AcDbLine
 62
7
  6
CONTINUOUS
 10
30.3728594281
 20
122.9566590673
 11
30.5142801956
 21
123.0383078981
  0
LINE
  5
229
100
AcDbEntity
  8
0
100
AcDbLine
 62
7
  6
CONTINUOUS
 10
17.4701769642
 20
77.3296924359
 11
17.6151590237
 21
77.0092480743
  0
LINE
  5
22A
100
AcDbEntity
  8
0
100
AcDbLine
 62
7
  6
CONTINUOUS
 10
18.4601223363
 20
77.9012342513
 11
18.3151402768
 21
78.221678613
  0
LINE
  5
22B
100
AcDbEntity
  8
0
100
AcDbLine
 62
7
  6
CONTINUOUS
 10
19.4907968894
 20
85.7556506202
 11
19.4907968894
 21
85.0314574995
  0
LINE
  5
22C
100
AcDbEntity
  8
0
100
AcDbLine
 62
7
  6
CONTINUOUS
 10
19.8033050064
 20
91.9647623395
 11
19.803290958
 21
93.7658943905
  0
LINE
  5
22D
100
AcDbEntity
  8
0
100
AcDbLine
 62
7
  6
CONTINUOUS
 10
20.156856925
 20
92.1688844164
 11
20.1568432981
 21
93.9159801221
  0
LINE
  5
22E
100
AcDbEntity
  8
0
100
AcDbLine
 62
7
  6
CONTINUOUS
 10
20.1738375804
 20
93.5519578412
 11
20.1738516287
 21
91.7508358407
  0
LINE
  5
22F
100
AcDbEntity
  8
0
100
AcDbLine
 62
7
  6
CONTINUOUS
 10
20.7696996076
 20
93.5621617449
 11
20.7697023704
 21
93.2079491239
  0
LINE
  5
230
100
AcDbEntity
  8
0
100
AcDbLine
 62
7
  6
CONTINUOUS
 10
23.8748995595
 20
70.8143714433
 11
23.8748995595
 21
74.9107397569
  0
LINE
  5
231
100
AcDbEntity
  8
0
100
AcDbLine
 62
7
  6
CONTINUOUS
 10
32.2796534245
 20
120.8820327049
 11
31.7139703547
 21
120.5554373818
  0
LINE
  5
232
100
AcDbEntity
  8
0
100
AcDbLine
 62
7
  6
CONTINUOUS
 10
66.3293947511
 20
140.036382017
 11
68.4507062628
 21
141.2611144786
  0
LINE
  5
233
100
AcDbEntity
  8
0
100
AcDbLine
 62
7
  6
CONTINUOUS
 10
58.5512613737
 20
133.9127177533
 11
53.7429552806
 21
131.136657507
  0
LINE
  5
234
100
AcDbEntity
  8
0
100
AcDbLine
 62
7
  6
CONTINUOUS
 10
50.8261635808
 20
128.6565950953
 11
66.3824479995
 21
137.6379664805
  0
LINE
  5
235
100
AcDbEntity
  8
0
100
AcDbLine
 62
7
  6
CONTINUOUS
 10
67.0895547807
 20
137.6379681801
 11
50.8261665247
 21
128.2483526411
  0
LINE
  5
236
100
AcDbEntity
  8
0
100
AcDbLine
 62
7
  6
CONTINUOUS
 10
67.0895547807
 20
137.2297169716
 11
50.8261665247
 21
127.8401014325
  0
LINE
  5
237
100
AcDbEntity
  8
0
100
AcDbLine
 62
7
  6
CONTINUOUS
 10
20.759479103
 20
65.7578654127
 11
20.9011171547
 21
65.6885017949
  0
LINE
  5
238
100
AcDbEntity
  8
0
100
AcDbLine
 62
7
  6
CONTINUOUS
 10
20.4159295372
 20
64.5960641024
 11
20.1731451851
 21
64.7150309145
  0
LINE
  5
239
100
AcDbEntity
  8
0
100
AcDbLine
 62
7
  6
CONTINUOUS
 10
20.1731451851
 20
64.7150309145
 11
17.7689720386
 21
66.1030495266
  0
LINE
  5
23A
100
AcDbEntity
  8
0
100
AcDbLine
 62
7
  6
CONTINUOUS
 10
78.852557043
 20
32.132430842
 11
27.9406568325
 21
61.5257651675
  0
LINE
  5
23B
100
AcDbEntity
  8
0
100
AcDbLine
 62
7
  6
CONTINUOUS
 10
20.759479103
 20
65.7578654127
 11
18.284595065
 21
67.1867080535
  0
LINE
  5
23C
100
AcDbEntity
  8
0
100
AcDbLine
 62
7
  6
CONTINUOUS
 10
21.1194443114
 20
65.6407935486
 11
18.8223480309
 21
66.9669927019
  0
LINE
  5
23D
100
AcDbEntity
  8
0
100
AcDbLine
 62
7
  6
CONTINUOUS
 10
30.3728594281
 20
60.9024753655
 11
30.0302418201
 21
61.1002812587
  0
LINE
  5
23E
100
AcDbEntity
  8
0
100
AcDbLine
 62
7
  6
CONTINUOUS
 10
29.2026900064
 20
61.5780577124
 11
28.8599006633
 21
61.7759627547
  0
LINE
  5
23F
100
AcDbEntity
  8
0
100
AcDbLine
 62
7
  6
CONTINUOUS
 10
16.1926954738
 20
69.9184417678
 11
16.8659219976
 21
69.5297630462
  0
LINE
  5
240
100
AcDbEntity
  8
0
100
AcDbLine
 62
7
  6
CONTINUOUS
 10
24.9178133684
 20
64.8811065624
 11
67.1045956844
 21
40.5251074424
  0
LINE
  5
241
100
AcDbEntity
  8
0
100
AcDbLine
 62
7
  6
CONTINUOUS
 10
15.7784708324
 20
70.8340140635
 11
17.0806903407
 21
70.0821942882
  0
LINE
  5
242
100
AcDbEntity
  8
0
100
AcDbLine
 62
7
  6
CONTINUOUS
 10
25.2723876111
 20
65.3528226567
 11
66.690371043
 21
41.440679738
  0
LINE
  5
243
100
AcDbEntity
  8
0
100
AcDbLine
 62
7
  6
CONTINUOUS
 10
29.947899478
 20
61.9770506915
 11
30.0362353201
 21
61.7717087329
  0
LINE
  5
244
100
AcDbEntity
  8
0
100
AcDbLine
 62
7
  6
CONTINUOUS
 10
30.0302418201
 20
61.1002812587
 11
29.5618581842
 21
62.1999266943
  0
LINE
  5
245
100
AcDbEntity
  8
0
100
AcDbLine
 62
7
  6
CONTINUOUS
 10
19.4907968894
 20
85.7556506202
 11
19.7983887926
 21
83.9189088114
  0
LINE
  5
246
100
AcDbEntity
  8
0
100
AcDbLine
 62
7
  6
CONTINUOUS
 10
24.9002086609
 20
70.2224223492
 11
24.9002086609
 21
74.3187906629
  0
LINE
  5
247
100
AcDbEntity
  8
0
100
AcDbLine
 62
7
  6
CONTINUOUS
 10
26.5618941409
 20
81.673243075
 11
26.5618941409
 21
80.9490499543
  0
LINE
  5
248
100
AcDbEntity
  8
0
100
AcDbLine
 62
7
  6
CONTINUOUS
 10
26.5618941409
 20
67.8787168153
 11
26.5618941409
 21
67.0414570158
  0
LINE
  5
249
100
AcDbEntity
  8
0
100
AcDbLine
 62
7
  6
CONTINUOUS
 10
27.9406568325
 20
61.5257651675
 11
27.9406568325
 21
63.1359065564
  0
LINE
  5
24A
100
AcDbEntity
  8
0
100
AcDbLine
 62
7
  6
CONTINUOUS
 10
27.9406568325
 20
112.9654174466
 11
27.9406568325
 21
127.662460955
  0
LINE
  5
24B
100
AcDbEntity
  8
0
100
AcDbLine
 62
7
  6
CONTINUOUS
 10
28.8599006633
 20
61.7759627547
 11
28.8599006633
 21
62.6051928896
  0
LINE
  5
24C
100
AcDbEntity
  8
0
100
AcDbLine
 62
7
  6
CONTINUOUS
 10
28.8599006633
 20
123.8301464565
 11
28.8599006633
 21
125.9886480858
  0
LINE
  5
24D
100
AcDbEntity
  8
0
100
AcDbLine
 62
7
  6
CONTINUOUS
 10
29.2026900064
 20
125.0973457637
 11
29.2026900064
 21
123.6322414142
  0
LINE
  5
24E
100
AcDbEntity
  8
0
100
AcDbLine
 62
7
  6
CONTINUOUS
 10
29.2026900064
 20
62.4072878473
 11
29.2026900064
 21
61.5780577124
  0
LINE
  5
24F
100
AcDbEntity
  8
0
100
AcDbLine
 62
7
  6
CONTINUOUS
 10
29.3441107738
 20
124.765325835
 11
29.3441107738
 21
123.713890245
  0
LINE
  5
250
100
AcDbEntity
  8
0
100
AcDbLine
 62
7
  6
CONTINUOUS
 10
29.3441107738
 20
62.3256403763
 11
29.3441107738
 21
61.6597065432
  0
LINE
  5
251
100
AcDbEntity
  8
0
100
AcDbLine
 62
7
  6
CONTINUOUS
 10
71.4205671084
 20
139.5465033096
 11
73.0395520541
 21
140.4812191244
  0
LINE
  5
252
100
AcDbEntity
  8
0
100
AcDbLine
 62
7
  6
CONTINUOUS
 10
17.1926785068
 20
106.7601063078
 11
27.9406568325
 21
112.9654174466
  0
LINE
  5
253
100
AcDbEntity
  8
0
100
AcDbLine
 62
7
  6
CONTINUOUS
 10
53.6899609116
 20
126.5949775853
 11
69.9533491675
 21
135.9845931243
  0
LINE
  5
254
100
AcDbEntity
  8
0
100
AcDbLine
 62
7
  6
CONTINUOUS
 10
73.9661621189
 20
138.0768365934
 11
75.5851470646
 21
139.0115524081
  0
LINE
  5
255
100
AcDbEntity
  8
0
100
AcDbLine
 62
7
  6
CONTINUOUS
 10
69.9533521115
 20
135.5763506701
 11
54.3970676928
 21
126.594979285
  0
LINE
  5
256
100
AcDbEntity
  8
0
100
AcDbLine
 62
7
  6
CONTINUOUS
 10
55.1041896372
 20
126.1867314758
 11
69.9533521115
 21
134.759848253
  0
LINE
  5
257
100
AcDbEntity
  8
0
100
AcDbLine
 62
7
  6
CONTINUOUS
 10
73.4712762905
 20
135.9131080686
 11
73.7169423619
 21
136.0549425944
  0
LINE
  5
258
100
AcDbEntity
  8
0
100
AcDbLine
 62
7
  6
CONTINUOUS
 10
36.3296352931
 20
113.8672164661
 11
35.7639522233
 21
113.540621143
  0
LINE
  5
259
100
AcDbEntity
  8
0
100
AcDbLine
 62
7
  6
CONTINUOUS
 10
60.1069428069
 20
127.4624907163
 11
64.9152489
 21
130.2385509626
  0
LINE
  5
25A
100
AcDbEntity
  8
0
100
AcDbLine
 62
7
  6
CONTINUOUS
 10
22.0823265979
 20
63.9151434491
 11
20.4159073262
 21
64.5960097939
  0
LINE
  5
25B
100
AcDbEntity
  8
0
100
AcDbLine
 62
7
  6
CONTINUOUS
 10
20.759479103
 20
65.7578654127
 11
20.9615869188
 21
65.6752881093
  0
LINE
  5
25C
100
AcDbEntity
  8
0
100
AcDbLine
 62
7
  6
CONTINUOUS
 10
18.8223480309
 20
66.9669927019
 11
18.284595065
 21
67.1867080535
  0
LINE
  5
25D
100
AcDbEntity
  8
0
100
AcDbLine
 62
7
  6
CONTINUOUS
 10
23.6719205611
 20
66.1484249207
 11
25.3385737466
 21
65.4674630033
  0
LINE
  5
25E
100
AcDbEntity
  8
0
100
AcDbLine
 62
7
  6
CONTINUOUS
 10
21.0226648103
 20
67.2469556021
 11
20.7537883274
 21
67.3568132779
  0
LINE
  5
25F
100
AcDbEntity
  8
0
100
AcDbLine
 62
7
  6
CONTINUOUS
 10
17.8506633769
 20
69.4516971707
 11
18.3884163428
 21
69.2319818191
  0
LINE
  5
260
100
AcDbEntity
  8
0
100
AcDbLine
 62
7
  6
CONTINUOUS
 10
20.5803388677
 20
71.6169017587
 11
20.4387008159
 21
71.6862653765
  0
LINE
  5
261
100
AcDbEntity
  8
0
100
AcDbLine
 62
7
  6
CONTINUOUS
 10
26.5618941409
 20
67.0414570158
 11
26.2482480731
 21
67.2225365608
  0
LINE
  5
262
100
AcDbEntity
  8
0
100
AcDbLine
 62
7
  6
CONTINUOUS
 10
30.2742201979
 20
65.7354528541
 11
26.5618941409
 21
67.8787168153
  0
LINE
  5
263
100
AcDbEntity
  8
0
100
AcDbLine
 62
7
  6
CONTINUOUS
 10
18.3807626653
 20
72.6019884204
 11
15.7784708324
 21
74.1043883217
  0
LINE
  5
264
100
AcDbEntity
  8
0
100
AcDbLine
 62
7
  6
CONTINUOUS
 10
20.5803388676
 20
71.6169017587
 11
23.0552229057
 21
70.1880591178
  0
LINE
  5
265
100
AcDbEntity
  8
0
100
AcDbLine
 62
7
  6
CONTINUOUS
 10
15.7784932065
 20
75.4887280825
 11
16.803802308
 21
74.8967789885
  0
LINE
  5
266
100
AcDbEntity
  8
0
100
AcDbLine
 62
7
  6
CONTINUOUS
 10
23.8748995595
 20
70.8143714433
 11
24.9002086609
 21
70.2224223492
  0
LINE
  5
267
100
AcDbEntity
  8
0
100
AcDbLine
 62
7
  6
CONTINUOUS
 10
23.8748995595
 20
72.6469057282
 11
19.6638839529
 21
75.0780817217
  0
LINE
  5
268
100
AcDbEntity
  8
0
100
AcDbLine
 62
7
  6
CONTINUOUS
 10
30.0362353201
 20
61.7717087329
 11
30.0362353201
 21
61.9260511231
  0
LINE
  5
269
100
AcDbEntity
  8
0
100
AcDbLine
 62
7
  6
CONTINUOUS
 10
30.0362353201
 20
123.8258924348
 11
30.0362353201
 21
125.3095063192
  0
LINE
  5
26A
100
AcDbEntity
  8
0
100
AcDbLine
 62
7
  6
CONTINUOUS
 10
30.2742201979
 20
78.8057859931
 11
30.2742201979
 21
65.7354528541
  0
LINE
  5
26B
100
AcDbEntity
  8
0
100
AcDbLine
 62
7
  6
CONTINUOUS
 10
30.3728594281
 20
125.1151606965
 11
30.3728594281
 21
122.9566590673
  0
LINE
  5
26C
100
AcDbEntity
  8
0
100
AcDbLine
 62
7
  6
CONTINUOUS
 10
30.3728594281
 20
61.7317055004
 11
30.3728594281
 21
60.9024753655
  0
LINE
  5
26D
100
AcDbEntity
  8
0
100
AcDbLine
 62
7
  6
CONTINUOUS
 10
30.5142801956
 20
125.1968095273
 11
30.5142801956
 21
123.0383078981
  0
LINE
  5
26E
100
AcDbEntity
  8
0
100
AcDbLine
 62
7
  6
CONTINUOUS
 10
30.5142801956
 20
61.6500580293
 11
30.5142801956
 21
60.9841241962
  0
LINE
  5
26F
100
AcDbEntity
  8
0
100
AcDbLine
 62
7
  6
CONTINUOUS
 10
17.0250891448
 20
69.9858880132
 11
19.6638839529
 21
75.0780817217
  0
LINE
  5
270
100
AcDbEntity
  8
0
100
AcDbLine
 62
7
  6
CONTINUOUS
 10
17.8506633769
 20
69.4516971707
 11
18.5393865177
 21
70.7807552823
  0
LINE
  5
271
100
AcDbEntity
  8
0
100
AcDbLine
 62
7
  6
CONTINUOUS
 10
18.3884163428
 20
69.2319818191
 11
19.0771394836
 21
70.5610399306
  0
LINE
  5
272
100
AcDbEntity
  8
0
100
AcDbLine
 62
7
  6
CONTINUOUS
 10
76.9360229645
 20
136.3622254244
 11
74.8147114529
 21
135.1374929628
  0
LINE
  5
273
100
AcDbEntity
  8
0
100
AcDbLine
 62
7
  6
CONTINUOUS
 10
45.0076284771
 20
113.5336991235
 11
44.4419454073
 21
113.2071038004
  0
LINE
  5
274
100
AcDbEntity
  8
0
100
AcDbLine
 62
7
  6
CONTINUOUS
 10
19.201467585
 20
98.2961359726
 11
18.8479156664
 21
98.0920138956
  0
LINE
  5
275
100
AcDbEntity
  8
0
100
AcDbLine
 62
7
  6
CONTINUOUS
 10
18.9479151815
 20
97.9188086208
 11
16.4023413676
 21
96.4491296669
  0
LINE
  5
276
100
AcDbEntity
  8
0
100
AcDbLine
 62
7
  6
CONTINUOUS
 10
19.0771394836
 20
70.5610399306
 11
18.5393865177
 21
70.7807552823
  0
LINE
  5
277
100
AcDbEntity
  8
0
100
AcDbLine
 62
7
  6
CONTINUOUS
 10
21.9304120579
 20
69.4686655144
 11
21.661535575
 21
69.5785231902
  0
LINE
  5
278
100
AcDbEntity
  8
0
100
AcDbLine
 62
7
  6
CONTINUOUS
 10
23.8748995595
 20
74.1242024343
 11
19.8286593236
 21
76.4602474753
  0
LINE
  5
279
100
AcDbEntity
  8
0
100
AcDbLine
 62
7
  6
CONTINUOUS
 10
24.9002086609
 20
74.3187906629
 11
23.8748995595
 21
74.9107397569
  0
LINE
  5
27A
100
AcDbEntity
  8
0
100
AcDbLine
 62
7
  6
CONTINUOUS
 10
16.803802308
 20
78.9931473021
 11
15.7784932065
 21
79.5850963962
  0
LINE
  5
27B
100
AcDbEntity
  8
0
100
AcDbLine
 62
7
  6
CONTINUOUS
 10
23.4891545937
 20
67.9230700006
 11
22.8004314529
 21
66.5940118891
  0
LINE
  5
27C
100
AcDbEntity
  8
0
100
AcDbLine
 62
7
  6
CONTINUOUS
 10
23.6719205611
 20
66.1484249207
 11
25.600245817
 21
69.8695955496
  0
LINE
  5
27D
100
AcDbEntity
  8
0
100
AcDbLine
 62
7
  6
CONTINUOUS
 10
20.5514616333
 20
98.1624203483
 11
20.1979097146
 21
97.9582982714
  0
LINE
  5
27E
100
AcDbEntity
  8
0
100
AcDbLine
 62
7
  6
CONTINUOUS
 10
20.1979095854
 20
97.7949979233
 11
17.6523357715
 21
96.3253189694
  0
LINE
  5
27F
100
AcDbEntity
  8
0
100
AcDbLine
 62
7
  6
CONTINUOUS
 10
71.2792364263
 20
126.5643841719
 11
66.4709303333
 21
123.7883239256
  0
LINE
  5
280
100
AcDbEntity
  8
0
100
AcDbLine
 62
7
  6
CONTINUOUS
 10
63.5541386334
 20
121.3082615139
 11
79.1104230521
 21
130.2896328991
  0
LINE
  5
281
100
AcDbEntity
  8
0
100
AcDbLine
 62
7
  6
CONTINUOUS
 10
79.8175298333
 20
130.2896345988
 11
63.5541415774
 21
120.9000190597
  0
LINE
  5
282
100
AcDbEntity
  8
0
100
AcDbLine
 62
7
  6
CONTINUOUS
 10
79.8175298333
 20
129.8813833902
 11
63.5541415774
 21
120.4917678512
  0
LINE
  5
283
100
AcDbEntity
  8
0
100
AcDbLine
 62
7
  6
CONTINUOUS
 10
19.5163853335
 20
94.2857336746
 11
19.2096311425
 21
94.108630117
  0
LINE
  5
284
100
AcDbEntity
  8
0
100
AcDbLine
 62
7
  6
CONTINUOUS
 10
20.1100451489
 20
93.9429979481
 11
19.803290958
 21
93.7658943905
  0
LINE
  5
285
100
AcDbEntity
  8
0
100
AcDbLine
 62
7
  6
CONTINUOUS
 10
20.4806004755
 20
93.7290664241
 11
20.1738375804
 21
93.5519578412
  0
LINE
  5
286
100
AcDbEntity
  8
0
100
AcDbLine
 62
7
  6
CONTINUOUS
 10
26.4188009624
 20
80.0966985329
 11
19.7983887926
 21
83.9189088114
  0
LINE
  5
287
100
AcDbEntity
  8
0
100
AcDbLine
 62
7
  6
CONTINUOUS
 10
15.7784708324
 20
87.1747214608
 11
19.4907968894
 21
85.0314574995
  0
LINE
  5
288
100
AcDbEntity
  8
0
100
AcDbLine
 62
7
  6
CONTINUOUS
 10
26.5618941409
 20
80.9490499543
 11
30.2742201979
 21
78.8057859931
  0
LINE
  5
289
100
AcDbEntity
  8
0
100
AcDbLine
 62
7
  6
CONTINUOUS
 10
26.5618941409
 20
81.673243075
 11
19.4907968894
 21
85.7556506202
  0
LINE
  5
28A
100
AcDbEntity
  8
0
100
AcDbLine
 62
7
  6
CONTINUOUS
 10
40.9619858589
 20
133.9433111667
 11
40.9619858589
 21
133.5350599581
  0
LINE
  5
28B
100
AcDbEntity
  8
0
100
AcDbLine
 62
7
  6
CONTINUOUS
 10
26.5618941409
 20
67.8276673246
 11
25.3385737466
 21
65.4674630033
  0
LINE
  5
28C
100
AcDbEntity
  8
0
100
AcDbLine
 62
7
  6
CONTINUOUS
 10
24.8659320851
 20
95.263274904
 11
25.2194840037
 21
95.4673969809
  0
LINE
  5
28D
100
AcDbEntity
  8
0
100
AcDbLine
 62
7
  6
CONTINUOUS
 10
66.4179359642
 20
119.2466440039
 11
82.6813242202
 21
128.636259543
  0
LINE
  5
28E
100
AcDbEntity
  8
0
100
AcDbLine
 62
7
  6
CONTINUOUS
 10
22.325623945
 20
93.6272558227
 11
24.8698515488
 21
95.0961575466
  0
LINE
  5
28F
100
AcDbEntity
  8
0
100
AcDbLine
 62
7
  6
CONTINUOUS
 10
20.156856925
 20
92.1688844164
 11
19.8033050064
 21
91.9647623395
  0
LINE
  5
290
100
AcDbEntity
  8
0
100
AcDbLine
 62
7
  6
CONTINUOUS
 10
82.6813271641
 20
128.2280170888
 11
67.1250427454
 21
119.2466457036
  0
LINE
  5
291
100
AcDbEntity
  8
0
100
AcDbLine
 62
7
  6
CONTINUOUS
 10
67.8321646898
 20
118.8383978945
 11
82.6813271641
 21
127.4115146716
  0
LINE
  5
292
100
AcDbEntity
  8
0
100
AcDbLine
 62
7
  6
CONTINUOUS
 10
49.0576103458
 20
106.5188828848
 11
48.491927276
 21
106.1922875617
  0
LINE
  5
293
100
AcDbEntity
  8
0
100
AcDbLine
 62
7
  6
CONTINUOUS
 10
72.8349178596
 20
120.1141571349
 11
77.6432239526
 21
122.8902173812
  0
LINE
  5
294
100
AcDbEntity
  8
0
100
AcDbLine
 62
7
  6
CONTINUOUS
 10
26.1180101007
 20
90.88877484
 11
23.5756183489
 21
89.4209330396
  0
LINE
  5
295
100
AcDbEntity
  8
0
100
AcDbLine
 62
7
  6
CONTINUOUS
 10
26.5683795822
 20
90.9252029779
 11
26.2148276636
 21
90.721080901
  0
LINE
  5
296
100
AcDbEntity
  8
0
100
AcDbLine
 62
7
  6
CONTINUOUS
 10
18.2485737526
 20
74.6370593047
 11
16.803802308
 21
74.8967789885
  0
LINE
  5
297
100
AcDbEntity
  8
0
100
AcDbLine
 62
7
  6
CONTINUOUS
 10
22.325623945
 20
89.5447437371
 11
17.6523357715
 21
92.2428068837
  0
LINE
  5
298
100
AcDbEntity
  8
0
100
AcDbLine
 62
7
  6
CONTINUOUS
 10
20.1738516287
 20
91.7508358407
 11
19.8033050064
 21
91.9647623395
  0
LINE
  5
299
100
AcDbEntity
  8
0
100
AcDbLine
 62
7
  6
CONTINUOUS
 10
20.1738484446
 20
92.1590747567
 11
20.156856925
 21
92.1688844164
  0
LINE
  5
29A
100
AcDbEntity
  8
0
100
AcDbLine
 62
7
  6
CONTINUOUS
 10
47.3789677543
 20
134.8108242976
 11
47.3789677543
 21
134.1576363709
  0
LINE
  5
29B
100
AcDbEntity
  8
0
100
AcDbLine
 62
7
  6
CONTINUOUS
 10
57.7356035298
 20
106.1853655422
 11
57.16992046
 21
105.8587702191
  0
LINE
  5
29C
100
AcDbEntity
  8
0
100
AcDbLine
 62
7
  6
CONTINUOUS
 10
91.7853448564
 20
125.3397148543
 11
93.9066563681
 21
126.5644473159
  0
LINE
  5
29D
100
AcDbEntity
  8
0
100
AcDbLine
 62
7
  6
CONTINUOUS
 10
84.007211479
 20
119.2160505905
 11
79.1989053859
 21
116.4399903442
  0
LINE
  5
29E
100
AcDbEntity
  8
0
100
AcDbLine
 62
7
  6
CONTINUOUS
 10
76.2821136861
 20
113.9599279326
 11
91.8383981048
 21
122.9412993177
  0
LINE
  5
29F
100
AcDbEntity
  8
0
100
AcDbLine
 62
7
  6
CONTINUOUS
 10
92.545504886
 20
122.9413010174
 11
76.28211663
 21
113.5516854784
  0
LINE
  5
2A0
100
AcDbEntity
  8
0
100
AcDbLine
 62
7
  6
CONTINUOUS
 10
20.7697023704
 20
93.2079491239
 11
20.1738375804
 21
93.5519578412
  0
LINE
  5
2A1
100
AcDbEntity
  8
0
100
AcDbLine
 62
7
  6
CONTINUOUS
 10
19.803290958
 20
93.7658943905
 11
19.2096311425
 21
94.108630117
  0
LINE
  5
2A2
100
AcDbEntity
  8
0
100
AcDbLine
 62
7
  6
CONTINUOUS
 10
19.2096283798
 20
94.4628326876
 11
20.7696996076
 21
93.5621617449
  0
LINE
  5
2A3
100
AcDbEntity
  8
0
100
AcDbLine
 62
7
  6
CONTINUOUS
 10
17.6523357715
 20
96.3253189694
 11
22.325623945
 21
93.6272558227
  0
LINE
  5
2A4
100
AcDbEntity
  8
0
100
AcDbLine
 62
7
  6
CONTINUOUS
 10
24.8648337446
 20
95.100608959
 11
20.1979095854
 21
97.7949979233
  0
LINE
  5
2A5
100
AcDbEntity
  8
0
100
AcDbLine
 62
7
  6
CONTINUOUS
 10
20.1979097146
 20
97.9582982714
 11
24.8659320851
 21
95.2632749039
  0
LINE
  5
2A6
100
AcDbEntity
  8
0
100
AcDbLine
 62
7
  6
CONTINUOUS
 10
29.1871083778
 20
125.7997388974
 11
30.0362353201
 21
123.8258924348
  0
LINE
  5
2A7
100
AcDbEntity
  8
0
100
AcDbLine
 62
7
  6
CONTINUOUS
 10
30.0362353201
 20
124.2362823143
 11
29.3285291452
 21
125.8813877282
  0
LINE
  5
2A8
100
AcDbEntity
  8
0
100
AcDbLine
 62
7
  6
CONTINUOUS
 10
30.0302418201
 20
123.1544649605
 11
29.2026900064
 21
125.0973457637
  0
LINE
  5
2A9
100
AcDbEntity
  8
0
100
AcDbLine
 62
7
  6
CONTINUOUS
 10
50.8261665247
 20
128.2483526411
 11
50.8261665247
 21
127.8401014325
  0
LINE
  5
2AA
100
AcDbEntity
  8
0
100
AcDbLine
 62
7
  6
CONTINUOUS
 10
52.1872738473
 20
131.381625075
 11
52.1872738473
 21
137.586884544
  0
LINE
  5
2AB
100
AcDbEntity
  8
0
100
AcDbLine
 62
7
  6
CONTINUOUS
 10
53.6899609116
 20
126.5949775853
 11
53.6899609116
 21
126.1867263767
  0
LINE
  5
2AC
100
AcDbEntity
  8
0
100
AcDbLine
 62
7
  6
CONTINUOUS
 10
92.545504886
 20
122.5330498088
 11
76.28211663
 21
113.1434342698
  0
LINE
  5
2AD
100
AcDbEntity
  8
0
100
AcDbLine
 62
7
  6
CONTINUOUS
 10
96.8765172137
 20
124.8498361469
 11
98.4955021594
 21
125.7845519616
  0
LINE
  5
2AE
100
AcDbEntity
  8
0
100
AcDbLine
 62
7
  6
CONTINUOUS
 10
79.1459110169
 20
111.8983104226
 11
95.4092992728
 21
121.2879259616
  0
LINE
  5
2AF
100
AcDbEntity
  8
0
100
AcDbLine
 62
7
  6
CONTINUOUS
 10
99.4221122242
 20
123.3801694306
 11
101.0410971699
 21
124.3148852453
  0
LINE
  5
2B0
100
AcDbEntity
  8
0
100
AcDbLine
 62
7
  6
CONTINUOUS
 10
95.4093022168
 20
120.8796835074
 11
79.8530177981
 21
111.8983121222
  0
LINE
  5
2B1
100
AcDbEntity
  8
0
100
AcDbLine
 62
7
  6
CONTINUOUS
 10
80.5601397424
 20
111.4900643131
 11
95.4093022168
 21
120.0631810903
  0
LINE
  5
2B2
100
AcDbEntity
  8
0
100
AcDbLine
 62
7
  6
CONTINUOUS
 10
98.9272263958
 20
121.2164409059
 11
99.1728924672
 21
121.3582754317
  0
LINE
  5
2B3
100
AcDbEntity
  8
0
100
AcDbLine
 62
7
  6
CONTINUOUS
 10
61.7855853984
 20
99.1705493034
 11
61.2199023286
 21
98.8439539803
  0
LINE
  5
2B4
100
AcDbEntity
  8
0
100
AcDbLine
 62
7
  6
CONTINUOUS
 10
20.5514616333
 20
98.1624203483
 11
25.2194840037
 21
95.4673969809
  0
LINE
  5
2B5
100
AcDbEntity
  8
0
100
AcDbLine
 62
7
  6
CONTINUOUS
 10
66.690371043
 20
74.9172788403
 11
15.7784708324
 21
104.3106131658
  0
LINE
  5
2B6
100
AcDbEntity
  8
0
100
AcDbLine
 62
7
  6
CONTINUOUS
 10
55.0157009721
 20
137.5868913427
 11
55.0157009721
 21
131.8714731883
  0
LINE
  5
2B7
100
AcDbEntity
  8
0
100
AcDbLine
 62
7
  6
CONTINUOUS
 10
57.2253770588
 20
142.1081818344
 11
57.2253770588
 21
142.9246842515
  0
LINE
  5
2B8
100
AcDbEntity
  8
0
100
AcDbLine
 62
7
  6
CONTINUOUS
 10
58.5512495978
 20
133.9127177533
 11
58.5512495978
 21
135.5456875701
  0
LINE
  5
2B9
100
AcDbEntity
  8
0
100
AcDbLine
 62
7
  6
CONTINUOUS
 10
85.5628929122
 20
112.7658235535
 11
90.3711990053
 21
115.5418837999
  0
LINE
  5
2BA
100
AcDbEntity
  8
0
100
AcDbLine
 62
7
  6
CONTINUOUS
 10
102.3919730698
 20
121.6655582617
 11
100.2706615582
 21
120.4408258
  0
LINE
  5
2BB
100
AcDbEntity
  8
0
100
AcDbLine
 62
7
  6
CONTINUOUS
 10
70.4635785824
 20
98.8370319608
 11
69.8978955126
 21
98.5104366377
  0
LINE
  5
2BC
100
AcDbEntity
  8
0
100
AcDbLine
 62
7
  6
CONTINUOUS
 10
17.1926785068
 20
106.7601063078
 11
68.1045787174
 21
77.3667719823
  0
LINE
  5
2BD
100
AcDbEntity
  8
0
100
AcDbLine
 62
7
  6
CONTINUOUS
 10
60.1069428069
 20
127.4624907163
 11
60.1069428069
 21
126.8093027896
  0
LINE
  5
2BE
100
AcDbEntity
  8
0
100
AcDbLine
 62
7
  6
CONTINUOUS
 10
63.5541415774
 20
120.9000190597
 11
63.5541415774
 21
120.4917678512
  0
LINE
  5
2BF
100
AcDbEntity
  8
0
100
AcDbLine
 62
7
  6
CONTINUOUS
 10
96.7351865316
 20
111.8677170092
 11
91.9268804386
 21
109.0916567629
  0
LINE
  5
2C0
100
AcDbEntity
  8
0
100
AcDbLine
 62
7
  6
CONTINUOUS
 10
89.0100887387
 20
106.6115943512
 11
104.5663731574
 21
115.5929657364
  0
LINE
  5
2C1
100
AcDbEntity
  8
0
100
AcDbLine
 62
7
  6
CONTINUOUS
 10
105.2734799386
 20
115.592967436
 11
89.0100916827
 21
106.203351897
  0
LINE
  5
2C2
100
AcDbEntity
  8
0
100
AcDbLine
 62
7
  6
CONTINUOUS
 10
105.2734799386
 20
115.1847162275
 11
89.0100916827
 21
105.7951006884
  0
LINE
  5
2C3
100
AcDbEntity
  8
0
100
AcDbLine
 62
7
  6
CONTINUOUS
 10
78.852557043
 20
98.2691266295
 11
112.5033458145
 21
117.6973026146
  0
LINE
  5
2C4
100
AcDbEntity
  8
0
100
AcDbLine
 62
7
  6
CONTINUOUS
 10
64.9152489
 20
124.0332914937
 11
64.9152489
 21
130.2385509626
  0
LINE
  5
2C5
100
AcDbEntity
  8
0
100
AcDbLine
 62
7
  6
CONTINUOUS
 10
66.4179359642
 20
119.2466440039
 11
66.4179359642
 21
118.8383927954
  0
LINE
  5
2C6
100
AcDbEntity
  8
0
100
AcDbLine
 62
7
  6
CONTINUOUS
 10
66.690371043
 20
41.440679738
 11
66.690371043
 21
74.9172788403
  0
LINE
  5
2C7
100
AcDbEntity
  8
0
100
AcDbLine
 62
7
  6
CONTINUOUS
 10
67.0895547807
 20
137.6379681801
 11
67.0895547807
 21
137.2297169716
  0
LINE
  5
2C8
100
AcDbEntity
  8
0
100
AcDbLine
 62
7
  6
CONTINUOUS
 10
67.7436760247
 20
130.2385577613
 11
67.7436760247
 21
124.5231396069
  0
LINE
  5
2C9
100
AcDbEntity
  8
0
100
AcDbLine
 62
7
  6
CONTINUOUS
 10
68.4507062628
 20
138.8116699514
 11
68.4507062628
 21
141.2611144786
  0
LINE
  5
2CA
100
AcDbEntity
  8
0
100
AcDbLine
 62
7
  6
CONTINUOUS
 10
74.513560451
 20
91.822215722
 11
73.9478773813
 21
91.4956203989
  0
LINE
  5
2CB
100
AcDbEntity
  8
0
100
AcDbLine
 62
7
  6
CONTINUOUS
 10
78.852557043
 20
83.5720831212
 11
27.9406568325
 21
112.9654174466
  0
LINE
  5
2CC
100
AcDbEntity
  8
0
100
AcDbLine
 62
7
  6
CONTINUOUS
 10
110.8843608688
 20
68.1806929807
 11
109.823705113
 21
68.7930490135
  0
LINE
  5
2CD
100
AcDbEntity
  8
0
100
AcDbLine
 62
7
  6
CONTINUOUS
 10
74.0015166998
 20
135.6069805511
 11
73.9661621189
 21
138.0768365934
  0
LINE
  5
2CE
100
AcDbEntity
  8
0
100
AcDbLine
 62
7
  6
CONTINUOUS
 10
69.9533521115
 20
134.759848253
 11
69.9533521115
 21
135.5763506701
  0
LINE
  5
2CF
100
AcDbEntity
  8
0
100
AcDbLine
 62
7
  6
CONTINUOUS
 10
71.2792246505
 20
126.5643841719
 11
71.2792246505
 21
128.1973539887
  0
LINE
  5
2D0
100
AcDbEntity
  8
0
100
AcDbLine
 62
7
  6
CONTINUOUS
 10
72.8349178596
 20
120.1141571349
 11
72.8349178596
 21
119.4609692082
  0
LINE
  5
2D1
100
AcDbEntity
  8
0
100
AcDbLine
 62
7
  6
CONTINUOUS
 10
71.4205671084
 20
139.5465033096
 11
71.3852125275
 21
137.1174702975
  0
LINE
  5
2D2
100
AcDbEntity
  8
0
100
AcDbLine
 62
7
  6
CONTINUOUS
 10
29.2026900064
 20
61.5780577124
 11
29.3441107738
 21
61.6597065432
  0
LINE
  5
2D3
100
AcDbEntity
  8
0
100
AcDbLine
 62
7
  6
CONTINUOUS
 10
30.3728594281
 20
60.9024753655
 11
30.5142801956
 21
60.9841241962
  0
LINE
  5
2D4
100
AcDbEntity
  8
0
100
AcDbLine
 62
7
  6
CONTINUOUS
 10
113.7127762177
 20
68.1806647619
 11
109.823705113
 21
70.4259702155
  0
LINE
  5
2D5
100
AcDbEntity
  8
0
100
AcDbLine
 62
7
  6
CONTINUOUS
 10
76.28211663
 20
113.5516854784
 11
76.28211663
 21
113.1434342698
  0
LINE
  5
2D6
100
AcDbEntity
  8
0
100
AcDbLine
 62
7
  6
CONTINUOUS
 10
77.6432239526
 20
116.6849579123
 11
77.6432239526
 21
122.8902173812
  0
LINE
  5
2D7
100
AcDbEntity
  8
0
100
AcDbLine
 62
7
  6
CONTINUOUS
 10
78.852557043
 20
32.132430842
 11
78.852557043
 21
46.8294743503
  0
LINE
  5
2D8
100
AcDbEntity
  8
0
100
AcDbLine
 62
7
  6
CONTINUOUS
 10
78.852557043
 20
83.5720831212
 11
78.852557043
 21
98.2691266295
  0
LINE
  5
2D9
100
AcDbEntity
  8
0
100
AcDbLine
 62
7
  6
CONTINUOUS
 10
79.1459110169
 20
111.8983104226
 11
79.1459110169
 21
111.490059214
  0
LINE
  5
2DA
100
AcDbEntity
  8
0
100
AcDbLine
 62
7
  6
CONTINUOUS
 10
79.8175298333
 20
130.2896345988
 11
79.8175298333
 21
129.8813833902
  0
LINE
  5
2DB
100
AcDbEntity
  8
0
100
AcDbLine
 62
7
  6
CONTINUOUS
 10
68.1045787174
 20
77.3667719823
 11
78.852557043
 21
83.5720831212
  0
LINE
  5
2DC
100
AcDbEntity
  8
0
100
AcDbLine
 62
7
  6
CONTINUOUS
 10
30.3728594281
 20
122.9566590673
 11
30.0302418201
 21
123.1544649605
  0
LINE
  5
2DD
100
AcDbEntity
  8
0
100
AcDbLine
 62
7
  6
CONTINUOUS
 10
29.2026900064
 20
123.6322414142
 11
28.8599006633
 21
123.8301464565
  0
LINE
  5
2DE
100
AcDbEntity
  8
0
100
AcDbLine
 62
7
  6
CONTINUOUS
 10
28.8599006633
 20
125.9886480858
 11
29.1871083778
 21
125.7997388974
  0
LINE
  5
2DF
100
AcDbEntity
  8
0
100
AcDbLine
 62
7
  6
CONTINUOUS
 10
30.0362353201
 20
125.3095063192
 11
30.3728594281
 21
125.1151606965
  0
LINE
  5
2E0
100
AcDbEntity
  8
0
100
AcDbLine
 62
7
  6
CONTINUOUS
 10
30.5142801956
 20
125.1968095273
 11
30.1776560876
 21
125.39115515
  0
LINE
  5
2E1
100
AcDbEntity
  8
0
100
AcDbLine
 62
7
  6
CONTINUOUS
 10
29.3285291452
 20
125.8813877282
 11
29.0013214307
 21
126.0702969165
  0
LINE
  5
2E2
100
AcDbEntity
  8
0
100
AcDbLine
 62
7
  6
CONTINUOUS
 10
78.852557043
 20
98.2691266295
 11
27.9406568325
 21
127.662460955
  0
LINE
  5
2E3
100
AcDbEntity
  8
0
100
AcDbLine
 62
7
  6
CONTINUOUS
 10
80.4716510774
 20
122.8902241799
 11
80.4716510774
 21
117.1748060255
  0
LINE
  5
2E4
100
AcDbEntity
  8
0
100
AcDbLine
 62
7
  6
CONTINUOUS
 10
82.6813271641
 20
127.4115146716
 11
82.6813271641
 21
128.2280170888
  0
LINE
  5
2E5
100
AcDbEntity
  8
0
100
AcDbLine
 62
7
  6
CONTINUOUS
 10
84.0071997031
 20
119.2160505905
 11
84.0071997031
 21
120.8490204073
  0
LINE
  5
2E6
100
AcDbEntity
  8
0
100
AcDbLine
 62
7
  6
CONTINUOUS
 10
112.702856522
 20
99.0329338937
 11
109.823705113
 21
97.3706649751
  0
LINE
  5
2E7
100
AcDbEntity
  8
0
100
AcDbLine
 62
7
  6
CONTINUOUS
 10
110.9240876809
 20
97.8508021246
 11
110.0361773926
 21
97.3381699406
  0
LINE
  5
2E8
100
AcDbEntity
  8
0
100
AcDbLine
 62
7
  6
CONTINUOUS
 10
73.7169423619
 20
136.0549425944
 11
73.0395520541
 21
140.4812191244
  0
LINE
  5
2E9
100
AcDbEntity
  8
0
100
AcDbLine
 62
7
  6
CONTINUOUS
 10
85.5628929122
 20
112.7658235535
 11
85.5628929122
 21
112.1126356268
  0
LINE
  5
2EA
100
AcDbEntity
  8
0
100
AcDbLine
 62
7
  6
CONTINUOUS
 10
89.0100916827
 20
106.203351897
 11
89.0100916827
 21
105.7951006884
  0
LINE
  5
2EB
100
AcDbEntity
  8
0
100
AcDbLine
 62
7
  6
CONTINUOUS
 10
90.3711990053
 20
109.3366243309
 11
90.3711990053
 21
115.5418837999
  0
LINE
  5
2EC
100
AcDbEntity
  8
0
100
AcDbLine
 62
7
  6
CONTINUOUS
 10
92.545504886
 20
122.9413010174
 11
92.545504886
 21
122.5330498088
  0
LINE
  5
2ED
100
AcDbEntity
  8
0
100
AcDbLine
 62
7
  6
CONTINUOUS
 10
93.19962613
 20
115.5418905986
 11
93.19962613
 21
109.8264724442
  0
LINE
  5
2EE
100
AcDbEntity
  8
0
100
AcDbLine
 62
7
  6
CONTINUOUS
 10
93.9066563681
 20
124.1150027887
 11
93.9066563681
 21
126.5644473159
  0
LINE
  5
2EF
100
AcDbEntity
  8
0
100
AcDbLine
 62
7
  6
CONTINUOUS
 10
89.0100916827
 20
105.7951006884
 11
79.1459110169
 21
111.490059214
  0
LINE
  5
2F0
100
AcDbEntity
  8
0
100
AcDbLine
 62
7
  6
CONTINUOUS
 10
76.28211663
 20
113.1434342698
 11
66.4179359642
 21
118.8383927954
  0
LINE
  5
2F1
100
AcDbEntity
  8
0
100
AcDbLine
 62
7
  6
CONTINUOUS
 10
63.5541415774
 20
120.4917678512
 11
53.6899609116
 21
126.1867263767
  0
LINE
  5
2F2
100
AcDbEntity
  8
0
100
AcDbLine
 62
7
  6
CONTINUOUS
 10
50.8261665247
 20
127.8401014325
 11
40.9619858589
 21
133.5350599581
  0
LINE
  5
2F3
100
AcDbEntity
  8
0
100
AcDbLine
 62
7
  6
CONTINUOUS
 10
89.0100916827
 20
106.203351897
 11
79.1459110169
 21
111.8983104226
  0
LINE
  5
2F4
100
AcDbEntity
  8
0
100
AcDbLine
 62
7
  6
CONTINUOUS
 10
76.28211663
 20
113.5516854784
 11
66.4179359642
 21
119.2466440039
  0
LINE
  5
2F5
100
AcDbEntity
  8
0
100
AcDbLine
 62
7
  6
CONTINUOUS
 10
63.5541415774
 20
120.9000190597
 11
53.6899609116
 21
126.5949775853
  0
LINE
  5
2F6
100
AcDbEntity
  8
0
100
AcDbLine
 62
7
  6
CONTINUOUS
 10
50.8261665247
 20
128.2483526411
 11
40.9619858589
 21
133.9433111667
  0
LINE
  5
2F7
100
AcDbEntity
  8
0
100
AcDbLine
 62
7
  6
CONTINUOUS
 10
41.6690926401
 20
133.9433128663
 11
50.8261635808
 21
128.6565950953
  0
LINE
  5
2F8
100
AcDbEntity
  8
0
100
AcDbLine
 62
7
  6
CONTINUOUS
 10
54.3970676928
 20
126.594979285
 11
63.5541386334
 21
121.3082615139
  0
LINE
  5
2F9
100
AcDbEntity
  8
0
100
AcDbLine
 62
7
  6
CONTINUOUS
 10
67.1250427454
 20
119.2466457036
 11
76.2821136861
 21
113.9599279326
  0
LINE
  5
2FA
100
AcDbEntity
  8
0
100
AcDbLine
 62
7
  6
CONTINUOUS
 10
79.8530177981
 20
111.8983121222
 11
89.0100887387
 21
106.6115943512
  0
LINE
  5
2FB
100
AcDbEntity
  8
0
100
AcDbLine
 62
7
  6
CONTINUOUS
 10
110.0361773926
 20
97.3381699406
 11
109.9017984405
 21
97.4157519096
  0
LINE
  5
2FC
100
AcDbEntity
  8
0
100
AcDbLine
 62
7
  6
CONTINUOUS
 10
90.7955095887
 20
109.0916540434
 11
85.5628976226
 21
112.1126356268
  0
LINE
  5
2FD
100
AcDbEntity
  8
0
100
AcDbLine
 62
7
  6
CONTINUOUS
 10
78.067534536
 20
116.4399876247
 11
72.8349225699
 21
119.4609692082
  0
LINE
  5
2FE
100
AcDbEntity
  8
0
100
AcDbLine
 62
7
  6
CONTINUOUS
 10
65.3395594834
 20
123.7883212061
 11
60.1069475173
 21
126.8093027896
  0
LINE
  5
2FF
100
AcDbEntity
  8
0
100
AcDbLine
 62
7
  6
CONTINUOUS
 10
52.6115844307
 20
131.1366547875
 11
47.3789724646
 21
134.1576363709
  0
LINE
  5
300
100
AcDbEntity
  8
0
100
AcDbLine
 62
7
  6
CONTINUOUS
 10
99.4574668051
 20
120.9103133884
 11
99.4221122242
 21
123.3801694306
  0
LINE
  5
301
100
AcDbEntity
  8
0
100
AcDbLine
 62
7
  6
CONTINUOUS
 10
95.4093022168
 20
120.0631810903
 11
95.4093022168
 21
120.8796835074
  0
LINE
  5
302
100
AcDbEntity
  8
0
100
AcDbLine
 62
7
  6
CONTINUOUS
 10
96.7351747557
 20
111.8677170092
 11
96.7351747557
 21
113.500686826
  0
LINE
  5
303
100
AcDbEntity
  8
0
100
AcDbLine
 62
7
  6
CONTINUOUS
 10
96.8765172137
 20
124.8498361469
 11
96.8411626328
 21
122.4208031347
  0
LINE
  5
304
100
AcDbEntity
  8
0
100
AcDbLine
 62
7
  6
CONTINUOUS
 10
105.2734799386
 20
115.592967436
 11
105.2734799386
 21
115.1847162275
  0
LINE
  5
305
100
AcDbEntity
  8
0
100
AcDbLine
 62
7
  6
CONTINUOUS
 10
55.0157009721
 20
137.5868913427
 11
58.5512495978
 21
135.5456875701
  0
LINE
  5
306
100
AcDbEntity
  8
0
100
AcDbLine
 62
7
  6
CONTINUOUS
 10
67.7436760247
 20
130.2385577613
 11
71.2792246505
 21
128.1973539887
  0
LINE
  5
307
100
AcDbEntity
  8
0
100
AcDbLine
 62
7
  6
CONTINUOUS
 10
80.4716510774
 20
122.8902241799
 11
84.0071997031
 21
120.8490204073
  0
LINE
  5
308
100
AcDbEntity
  8
0
100
AcDbLine
 62
7
  6
CONTINUOUS
 10
93.19962613
 20
115.5418905986
 11
96.7351747557
 21
113.500686826
  0
LINE
  5
309
100
AcDbEntity
  8
0
100
AcDbLine
 62
7
  6
CONTINUOUS
 10
110.0361773926
 20
97.3381699406
 11
109.9420853228
 21
97.4390114131
  0
LINE
  5
30A
100
AcDbEntity
  8
0
100
AcDbLine
 62
7
  6
CONTINUOUS
 10
99.1728924672
 20
121.3582754317
 11
98.4955021594
 21
125.7845519616
  0
LINE
  5
30B
100
AcDbEntity
  8
0
100
AcDbLine
 62
7
  6
CONTINUOUS
 10
109.823705113
 20
97.3706649751
 11
109.823705113
 21
67.5683267499
  0
LINE
  5
30C
100
AcDbEntity
  8
0
100
AcDbLine
 62
7
  6
CONTINUOUS
 10
110.9477817013
 20
98.019647022
 11
110.9240876809
 21
97.8508021246
  0
LINE
  5
30D
100
AcDbEntity
  8
0
100
AcDbLine
 62
7
  6
CONTINUOUS
 10
110.8843608688
 20
68.1806929807
 11
109.823705113
 21
67.5683267499
  0
LINE
  5
30E
100
AcDbEntity
  8
0
100
AcDbLine
 62
7
  6
CONTINUOUS
 10
110.8843608688
 20
66.5476881464
 11
113.7127762177
 21
68.1806647619
  0
LINE
  5
30F
100
AcDbEntity
  8
0
100
AcDbLine
 62
7
  6
CONTINUOUS
 10
78.852557043
 20
46.8294743503
 11
68.1045787174
 21
40.6241632115
  0
LINE
  5
310
100
AcDbEntity
  8
0
100
AcDbLine
 62
7
  6
CONTINUOUS
 10
57.2253770588
 20
142.1081818344
 11
65.6753260551
 21
137.2297118725
  0
LINE
  5
311
100
AcDbEntity
  8
0
100
AcDbLine
 62
7
  6
CONTINUOUS
 10
69.9533521115
 20
134.759848253
 11
78.4033011077
 21
129.8813782911
  0
LINE
  5
312
100
AcDbEntity
  8
0
100
AcDbLine
 62
7
  6
CONTINUOUS
 10
82.6813271641
 20
127.4115146716
 11
91.1312761604
 21
122.5330447097
  0
LINE
  5
313
100
AcDbEntity
  8
0
100
AcDbLine
 62
7
  6
CONTINUOUS
 10
95.4093022168
 20
120.0631810903
 11
103.859251213
 21
115.1847111284
  0
LINE
  5
314
100
AcDbEntity
  8
0
100
AcDbLine
 62
7
  6
CONTINUOUS
 10
104.5663731574
 20
115.5929657364
 11
95.4093022168
 21
120.8796835074
  0
LINE
  5
315
100
AcDbEntity
  8
0
100
AcDbLine
 62
7
  6
CONTINUOUS
 10
91.8383981048
 20
122.9412993177
 11
82.6813271641
 21
128.2280170888
  0
LINE
  5
316
100
AcDbEntity
  8
0
100
AcDbLine
 62
7
  6
CONTINUOUS
 10
79.1104230521
 20
130.2896328991
 11
69.9533521115
 21
135.5763506701
  0
LINE
  5
317
100
AcDbEntity
  8
0
100
AcDbLine
 62
7
  6
CONTINUOUS
 10
66.3824479995
 20
137.6379664805
 11
57.2253770588
 21
142.9246842515
  0
LINE
  5
318
100
AcDbEntity
  8
0
100
AcDbLine
 62
7
  6
CONTINUOUS
 10
57.2253741149
 20
143.3329267057
 11
67.0895547807
 21
137.6379681801
  0
LINE
  5
319
100
AcDbEntity
  8
0
100
AcDbLine
 62
7
  6
CONTINUOUS
 10
69.9533491675
 20
135.9845931243
 11
79.8175298333
 21
130.2896345988
  0
LINE
  5
31A
100
AcDbEntity
  8
0
100
AcDbLine
 62
7
  6
CONTINUOUS
 10
82.6813242202
 20
128.636259543
 11
92.545504886
 21
122.9413010174
  0
LINE
  5
31B
100
AcDbEntity
  8
0
100
AcDbLine
 62
7
  6
CONTINUOUS
 10
95.4092992728
 20
121.2879259616
 11
105.2734799386
 21
115.592967436
  0
LINE
  5
31C
100
AcDbEntity
  8
0
100
AcDbLine
 62
7
  6
CONTINUOUS
 10
66.3293947511
 20
140.036382017
 11
74.8147114529
 21
135.1374929628
  0
LINE
  5
31D
100
AcDbEntity
  8
0
100
AcDbLine
 62
7
  6
CONTINUOUS
 10
91.7853448564
 20
125.3397148543
 11
100.2706615582
 21
120.4408258
  0
LINE
  5
31E
100
AcDbEntity
  8
0
100
AcDbLine
 62
7
  6
CONTINUOUS
 10
73.7169423619
 20
136.0549425944
 11
73.9974223361
 21
135.8930110692
  0
LINE
  5
31F
100
AcDbEntity
  8
0
100
AcDbLine
 62
7
  6
CONTINUOUS
 10
99.1728924672
 20
121.3582754317
 11
99.4533724413
 21
121.1963439065
  0
LINE
  5
320
100
AcDbEntity
  8
0
100
AcDbLine
 62
7
  6
CONTINUOUS
 10
110.8843608688
 20
68.1806929807
 11
110.8843608688
 21
66.5476881464
  0
LINE
  5
321
100
AcDbEntity
  8
0
100
AcDbLine
 62
7
  6
CONTINUOUS
 10
113.7127762177
 20
110.4754899692
 11
113.7127762177
 21
106.2296774001
  0
LINE
  5
322
100
AcDbEntity
  8
0
100
AcDbLine
 62
7
  6
CONTINUOUS
 10
113.7127762177
 20
68.1806647619
 11
113.7127762177
 21
52.2588676279
  0
LINE
  5
323
100
AcDbEntity
  8
0
100
AcDbLine
 62
7
  6
CONTINUOUS
 10
113.7127762177
 20
106.2296774001
 11
112.702856522
 21
99.0329338937
  0
LINE
  5
324
100
AcDbEntity
  8
0
100
AcDbLine
 62
7
  6
CONTINUOUS
 10
74.513560451
 20
38.912859092
 11
73.9478773813
 21
38.5862637689
  0
LINE
  5
325
100
AcDbEntity
  8
0
100
AcDbLine
 62
7
  6
CONTINUOUS
 10
68.4507062628
 20
141.2611144786
 11
71.4205671084
 21
139.5465033096
  0
LINE
  5
326
100
AcDbEntity
  8
0
100
AcDbLine
 62
7
  6
CONTINUOUS
 10
73.9661621189
 20
138.0768365934
 11
76.9360229645
 21
136.3622254244
  0
LINE
  5
327
100
AcDbEntity
  8
0
100
AcDbLine
 62
7
  6
CONTINUOUS
 10
93.9066563681
 20
126.5644473159
 11
96.8765172137
 21
124.8498361469
  0
LINE
  5
328
100
AcDbEntity
  8
0
100
AcDbLine
 62
7
  6
CONTINUOUS
 10
99.4221122242
 20
123.3801694306
 11
102.3919730698
 21
121.6655582617
  0
LINE
  5
329
100
AcDbEntity
  8
0
100
AcDbLine
 62
7
  6
CONTINUOUS
 10
112.5033458145
 20
117.6973026146
 11
101.0410971699
 21
124.3148852453
  0
LINE
  5
32A
100
AcDbEntity
  8
0
100
AcDbLine
 62
7
  6
CONTINUOUS
 10
98.4955021594
 20
125.7845519616
 11
75.5851470646
 21
139.0115524081
  0
LINE
  5
32B
100
AcDbEntity
  8
0
100
AcDbLine
 62
7
  6
CONTINUOUS
 10
73.0395520541
 20
140.4812191244
 11
61.5914456039
 21
147.09063694
  0
LINE
  5
32C
100
AcDbEntity
  8
0
100
AcDbLine
 62
7
  6
CONTINUOUS
 10
112.5033458145
 20
117.6973026146
 11
113.7127762177
 21
110.4754899692
  0
LINE
  5
32D
100
AcDbEntity
  8
0
100
AcDbLine
 62
7
  6
CONTINUOUS
 10
113.7127762177
 20
52.2588676279
 11
78.852557043
 21
32.132430842
  0
ARC
  5
32E
100
AcDbEntity
  8
0
100
AcDbCircle
 62
7
  6
CONTINUOUS
 10
12.1234113942
 20
74.3379066773
 40
3.6222002101
100
AcDbArc
 50
17.6833279753
 51
22.4280919686
  0
ARC
  5
32F
100
AcDbEntity
  8
0
100
AcDbCircle
 62
7
  6
CONTINUOUS
 10
21.2581463018
 20
67.8154118894
 40
1.2155055837
100
AcDbArc
 50
234.6431623401
 51
239.0059953641
  0
ARC
  5
330
100
AcDbEntity
  8
0
100
AcDbCircle
 62
7
  6
CONTINUOUS
 10
21.700784641
 20
68.9005626651
 40
1.2128774801
100
AcDbArc
 50
73.0423938188
 51
81.4446153741
  0
ARC
  5
331
100
AcDbEntity
  8
0
100
AcDbCircle
 62
7
  6
CONTINUOUS
 10
21.2487641033
 20
67.79993854
 40
1.1974101552
100
AcDbArc
 50
239.0095670235
 51
247.768891661
  0
SPLINE
  5
332
100
AcDbEntity
  8
0
100
AcDbSpline
 62
7
  6
CONTINUOUS
 70
0
 71
3
 72
14
 73
10
 74
0
 42
0.0000001
 43
0.0000001
 44
0.0000000001
 40
0.0
 40
0.0
 40
0.0
 40
0.0
 40
0.1080480577
 40
0.2181318654
 40
0.3321061644
 40
0.4515062392
 40
0.5774601263
 40
0.710718981
 40
1.0
 40
1.0
 40
1.0
 40
1.0
 10
23.5756174322
 20
89.4209346273
 30
0.0
 10
23.5346293892
 20
89.3972703136
 30
0.0
 10
23.4476024749
 20
89.3565233362
 30
0.0
 10
23.3067945966
 20
89.3175822112
 30
0.0
 10
23.1566854772
 20
89.3008352021
 30
0.0
 10
22.9988853247
 20
89.3063337521
 30
0.0
 10
22.8348880553
 20
89.3338333941
 30
0.0
 10
22.6038392874
 20
89.4012029643
 30
0.0
 10
22.4353631862
 20
89.4813871899
 30
0.0
 10
22.325623945
 20
89.5447437371
 30
0.0
  0
SPLINE
  5
333
100
AcDbEntity
  8
0
100
AcDbSpline
 62
7
  6
CONTINUOUS
 70
0
 71
3
 72
15
 73
11
 74
0
 42
0.0000001
 43
0.0000001
 44
0.0000000001
 40
0.0
 40
0.0
 40
0.0
 40
0.0
 40
0.1141583883
 40
0.2373249807
 40
0.3669750402
 40
0.4999983537
 40
0.6330218962
 40
0.7626726246
 40
0.8858402706
 40
1.0
 40
1.0
 40
1.0
 40
1.0
 10
17.6523357715
 20
92.2428068837
 30
0.0
 10
17.5313141388
 20
92.3126771752
 30
0.0
 10
17.2922819765
 20
92.4802315301
 30
0.0
 10
16.9633932405
 20
92.7879407894
 30
0.0
 10
16.660296941
 20
93.1516608044
 30
0.0
 10
16.3944178289
 20
93.5577702927
 30
0.0
 10
16.1756515894
 20
93.9910816606
 30
0.0
 10
16.0122033978
 20
94.435431241
 30
0.0
 10
15.9101574673
 20
94.8741142371
 30
0.0
 10
15.8845625495
 20
95.1649018185
 30
0.0
 10
15.8845614587
 20
95.3046464143
 30
0.0
  0
SPLINE
  5
334
100
AcDbEntity
  8
0
100
AcDbSpline
 62
7
  6
CONTINUOUS
 70
0
 71
3
 72
14
 73
10
 74
0
 42
0.0000001
 43
0.0000001
 44
0.0000000001
 40
0.0
 40
0.0
 40
0.0
 40
0.0
 40
0.2892824976
 40
0.4225417663
 40
0.5484957887
 40
0.6678957003
 40
0.781869561
 40
0.8919527149
 40
1.0
 40
1.0
 40
1.0
 40
1.0
 10
15.8845614587
 20
95.3046464143
 30
0.0
 10
15.8845604695
 20
95.4313674716
 30
0.0
 10
15.8993544194
 20
95.6173728639
 30
0.0
 10
15.9565339743
 20
95.8511630398
 30
0.0
 10
16.0147175071
 20
96.0069459872
 30
0.0
 10
16.0888570595
 20
96.1463605611
 30
0.0
 10
16.1784173397
 20
96.2679906108
 30
0.0
 10
16.282548643
 20
96.3704672076
 30
0.0
 10
16.3613528636
 20
96.42546297
 30
0.0
 10
16.4023422843
 20
96.4491280791
 30
0.0
  0
SPLINE
  5
335
100
AcDbEntity
  8
0
100
AcDbSpline
 62
7
  6
CONTINUOUS
 70
0
 71
3
 72
14
 73
10
 74
0
 42
0.0000001
 43
0.0000001
 44
0.0000000001
 40
0.0
 40
0.0
 40
0.0
 40
0.0
 40
0.1080480577
 40
0.2181318654
 40
0.3321061644
 40
0.4515062392
 40
0.5774601263
 40
0.710718981
 40
1.0
 40
1.0
 40
1.0
 40
1.0
 10
16.4023422843
 20
96.4491280791
 30
0.0
 10
16.4433303272
 20
96.4727923929
 30
0.0
 10
16.5303572415
 20
96.5135393703
 30
0.0
 10
16.6711651199
 20
96.5524804953
 30
0.0
 10
16.8212742392
 20
96.5692275044
 30
0.0
 10
16.9790743917
 20
96.5637289544
 30
0.0
 10
17.1430716611
 20
96.5362293124
 30
0.0
 10
17.374120429
 20
96.4688597422
 30
0.0
 10
17.5425965302
 20
96.3886755165
 30
0.0
 10
17.6523357715
 20
96.3253189694
 30
0.0
  0
SPLINE
  5
336
100
AcDbEntity
  8
0
100
AcDbSpline
 62
7
  6
CONTINUOUS
 70
0
 71
3
 72
15
 73
11
 74
0
 42
0.0000001
 43
0.0000001
 44
0.0000000001
 40
0.0
 40
0.0
 40
0.0
 40
0.0
 40
0.1141583883
 40
0.2373249807
 40
0.3669750402
 40
0.4999983537
 40
0.6330218962
 40
0.7626726246
 40
0.8858402706
 40
1.0
 40
1.0
 40
1.0
 40
1.0
 10
22.325623945
 20
93.6272558227
 30
0.0
 10
22.4466455776
 20
93.5573855312
 30
0.0
 10
22.68567774
 20
93.3898311763
 30
0.0
 10
23.0145664759
 20
93.0821219171
 30
0.0
 10
23.3176627754
 20
92.718401902
 30
0.0
 10
23.5835418875
 20
92.3122924138
 30
0.0
 10
23.802308127
 20
91.8789810458
 30
0.0
 10
23.9657563187
 20
91.4346314655
 30
0.0
 10
24.0678022489
 20
90.9959484694
 30
0.0
 10
24.0933971674
 20
90.7051608879
 30
0.0
 10
24.0933982578
 20
90.5654162921
 30
0.0
  0
SPLINE
  5
337
100
AcDbEntity
  8
0
100
AcDbSpline
 62
7
  6
CONTINUOUS
 70
0
 71
3
 72
14
 73
10
 74
0
 42
0.0000001
 43
0.0000001
 44
0.0000000001
 40
0.0
 40
0.0
 40
0.0
 40
0.0
 40
0.2892824976
 40
0.4225417663
 40
0.5484957887
 40
0.6678957003
 40
0.781869561
 40
0.8919527149
 40
1.0
 40
1.0
 40
1.0
 40
1.0
 10
24.0933982578
 20
90.5654162921
 30
0.0
 10
24.0933992465
 20
90.4386952349
 30
0.0
 10
24.0786052972
 20
90.2526898426
 30
0.0
 10
24.0214257421
 20
90.0188996666
 30
0.0
 10
23.9632422093
 20
89.8631167193
 30
0.0
 10
23.889102657
 20
89.7237021454
 30
0.0
 10
23.7995423768
 20
89.6020720957
 30
0.0
 10
23.6954110734
 20
89.4995954989
 30
0.0
 10
23.6166068528
 20
89.4445997365
 30
0.0
 10
23.5756174322
 20
89.4209346273
 30
0.0
  0
SPLINE
  5
338
100
AcDbEntity
  8
0
100
AcDbSpline
 62
7
  6
CONTINUOUS
 70
0
 71
3
 72
15
 73
11
 74
0
 42
0.0000001
 43
0.0000001
 44
0.0000000001
 40
0.0
 40
0.0
 40
0.0
 40
0.0
 40
0.1114672641
 40
0.2253122499
 40
0.3433764556
 40
0.466621899
 40
0.5950544538
 40
0.7278200236
 40
0.8634414789
 40
1.0
 40
1.0
 40
1.0
 40
1.0
 10
20.7537927961
 20
67.3568242105
 30
0.0
 10
20.6903832272
 20
67.38273159
 30
0.0
 10
20.5685094877
 20
67.4521880435
 30
0.0
 10
20.4159925116
 20
67.6009725297
 30
0.0
 10
20.2991843245
 20
67.7876209952
 30
0.0
 10
20.2228793627
 20
68.0033980936
 30
0.0
 10
20.1898565128
 20
68.2387984311
 30
0.0
 10
20.2011863641
 20
68.483721114
 30
0.0
 10
20.2561838671
 20
68.7276199799
 30
0.0
 10
20.3205204143
 20
68.8830500501
 30
0.0
 10
20.359130281
 20
68.9575571395
 30
0.0
  0
SPLINE
  5
339
100
AcDbEntity
  8
0
100
AcDbSpline
 62
7
  6
CONTINUOUS
 70
0
 71
3
 72
13
 73
9
 74
0
 42
0.0000001
 43
0.0000001
 44
0.0000000001
 40
0.0
 40
0.0
 40
0.0
 40
0.0
 40
0.1131686795
 40
0.2281819267
 40
0.3465648143
 40
0.4692933298
 40
0.7275851303
 40
1.0
 40
1.0
 40
1.0
 40
1.0
 10
20.5268553415
 20
66.8013951496
 30
0.0
 10
20.6094269975
 20
66.7676554988
 30
0.0
 10
20.7842332832
 20
66.7183163656
 30
0.0
 10
21.0590511125
 20
66.7037441856
 30
0.0
 10
21.3382296712
 20
66.7482911346
 30
0.0
 10
21.7093248893
 20
66.8859696902
 30
0.0
 10
22.1335879464
 20
67.1964593817
 30
0.0
 10
22.3816693515
 20
67.542195441
 30
0.0
 10
22.4804594565
 20
67.7328348759
 30
0.0
  0
SPLINE
  5
33A
100
AcDbEntity
  8
0
100
AcDbSpline
 62
7
  6
CONTINUOUS
 70
0
 71
3
 72
13
 73
9
 74
0
 42
0.0000001
 43
0.0000001
 44
0.0000000001
 40
0.0
 40
0.0
 40
0.0
 40
0.0
 40
0.2048687467
 40
0.3203824218
 40
0.4442103719
 40
0.5754975014
 40
0.7129766064
 40
1.0
 40
1.0
 40
1.0
 40
1.0
 10
19.8286593236
 20
76.4602474753
 30
0.0
 10
19.8715231403
 20
76.3720956172
 30
0.0
 10
19.9103431829
 20
76.2201003887
 30
0.0
 10
19.9212587663
 20
76.0077563372
 30
0.0
 10
19.9092742937
 20
75.8303561892
 30
0.0
 10
19.876915883
 20
75.6450253948
 30
0.0
 10
19.8065690105
 20
75.3882845903
 30
0.0
 10
19.7270681964
 20
75.2000110231
 30
0.0
 10
19.6638839529
 20
75.0780817217
 30
0.0
  0
SPLINE
  5
33B
100
AcDbEntity
  8
0
100
AcDbSpline
 62
7
  6
CONTINUOUS
 70
0
 71
3
 72
13
 73
9
 74
0
 42
0.0000001
 43
0.0000001
 44
0.0000000001
 40
0.0
 40
0.0
 40
0.0
 40
0.0
 40
0.1132029612
 40
0.2282048236
 40
0.3465873315
 40
0.4693129514
 40
0.727596886
 40
1.0
 40
1.0
 40
1.0
 40
1.0
 10
20.9010963815
 20
65.6884509546
 30
0.0
 10
20.9813988722
 20
65.6556389243
 30
0.0
 10
21.1513631206
 20
65.6076453982
 30
0.0
 10
21.4185678367
 20
65.5935210765
 30
0.0
 10
21.6899789052
 20
65.6368251206
 30
0.0
 10
22.0507517676
 20
65.7706972748
 30
0.0
 10
22.4632101826
 20
66.0725540337
 30
0.0
 10
22.7043896288
 20
66.4086759278
 30
0.0
 10
22.8004314529
 20
66.5940118891
 30
0.0
  0
SPLINE
  5
33C
100
AcDbEntity
  8
0
100
AcDbSpline
 62
7
  6
CONTINUOUS
 70
0
 71
3
 72
15
 73
11
 74
0
 42
0.0000001
 43
0.0000001
 44
0.0000000001
 40
0.0
 40
0.0
 40
0.0
 40
0.0
 40
0.1115040297
 40
0.2260810911
 40
0.345038286
 40
0.4688990605
 40
0.597432181
 40
0.7297554327
 40
0.8644913642
 40
1.0
 40
1.0
 40
1.0
 40
1.0
 10
17.7689720386
 20
66.1030495266
 30
0.0
 10
17.629273702
 20
66.1837025742
 30
0.0
 10
17.3649767255
 20
66.3824647583
 30
0.0
 10
17.0432218016
 20
66.7692714284
 30
0.0
 10
16.8035835243
 20
67.2316564713
 30
0.0
 10
16.6546300604
 20
67.7511977048
 30
0.0
 10
16.6010493343
 20
68.3080855414
 30
0.0
 10
16.644388456
 20
68.8814275915
 30
0.0
 10
16.7825805255
 20
69.4496400883
 30
0.0
 10
16.9348938294
 20
69.8118343066
 30
0.0
 10
17.0250891448
 20
69.9858880132
 30
0.0
  0
SPLINE
  5
33D
100
AcDbEntity
  8
0
100
AcDbSpline
 62
7
  6
CONTINUOUS
 70
0
 71
3
 72
15
 73
11
 74
0
 42
0.0000001
 43
0.0000001
 44
0.0000000001
 40
0.0
 40
0.0
 40
0.0
 40
0.0
 40
0.1355047692
 40
0.270246438
 40
0.4025676372
 40
0.5311011404
 40
0.6549620603
 40
0.7739176171
 40
0.8884991394
 40
1.0
 40
1.0
 40
1.0
 40
1.0
 10
23.4891545937
 20
67.9230700006
 30
0.0
 10
23.5417670652
 20
68.0245985073
 30
0.0
 10
23.6306142643
 20
68.2358808613
 30
0.0
 10
23.7112350273
 20
68.5673364045
 30
0.0
 10
23.7365111388
 20
68.9017900416
 30
0.0
 10
23.7052602474
 20
69.2266407349
 30
0.0
 10
23.6183665044
 20
69.5297042809
 30
0.0
 10
23.4785814193
 20
69.7994343494
 30
0.0
 10
23.2908830772
 20
70.0250651582
 30
0.0
 10
23.1367113461
 20
70.1410128091
 30
0.0
 10
23.0552229056
 20
70.1880591178
 30
0.0
  0
SPLINE
  5
33E
100
AcDbEntity
  8
0
100
AcDbSpline
 62
7
  6
CONTINUOUS
 70
0
 71
3
 72
15
 73
11
 74
0
 42
0.0000001
 43
0.0000001
 44
0.0000000001
 40
0.0
 40
0.0
 40
0.0
 40
0.0
 40
0.1129920038
 40
0.2278009873
 40
0.3459796918
 40
0.4684967562
 40
0.5956892928
 40
0.7272764199
 40
0.8624446774
 40
1.0
 40
1.0
 40
1.0
 40
1.0
 10
22.0823226914
 20
63.9151338128
 30
0.0
 10
22.2199834404
 20
63.8589202498
 30
0.0
 10
22.5113441364
 20
63.7766589377
 30
0.0
 10
22.9694273822
 20
63.7524056363
 30
0.0
 10
23.4346921655
 20
63.8266112587
 30
0.0
 10
23.8912939333
 20
63.9960737302
 30
0.0
 10
24.3244608837
 20
64.2544291043
 30
0.0
 10
24.7203190922
 20
64.5928181304
 30
0.0
 10
25.0661965524
 20
64.9998155038
 30
0.0
 10
25.2552730099
 20
65.3067473316
 30
0.0
 10
25.3385737275
 20
65.4674629665
 30
0.0
  0
SPLINE
  5
33F
100
AcDbEntity
  8
0
100
AcDbSpline
 62
7
  6
CONTINUOUS
 70
0
 71
3
 72
17
 73
13
 74
0
 42
0.0000001
 43
0.0000001
 44
0.0000000001
 40
0.0
 40
0.0
 40
0.0
 40
0.0
 40
0.1365044578
 40
0.2720481228
 40
0.4047585734
 40
0.533132235
 40
0.6563266464
 40
0.7743402879
 40
0.8317742099
 40
0.8883520598
 40
0.9443306368
 40
1.0
 40
1.0
 40
1.0
 40
1.0
 10
22.4804594565
 20
67.7328348759
 30
0.0
 10
22.5383773171
 20
67.8446014159
 30
0.0
 10
22.6348891048
 20
68.0777350759
 30
0.0
 10
22.7173612756
 20
68.443583382
 30
0.0
 10
22.734387664
 20
68.8109492154
 30
0.0
 10
22.6848244584
 20
69.1640703397
 30
0.0
 10
22.5704375367
 20
69.4876929407
 30
0.0
 10
22.422860394
 20
69.7233731926
 30
0.0
 10
22.2783126567
 20
69.8817570055
 30
0.0
 10
22.1588759375
 20
69.9839469837
 30
0.0
 10
22.0288980552
 20
70.0693665913
 30
0.0
 10
21.9359915818
 20
70.1145229101
 30
0.0
 10
21.8884685609
 20
70.1339413184
 30
0.0
  0
SPLINE
  5
340
100
AcDbEntity
  8
0
100
AcDbSpline
 62
7
  6
CONTINUOUS
 70
0
 71
3
 72
14
 73
10
 74
0
 42
0.0000001
 43
0.0000001
 44
0.0000000001
 40
0.0
 40
0.0
 40
0.0
 40
0.0
 40
0.2721654736
 40
0.4038431897
 40
0.531141488
 40
0.6537538621
 40
0.7720277847
 40
0.8869357738
 40
1.0
 40
1.0
 40
1.0
 40
1.0
 10
20.359130281
 20
68.9575571395
 30
0.0
 10
20.4249916296
 20
69.0846525635
 30
0.0
 10
20.5515970353
 20
69.2606914983
 30
0.0
 10
20.764719488
 20
69.4427443745
 30
0.0
 10
20.9379963646
 20
69.5461548952
 30
0.0
 10
21.1206216735
 20
69.6139282424
 30
0.0
 10
21.3067260847
 20
69.6436179124
 30
0.0
 10
21.4899454847
 20
69.6339026263
 30
0.0
 10
21.6064819377
 20
69.6010038109
 30
0.0
 10
21.6615311063
 20
69.5785122576
 30
0.0
  0
SPLINE
  5
341
100
AcDbEntity
  8
0
100
AcDbSpline
 62
7
  6
CONTINUOUS
 70
0
 71
3
 72
13
 73
9
 74
0
 42
0.0000001
 43
0.0000001
 44
0.0000000001
 40
0.0
 40
0.0
 40
0.0
 40
0.0
 40
0.1119694806
 40
0.2273544323
 40
0.3471117043
 40
0.4715275735
 40
0.7315393297
 40
1.0
 40
1.0
 40
1.0
 40
1.0
 10
20.5547733907
 20
66.8240893526
 30
0.0
 10
20.4790573639
 20
66.8778008056
 30
0.0
 10
20.3373719191
 20
67.0048818441
 30
0.0
 10
20.1681273402
 20
67.2400692821
 30
0.0
 10
20.0448789492
 20
67.5136010682
 30
0.0
 10
19.9458360453
 20
67.9217898191
 30
0.0
 10
19.9576011137
 20
68.4730838079
 30
0.0
 10
20.1013339475
 20
68.8950248423
 30
0.0
 10
20.2037409289
 20
69.0926439163
 30
0.0
  0
SPLINE
  5
342
100
AcDbEntity
  8
0
100
AcDbSpline
 62
7
  6
CONTINUOUS
 70
0
 71
3
 72
13
 73
9
 74
0
 42
0.0000001
 43
0.0000001
 44
0.0000000001
 40
0.0
 40
0.0
 40
0.0
 40
0.0
 40
0.1131686795
 40
0.2281819267
 40
0.3465648143
 40
0.4692933298
 40
0.7275851303
 40
1.0
 40
1.0
 40
1.0
 40
1.0
 10
21.8884685609
 20
70.1339413184
 30
0.0
 10
21.8058969049
 20
70.1676809692
 30
0.0
 10
21.6310906192
 20
70.2170201024
 30
0.0
 10
21.3562727899
 20
70.2315922825
 30
0.0
 10
21.0770942312
 20
70.1870453334
 30
0.0
 10
20.7059990131
 20
70.0493667778
 30
0.0
 10
20.281735956
 20
69.7388770864
 30
0.0
 10
20.0336545509
 20
69.393141027
 30
0.0
 10
19.9348644459
 20
69.2025015922
 30
0.0
  0
SPLINE
  5
343
100
AcDbEntity
  8
0
100
AcDbSpline
 62
7
  6
CONTINUOUS
 70
0
 71
3
 72
13
 73
9
 74
0
 42
0.0000001
 43
0.0000001
 44
0.0000000001
 40
0.0
 40
0.0
 40
0.0
 40
0.0
 40
0.1132029612
 40
0.2282048236
 40
0.3465873315
 40
0.4693129514
 40
0.727596886
 40
1.0
 40
1.0
 40
1.0
 40
1.0
 10
20.4387215891
 20
71.6863162168
 30
0.0
 10
20.3584190984
 20
71.7191282471
 30
0.0
 10
20.1884548501
 20
71.7671217732
 30
0.0
 10
19.9212501339
 20
71.7812460949
 30
0.0
 10
19.6498390655
 20
71.7379420507
 30
0.0
 10
19.2890662031
 20
71.6040698966
 30
0.0
 10
18.876607788
 20
71.3022131377
 30
0.0
 10
18.6354283418
 20
70.9660912436
 30
0.0
 10
18.5393865177
 20
70.7807552823
 30
0.0
  0
SPLINE
  5
344
100
AcDbEntity
  8
0
100
AcDbSpline
 62
7
  6
CONTINUOUS
 70
0
 71
3
 72
15
 73
11
 74
0
 42
0.0000001
 43
0.0000001
 44
0.0000000001
 40
0.0
 40
0.0
 40
0.0
 40
0.0
 40
0.1114672641
 40
0.2253122499
 40
0.3433764556
 40
0.466621899
 40
0.5950544538
 40
0.7278200236
 40
0.8634414789
 40
1.0
 40
1.0
 40
1.0
 40
1.0
 10
21.6615311063
 20
69.5785122576
 30
0.0
 10
21.7249406752
 20
69.5526048781
 30
0.0
 10
21.8468144147
 20
69.4831484246
 30
0.0
 10
21.9993313908
 20
69.3343639384
 30
0.0
 10
22.1161395779
 20
69.1477154729
 30
0.0
 10
22.1924445397
 20
68.9319383745
 30
0.0
 10
22.2254673896
 20
68.696538037
 30
0.0
 10
22.2141375383
 20
68.451615354
 30
0.0
 10
22.1591400353
 20
68.2077164882
 30
0.0
 10
22.0948034881
 20
68.052286418
 30
0.0
 10
22.0561936214
 20
67.9777793286
 30
0.0
  0
SPLINE
  5
345
100
AcDbEntity
  8
0
100
AcDbSpline
 62
7
  6
CONTINUOUS
 70
0
 71
3
 72
15
 73
11
 74
0
 42
0.0000001
 43
0.0000001
 44
0.0000000001
 40
0.0
 40
0.0
 40
0.0
 40
0.0
 40
0.1375580891
 40
0.2727274044
 40
0.4043141743
 40
0.5315053486
 40
0.6540207316
 40
0.7721979319
 40
0.8870070342
 40
1.0
 40
1.0
 40
1.0
 40
1.0
 10
23.6719205612
 20
66.1484249209
 30
0.0
 10
23.5886346208
 20
65.9877045266
 30
0.0
 10
23.3995880186
 20
65.6807628457
 30
0.0
 10
23.0537520699
 20
65.2737480494
 30
0.0
 10
22.6579323814
 20
64.9353423035
 30
0.0
 10
22.2247991571
 20
64.6769723538
 30
0.0
 10
21.7682262575
 20
64.5074958234
 30
0.0
 10
21.3029818055
 20
64.4332842461
 30
0.0
 10
20.8449171789
 20
64.457524675
 30
0.0
 10
20.5535563585
 20
64.5397776474
 30
0.0
 10
20.4159133016
 20
64.5960243698
 30
0.0
  0
SPLINE
  5
346
100
AcDbEntity
  8
0
100
AcDbSpline
 62
7
  6
CONTINUOUS
 70
0
 71
3
 72
14
 73
10
 74
0
 42
0.0000001
 43
0.0000001
 44
0.0000000001
 40
0.0
 40
0.0
 40
0.0
 40
0.0
 40
0.1130621272
 40
0.2279675081
 40
0.3462393919
 40
0.4688516715
 40
0.5961514618
 40
0.7278308859
 40
1.0
 40
1.0
 40
1.0
 40
1.0
 10
21.0226692927
 20
67.2469665773
 30
0.0
 10
21.0777172448
 20
67.2244750087
 30
0.0
 10
21.1942515595
 20
67.191577635
 30
0.0
 10
21.37746704
 20
67.1818616562
 30
0.0
 10
21.5635693696
 20
67.2115480241
 30
0.0
 10
21.7461950427
 20
67.2793195287
 30
0.0
 10
21.9194738998
 20
67.3827298343
 30
0.0
 10
22.1326003126
 20
67.5647835153
 30
0.0
 10
22.2592078929
 20
67.7408245638
 30
0.0
 10
22.3250701043
 20
67.8679216528
 30
0.0
  0
SPLINE
  5
347
100
AcDbEntity
  8
0
100
AcDbSpline
 62
7
  6
CONTINUOUS
 70
0
 71
3
 72
15
 73
11
 74
0
 42
0.0000001
 43
0.0000001
 44
0.0000000001
 40
0.0
 40
0.0
 40
0.0
 40
0.0
 40
0.1115008721
 40
0.226082407
 40
0.3450379699
 40
0.4688988934
 40
0.5974323952
 40
0.7297535897
 40
0.8644952445
 40
1.0
 40
1.0
 40
1.0
 40
1.0
 10
18.8223480309
 20
66.9669927019
 30
0.0
 10
18.7408595821
 20
67.0140390154
 30
0.0
 10
18.5866878376
 20
67.1299866831
 30
0.0
 10
18.398989484
 20
67.3556175162
 30
0.0
 10
18.2592044055
 20
67.6253476099
 30
0.0
 10
18.1723106738
 20
67.928411166
 30
0.0
 10
18.1410597958
 20
68.2532618586
 30
0.0
 10
18.1663359213
 20
68.5877154772
 30
0.0
 10
18.2469566827
 20
68.9191709922
 30
0.0
 10
18.3358038766
 20
69.1304533227
 30
0.0
 10
18.3884163428
 20
69.2319818191
 30
0.0
  0
SPLINE
  5
348
100
AcDbEntity
  8
0
100
AcDbSpline
 62
7
  6
CONTINUOUS
 70
0
 71
3
 72
13
 73
9
 74
0
 42
0.0000001
 43
0.0000001
 44
0.0000000001
 40
0.0
 40
0.0
 40
0.0
 40
0.0
 40
0.2698973881
 40
0.5280708344
 40
0.6515742719
 40
0.7710093359
 40
0.8868510971
 40
1.0
 40
1.0
 40
1.0
 40
1.0
 10
19.0771394836
 20
70.5610399306
 30
0.0
 10
19.1631302977
 20
70.7269800338
 30
0.0
 10
19.3748234215
 20
71.0312996128
 30
0.0
 10
19.7302842559
 20
71.3206208732
 30
0.0
 10
20.0448363392
 20
71.4704504459
 30
0.0
 10
20.2851605777
 20
71.5384355024
 30
0.0
 10
20.5266581967
 20
71.561472532
 30
0.0
 10
20.685683801
 20
71.5461216545
 30
0.0
 10
20.7625350846
 20
71.5308561602
 30
0.0
  0
SPLINE
  5
349
100
AcDbEntity
  8
0
100
AcDbSpline
 62
7
  6
CONTINUOUS
 70
0
 71
3
 72
15
 73
11
 74
0
 42
0.0000001
 43
0.0000001
 44
0.0000000001
 40
0.0
 40
0.0
 40
0.0
 40
0.0
 40
0.1355047692
 40
0.270246438
 40
0.4025676372
 40
0.5311011404
 40
0.6549620603
 40
0.7739176171
 40
0.8884991394
 40
1.0
 40
1.0
 40
1.0
 40
1.0
 10
17.8506633769
 20
69.4516971707
 30
0.0
 10
17.7980509054
 20
69.3501686641
 30
0.0
 10
17.7092037063
 20
69.1388863101
 30
0.0
 10
17.6285829434
 20
68.8074307669
 30
0.0
 10
17.6033068319
 20
68.4729771298
 30
0.0
 10
17.6345577233
 20
68.1481264365
 30
0.0
 10
17.7214514662
 20
67.8450628905
 30
0.0
 10
17.8612365514
 20
67.575332822
 30
0.0
 10
18.0489348934
 20
67.3497020132
 30
0.0
 10
18.2031066245
 20
67.2337543623
 30
0.0
 10
18.284595065
 20
67.1867080536
 30
0.0
  0
SPLINE
  5
34A
100
AcDbEntity
  8
0
100
AcDbSpline
 62
7
  6
CONTINUOUS
 70
0
 71
3
 72
17
 73
13
 74
0
 42
0.0000001
 43
0.0000001
 44
0.0000000001
 40
0.0
 40
0.0
 40
0.0
 40
0.0
 40
0.1365044578
 40
0.2720481228
 40
0.4047585734
 40
0.533132235
 40
0.6563266464
 40
0.7743402879
 40
0.8317742099
 40
0.8883520598
 40
0.9443306368
 40
1.0
 40
1.0
 40
1.0
 40
1.0
 10
19.9348644459
 20
69.2025015922
 30
0.0
 10
19.8769465853
 20
69.0907350522
 30
0.0
 10
19.7804347976
 20
68.8576013922
 30
0.0
 10
19.6979626268
 20
68.491753086
 30
0.0
 10
19.6809362385
 20
68.1243872527
 30
0.0
 10
19.730499444
 20
67.7712661284
 30
0.0
 10
19.8448863657
 20
67.4476435274
 30
0.0
 10
19.9924635084
 20
67.2119632755
 30
0.0
 10
20.1370112457
 20
67.0535794626
 30
0.0
 10
20.2564479649
 20
66.9513894844
 30
0.0
 10
20.3864258472
 20
66.8659698768
 30
0.0
 10
20.4793323206
 20
66.820813558
 30
0.0
 10
20.5268553415
 20
66.8013951496
 30
0.0
  0
SPLINE
  5
34B
100
AcDbEntity
  8
0
100
AcDbSpline
 62
7
  6
CONTINUOUS
 70
0
 71
3
 72
13
 73
9
 74
0
 42
0.0000001
 43
0.0000001
 44
0.0000000001
 40
0.0
 40
0.0
 40
0.0
 40
0.0
 40
0.2692031963
 40
0.5272523968
 40
0.650911591
 40
0.7706055511
 40
0.8867075137
 40
1.0
 40
1.0
 40
1.0
 40
1.0
 10
20.2037409289
 20
69.0926439163
 30
0.0
 10
20.2896308103
 20
69.2583892454
 30
0.0
 10
20.5000134219
 20
69.5631908228
 30
0.0
 10
20.8515712011
 20
69.8567496767
 30
0.0
 10
21.1633534993
 20
70.0135585223
 30
0.0
 10
21.4023589726
 20
70.0884802836
 30
0.0
 10
21.6435769357
 20
70.1201574396
 30
0.0
 10
21.8035330711
 20
70.1116460688
 30
0.0
 10
21.881218806
 20
70.099943878
 30
0.0
  0
SPLINE
  5
34C
100
AcDbEntity
  8
0
100
AcDbSpline
 62
7
  6
CONTINUOUS
 70
0
 71
3
 72
15
 73
11
 74
0
 42
0.0000001
 43
0.0000001
 44
0.0000000001
 40
0.0
 40
0.0
 40
0.0
 40
0.0
 40
0.1365575564
 40
0.2721757413
 40
0.4049396169
 40
0.5333712753
 40
0.656618184
 40
0.7746848654
 40
0.8885318525
 40
1.0
 40
1.0
 40
1.0
 40
1.0
 10
22.3250701043
 20
67.8679216528
 30
0.0
 10
22.3636797112
 20
67.9424282406
 30
0.0
 10
22.428015782
 20
68.097855757
 30
0.0
 10
22.4830127425
 20
68.3417509732
 30
0.0
 10
22.4943452848
 20
68.5866699436
 30
0.0
 10
22.4613243801
 20
68.8220699349
 30
0.0
 10
22.3850210376
 20
69.0378497233
 30
0.0
 10
22.2682118729
 20
69.2245020242
 30
0.0
 10
22.1156931662
 20
69.3732898689
 30
0.0
 10
21.9938174615
 20
69.4427464399
 30
0.0
 10
21.9304075755
 20
69.4686545391
 30
0.0
  0
SPLINE
  5
34D
100
AcDbEntity
  8
0
100
AcDbSpline
 62
7
  6
CONTINUOUS
 70
0
 71
3
 72
14
 73
10
 74
0
 42
0.0000001
 43
0.0000001
 44
0.0000000001
 40
0.0
 40
0.0
 40
0.0
 40
0.0
 40
0.2721654736
 40
0.4038431897
 40
0.531141488
 40
0.6537538621
 40
0.7720277847
 40
0.8869357738
 40
1.0
 40
1.0
 40
1.0
 40
1.0
 10
22.0561936214
 20
67.9777793286
 30
0.0
 10
21.9903322728
 20
67.8506839046
 30
0.0
 10
21.8637268672
 20
67.6746449698
 30
0.0
 10
21.6506044144
 20
67.4925920936
 30
0.0
 10
21.4773275378
 20
67.3891815729
 30
0.0
 10
21.2947022289
 20
67.3214082257
 30
0.0
 10
21.1085978177
 20
67.2917185557
 30
0.0
 10
20.9253784177
 20
67.3014338418
 30
0.0
 10
20.8088419647
 20
67.3343326572
 30
0.0
 10
20.7537927961
 20
67.3568242105
 30
0.0
  0
SPLINE
  5
34E
100
AcDbEntity
  8
0
100
AcDbSpline
 62
7
  6
CONTINUOUS
 70
0
 71
3
 72
11
 73
7
 74
0
 42
0.0000001
 43
0.0000001
 44
0.0000000001
 40
0.0
 40
0.0
 40
0.0
 40
0.0
 40
0.2897042895
 40
0.5490907647
 40
0.7822174449
 40
1.0
 40
1.0
 40
1.0
 40
1.0
 10
15.7784708324
 20
70.8340140635
 30
0.0
 10
15.7784708324
 20
70.7326773172
 30
0.0
 10
15.7938348888
 20
70.5399565063
 30
0.0
 10
15.8718843106
 20
70.2751684831
 30
0.0
 10
16.0032936908
 20
70.0603086056
 30
0.0
 10
16.1267271494
 20
69.9565392263
 30
0.0
 10
16.1927004636
 20
69.9184504106
 30
0.0
  0
SPLINE
  5
34F
100
AcDbEntity
  8
0
100
AcDbSpline
 62
7
  6
CONTINUOUS
 70
0
 71
3
 72
9
 73
5
 74
0
 42
0.0000001
 43
0.0000001
 44
0.0000000001
 40
0.0
 40
0.0
 40
0.0
 40
0.0
 40
0.46150601
 40
1.0
 40
1.0
 40
1.0
 40
1.0
 10
26.3778275445
 20
91.1301687887
 30
0.0
 10
26.4660544388
 20
91.247766876
 30
0.0
 10
26.5992260872
 20
91.546616158
 30
0.0
 10
26.6326080574
 20
91.867211589
 30
0.0
 10
26.6326080574
 20
92.0387510298
 30
0.0
  0
SPLINE
  5
350
100
AcDbEntity
  8
0
100
AcDbSpline
 62
7
  6
CONTINUOUS
 70
0
 71
3
 72
11
 73
7
 74
0
 42
0.0000001
 43
0.0000001
 44
0.0000000001
 40
0.0
 40
0.0
 40
0.0
 40
0.0
 40
0.2372392641
 40
0.4999983132
 40
0.7627582764
 40
1.0
 40
1.0
 40
1.0
 40
1.0
 10
17.1926785068
 20
106.7601063078
 30
0.0
 10
16.991900563
 20
106.6441877998
 30
0.0
 10
16.6119559907
 20
106.3244116939
 30
0.0
 10
16.1685095447
 20
105.7184213246
 30
0.0
 10
15.8654322588
 20
105.0313864912
 30
0.0
 10
15.7784708324
 20
104.5424536231
 30
0.0
 10
15.7784708324
 20
104.3106131658
 30
0.0
  0
SPLINE
  5
351
100
AcDbEntity
  8
0
100
AcDbSpline
 62
7
  6
CONTINUOUS
 70
0
 71
3
 72
9
 73
5
 74
0
 42
0.0000001
 43
0.0000001
 44
0.0000000001
 40
0.0
 40
0.0
 40
0.0
 40
0.0
 40
0.4871979472
 40
1.0
 40
1.0
 40
1.0
 40
1.0
 10
26.2148209273
 20
90.7210925687
 30
0.0
 10
26.1388707604
 20
90.6772430147
 30
0.0
 10
25.9686867638
 20
90.6102877706
 30
0.0
 10
25.787257516
 20
90.593010057
 30
0.0
 10
25.6949671762
 20
90.5948407944
 30
0.0
  0
SPLINE
  5
352
100
AcDbEntity
  8
0
100
AcDbSpline
 62
7
  6
CONTINUOUS
 70
0
 71
3
 72
11
 73
7
 74
0
 42
0.0000001
 43
0.0000001
 44
0.0000000001
 40
0.0
 40
0.0
 40
0.0
 40
0.0
 40
0.2374915052
 40
0.5002287485
 40
0.7627407289
 40
1.0
 40
1.0
 40
1.0
 40
1.0
 10
24.9002086609
 20
70.2224223492
 30
0.0
 10
25.1858236778
 20
70.0575261728
 30
0.0
 10
25.8156035977
 20
69.7593525828
 30
0.0
 10
26.8086517316
 20
69.3902816145
 30
0.0
 10
27.8059094898
 20
69.0359516717
 30
0.0
 10
28.4422922847
 20
68.7518813922
 30
0.0
 10
28.7276212874
 20
68.5871348194
 30
0.0
  0
SPLINE
  5
353
100
AcDbEntity
  8
0
100
AcDbSpline
 62
7
  6
CONTINUOUS
 70
0
 71
3
 72
11
 73
7
 74
0
 42
0.0000001
 43
0.0000001
 44
0.0000000001
 40
0.0
 40
0.0
 40
0.0
 40
0.0
 40
0.2177793583
 40
0.450922273
 40
0.7102594722
 40
1.0
 40
1.0
 40
1.0
 40
1.0
 10
73.6978681095
 20
91.9286517299
 30
0.0
 10
73.8149804308
 20
91.9962391454
 30
0.0
 10
74.0340634482
 20
92.1804662885
 30
0.0
 10
74.2673115096
 20
92.5618079373
 30
0.0
 10
74.4058924422
 20
93.0318016213
 30
0.0
 10
74.4331259712
 20
93.3738782679
 30
0.0
 10
74.4331259712
 20
93.5537738398
 30
0.0
  0
SPLINE
  5
354
100
AcDbEntity
  8
0
100
AcDbSpline
 62
7
  6
CONTINUOUS
 70
0
 71
3
 72
17
 73
13
 74
0
 42
0.0000001
 43
0.0000001
 44
0.0000000001
 40
0.0
 40
0.0
 40
0.0
 40
0.0
 40
0.0428582532
 40
0.0874871768
 40
0.1353189084
 40
0.1872843038
 40
0.3045447318
 40
0.4382119605
 40
0.582555363
 40
0.7297158282
 40
0.8713052736
 40
1.0
 40
1.0
 40
1.0
 40
1.0
 10
73.9478657198
 20
91.4956405928
 30
0.0
 10
73.8480123351
 20
91.4380130852
 30
0.0
 10
73.6279398766
 20
91.3464838618
 30
0.0
 10
73.2646223776
 20
91.2933265748
 30
0.0
 10
72.8744562379
 20
91.3219286607
 30
0.0
 10
72.3075775002
 20
91.4728167925
 30
0.0
 10
71.5828582975
 20
91.868990763
 30
0.0
 10
70.7821991503
 20
92.5781017104
 30
0.0
 10
70.0744450642
 20
93.4840080979
 30
0.0
 10
69.5174500971
 20
94.5135598899
 30
0.0
 10
69.1559336349
 20
95.582312039
 30
0.0
 10
69.0590920601
 20
96.3102128917
 30
0.0
 10
69.0590920601
 20
96.6564035741
 30
0.0
  0
SPLINE
  5
355
100
AcDbEntity
  8
0
100
AcDbSpline
 62
7
  6
CONTINUOUS
 70
0
 71
3
 72
11
 73
7
 74
0
 42
0.0000001
 43
0.0000001
 44
0.0000000001
 40
0.0
 40
0.0
 40
0.0
 40
0.0
 40
0.2300990502
 40
0.4825918827
 40
0.7442072385
 40
1.0
 40
1.0
 40
1.0
 40
1.0
 10
26.5618941409
 20
80.9490499543
 30
0.0
 10
26.5554492609
 20
80.4318263237
 30
0.0
 10
26.3992607221
 20
79.347580708
 30
0.0
 10
25.8457846257
 20
77.7603507807
 30
0.0
 10
25.0045863111
 20
76.2389045856
 30
0.0
 10
24.2749943507
 20
75.3237482729
 30
0.0
 10
23.8748995595
 20
74.9107397569
 30
0.0
  0
SPLINE
  5
356
100
AcDbEntity
  8
0
100
AcDbSpline
 62
7
  6
CONTINUOUS
 70
0
 71
3
 72
9
 73
5
 74
0
 42
0.0000001
 43
0.0000001
 44
0.0000000001
 40
0.0
 40
0.0
 40
0.0
 40
0.0
 40
0.2676451769
 40
1.0
 40
1.0
 40
1.0
 40
1.0
 10
15.7784708324
 20
74.1043883217
 30
0.0
 10
15.7769460095
 20
74.2249998608
 30
0.0
 10
15.7565591304
 20
74.6751763853
 30
0.0
 10
15.6748390905
 20
75.1237502669
 30
0.0
 10
15.5744623147
 20
75.4381711483
 30
0.0
  0
SPLINE
  5
357
100
AcDbEntity
  8
0
100
AcDbSpline
 62
7
  6
CONTINUOUS
 70
0
 71
3
 72
11
 73
7
 74
0
 42
0.0000001
 43
0.0000001
 44
0.0000000001
 40
0.0
 40
0.0
 40
0.0
 40
0.0
 40
0.2177793583
 40
0.450922273
 40
0.7102594722
 40
1.0
 40
1.0
 40
1.0
 40
1.0
 10
60.9698930568
 20
99.2769853113
 30
0.0
 10
61.0870053781
 20
99.3445727268
 30
0.0
 10
61.3060883955
 20
99.5287998699
 30
0.0
 10
61.539336457
 20
99.9101415186
 30
0.0
 10
61.6779173895
 20
100.3801352027
 30
0.0
 10
61.7051509186
 20
100.7222118493
 30
0.0
 10
61.7051509186
 20
100.9021074211
 30
0.0
  0
SPLINE
  5
358
100
AcDbEntity
  8
0
100
AcDbSpline
 62
7
  6
CONTINUOUS
 70
0
 71
3
 72
11
 73
7
 74
0
 42
0.0000001
 43
0.0000001
 44
0.0000000001
 40
0.0
 40
0.0
 40
0.0
 40
0.0
 40
0.4236663751
 40
0.7269761171
 40
0.9139755745
 40
1.0
 40
1.0
 40
1.0
 40
1.0
 10
14.6736854211
 20
78.9442110558
 30
0.0
 10
14.6736854211
 20
78.9117135604
 30
0.0
 10
14.6731822615
 20
78.8559456097
 30
0.0
 10
14.6702122152
 20
78.7858820884
 30
0.0
 10
14.6676056863
 20
78.7417716748
 30
0.0
 10
14.6654886712
 20
78.7208945432
 30
0.0
 10
14.6654893968
 20
78.7142960059
 30
0.0
  0
SPLINE
  5
359
100
AcDbEntity
  8
0
100
AcDbSpline
 62
7
  6
CONTINUOUS
 70
0
 71
3
 72
17
 73
13
 74
0
 42
0.0000001
 43
0.0000001
 44
0.0000000001
 40
0.0
 40
0.0
 40
0.0
 40
0.0
 40
0.0550424263
 40
0.1112219413
 40
0.1695972764
 40
0.2303463976
 40
0.3577099591
 40
0.4906265852
 40
0.6256501943
 40
0.7586912697
 40
0.8848581952
 40
1.0
 40
1.0
 40
1.0
 40
1.0
 10
27.3377657588
 20
71.6327662708
 30
0.0
 10
27.3377657588
 20
71.6650901563
 30
0.0
 10
27.3484489521
 20
71.7308237958
 30
0.0
 10
27.3930994882
 20
71.8210883161
 30
0.0
 10
27.4589453245
 20
71.9010966781
 30
0.0
 10
27.5688385265
 20
71.9960463412
 30
0.0
 10
27.7333205408
 20
72.0911349706
 30
0.0
 10
27.9507545595
 20
72.1742356265
 30
0.0
 10
28.1805923737
 20
72.2285896556
 30
0.0
 10
28.4120180128
 20
72.2503047704
 30
0.0
 10
28.6324116992
 20
72.2329467941
 30
0.0
 10
28.769156497
 20
72.1861850125
 30
0.0
 10
28.8277181523
 20
72.1523818027
 30
0.0
  0
SPLINE
  5
35A
100
AcDbEntity
  8
0
100
AcDbSpline
 62
7
  6
CONTINUOUS
 70
0
 71
3
 72
17
 73
13
 74
0
 42
0.0000001
 43
0.0000001
 44
0.0000000001
 40
0.0
 40
0.0
 40
0.0
 40
0.0
 40
0.0428582532
 40
0.0874871768
 40
0.1353189084
 40
0.1872843038
 40
0.3045447318
 40
0.4382119605
 40
0.582555363
 40
0.7297158282
 40
0.8713052736
 40
1.0
 40
1.0
 40
1.0
 40
1.0
 10
61.2198906672
 20
98.8439741741
 30
0.0
 10
61.1200372825
 20
98.7863466665
 30
0.0
 10
60.899964824
 20
98.6948174431
 30
0.0
 10
60.536647325
 20
98.6416601561
 30
0.0
 10
60.1464811852
 20
98.6702622421
 30
0.0
 10
59.5796024475
 20
98.8211503738
 30
0.0
 10
58.8548832448
 20
99.2173243444
 30
0.0
 10
58.0542240976
 20
99.9264352918
 30
0.0
 10
57.3464700116
 20
100.8323416793
 30
0.0
 10
56.7894750445
 20
101.8618934713
 30
0.0
 10
56.4279585822
 20
102.9306456204
 30
0.0
 10
56.3311170075
 20
103.658546473
 30
0.0
 10
56.3311170075
 20
104.0047371555
 30
0.0
  0
SPLINE
  5
35B
100
AcDbEntity
  8
0
100
AcDbSpline
 62
7
  6
CONTINUOUS
 70
0
 71
3
 72
11
 73
7
 74
0
 42
0.0000001
 43
0.0000001
 44
0.0000000001
 40
0.0
 40
0.0
 40
0.0
 40
0.0
 40
0.2177793583
 40
0.450922273
 40
0.7102594722
 40
1.0
 40
1.0
 40
1.0
 40
1.0
 10
48.2419180042
 20
106.6253188927
 30
0.0
 10
48.3590303255
 20
106.6929063081
 30
0.0
 10
48.5781133429
 20
106.8771334512
 30
0.0
 10
48.8113614043
 20
107.2584751
 30
0.0
 10
48.9499423369
 20
107.728468784
 30
0.0
 10
48.9771758659
 20
108.0705454306
 30
0.0
 10
48.9771758659
 20
108.2504410025
 30
0.0
  0
SPLINE
  5
35C
100
AcDbEntity
  8
0
100
AcDbSpline
 62
7
  6
CONTINUOUS
 70
0
 71
3
 72
17
 73
13
 74
0
 42
0.0000001
 43
0.0000001
 44
0.0000000001
 40
0.0
 40
0.0
 40
0.0
 40
0.0
 40
0.0428582532
 40
0.0874871768
 40
0.1353189084
 40
0.1872843038
 40
0.3045447318
 40
0.4382119605
 40
0.582555363
 40
0.7297158282
 40
0.8713052736
 40
1.0
 40
1.0
 40
1.0
 40
1.0
 10
48.4919156145
 20
106.1923077555
 30
0.0
 10
48.3920622298
 20
106.1346802479
 30
0.0
 10
48.1719897713
 20
106.0431510245
 30
0.0
 10
47.8086722723
 20
105.9899937375
 30
0.0
 10
47.4185061326
 20
106.0185958235
 30
0.0
 10
46.8516273949
 20
106.1694839552
 30
0.0
 10
46.1269081922
 20
106.5656579258
 30
0.0
 10
45.326249045
 20
107.2747688732
 30
0.0
 10
44.618494959
 20
108.1806752606
 30
0.0
 10
44.0614999918
 20
109.2102270526
 30
0.0
 10
43.6999835296
 20
110.2789792018
 30
0.0
 10
43.6031419548
 20
111.0068800544
 30
0.0
 10
43.6031419548
 20
111.3530707369
 30
0.0
  0
SPLINE
  5
35D
100
AcDbEntity
  8
0
100
AcDbSpline
 62
7
  6
CONTINUOUS
 70
0
 71
3
 72
11
 73
7
 74
0
 42
0.0000001
 43
0.0000001
 44
0.0000000001
 40
0.0
 40
0.0
 40
0.0
 40
0.0
 40
0.2177793583
 40
0.450922273
 40
0.7102594722
 40
1.0
 40
1.0
 40
1.0
 40
1.0
 10
35.5139429515
 20
113.973652474
 30
0.0
 10
35.6310552728
 20
114.0412398895
 30
0.0
 10
35.8501382902
 20
114.2254670326
 30
0.0
 10
36.0833863517
 20
114.6068086814
 30
0.0
 10
36.2219672842
 20
115.0768023654
 30
0.0
 10
36.2492008133
 20
115.418879012
 30
0.0
 10
36.2492008133
 20
115.5987745839
 30
0.0
  0
SPLINE
  5
35E
100
AcDbEntity
  8
0
100
AcDbSpline
 62
7
  6
CONTINUOUS
 70
0
 71
3
 72
17
 73
13
 74
0
 42
0.0000001
 43
0.0000001
 44
0.0000000001
 40
0.0
 40
0.0
 40
0.0
 40
0.0
 40
0.0428582532
 40
0.0874871768
 40
0.1353189084
 40
0.1872843038
 40
0.3045447318
 40
0.4382119605
 40
0.582555363
 40
0.7297158282
 40
0.8713052736
 40
1.0
 40
1.0
 40
1.0
 40
1.0
 10
35.7639405619
 20
113.5406413368
 30
0.0
 10
35.6640871772
 20
113.4830138293
 30
0.0
 10
35.4440147187
 20
113.3914846059
 30
0.0
 10
35.0806972197
 20
113.3383273189
 30
0.0
 10
34.6905310799
 20
113.3669294048
 30
0.0
 10
34.1236523423
 20
113.5178175366
 30
0.0
 10
33.3989331395
 20
113.9139915071
 30
0.0
 10
32.5982739923
 20
114.6231024545
 30
0.0
 10
31.8905199063
 20
115.529008842
 30
0.0
 10
31.3335249392
 20
116.558560634
 30
0.0
 10
30.9720084769
 20
117.6273127831
 30
0.0
 10
30.8751669022
 20
118.3552136358
 30
0.0
 10
30.8751669022
 20
118.7014043182
 30
0.0
  0
SPLINE
  5
35F
100
AcDbEntity
  8
0
100
AcDbSpline
 62
7
  6
CONTINUOUS
 70
0
 71
3
 72
11
 73
7
 74
0
 42
0.0000001
 43
0.0000001
 44
0.0000000001
 40
0.0
 40
0.0
 40
0.0
 40
0.0
 40
0.2177434119
 40
0.4508805377
 40
0.710457812
 40
1.0
 40
1.0
 40
1.0
 40
1.0
 10
85.3286254547
 20
112.4392309502
 30
0.0
 10
85.3286254642
 20
112.4087661716
 30
0.0
 10
85.339812822
 20
112.3452499581
 30
0.0
 10
85.387995229
 20
112.2567375553
 30
0.0
 10
85.4641502789
 20
112.1767883539
 30
0.0
 10
85.5278145241
 20
112.132890405
 30
0.0
 10
85.5628976226
 20
112.1126356268
 30
0.0
  0
SPLINE
  5
360
100
AcDbEntity
  8
0
100
AcDbSpline
 62
7
  6
CONTINUOUS
 70
0
 71
3
 72
11
 73
7
 74
0
 42
0.0000001
 43
0.0000001
 44
0.0000000001
 40
0.0
 40
0.0
 40
0.0
 40
0.0
 40
0.2177434119
 40
0.4508805377
 40
0.710457812
 40
1.0
 40
1.0
 40
1.0
 40
1.0
 10
72.6006504021
 20
119.7875645316
 30
0.0
 10
72.6006504115
 20
119.757099753
 30
0.0
 10
72.6118377693
 20
119.6935835394
 30
0.0
 10
72.6600201763
 20
119.6050711367
 30
0.0
 10
72.7361752262
 20
119.5251219353
 30
0.0
 10
72.7998394714
 20
119.4812239863
 30
0.0
 10
72.8349225699
 20
119.4609692082
 30
0.0
  0
SPLINE
  5
361
100
AcDbEntity
  8
0
100
AcDbSpline
 62
7
  6
CONTINUOUS
 70
0
 71
3
 72
11
 73
7
 74
0
 42
0.0000001
 43
0.0000001
 44
0.0000000001
 40
0.0
 40
0.0
 40
0.0
 40
0.0
 40
0.2177434119
 40
0.4508805377
 40
0.710457812
 40
1.0
 40
1.0
 40
1.0
 40
1.0
 10
59.8726753494
 20
127.135898113
 30
0.0
 10
59.8726753589
 20
127.1054333343
 30
0.0
 10
59.8838627167
 20
127.0419171208
 30
0.0
 10
59.9320451237
 20
126.953404718
 30
0.0
 10
60.0082001736
 20
126.8734555167
 30
0.0
 10
60.0718644188
 20
126.8295575677
 30
0.0
 10
60.1069475173
 20
126.8093027896
 30
0.0
  0
SPLINE
  5
362
100
AcDbEntity
  8
0
100
AcDbSpline
 62
7
  6
CONTINUOUS
 70
0
 71
3
 72
11
 73
7
 74
0
 42
0.0000001
 43
0.0000001
 44
0.0000000001
 40
0.0
 40
0.0
 40
0.0
 40
0.0
 40
0.2177434119
 40
0.4508805377
 40
0.710457812
 40
1.0
 40
1.0
 40
1.0
 40
1.0
 10
47.1447002968
 20
134.4842316943
 30
0.0
 10
47.1447003062
 20
134.4537669157
 30
0.0
 10
47.155887664
 20
134.3902507022
 30
0.0
 10
47.204070071
 20
134.3017382994
 30
0.0
 10
47.2802251209
 20
134.221789098
 30
0.0
 10
47.3438893661
 20
134.1778911491
 30
0.0
 10
47.3789724646
 20
134.1576363709
 30
0.0
  0
SPLINE
  5
363
100
AcDbEntity
  8
0
100
AcDbSpline
 62
7
  6
CONTINUOUS
 70
0
 71
3
 72
11
 73
7
 74
0
 42
0.0000001
 43
0.0000001
 44
0.0000000001
 40
0.0
 40
0.0
 40
0.0
 40
0.0
 40
0.2177793583
 40
0.450922273
 40
0.7102594722
 40
1.0
 40
1.0
 40
1.0
 40
1.0
 10
73.6978681095
 20
39.0192950999
 30
0.0
 10
73.8149804308
 20
39.0868825154
 30
0.0
 10
74.0340634482
 20
39.2711096585
 30
0.0
 10
74.2673115096
 20
39.6524513073
 30
0.0
 10
74.4058924422
 20
40.1224449913
 30
0.0
 10
74.4331259712
 20
40.4645216379
 30
0.0
 10
74.4331259712
 20
40.6444172098
 30
0.0
  0
SPLINE
  5
364
100
AcDbEntity
  8
0
100
AcDbSpline
 62
7
  6
CONTINUOUS
 70
0
 71
3
 72
16
 73
12
 74
0
 42
0.0000001
 43
0.0000001
 44
0.0000000001
 40
0.0
 40
0.0
 40
0.0
 40
0.0
 40
0.0441199685
 40
0.0892458478
 40
0.1856360405
 40
0.2943488056
 40
0.4168795014
 40
0.552110312
 40
0.6971445172
 40
0.847967623
 40
1.0
 40
1.0
 40
1.0
 40
1.0
 10
73.9478657198
 20
38.5862839628
 30
0.0
 10
73.8745929195
 20
38.5439966746
 30
0.0
 10
73.7178816961
 20
38.4723302893
 30
0.0
 10
73.3708128446
 20
38.3858087648
 30
0.0
 10
72.8822714073
 20
38.3960539429
 30
0.0
 10
72.27630879
 20
38.5823553251
 30
0.0
 10
71.6593297351
 20
38.9274426519
 30
0.0
 10
71.0565851317
 20
39.4152997321
 30
0.0
 10
70.493614165
 20
40.0240611038
 30
0.0
 10
69.9955257399
 20
40.7263295372
 30
0.0
 10
69.7197462285
 20
41.2394217174
 30
0.0
 10
69.5983080343
 20
41.5044449464
 30
0.0
  0
SPLINE
  5
365
100
AcDbEntity
  8
0
100
AcDbSpline
 62
7
  6
CONTINUOUS
 70
0
 71
3
 72
11
 73
7
 74
0
 42
0.0000001
 43
0.0000001
 44
0.0000000001
 40
0.0
 40
0.0
 40
0.0
 40
0.0
 40
0.2638193193
 40
0.5199795305
 40
0.7654698617
 40
1.0
 40
1.0
 40
1.0
 40
1.0
 10
27.6356118806
 20
71.2240586694
 30
0.0
 10
27.5954576351
 20
71.2472369072
 30
0.0
 10
27.519589009
 20
71.2990389075
 30
0.0
 10
27.4236355342
 20
71.3946625384
 30
0.0
 10
27.3555619736
 20
71.5066373125
 30
0.0
 10
27.3377657588
 20
71.5915498478
 30
0.0
 10
27.3377657588
 20
71.6327662708
 30
0.0
  0
SPLINE
  5
366
100
AcDbEntity
  8
0
100
AcDbSpline
 62
7
  6
CONTINUOUS
 70
0
 71
3
 72
15
 73
11
 74
0
 42
0.0000001
 43
0.0000001
 44
0.0000000001
 40
0.0
 40
0.0
 40
0.0
 40
0.0
 40
0.0869268405
 40
0.1863930247
 40
0.3037723423
 40
0.4375781324
 40
0.5820871794
 40
0.7293509334
 40
0.8712393517
 40
1.0
 40
1.0
 40
1.0
 40
1.0
 10
18.3151402508
 20
78.2216785679
 30
0.0
 10
18.2801685673
 20
78.2418472194
 30
0.0
 10
18.1923344823
 20
78.2644170606
 30
0.0
 10
18.0509506337
 20
78.2360843777
 30
0.0
 10
17.9065044069
 20
78.157205761
 30
0.0
 10
17.7679611852
 20
78.0345850421
 30
0.0
 10
17.6457385156
 20
77.8780297778
 30
0.0
 10
17.5493659767
 20
77.7000749339
 30
0.0
 10
17.4870042927
 20
77.5153153556
 30
0.0
 10
17.4701769642
 20
77.3894916538
 30
0.0
 10
17.4701769642
 20
77.3296924359
 30
0.0
  0
SPLINE
  5
367
100
AcDbEntity
  8
0
100
AcDbSpline
 62
7
  6
CONTINUOUS
 70
0
 71
3
 72
10
 73
6
 74
0
 42
0.0000001
 43
0.0000001
 44
0.0000000001
 40
0.0
 40
0.0
 40
0.0
 40
0.0
 40
0.2276113617
 40
0.5961744473
 40
1.0
 40
1.0
 40
1.0
 40
1.0
 10
26.1449295507
 20
69.6859504908
 30
0.0
 10
26.2130155305
 20
69.5614097733
 30
0.0
 10
26.365645914
 20
69.2207663057
 30
0.0
 10
26.5199558757
 20
68.6127569949
 30
0.0
 10
26.5587107418
 20
68.1305196127
 30
0.0
 10
26.5618941409
 20
67.8787168153
 30
0.0
  0
SPLINE
  5
368
100
AcDbEntity
  8
0
100
AcDbSpline
 62
7
  6
CONTINUOUS
 70
0
 71
3
 72
13
 73
9
 74
0
 42
0.0000001
 43
0.0000001
 44
0.0000000001
 40
0.0
 40
0.0
 40
0.0
 40
0.0
 40
0.1203725615
 40
0.2487431252
 40
0.3811969534
 40
0.5137529497
 40
0.768343478
 40
1.0
 40
1.0
 40
1.0
 40
1.0
 10
14.6654880044
 20
81.6096172826
 30
0.0
 10
14.6654923145
 20
81.8379677373
 30
0.0
 10
14.7112600145
 20
82.3098888491
 30
0.0
 10
14.8641073191
 20
83.0172899958
 30
0.0
 10
15.0651146989
 20
83.7361794743
 30
0.0
 10
15.346976602
 20
84.6806012337
 30
0.0
 10
15.6557148921
 20
85.8139941475
 30
0.0
 10
15.772995359
 20
86.7352960195
 30
0.0
 10
15.7784708324
 20
87.1747214608
 30
0.0
  0
SPLINE
  5
369
100
AcDbEntity
  8
0
100
AcDbSpline
 62
7
  6
CONTINUOUS
 70
0
 71
3
 72
9
 73
5
 74
0
 42
0.0000001
 43
0.0000001
 44
0.0000000001
 40
0.0
 40
0.0
 40
0.0
 40
0.0
 40
0.2550481704
 40
1.0
 40
1.0
 40
1.0
 40
1.0
 10
14.6654894085
 20
79.4621795398
 30
0.0
 10
14.6654890224
 20
79.4181380811
 30
0.0
 10
14.6673652385
 20
79.2454628331
 30
0.0
 10
14.6736854211
 20
79.0728485802
 30
0.0
 10
14.6736854211
 20
78.9442110558
 30
0.0
  0
SPLINE
  5
36A
100
AcDbEntity
  8
0
100
AcDbSpline
 62
7
  6
CONTINUOUS
 70
0
 71
3
 72
13
 73
9
 74
0
 42
0.0000001
 43
0.0000001
 44
0.0000000001
 40
0.0
 40
0.0
 40
0.0
 40
0.0
 40
0.0523237584
 40
0.1263757249
 40
0.2227253285
 40
0.34067285
 40
0.635863316
 40
1.0
 40
1.0
 40
1.0
 40
1.0
 10
14.6654879991
 20
76.5668625235
 30
0.0
 10
14.665485457
 20
76.5391982963
 30
0.0
 10
14.6825051158
 20
76.4730033125
 30
0.0
 10
14.7357508338
 20
76.3677767046
 30
0.0
 10
14.8238967062
 20
76.242713123
 30
0.0
 10
15.0028824375
 20
76.0409201285
 30
0.0
 10
15.3179544059
 20
75.7740036619
 30
0.0
 10
15.6117619072
 20
75.5849882654
 30
0.0
 10
15.7784932065
 20
75.4887280825
 30
0.0
  0
SPLINE
  5
36B
100
AcDbEntity
  8
0
100
AcDbSpline
 62
7
  6
CONTINUOUS
 70
0
 71
3
 72
13
 73
9
 74
0
 42
0.0000001
 43
0.0000001
 44
0.0000000001
 40
0.0
 40
0.0
 40
0.0
 40
0.0
 40
0.1142259181
 40
0.2375599982
 40
0.5000010158
 40
0.7624414734
 40
0.8857749255
 40
1.0
 40
1.0
 40
1.0
 40
1.0
 10
26.6326080574
 20
92.0387510298
 30
0.0
 10
26.6326080574
 20
92.1784522049
 30
0.0
 10
26.6069779266
 20
92.4692833027
 30
0.0
 10
26.468048578
 20
93.0663107067
 30
0.0
 10
26.1451644454
 20
93.7985718003
 30
0.0
 10
25.6724473509
 20
94.4443255941
 30
0.0
 10
25.2248702623
 20
94.8631511204
 30
0.0
 10
24.9858183018
 20
95.0307600725
 30
0.0
 10
24.8648337446
 20
95.100608959
 30
0.0
  0
SPLINE
  5
36C
100
AcDbEntity
  8
0
100
AcDbSpline
 62
7
  6
CONTINUOUS
 70
0
 71
3
 72
11
 73
7
 74
0
 42
0.0000001
 43
0.0000001
 44
0.0000000001
 40
0.0
 40
0.0
 40
0.0
 40
0.0
 40
0.289702329
 40
0.5490881649
 40
0.7822156415
 40
1.0
 40
1.0
 40
1.0
 40
1.0
 10
20.1979095854
 20
97.7949979233
 30
0.0
 10
20.0882125252
 20
97.8583301178
 30
0.0
 10
19.8699897001
 20
97.9621429939
 30
0.0
 10
19.5345768757
 20
98.0431391815
 30
0.0
 10
19.219861521
 20
98.0351706458
 30
0.0
 10
19.0303860737
 20
97.9664085387
 30
0.0
 10
18.9479214188
 20
97.9187978175
 30
0.0
  0
SPLINE
  5
36D
100
AcDbEntity
  8
0
100
AcDbSpline
 62
7
  6
CONTINUOUS
 70
0
 71
3
 72
11
 73
7
 74
0
 42
0.0000001
 43
0.0000001
 44
0.0000000001
 40
0.0
 40
0.0
 40
0.0
 40
0.0
 40
0.289702809
 40
0.549088757
 40
0.7822160314
 40
1.0
 40
1.0
 40
1.0
 40
1.0
 10
68.1045787174
 20
40.6241632115
 30
0.0
 10
68.0168223147
 20
40.5734973312
 30
0.0
 10
67.8422465559
 20
40.490446573
 30
0.0
 10
67.5739198513
 20
40.4256481031
 30
0.0
 10
67.3221506187
 20
40.4320207025
 30
0.0
 10
67.1705717855
 20
40.4870285003
 30
0.0
 10
67.1046006742
 20
40.5251160851
 30
0.0
  0
SPLINE
  5
36E
100
AcDbEntity
  8
0
100
AcDbSpline
 62
7
  6
CONTINUOUS
 70
0
 71
3
 72
9
 73
5
 74
0
 42
0.0000001
 43
0.0000001
 44
0.0000000001
 40
0.0
 40
0.0
 40
0.0
 40
0.0
 40
0.5131351734
 40
1.0
 40
1.0
 40
1.0
 40
1.0
 10
18.4747435621
 20
97.6977681896
 30
0.0
 10
18.519447539
 20
97.7801754761
 30
0.0
 10
18.6258542326
 20
97.9315484332
 30
0.0
 10
18.7708874623
 20
98.0475263838
 30
0.0
 10
18.8479224027
 20
98.0920022279
 30
0.0
  0
SPLINE
  5
36F
100
AcDbEntity
  8
0
100
AcDbSpline
 62
7
  6
CONTINUOUS
 70
0
 71
3
 72
17
 73
13
 74
0
 42
0.0000001
 43
0.0000001
 44
0.0000000001
 40
0.0
 40
0.0
 40
0.0
 40
0.0
 40
0.1286958631
 40
0.2702808858
 40
0.4174358551
 40
0.561778136
 40
0.6954484112
 40
0.8127115101
 40
0.8646776714
 40
0.9125101075
 40
0.9571398584
 40
1.0
 40
1.0
 40
1.0
 40
1.0
 10
74.4331259712
 20
93.5537738398
 30
0.0
 10
74.4331259712
 20
93.8572275745
 30
0.0
 10
74.3482412965
 20
94.495256429
 30
0.0
 10
74.0313647716
 20
95.4320441551
 30
0.0
 10
73.5431557909
 20
96.3344718623
 30
0.0
 10
72.9227936672
 20
97.1285387643
 30
0.0
 10
72.2209776654
 20
97.7501180847
 30
0.0
 10
71.5857201435
 20
98.0973939293
 30
0.0
 10
71.0888204615
 20
98.2296683742
 30
0.0
 10
70.7468169564
 20
98.2547437306
 30
0.0
 10
70.4283468969
 20
98.2081439504
 30
0.0
 10
70.2354346277
 20
98.1279201955
 30
0.0
 10
70.1479047844
 20
98.0774053067
 30
0.0
  0
SPLINE
  5
370
100
AcDbEntity
  8
0
100
AcDbSpline
 62
7
  6
CONTINUOUS
 70
0
 71
3
 72
11
 73
7
 74
0
 42
0.0000001
 43
0.0000001
 44
0.0000000001
 40
0.0
 40
0.0
 40
0.0
 40
0.0
 40
0.2897464723
 40
0.5490791963
 40
0.7822218246
 40
1.0
 40
1.0
 40
1.0
 40
1.0
 10
69.0590920601
 20
96.6564035741
 30
0.0
 10
69.0590920601
 20
96.8616409536
 30
0.0
 10
69.090158386
 20
97.2518995951
 30
0.0
 10
69.2482636804
 20
97.7880885566
 30
0.0
 10
69.5143577975
 20
98.2231401991
 30
0.0
 10
69.7643010519
 20
98.4333095151
 30
0.0
 10
69.8979071741
 20
98.5104164439
 30
0.0
  0
SPLINE
  5
371
100
AcDbEntity
  8
0
100
AcDbSpline
 62
7
  6
CONTINUOUS
 70
0
 71
3
 72
17
 73
13
 74
0
 42
0.0000001
 43
0.0000001
 44
0.0000000001
 40
0.0
 40
0.0
 40
0.0
 40
0.0
 40
0.1286958631
 40
0.2702808858
 40
0.4174358551
 40
0.561778136
 40
0.6954484112
 40
0.8127115101
 40
0.8646776714
 40
0.9125101075
 40
0.9571398584
 40
1.0
 40
1.0
 40
1.0
 40
1.0
 10
61.7051509186
 20
100.9021074211
 30
0.0
 10
61.7051509186
 20
101.2055611559
 30
0.0
 10
61.6202662439
 20
101.8435900103
 30
0.0
 10
61.303389719
 20
102.7803777364
 30
0.0
 10
60.8151807383
 20
103.6828054437
 30
0.0
 10
60.1948186145
 20
104.4768723456
 30
0.0
 10
59.4930026127
 20
105.098451666
 30
0.0
 10
58.8577450908
 20
105.4457275106
 30
0.0
 10
58.3608454089
 20
105.5780019556
 30
0.0
 10
58.0188419038
 20
105.603077312
 30
0.0
 10
57.7003718443
 20
105.5564775318
 30
0.0
 10
57.5074595751
 20
105.4762537769
 30
0.0
 10
57.4199297318
 20
105.4257388881
 30
0.0
  0
SPLINE
  5
372
100
AcDbEntity
  8
0
100
AcDbSpline
 62
7
  6
CONTINUOUS
 70
0
 71
3
 72
11
 73
7
 74
0
 42
0.0000001
 43
0.0000001
 44
0.0000000001
 40
0.0
 40
0.0
 40
0.0
 40
0.0
 40
0.2897464723
 40
0.5490791963
 40
0.7822218246
 40
1.0
 40
1.0
 40
1.0
 40
1.0
 10
56.3311170075
 20
104.0047371555
 30
0.0
 10
56.3311170075
 20
104.209974535
 30
0.0
 10
56.3621833334
 20
104.6002331765
 30
0.0
 10
56.5202886277
 20
105.136422138
 30
0.0
 10
56.7863827449
 20
105.5714737805
 30
0.0
 10
57.0363259993
 20
105.7816430965
 30
0.0
 10
57.1699321215
 20
105.8587500253
 30
0.0
  0
SPLINE
  5
373
100
AcDbEntity
  8
0
100
AcDbSpline
 62
7
  6
CONTINUOUS
 70
0
 71
3
 72
17
 73
13
 74
0
 42
0.0000001
 43
0.0000001
 44
0.0000000001
 40
0.0
 40
0.0
 40
0.0
 40
0.0
 40
0.1286958631
 40
0.2702808858
 40
0.4174358551
 40
0.561778136
 40
0.6954484112
 40
0.8127115101
 40
0.8646776714
 40
0.9125101075
 40
0.9571398584
 40
1.0
 40
1.0
 40
1.0
 40
1.0
 10
48.9771758659
 20
108.2504410025
 30
0.0
 10
48.9771758659
 20
108.5538947372
 30
0.0
 10
48.8922911912
 20
109.1919235917
 30
0.0
 10
48.5754146663
 20
110.1287113178
 30
0.0
 10
48.0872056856
 20
111.0311390251
 30
0.0
 10
47.4668435619
 20
111.825205927
 30
0.0
 10
46.7650275601
 20
112.4467852474
 30
0.0
 10
46.1297700382
 20
112.794061092
 30
0.0
 10
45.6328703562
 20
112.926335537
 30
0.0
 10
45.2908668511
 20
112.9514108933
 30
0.0
 10
44.9723967916
 20
112.9048111132
 30
0.0
 10
44.7794845224
 20
112.8245873582
 30
0.0
 10
44.6919546791
 20
112.7740724695
 30
0.0
  0
SPLINE
  5
374
100
AcDbEntity
  8
0
100
AcDbSpline
 62
7
  6
CONTINUOUS
 70
0
 71
3
 72
11
 73
7
 74
0
 42
0.0000001
 43
0.0000001
 44
0.0000000001
 40
0.0
 40
0.0
 40
0.0
 40
0.0
 40
0.2897464723
 40
0.5490791963
 40
0.7822218246
 40
1.0
 40
1.0
 40
1.0
 40
1.0
 10
43.6031419548
 20
111.3530707369
 30
0.0
 10
43.6031419548
 20
111.5583081164
 30
0.0
 10
43.6342082807
 20
111.9485667579
 30
0.0
 10
43.7923135751
 20
112.4847557194
 30
0.0
 10
44.0584076922
 20
112.9198073618
 30
0.0
 10
44.3083509466
 20
113.1299766779
 30
0.0
 10
44.4419570688
 20
113.2070836066
 30
0.0
  0
SPLINE
  5
375
100
AcDbEntity
  8
0
100
AcDbSpline
 62
7
  6
CONTINUOUS
 70
0
 71
3
 72
17
 73
13
 74
0
 42
0.0000001
 43
0.0000001
 44
0.0000000001
 40
0.0
 40
0.0
 40
0.0
 40
0.0
 40
0.1286958631
 40
0.2702808858
 40
0.4174358551
 40
0.561778136
 40
0.6954484112
 40
0.8127115101
 40
0.8646776714
 40
0.9125101075
 40
0.9571398584
 40
1.0
 40
1.0
 40
1.0
 40
1.0
 10
36.2492008133
 20
115.5987745839
 30
0.0
 10
36.2492008133
 20
115.9022283186
 30
0.0
 10
36.1643161386
 20
116.5402571731
 30
0.0
 10
35.8474396137
 20
117.4770448992
 30
0.0
 10
35.359230633
 20
118.3794726064
 30
0.0
 10
34.7388685092
 20
119.1735395084
 30
0.0
 10
34.0370525074
 20
119.7951188288
 30
0.0
 10
33.4017949856
 20
120.1423946734
 30
0.0
 10
32.9048953036
 20
120.2746691183
 30
0.0
 10
32.5628917985
 20
120.2997444747
 30
0.0
 10
32.244421739
 20
120.2531446945
 30
0.0
 10
32.0515094698
 20
120.1729209396
 30
0.0
 10
31.9639796265
 20
120.1224060508
 30
0.0
  0
SPLINE
  5
376
100
AcDbEntity
  8
0
100
AcDbSpline
 62
7
  6
CONTINUOUS
 70
0
 71
3
 72
11
 73
7
 74
0
 42
0.0000001
 43
0.0000001
 44
0.0000000001
 40
0.0
 40
0.0
 40
0.0
 40
0.0
 40
0.2897464723
 40
0.5490791963
 40
0.7822218246
 40
1.0
 40
1.0
 40
1.0
 40
1.0
 10
30.8751669022
 20
118.7014043182
 30
0.0
 10
30.8751669022
 20
118.9066416977
 30
0.0
 10
30.9062332281
 20
119.2969003392
 30
0.0
 10
31.0643385224
 20
119.8330893007
 30
0.0
 10
31.3304326396
 20
120.2681409432
 30
0.0
 10
31.580375894
 20
120.4783102592
 30
0.0
 10
31.7139820162
 20
120.555417188
 30
0.0
  0
SPLINE
  5
377
100
AcDbEntity
  8
0
100
AcDbSpline
 62
7
  6
CONTINUOUS
 70
0
 71
3
 72
11
 73
7
 74
0
 42
0.0000001
 43
0.0000001
 44
0.0000000001
 40
0.0
 40
0.0
 40
0.0
 40
0.0
 40
0.2897048043
 40
0.5490913404
 40
0.7822177947
 40
1.0
 40
1.0
 40
1.0
 40
1.0
 10
96.7351865316
 20
111.8677170092
 30
0.0
 10
96.8229437564
 20
111.9183833641
 30
0.0
 10
96.9821574842
 20
112.0280448675
 30
0.0
 10
97.1724400712
 20
112.2280231963
 30
0.0
 10
97.2928065974
 20
112.449247679
 30
0.0
 10
97.3209571157
 20
112.6080224952
 30
0.0
 10
97.3209571016
 20
112.6841985182
 30
0.0
  0
SPLINE
  5
378
100
AcDbEntity
  8
0
100
AcDbSpline
 62
7
  6
CONTINUOUS
 70
0
 71
3
 72
11
 73
7
 74
0
 42
0.0000001
 43
0.0000001
 44
0.0000000001
 40
0.0
 40
0.0
 40
0.0
 40
0.0
 40
0.2372531816
 40
0.5000006935
 40
0.7627478297
 40
1.0
 40
1.0
 40
1.0
 40
1.0
 10
90.7955095887
 20
109.0916540434
 30
0.0
 10
90.8758254449
 20
109.0452847112
 30
0.0
 10
91.0625869751
 20
108.9776102311
 30
0.0
 10
91.3611960669
 20
108.9452561988
 30
0.0
 10
91.659804605
 20
108.9776116579
 30
0.0
 10
91.8465652591
 20
109.0452870491
 30
0.0
 10
91.9268804386
 20
109.0916567629
 30
0.0
  0
SPLINE
  5
379
100
AcDbEntity
  8
0
100
AcDbSpline
 62
7
  6
CONTINUOUS
 70
0
 71
3
 72
11
 73
7
 74
0
 42
0.0000001
 43
0.0000001
 44
0.0000000001
 40
0.0
 40
0.0
 40
0.0
 40
0.0
 40
0.2897048043
 40
0.5490913404
 40
0.7822177947
 40
1.0
 40
1.0
 40
1.0
 40
1.0
 10
84.007211479
 20
119.2160505905
 30
0.0
 10
84.0949687038
 20
119.2667169455
 30
0.0
 10
84.2541824315
 20
119.3763784488
 30
0.0
 10
84.4444650186
 20
119.5763567777
 30
0.0
 10
84.5648315448
 20
119.7975812604
 30
0.0
 10
84.5929820631
 20
119.9563560766
 30
0.0
 10
84.5929820489
 20
120.0325320996
 30
0.0
  0
SPLINE
  5
37A
100
AcDbEntity
  8
0
100
AcDbSpline
 62
7
  6
CONTINUOUS
 70
0
 71
3
 72
11
 73
7
 74
0
 42
0.0000001
 43
0.0000001
 44
0.0000000001
 40
0.0
 40
0.0
 40
0.0
 40
0.0
 40
0.2372531816
 40
0.5000006935
 40
0.7627478297
 40
1.0
 40
1.0
 40
1.0
 40
1.0
 10
78.067534536
 20
116.4399876247
 30
0.0
 10
78.1478503922
 20
116.3936182925
 30
0.0
 10
78.3346119225
 20
116.3259438125
 30
0.0
 10
78.6332210143
 20
116.2935897802
 30
0.0
 10
78.9318295524
 20
116.3259452393
 30
0.0
 10
79.1185902064
 20
116.3936206305
 30
0.0
 10
79.1989053859
 20
116.4399903442
 30
0.0
  0
SPLINE
  5
37B
100
AcDbEntity
  8
0
100
AcDbSpline
 62
7
  6
CONTINUOUS
 70
0
 71
3
 72
11
 73
7
 74
0
 42
0.0000001
 43
0.0000001
 44
0.0000000001
 40
0.0
 40
0.0
 40
0.0
 40
0.0
 40
0.2897048043
 40
0.5490913404
 40
0.7822177947
 40
1.0
 40
1.0
 40
1.0
 40
1.0
 10
71.2792364263
 20
126.5643841719
 30
0.0
 10
71.3669936511
 20
126.6150505268
 30
0.0
 10
71.5262073789
 20
126.7247120302
 30
0.0
 10
71.7164899659
 20
126.9246903591
 30
0.0
 10
71.8368564922
 20
127.1459148418
 30
0.0
 10
71.8650070104
 20
127.304689658
 30
0.0
 10
71.8650069963
 20
127.3808656809
 30
0.0
  0
SPLINE
  5
37C
100
AcDbEntity
  8
0
100
AcDbSpline
 62
7
  6
CONTINUOUS
 70
0
 71
3
 72
11
 73
7
 74
0
 42
0.0000001
 43
0.0000001
 44
0.0000000001
 40
0.0
 40
0.0
 40
0.0
 40
0.0
 40
0.2372531816
 40
0.5000006935
 40
0.7627478297
 40
1.0
 40
1.0
 40
1.0
 40
1.0
 10
65.3395594834
 20
123.7883212061
 30
0.0
 10
65.4198753396
 20
123.7419518739
 30
0.0
 10
65.6066368698
 20
123.6742773939
 30
0.0
 10
65.9052459616
 20
123.6419233616
 30
0.0
 10
66.2038544998
 20
123.6742788207
 30
0.0
 10
66.3906151538
 20
123.7419542119
 30
0.0
 10
66.4709303333
 20
123.7883239256
 30
0.0
  0
SPLINE
  5
37D
100
AcDbEntity
  8
0
100
AcDbSpline
 62
7
  6
CONTINUOUS
 70
0
 71
3
 72
11
 73
7
 74
0
 42
0.0000001
 43
0.0000001
 44
0.0000000001
 40
0.0
 40
0.0
 40
0.0
 40
0.0
 40
0.2277244683
 40
0.4760489279
 40
0.7367426499
 40
1.0
 40
1.0
 40
1.0
 40
1.0
 10
74.4331259712
 20
40.6444172098
 30
0.0
 10
74.4331259712
 20
40.8906340166
 30
0.0
 10
74.3771230331
 20
41.4058979387
 30
0.0
 10
74.1604271181
 20
42.1753977763
 30
0.0
 10
73.8189919144
 20
42.9403327461
 30
0.0
 10
73.518185552
 20
43.4228985004
 30
0.0
 10
73.3508491341
 20
43.6531498449
 30
0.0
  0
SPLINE
  5
37E
100
AcDbEntity
  8
0
100
AcDbSpline
 62
7
  6
CONTINUOUS
 70
0
 71
3
 72
11
 73
7
 74
0
 42
0.0000001
 43
0.0000001
 44
0.0000000001
 40
0.0
 40
0.0
 40
0.0
 40
0.0
 40
0.2897048043
 40
0.5490913404
 40
0.7822177947
 40
1.0
 40
1.0
 40
1.0
 40
1.0
 10
58.5512613737
 20
133.9127177533
 30
0.0
 10
58.6390185985
 20
133.9633841082
 30
0.0
 10
58.7982323262
 20
134.0730456116
 30
0.0
 10
58.9885149133
 20
134.2730239404
 30
0.0
 10
59.1088814395
 20
134.4942484231
 30
0.0
 10
59.1370319578
 20
134.6530232393
 30
0.0
 10
59.1370319436
 20
134.7291992623
 30
0.0
  0
SPLINE
  5
37F
100
AcDbEntity
  8
0
100
AcDbSpline
 62
7
  6
CONTINUOUS
 70
0
 71
3
 72
11
 73
7
 74
0
 42
0.0000001
 43
0.0000001
 44
0.0000000001
 40
0.0
 40
0.0
 40
0.0
 40
0.0
 40
0.2372531816
 40
0.5000006935
 40
0.7627478297
 40
1.0
 40
1.0
 40
1.0
 40
1.0
 10
52.6115844307
 20
131.1366547875
 30
0.0
 10
52.691900287
 20
131.0902854553
 30
0.0
 10
52.8786618172
 20
131.0226109752
 30
0.0
 10
53.177270909
 20
130.9902569429
 30
0.0
 10
53.4758794471
 20
131.022612402
 30
0.0
 10
53.6626401011
 20
131.0902877932
 30
0.0
 10
53.7429552806
 20
131.136657507
 30
0.0
  0
SPLINE
  5
380
100
AcDbEntity
  8
0
100
AcDbSpline
 62
7
  6
CONTINUOUS
 70
0
 71
3
 72
11
 73
7
 74
0
 42
0.0000001
 43
0.0000001
 44
0.0000000001
 40
0.0
 40
0.0
 40
0.0
 40
0.0
 40
0.2502305844
 40
0.4917490609
 40
0.7372514857
 40
1.0
 40
1.0
 40
1.0
 40
1.0
 10
15.7784932065
 20
79.5850963962
 30
0.0
 10
15.6033660686
 20
79.6862038091
 30
0.0
 10
15.280647244
 20
79.9269774068
 30
0.0
 10
14.9149173119
 20
80.4078451182
 30
0.0
 10
14.7028730592
 20
80.9841826744
 30
0.0
 10
14.6654839965
 20
81.3972829404
 30
0.0
 10
14.6654880044
 20
81.6096172826
 30
0.0
  0
SPLINE
  5
381
100
AcDbEntity
  8
0
100
AcDbSpline
 62
7
  6
CONTINUOUS
 70
0
 71
3
 72
11
 73
7
 74
0
 42
0.0000001
 43
0.0000001
 44
0.0000000001
 40
0.0
 40
0.0
 40
0.0
 40
0.0
 40
0.2177806852
 40
0.4509251718
 40
0.7102606761
 40
1.0
 40
1.0
 40
1.0
 40
1.0
 10
74.5135484257
 20
38.9128799068
 30
0.0
 10
74.647156497
 20
38.9899867825
 30
0.0
 10
74.8970988273
 20
39.2001622911
 30
0.0
 10
75.1631958173
 20
39.6352168937
 30
0.0
 10
75.3212974411
 20
40.1714051044
 30
0.0
 10
75.3523639036
 20
40.5616599941
 30
0.0
 10
75.3523639036
 20
40.7668921556
 30
0.0
  0
SPLINE
  5
382
100
AcDbEntity
  8
0
100
AcDbSpline
 62
7
  6
CONTINUOUS
 70
0
 71
3
 72
17
 73
13
 74
0
 42
0.0000001
 43
0.0000001
 44
0.0000000001
 40
0.0
 40
0.0
 40
0.0
 40
0.0
 40
0.1286935509
 40
0.2702780592
 40
0.4174338869
 40
0.5617778389
 40
0.6954482149
 40
0.8127107078
 40
0.8646768909
 40
0.9125095365
 40
0.9571396143
 40
1.0
 40
1.0
 40
1.0
 40
1.0
 10
37.1684387456
 20
115.7212495297
 30
0.0
 10
37.1684387456
 20
116.0674370107
 30
0.0
 10
37.0716006553
 20
116.7953213521
 30
0.0
 10
36.7101000536
 20
117.8640476345
 30
0.0
 10
36.1531283759
 20
118.8935837349
 30
0.0
 10
35.4453881787
 20
119.7994976617
 30
0.0
 10
34.6447230999
 20
120.5086263039
 30
0.0
 10
33.9199942708
 20
120.904813964
 30
0.0
 10
33.3531100336
 20
121.0557198804
 30
0.0
 10
32.9629356994
 20
121.0843276911
 30
0.0
 10
32.5996080533
 20
121.0311664701
 30
0.0
 10
32.3795241727
 20
120.9396415981
 30
0.0
 10
32.2796654498
 20
120.8820118902
 30
0.0
  0
SPLINE
  5
383
100
AcDbEntity
  8
0
100
AcDbSpline
 62
7
  6
CONTINUOUS
 70
0
 71
3
 72
11
 73
7
 74
0
 42
0.0000001
 43
0.0000001
 44
0.0000000001
 40
0.0
 40
0.0
 40
0.0
 40
0.0
 40
0.2637187207
 40
0.5242624701
 40
0.7723008789
 40
1.0
 40
1.0
 40
1.0
 40
1.0
 10
73.6020772109
 20
43.8029171302
 30
0.0
 10
73.7856129765
 20
43.5435271678
 30
0.0
 10
74.1152555205
 20
43.0020078011
 30
0.0
 10
74.4890198508
 20
42.1466656291
 30
0.0
 10
74.7257216143
 20
41.2884822991
 30
0.0
 10
74.7866808338
 20
40.7146521679
 30
0.0
 10
74.7866808338
 20
40.4402968325
 30
0.0
  0
SPLINE
  5
384
100
AcDbEntity
  8
0
100
AcDbSpline
 62
7
  6
CONTINUOUS
 70
0
 71
3
 72
17
 73
13
 74
0
 42
0.0000001
 43
0.0000001
 44
0.0000000001
 40
0.0
 40
0.0
 40
0.0
 40
0.0
 40
0.1286935509
 40
0.2702780592
 40
0.4174338869
 40
0.5617778389
 40
0.6954482149
 40
0.8127107078
 40
0.8646768909
 40
0.9125095365
 40
0.9571396143
 40
1.0
 40
1.0
 40
1.0
 40
1.0
 10
49.8964137983
 20
108.3729159483
 30
0.0
 10
49.8964137983
 20
108.7191034293
 30
0.0
 10
49.7995757079
 20
109.4469877708
 30
0.0
 10
49.4380751063
 20
110.5157140531
 30
0.0
 10
48.8811034286
 20
111.5452501535
 30
0.0
 10
48.1733632314
 20
112.4511640804
 30
0.0
 10
47.3726981525
 20
113.1602927225
 30
0.0
 10
46.6479693235
 20
113.5564803827
 30
0.0
 10
46.0810850862
 20
113.7073862991
 30
0.0
 10
45.690910752
 20
113.7359941098
 30
0.0
 10
45.327583106
 20
113.6828328887
 30
0.0
 10
45.1074992253
 20
113.5913080168
 30
0.0
 10
45.0076405025
 20
113.5336783088
 30
0.0
  0
SPLINE
  5
385
100
AcDbEntity
  8
0
100
AcDbSpline
 62
7
  6
CONTINUOUS
 70
0
 71
3
 72
17
 73
13
 74
0
 42
0.0000001
 43
0.0000001
 44
0.0000000001
 40
0.0
 40
0.0
 40
0.0
 40
0.0
 40
0.1286958631
 40
0.2702808858
 40
0.4174358551
 40
0.561778136
 40
0.6954484112
 40
0.8127115101
 40
0.8646776714
 40
0.9125101075
 40
0.9571398584
 40
1.0
 40
1.0
 40
1.0
 40
1.0
 10
69.4126469227
 20
96.4522831969
 30
0.0
 10
69.4126469227
 20
96.1488294622
 30
0.0
 10
69.4975315974
 20
95.5108006077
 30
0.0
 10
69.8144081223
 20
94.5740128816
 30
0.0
 10
70.302617103
 20
93.6715851743
 30
0.0
 10
70.9229792268
 20
92.8775182724
 30
0.0
 10
71.6247952285
 20
92.255938952
 30
0.0
 10
72.2600527504
 20
91.9086631074
 30
0.0
 10
72.7569524324
 20
91.7763886624
 30
0.0
 10
73.0989559375
 20
91.751313306
 30
0.0
 10
73.417425997
 20
91.7979130862
 30
0.0
 10
73.6103382662
 20
91.8781368411
 30
0.0
 10
73.6978681095
 20
91.9286517299
 30
0.0
  0
SPLINE
  5
386
100
AcDbEntity
  8
0
100
AcDbSpline
 62
7
  6
CONTINUOUS
 70
0
 71
3
 72
11
 73
7
 74
0
 42
0.0000001
 43
0.0000001
 44
0.0000000001
 40
0.0
 40
0.0
 40
0.0
 40
0.0
 40
0.2897464723
 40
0.5490791963
 40
0.7822218246
 40
1.0
 40
1.0
 40
1.0
 40
1.0
 10
74.7866808338
 20
93.3496534625
 30
0.0
 10
74.7866808338
 20
93.144416083
 30
0.0
 10
74.7556145079
 20
92.7541574415
 30
0.0
 10
74.5975092135
 20
92.21796848
 30
0.0
 10
74.3314150964
 20
91.7829168376
 30
0.0
 10
74.081471842
 20
91.5727475215
 30
0.0
 10
73.9478657198
 20
91.4956405928
 30
0.0
  0
SPLINE
  5
387
100
AcDbEntity
  8
0
100
AcDbSpline
 62
7
  6
CONTINUOUS
 70
0
 71
3
 72
17
 73
13
 74
0
 42
0.0000001
 43
0.0000001
 44
0.0000000001
 40
0.0
 40
0.0
 40
0.0
 40
0.0
 40
0.1286935509
 40
0.2702780592
 40
0.4174338869
 40
0.5617778389
 40
0.6954482149
 40
0.8127107078
 40
0.8646768909
 40
0.9125095365
 40
0.9571396143
 40
1.0
 40
1.0
 40
1.0
 40
1.0
 10
62.6243888509
 20
101.024582367
 30
0.0
 10
62.6243888509
 20
101.370769848
 30
0.0
 10
62.5275507606
 20
102.0986541894
 30
0.0
 10
62.1660501589
 20
103.1673804718
 30
0.0
 10
61.6090784812
 20
104.1969165722
 30
0.0
 10
60.901338284
 20
105.102830499
 30
0.0
 10
60.1006732052
 20
105.8119591412
 30
0.0
 10
59.3759443761
 20
106.2081468013
 30
0.0
 10
58.8090601389
 20
106.3590527177
 30
0.0
 10
58.4188858047
 20
106.3876605284
 30
0.0
 10
58.0555581586
 20
106.3344993074
 30
0.0
 10
57.835474278
 20
106.2429744354
 30
0.0
 10
57.7356155551
 20
106.1853447274
 30
0.0
  0
SPLINE
  5
388
100
AcDbEntity
  8
0
100
AcDbSpline
 62
7
  6
CONTINUOUS
 70
0
 71
3
 72
11
 73
7
 74
0
 42
0.0000001
 43
0.0000001
 44
0.0000000001
 40
0.0
 40
0.0
 40
0.0
 40
0.0
 40
0.2177806852
 40
0.4509251718
 40
0.7102606761
 40
1.0
 40
1.0
 40
1.0
 40
1.0
 10
61.785573373
 20
99.1705701181
 30
0.0
 10
61.9191814444
 20
99.2476769939
 30
0.0
 10
62.1691237747
 20
99.4578525024
 30
0.0
 10
62.4352207646
 20
99.8929071051
 30
0.0
 10
62.5933223884
 20
100.4290953157
 30
0.0
 10
62.6243888509
 20
100.8193502054
 30
0.0
 10
62.6243888509
 20
101.024582367
 30
0.0
  0
SPLINE
  5
389
100
AcDbEntity
  8
0
100
AcDbSpline
 62
7
  6
CONTINUOUS
 70
0
 71
3
 72
17
 73
13
 74
0
 42
0.0000001
 43
0.0000001
 44
0.0000000001
 40
0.0
 40
0.0
 40
0.0
 40
0.0
 40
0.1286935509
 40
0.2702780592
 40
0.4174338869
 40
0.5617778389
 40
0.6954482149
 40
0.8127107078
 40
0.8646768909
 40
0.9125095365
 40
0.9571396143
 40
1.0
 40
1.0
 40
1.0
 40
1.0
 10
75.3523639036
 20
93.6762487856
 30
0.0
 10
75.3523639036
 20
94.0224362666
 30
0.0
 10
75.2555258132
 20
94.750320608
 30
0.0
 10
74.8940252116
 20
95.8190468904
 30
0.0
 10
74.3370535339
 20
96.8485829908
 30
0.0
 10
73.6293133366
 20
97.7544969176
 30
0.0
 10
72.8286482578
 20
98.4636255598
 30
0.0
 10
72.1039194288
 20
98.8598132199
 30
0.0
 10
71.5370351915
 20
99.0107191363
 30
0.0
 10
71.1468608573
 20
99.039326947
 30
0.0
 10
70.7835332113
 20
98.986165726
 30
0.0
 10
70.5634493306
 20
98.894640854
 30
0.0
 10
70.4635906078
 20
98.8370111461
 30
0.0
  0
SPLINE
  5
38A
100
AcDbEntity
  8
0
100
AcDbSpline
 62
7
  6
CONTINUOUS
 70
0
 71
3
 72
11
 73
7
 74
0
 42
0.0000001
 43
0.0000001
 44
0.0000000001
 40
0.0
 40
0.0
 40
0.0
 40
0.0
 40
0.2177793583
 40
0.450922273
 40
0.7102594722
 40
1.0
 40
1.0
 40
1.0
 40
1.0
 10
70.1479047844
 20
98.0774053067
 30
0.0
 10
70.0307924632
 20
98.0098178913
 30
0.0
 10
69.8117094457
 20
97.8255907482
 30
0.0
 10
69.5784613843
 20
97.4442490994
 30
0.0
 10
69.4398804517
 20
96.9742554153
 30
0.0
 10
69.4126469227
 20
96.6321787688
 30
0.0
 10
69.4126469227
 20
96.4522831969
 30
0.0
  0
SPLINE
  5
38B
100
AcDbEntity
  8
0
100
AcDbSpline
 62
7
  6
CONTINUOUS
 70
0
 71
3
 72
17
 73
13
 74
0
 42
0.0000001
 43
0.0000001
 44
0.0000000001
 40
0.0
 40
0.0
 40
0.0
 40
0.0
 40
0.1286958631
 40
0.2702808858
 40
0.4174358551
 40
0.561778136
 40
0.6954484112
 40
0.8127115101
 40
0.8646776714
 40
0.9125101075
 40
0.9571398584
 40
1.0
 40
1.0
 40
1.0
 40
1.0
 10
56.68467187
 20
103.8006167782
 30
0.0
 10
56.68467187
 20
103.4971630435
 30
0.0
 10
56.7695565448
 20
102.8591341891
 30
0.0
 10
57.0864330697
 20
101.922346463
 30
0.0
 10
57.5746420503
 20
101.0199187557
 30
0.0
 10
58.1950041741
 20
100.2258518538
 30
0.0
 10
58.8968201759
 20
99.6042725334
 30
0.0
 10
59.5320776978
 20
99.2569966887
 30
0.0
 10
60.0289773797
 20
99.1247222438
 30
0.0
 10
60.3709808849
 20
99.0996468874
 30
0.0
 10
60.6894509443
 20
99.1462466676
 30
0.0
 10
60.8823632136
 20
99.2264704225
 30
0.0
 10
60.9698930568
 20
99.2769853113
 30
0.0
  0
SPLINE
  5
38C
100
AcDbEntity
  8
0
100
AcDbSpline
 62
7
  6
CONTINUOUS
 70
0
 71
3
 72
11
 73
7
 74
0
 42
0.0000001
 43
0.0000001
 44
0.0000000001
 40
0.0
 40
0.0
 40
0.0
 40
0.0
 40
0.2897464723
 40
0.5490791963
 40
0.7822218246
 40
1.0
 40
1.0
 40
1.0
 40
1.0
 10
62.0587057812
 20
100.6979870439
 30
0.0
 10
62.0587057812
 20
100.4927496644
 30
0.0
 10
62.0276394553
 20
100.1024910229
 30
0.0
 10
61.8695341609
 20
99.5663020614
 30
0.0
 10
61.6034400437
 20
99.1312504189
 30
0.0
 10
61.3534967893
 20
98.9210811029
 30
0.0
 10
61.2198906672
 20
98.8439741741
 30
0.0
  0
SPLINE
  5
38D
100
AcDbEntity
  8
0
100
AcDbSpline
 62
7
  6
CONTINUOUS
 70
0
 71
3
 72
17
 73
13
 74
0
 42
0.0000001
 43
0.0000001
 44
0.0000000001
 40
0.0
 40
0.0
 40
0.0
 40
0.0
 40
0.0428582532
 40
0.0874871768
 40
0.1353189084
 40
0.1872843038
 40
0.3045447318
 40
0.4382119605
 40
0.582555363
 40
0.7297158282
 40
0.8713052736
 40
1.0
 40
1.0
 40
1.0
 40
1.0
 10
57.1699321215
 20
105.8587500253
 30
0.0
 10
57.2697855061
 20
105.9163775329
 30
0.0
 10
57.4898579647
 20
106.0079067562
 30
0.0
 10
57.8531754636
 20
106.0610640433
 30
0.0
 10
58.2433416034
 20
106.0324619573
 30
0.0
 10
58.8102203411
 20
105.8815738256
 30
0.0
 10
59.5349395438
 20
105.485399855
 30
0.0
 10
60.335598691
 20
104.7762889076
 30
0.0
 10
61.043352777
 20
103.8703825201
 30
0.0
 10
61.6003477441
 20
102.8408307281
 30
0.0
 10
61.9618642064
 20
101.772078579
 30
0.0
 10
62.0587057812
 20
101.0441777264
 30
0.0
 10
62.0587057812
 20
100.6979870439
 30
0.0
  0
SPLINE
  5
38E
100
AcDbEntity
  8
0
100
AcDbSpline
 62
7
  6
CONTINUOUS
 70
0
 71
3
 72
17
 73
13
 74
0
 42
0.0000001
 43
0.0000001
 44
0.0000000001
 40
0.0
 40
0.0
 40
0.0
 40
0.0
 40
0.1286958631
 40
0.2702808858
 40
0.4174358551
 40
0.561778136
 40
0.6954484112
 40
0.8127115101
 40
0.8646776714
 40
0.9125101075
 40
0.9571398584
 40
1.0
 40
1.0
 40
1.0
 40
1.0
 10
43.9566968174
 20
111.1489503596
 30
0.0
 10
43.9566968174
 20
110.8454966249
 30
0.0
 10
44.0415814921
 20
110.2074677704
 30
0.0
 10
44.358458017
 20
109.2706800443
 30
0.0
 10
44.8466669977
 20
108.368252337
 30
0.0
 10
45.4670291215
 20
107.5741854351
 30
0.0
 10
46.1688451233
 20
106.9526061147
 30
0.0
 10
46.8041026451
 20
106.6053302701
 30
0.0
 10
47.3010023271
 20
106.4730558252
 30
0.0
 10
47.6430058322
 20
106.4479804688
 30
0.0
 10
47.9614758917
 20
106.4945802489
 30
0.0
 10
48.1543881609
 20
106.5748040039
 30
0.0
 10
48.2419180042
 20
106.6253188927
 30
0.0
  0
SPLINE
  5
38F
100
AcDbEntity
  8
0
100
AcDbSpline
 62
7
  6
CONTINUOUS
 70
0
 71
3
 72
11
 73
7
 74
0
 42
0.0000001
 43
0.0000001
 44
0.0000000001
 40
0.0
 40
0.0
 40
0.0
 40
0.0
 40
0.2897464723
 40
0.5490791963
 40
0.7822218246
 40
1.0
 40
1.0
 40
1.0
 40
1.0
 10
49.3307307285
 20
108.0463206253
 30
0.0
 10
49.3307307285
 20
107.8410832458
 30
0.0
 10
49.2996644026
 20
107.4508246042
 30
0.0
 10
49.1415591082
 20
106.9146356428
 30
0.0
 10
48.8754649911
 20
106.4795840003
 30
0.0
 10
48.6255217367
 20
106.2694146842
 30
0.0
 10
48.4919156145
 20
106.1923077555
 30
0.0
  0
SPLINE
  5
390
100
AcDbEntity
  8
0
100
AcDbSpline
 62
7
  6
CONTINUOUS
 70
0
 71
3
 72
11
 73
7
 74
0
 42
0.0000001
 43
0.0000001
 44
0.0000000001
 40
0.0
 40
0.0
 40
0.0
 40
0.0
 40
0.2177793583
 40
0.450922273
 40
0.7102594722
 40
1.0
 40
1.0
 40
1.0
 40
1.0
 10
44.6919546791
 20
112.7740724695
 30
0.0
 10
44.5748423579
 20
112.706485054
 30
0.0
 10
44.3557593404
 20
112.5222579109
 30
0.0
 10
44.122511279
 20
112.1409162621
 30
0.0
 10
43.9839303464
 20
111.6709225781
 30
0.0
 10
43.9566968174
 20
111.3288459315
 30
0.0
 10
43.9566968174
 20
111.1489503596
 30
0.0
  0
SPLINE
  5
391
100
AcDbEntity
  8
0
100
AcDbSpline
 62
7
  6
CONTINUOUS
 70
0
 71
3
 72
17
 73
13
 74
0
 42
0.0000001
 43
0.0000001
 44
0.0000000001
 40
0.0
 40
0.0
 40
0.0
 40
0.0
 40
0.1286958631
 40
0.2702808858
 40
0.4174358551
 40
0.561778136
 40
0.6954484112
 40
0.8127115101
 40
0.8646776714
 40
0.9125101075
 40
0.9571398584
 40
1.0
 40
1.0
 40
1.0
 40
1.0
 10
31.2287217647
 20
118.497283941
 30
0.0
 10
31.2287217647
 20
118.1938302063
 30
0.0
 10
31.3136064395
 20
117.5558013518
 30
0.0
 10
31.6304829644
 20
116.6190136257
 30
0.0
 10
32.1186919451
 20
115.7165859184
 30
0.0
 10
32.7390540688
 20
114.9225190165
 30
0.0
 10
33.4408700706
 20
114.3009396961
 30
0.0
 10
34.0761275925
 20
113.9536638515
 30
0.0
 10
34.5730272744
 20
113.8213894065
 30
0.0
 10
34.9150307796
 20
113.7963140501
 30
0.0
 10
35.233500839
 20
113.8429138303
 30
0.0
 10
35.4264131083
 20
113.9231375852
 30
0.0
 10
35.5139429515
 20
113.973652474
 30
0.0
  0
SPLINE
  5
392
100
AcDbEntity
  8
0
100
AcDbSpline
 62
7
  6
CONTINUOUS
 70
0
 71
3
 72
11
 73
7
 74
0
 42
0.0000001
 43
0.0000001
 44
0.0000000001
 40
0.0
 40
0.0
 40
0.0
 40
0.0
 40
0.2897464723
 40
0.5490791963
 40
0.7822218246
 40
1.0
 40
1.0
 40
1.0
 40
1.0
 10
36.6027556759
 20
115.3946542066
 30
0.0
 10
36.6027556759
 20
115.1894168271
 30
0.0
 10
36.57168935
 20
114.7991581856
 30
0.0
 10
36.4135840556
 20
114.2629692241
 30
0.0
 10
36.1474899384
 20
113.8279175816
 30
0.0
 10
35.8975466841
 20
113.6177482656
 30
0.0
 10
35.7639405619
 20
113.5406413368
 30
0.0
  0
SPLINE
  5
393
100
AcDbEntity
  8
0
100
AcDbSpline
 62
7
  6
CONTINUOUS
 70
0
 71
3
 72
11
 73
7
 74
0
 42
0.0000001
 43
0.0000001
 44
0.0000000001
 40
0.0
 40
0.0
 40
0.0
 40
0.0
 40
0.2177806852
 40
0.4509251718
 40
0.7102606761
 40
1.0
 40
1.0
 40
1.0
 40
1.0
 10
74.5135484257
 20
91.8222365368
 30
0.0
 10
74.647156497
 20
91.8993434125
 30
0.0
 10
74.8970988273
 20
92.1095189211
 30
0.0
 10
75.1631958173
 20
92.5445735237
 30
0.0
 10
75.3212974411
 20
93.0807617344
 30
0.0
 10
75.3523639036
 20
93.4710166241
 30
0.0
 10
75.3523639036
 20
93.6762487856
 30
0.0
  0
SPLINE
  5
394
100
AcDbEntity
  8
0
100
AcDbSpline
 62
7
  6
CONTINUOUS
 70
0
 71
3
 72
11
 73
7
 74
0
 42
0.0000001
 43
0.0000001
 44
0.0000000001
 40
0.0
 40
0.0
 40
0.0
 40
0.0
 40
0.2895416688
 40
0.549118971
 40
0.7822562702
 40
1.0
 40
1.0
 40
1.0
 40
1.0
 10
85.5628929122
 20
112.7658235535
 30
0.0
 10
85.5278104752
 20
112.74556882
 30
0.0
 10
85.464147452
 20
112.7016709899
 30
0.0
 10
85.3879938896
 20
112.6217224058
 30
0.0
 10
85.3398125682
 20
112.5332108338
 30
0.0
 10
85.3286254453
 20
112.4696953804
 30
0.0
 10
85.3286254547
 20
112.4392309502
 30
0.0
  0
SPLINE
  5
395
100
AcDbEntity
  8
0
100
AcDbSpline
 62
7
  6
CONTINUOUS
 70
0
 71
3
 72
11
 73
7
 74
0
 42
0.0000001
 43
0.0000001
 44
0.0000000001
 40
0.0
 40
0.0
 40
0.0
 40
0.0
 40
0.2372405738
 40
0.5000004574
 40
0.7627600882
 40
1.0
 40
1.0
 40
1.0
 40
1.0
 10
93.19962613
 20
115.5418905986
 30
0.0
 10
92.9988464789
 20
115.6578081618
 30
0.0
 10
92.5319375999
 20
115.826958542
 30
0.0
 10
91.7854105158
 20
115.9079980955
 30
0.0
 10
91.03888445
 20
115.8269551991
 30
0.0
 10
90.5719772603
 20
115.6578024875
 30
0.0
 10
90.3711990053
 20
115.5418837999
 30
0.0
  0
SPLINE
  5
396
100
AcDbEntity
  8
0
100
AcDbSpline
 62
7
  6
CONTINUOUS
 70
0
 71
3
 72
11
 73
7
 74
0
 42
0.0000001
 43
0.0000001
 44
0.0000000001
 40
0.0
 40
0.0
 40
0.0
 40
0.0
 40
0.21778431
 40
0.4509117584
 40
0.7102976662
 40
1.0
 40
1.0
 40
1.0
 40
1.0
 10
18.8479224027
 20
98.0920022279
 30
0.0
 10
18.9369842406
 20
98.1434217578
 30
0.0
 10
19.1416176624
 20
98.2176848987
 30
0.0
 10
19.4815102887
 20
98.2262909007
 30
0.0
 10
19.8437561692
 20
98.1388149583
 30
0.0
 10
20.079436883
 20
98.0266970545
 30
0.0
 10
20.1979097146
 20
97.9582982714
 30
0.0
  0
SPLINE
  5
397
100
AcDbEntity
  8
0
100
AcDbSpline
 62
7
  6
CONTINUOUS
 70
0
 71
3
 72
11
 73
7
 74
0
 42
0.0000001
 43
0.0000001
 44
0.0000000001
 40
0.0
 40
0.0
 40
0.0
 40
0.0
 40
0.2897023329
 40
0.5490881703
 40
0.7822156452
 40
1.0
 40
1.0
 40
1.0
 40
1.0
 10
20.5514616332
 20
98.1624203483
 30
0.0
 10
20.4329888015
 20
98.2308191315
 30
0.0
 10
20.1973081363
 20
98.342937061
 30
0.0
 10
19.8350622606
 20
98.4304129698
 30
0.0
 10
19.4951696523
 20
98.4218069644
 30
0.0
 10
19.2905361539
 20
98.347543887
 30
0.0
 10
19.2014743213
 20
98.2961243049
 30
0.0
  0
SPLINE
  5
398
100
AcDbEntity
  8
0
100
AcDbSpline
 62
7
  6
CONTINUOUS
 70
0
 71
3
 72
17
 73
13
 74
0
 42
0.0000001
 43
0.0000001
 44
0.0000000001
 40
0.0
 40
0.0
 40
0.0
 40
0.0
 40
0.0428582532
 40
0.0874871768
 40
0.1353189084
 40
0.1872843038
 40
0.3045447318
 40
0.4382119605
 40
0.582555363
 40
0.7297158282
 40
0.8713052736
 40
1.0
 40
1.0
 40
1.0
 40
1.0
 10
69.8979071741
 20
98.5104164439
 30
0.0
 10
69.9977605588
 20
98.5680439515
 30
0.0
 10
70.2178330173
 20
98.6595731749
 30
0.0
 10
70.5811505163
 20
98.7127304619
 30
0.0
 10
70.971316656
 20
98.6841283759
 30
0.0
 10
71.5381953937
 20
98.5332402442
 30
0.0
 10
72.2629145965
 20
98.1370662736
 30
0.0
 10
73.0635737436
 20
97.4279553262
 30
0.0
 10
73.7713278297
 20
96.5220489387
 30
0.0
 10
74.3283227968
 20
95.4924971468
 30
0.0
 10
74.689839259
 20
94.4237449976
 30
0.0
 10
74.7866808338
 20
93.695844145
 30
0.0
 10
74.7866808338
 20
93.3496534625
 30
0.0
  0
SPLINE
  5
399
100
AcDbEntity
  8
0
100
AcDbSpline
 62
7
  6
CONTINUOUS
 70
0
 71
3
 72
11
 73
7
 74
0
 42
0.0000001
 43
0.0000001
 44
0.0000000001
 40
0.0
 40
0.0
 40
0.0
 40
0.0
 40
0.2895416688
 40
0.549118971
 40
0.7822562702
 40
1.0
 40
1.0
 40
1.0
 40
1.0
 10
72.8349178596
 20
120.1141571349
 30
0.0
 10
72.7998354225
 20
120.0939024013
 30
0.0
 10
72.7361723993
 20
120.0500045713
 30
0.0
 10
72.6600188369
 20
119.9700559871
 30
0.0
 10
72.6118375155
 20
119.8815444151
 30
0.0
 10
72.6006503926
 20
119.8180289618
 30
0.0
 10
72.6006504021
 20
119.7875645316
 30
0.0
  0
SPLINE
  5
39A
100
AcDbEntity
  8
0
100
AcDbSpline
 62
7
  6
CONTINUOUS
 70
0
 71
3
 72
11
 73
7
 74
0
 42
0.0000001
 43
0.0000001
 44
0.0000000001
 40
0.0
 40
0.0
 40
0.0
 40
0.0
 40
0.2372405738
 40
0.5000004574
 40
0.7627600882
 40
1.0
 40
1.0
 40
1.0
 40
1.0
 10
80.4716510774
 20
122.8902241799
 30
0.0
 10
80.2708714262
 20
123.0061417432
 30
0.0
 10
79.8039625473
 20
123.1752921233
 30
0.0
 10
79.0574354632
 20
123.2563316769
 30
0.0
 10
78.3109093974
 20
123.1752887805
 30
0.0
 10
77.8440022077
 20
123.0061360689
 30
0.0
 10
77.6432239526
 20
122.8902173812
 30
0.0
  0
SPLINE
  5
39B
100
AcDbEntity
  8
0
100
AcDbSpline
 62
7
  6
CONTINUOUS
 70
0
 71
3
 72
11
 73
7
 74
0
 42
0.0000001
 43
0.0000001
 44
0.0000000001
 40
0.0
 40
0.0
 40
0.0
 40
0.0
 40
0.2177806852
 40
0.4509251718
 40
0.7102606761
 40
1.0
 40
1.0
 40
1.0
 40
1.0
 10
49.0575983204
 20
106.5189036995
 30
0.0
 10
49.1912063917
 20
106.5960105752
 30
0.0
 10
49.441148722
 20
106.8061860838
 30
0.0
 10
49.707245712
 20
107.2412406864
 30
0.0
 10
49.8653473358
 20
107.7774288971
 30
0.0
 10
49.8964137983
 20
108.1676837868
 30
0.0
 10
49.8964137983
 20
108.3729159483
 30
0.0
  0
SPLINE
  5
39C
100
AcDbEntity
  8
0
100
AcDbSpline
 62
7
  6
CONTINUOUS
 70
0
 71
3
 72
11
 73
7
 74
0
 42
0.0000001
 43
0.0000001
 44
0.0000000001
 40
0.0
 40
0.0
 40
0.0
 40
0.0
 40
0.2177825102
 40
0.4509091639
 40
0.7102957096
 40
1.0
 40
1.0
 40
1.0
 40
1.0
 10
67.1046006742
 20
40.5251160851
 30
0.0
 10
67.0386273916
 20
40.5632049236
 30
0.0
 10
66.9151939206
 20
40.6669742302
 30
0.0
 10
66.7837845359
 20
40.8818341205
 30
0.0
 10
66.7057351339
 20
41.1466221592
 30
0.0
 10
66.690371043
 20
41.3393429918
 30
0.0
 10
66.690371043
 20
41.440679738
 30
0.0
  0
SPLINE
  5
39D
100
AcDbEntity
  8
0
100
AcDbSpline
 62
7
  6
CONTINUOUS
 70
0
 71
3
 72
9
 73
5
 74
0
 42
0.0000001
 43
0.0000001
 44
0.0000000001
 40
0.0
 40
0.0
 40
0.0
 40
0.0
 40
0.5116268509
 40
1.0
 40
1.0
 40
1.0
 40
1.0
 10
19.0350244848
 20
73.8369198153
 30
0.0
 10
18.9374720082
 20
74.0034243397
 30
0.0
 10
18.7095190461
 20
74.30933059
 30
0.0
 10
18.4080932492
 20
74.5449423936
 30
0.0
 10
18.2485762947
 20
74.6370637075
 30
0.0
  0
SPLINE
  5
39E
100
AcDbEntity
  8
0
100
AcDbSpline
 62
7
  6
CONTINUOUS
 70
0
 71
3
 72
11
 73
7
 74
0
 42
0.0000001
 43
0.0000001
 44
0.0000000001
 40
0.0
 40
0.0
 40
0.0
 40
0.0
 40
0.2557927266
 40
0.5174080742
 40
0.7699009174
 40
1.0
 40
1.0
 40
1.0
 40
1.0
 10
16.803802308
 20
78.9931473021
 30
0.0
 10
17.2038970447
 20
79.4061557618
 30
0.0
 10
17.9334889557
 20
80.3213119868
 30
0.0
 10
18.7746872716
 20
81.8427580973
 30
0.0
 10
19.3281634351
 20
83.4299880838
 30
0.0
 10
19.4843520085
 20
84.514233796
 30
0.0
 10
19.4907968894
 20
85.0314574995
 30
0.0
  0
SPLINE
  5
39F
100
AcDbEntity
  8
0
100
AcDbSpline
 62
7
  6
CONTINUOUS
 70
0
 71
3
 72
11
 73
7
 74
0
 42
0.0000001
 43
0.0000001
 44
0.0000000001
 40
0.0
 40
0.0
 40
0.0
 40
0.0
 40
0.2539182468
 40
0.4991522617
 40
0.7448448823
 40
1.0
 40
1.0
 40
1.0
 40
1.0
 10
28.8277181523
 20
72.1523818027
 30
0.0
 10
28.8596109186
 20
72.1339725233
 30
0.0
 10
28.9187350721
 20
72.0907922296
 30
0.0
 10
28.9872496892
 20
72.0055341658
 30
0.0
 10
29.0292670672
 20
71.9043042434
 30
0.0
 10
29.038010584
 20
71.8312297464
 30
0.0
 10
29.038010584
 20
71.7942257831
 30
0.0
  0
SPLINE
  5
3A0
100
AcDbEntity
  8
0
100
AcDbSpline
 62
7
  6
CONTINUOUS
 70
0
 71
3
 72
11
 73
7
 74
0
 42
0.0000001
 43
0.0000001
 44
0.0000000001
 40
0.0
 40
0.0
 40
0.0
 40
0.0
 40
0.2177793583
 40
0.450922273
 40
0.7102594722
 40
1.0
 40
1.0
 40
1.0
 40
1.0
 10
57.4199297318
 20
105.4257388881
 30
0.0
 10
57.3028174105
 20
105.3581514726
 30
0.0
 10
57.0837343931
 20
105.1739243295
 30
0.0
 10
56.8504863317
 20
104.7925826807
 30
0.0
 10
56.7119053991
 20
104.3225889967
 30
0.0
 10
56.68467187
 20
103.9805123501
 30
0.0
 10
56.68467187
 20
103.8006167782
 30
0.0
  0
SPLINE
  5
3A1
100
AcDbEntity
  8
0
100
AcDbSpline
 62
7
  6
CONTINUOUS
 70
0
 71
3
 72
15
 73
11
 74
0
 42
0.0000001
 43
0.0000001
 44
0.0000000001
 40
0.0
 40
0.0
 40
0.0
 40
0.0
 40
0.0869268405
 40
0.1863930247
 40
0.3037723423
 40
0.4375781324
 40
0.5820871794
 40
0.7293509334
 40
0.8712393517
 40
1.0
 40
1.0
 40
1.0
 40
1.0
 10
17.6151590497
 20
77.0092481194
 30
0.0
 10
17.6501307331
 20
76.9890794679
 30
0.0
 10
17.7379648182
 20
76.9665096266
 30
0.0
 10
17.8793486668
 20
76.9948423095
 30
0.0
 10
18.0237948936
 20
77.0737209263
 30
0.0
 10
18.1623381153
 20
77.1963416452
 30
0.0
 10
18.2845607849
 20
77.3528969095
 30
0.0
 10
18.3809333238
 20
77.5308517534
 30
0.0
 10
18.4432950078
 20
77.7156113316
 30
0.0
 10
18.4601223363
 20
77.8414350335
 30
0.0
 10
18.4601223363
 20
77.9012342513
 30
0.0
  0
SPLINE
  5
3A2
100
AcDbEntity
  8
0
100
AcDbSpline
 62
7
  6
CONTINUOUS
 70
0
 71
3
 72
17
 73
13
 74
0
 42
0.0000001
 43
0.0000001
 44
0.0000000001
 40
0.0
 40
0.0
 40
0.0
 40
0.0
 40
0.0428582532
 40
0.0874871768
 40
0.1353189084
 40
0.1872843038
 40
0.3045447318
 40
0.4382119605
 40
0.582555363
 40
0.7297158282
 40
0.8713052736
 40
1.0
 40
1.0
 40
1.0
 40
1.0
 10
44.4419570688
 20
113.2070836066
 30
0.0
 10
44.5418104535
 20
113.2647111142
 30
0.0
 10
44.761882912
 20
113.3562403376
 30
0.0
 10
45.125200411
 20
113.4093976246
 30
0.0
 10
45.5153665507
 20
113.3807955387
 30
0.0
 10
46.0822452884
 20
113.2299074069
 30
0.0
 10
46.8069644912
 20
112.8337334363
 30
0.0
 10
47.6076236384
 20
112.124622489
 30
0.0
 10
48.3153777244
 20
111.2187161015
 30
0.0
 10
48.8723726915
 20
110.1891643095
 30
0.0
 10
49.2338891537
 20
109.1204121603
 30
0.0
 10
49.3307307285
 20
108.3925113077
 30
0.0
 10
49.3307307285
 20
108.0463206253
 30
0.0
  0
SPLINE
  5
3A3
100
AcDbEntity
  8
0
100
AcDbSpline
 62
7
  6
CONTINUOUS
 70
0
 71
3
 72
11
 73
7
 74
0
 42
0.0000001
 43
0.0000001
 44
0.0000000001
 40
0.0
 40
0.0
 40
0.0
 40
0.0
 40
0.2895416688
 40
0.549118971
 40
0.7822562702
 40
1.0
 40
1.0
 40
1.0
 40
1.0
 10
60.1069428069
 20
127.4624907163
 30
0.0
 10
60.0718603699
 20
127.4422359827
 30
0.0
 10
60.0081973467
 20
127.3983381526
 30
0.0
 10
59.9320437843
 20
127.3183895685
 30
0.0
 10
59.8838624629
 20
127.2298779965
 30
0.0
 10
59.87267534
 20
127.1663625432
 30
0.0
 10
59.8726753494
 20
127.135898113
 30
0.0
  0
SPLINE
  5
3A4
100
AcDbEntity
  8
0
100
AcDbSpline
 62
7
  6
CONTINUOUS
 70
0
 71
3
 72
12
 73
8
 74
0
 42
0.0000001
 43
0.0000001
 44
0.0000000001
 40
0.0
 40
0.0
 40
0.0
 40
0.0
 40
0.260236991
 40
0.3795536193
 40
0.4965645482
 40
0.7368497447
 40
1.0
 40
1.0
 40
1.0
 40
1.0
 10
28.7276212874
 20
68.5871348194
 30
0.0
 10
28.984096206
 20
68.4390483527
 30
0.0
 10
29.3410377752
 20
68.1836726426
 30
0.0
 10
29.7104870021
 20
67.7531475007
 30
0.0
 10
29.9948519203
 20
67.2886474981
 30
0.0
 10
30.2184599857
 20
66.6091815744
 30
0.0
 10
30.2704344417
 20
66.0349013297
 30
0.0
 10
30.2742201979
 20
65.7354528541
 30
0.0
  0
SPLINE
  5
3A5
100
AcDbEntity
  8
0
100
AcDbSpline
 62
7
  6
CONTINUOUS
 70
0
 71
3
 72
11
 73
7
 74
0
 42
0.0000001
 43
0.0000001
 44
0.0000000001
 40
0.0
 40
0.0
 40
0.0
 40
0.0
 40
0.2372405738
 40
0.5000004574
 40
0.7627600882
 40
1.0
 40
1.0
 40
1.0
 40
1.0
 10
67.7436760247
 20
130.2385577613
 30
0.0
 10
67.5428963736
 20
130.3544753245
 30
0.0
 10
67.0759874946
 20
130.5236257047
 30
0.0
 10
66.3294604105
 20
130.6046652582
 30
0.0
 10
65.5829343447
 20
130.5236223619
 30
0.0
 10
65.116027155
 20
130.3544696502
 30
0.0
 10
64.9152489
 20
130.2385509626
 30
0.0
  0
SPLINE
  5
3A6
100
AcDbEntity
  8
0
100
AcDbSpline
 62
7
  6
CONTINUOUS
 70
0
 71
3
 72
11
 73
7
 74
0
 42
0.0000001
 43
0.0000001
 44
0.0000000001
 40
0.0
 40
0.0
 40
0.0
 40
0.0
 40
0.2177833598
 40
0.4509104088
 40
0.7102966711
 40
1.0
 40
1.0
 40
1.0
 40
1.0
 10
26.5683728459
 20
90.9252146456
 30
0.0
 10
26.6574366428
 20
90.9766353617
 30
0.0
 10
26.8240713461
 20
91.1167248243
 30
0.0
 10
27.0014737371
 20
91.4067858115
 30
0.0
 10
27.1068403248
 20
91.7642487837
 30
0.0
 10
27.1275818685
 20
92.0244210002
 30
0.0
 10
27.1275818685
 20
92.1612249862
 30
0.0
  0
SPLINE
  5
3A7
100
AcDbEntity
  8
0
100
AcDbSpline
 62
7
  6
CONTINUOUS
 70
0
 71
3
 72
11
 73
7
 74
0
 42
0.0000001
 43
0.0000001
 44
0.0000000001
 40
0.0
 40
0.0
 40
0.0
 40
0.0
 40
0.2177793583
 40
0.450922273
 40
0.7102594722
 40
1.0
 40
1.0
 40
1.0
 40
1.0
 10
31.9639796265
 20
120.1224060508
 30
0.0
 10
31.8468673052
 20
120.0548186353
 30
0.0
 10
31.6277842878
 20
119.8705914923
 30
0.0
 10
31.3945362264
 20
119.4892498435
 30
0.0
 10
31.2559552938
 20
119.0192561594
 30
0.0
 10
31.2287217647
 20
118.6771795129
 30
0.0
 10
31.2287217647
 20
118.497283941
 30
0.0
  0
SPLINE
  5
3A8
100
AcDbEntity
  8
0
100
AcDbSpline
 62
7
  6
CONTINUOUS
 70
0
 71
3
 72
13
 73
9
 74
0
 42
0.0000001
 43
0.0000001
 44
0.0000000001
 40
0.0
 40
0.0
 40
0.0
 40
0.0
 40
0.1142187468
 40
0.2375426804
 40
0.4999649247
 40
0.7624063597
 40
0.8857527465
 40
1.0
 40
1.0
 40
1.0
 40
1.0
 10
27.1275818685
 20
92.1612249862
 30
0.0
 10
27.1275818685
 20
92.312044775
 30
0.0
 10
27.0999225444
 20
92.6260194109
 30
0.0
 10
26.9499859911
 20
93.2705676937
 30
0.0
 10
26.6014980596
 20
94.0611637394
 30
0.0
 10
26.091272225
 20
94.7584449384
 30
0.0
 10
25.6081488122
 20
95.210812642
 30
0.0
 10
25.3500935246
 20
95.3919044823
 30
0.0
 10
25.2194840037
 20
95.4673969809
 30
0.0
  0
SPLINE
  5
3A9
100
AcDbEntity
  8
0
100
AcDbSpline
 62
7
  6
CONTINUOUS
 70
0
 71
3
 72
11
 73
7
 74
0
 42
0.0000001
 43
0.0000001
 44
0.0000000001
 40
0.0
 40
0.0
 40
0.0
 40
0.0
 40
0.2897464723
 40
0.5490791963
 40
0.7822218246
 40
1.0
 40
1.0
 40
1.0
 40
1.0
 10
74.7866808338
 20
40.4402968325
 30
0.0
 10
74.7866808338
 20
40.235059453
 30
0.0
 10
74.7556145079
 20
39.8448008115
 30
0.0
 10
74.5975092135
 20
39.30861185
 30
0.0
 10
74.3314150964
 20
38.8735602076
 30
0.0
 10
74.081471842
 20
38.6633908915
 30
0.0
 10
73.9478657198
 20
38.5862839628
 30
0.0
  0
SPLINE
  5
3AA
100
AcDbEntity
  8
0
100
AcDbSpline
 62
7
  6
CONTINUOUS
 70
0
 71
3
 72
16
 73
12
 74
0
 42
0.0000001
 43
0.0000001
 44
0.0000000001
 40
0.0
 40
0.0
 40
0.0
 40
0.0
 40
0.1514855822
 40
0.3021853006
 40
0.4473887357
 40
0.5829268902
 40
0.7057497455
 40
0.8146142354
 40
0.9109534966
 40
0.9559908005
 40
1.0
 40
1.0
 40
1.0
 40
1.0
 10
69.8527990792
 20
41.6493540307
 30
0.0
 10
69.9574028642
 20
41.412857769
 30
0.0
 10
70.1968880993
 20
40.9541204226
 30
0.0
 10
70.6332016817
 20
40.3249321942
 30
0.0
 10
71.1295225817
 20
39.7776605633
 30
0.0
 10
71.6631376541
 20
39.3375776368
 30
0.0
 10
72.2108267969
 20
39.024893382
 30
0.0
 10
72.749588658
 20
38.8543998866
 30
0.0
 10
73.1846134142
 20
38.8424197266
 30
0.0
 10
73.4934897414
 20
38.918253989
 30
0.0
 10
73.6327996715
 20
38.9817430515
 30
0.0
 10
73.6978681095
 20
39.0192950999
 30
0.0
  0
SPLINE
  5
3AB
100
AcDbEntity
  8
0
100
AcDbSpline
 62
7
  6
CONTINUOUS
 70
0
 71
3
 72
11
 73
7
 74
0
 42
0.0000001
 43
0.0000001
 44
0.0000000001
 40
0.0
 40
0.0
 40
0.0
 40
0.0
 40
0.2277040937
 40
0.4757368197
 40
0.7362765788
 40
1.0
 40
1.0
 40
1.0
 40
1.0
 10
75.3523639036
 20
40.7668921556
 30
0.0
 10
75.3523639036
 20
41.0411781446
 30
0.0
 10
75.2914375087
 20
41.6148498962
 30
0.0
 10
75.0548529491
 20
42.4728047835
 30
0.0
 10
74.6812736494
 20
43.3279396853
 30
0.0
 10
74.3517912631
 20
43.8693528004
 30
0.0
 10
74.1683377174
 20
44.1287009847
 30
0.0
  0
SPLINE
  5
3AC
100
AcDbEntity
  8
0
100
AcDbSpline
 62
7
  6
CONTINUOUS
 70
0
 71
3
 72
17
 73
13
 74
0
 42
0.0000001
 43
0.0000001
 44
0.0000000001
 40
0.0
 40
0.0
 40
0.0
 40
0.0
 40
0.1156896514
 40
0.2394335224
 40
0.3682563439
 40
0.4994742034
 40
0.5654905938
 40
0.6313475447
 40
0.69673335
 40
0.7612438722
 40
0.8852274649
 40
1.0
 40
1.0
 40
1.0
 40
1.0
 10
30.2742201979
 20
78.8057859931
 30
0.0
 10
30.270157307
 20
78.4797251248
 30
0.0
 10
30.205886647
 20
77.8048392137
 30
0.0
 10
29.9536819034
 20
76.793749031
 30
0.0
 10
29.5118414416
 20
75.7991386037
 30
0.0
 10
28.952957763
 20
75.0550924973
 30
0.0
 10
28.3884636558
 20
74.5701356124
 30
0.0
 10
27.9130178188
 20
74.2771441592
 30
0.0
 10
27.399557842
 20
74.0680234872
 30
0.0
 10
26.6984671657
 20
73.9111171413
 30
0.0
 10
25.8289878123
 20
73.9286965714
 30
0.0
 10
25.1803704768
 20
74.1570428223
 30
0.0
 10
24.9002086609
 20
74.3187906629
 30
0.0
  0
SPLINE
  5
3AD
100
AcDbEntity
  8
0
100
AcDbSpline
 62
7
  6
CONTINUOUS
 70
0
 71
3
 72
11
 73
7
 74
0
 42
0.0000001
 43
0.0000001
 44
0.0000000001
 40
0.0
 40
0.0
 40
0.0
 40
0.0
 40
0.2895416688
 40
0.549118971
 40
0.7822562702
 40
1.0
 40
1.0
 40
1.0
 40
1.0
 10
47.3789677543
 20
134.8108242976
 30
0.0
 10
47.3438853172
 20
134.7905695641
 30
0.0
 10
47.280222294
 20
134.746671734
 30
0.0
 10
47.2040687316
 20
134.6667231499
 30
0.0
 10
47.1558874102
 20
134.5782115779
 30
0.0
 10
47.1447002873
 20
134.5146961245
 30
0.0
 10
47.1447002968
 20
134.4842316943
 30
0.0
  0
SPLINE
  5
3AE
100
AcDbEntity
  8
0
100
AcDbSpline
 62
7
  6
CONTINUOUS
 70
0
 71
3
 72
11
 73
7
 74
0
 42
0.0000001
 43
0.0000001
 44
0.0000000001
 40
0.0
 40
0.0
 40
0.0
 40
0.0
 40
0.2372405738
 40
0.5000004574
 40
0.7627600882
 40
1.0
 40
1.0
 40
1.0
 40
1.0
 10
55.0157009721
 20
137.5868913427
 30
0.0
 10
54.8149213209
 20
137.7028089059
 30
0.0
 10
54.348012442
 20
137.8719592861
 30
0.0
 10
53.6014853579
 20
137.9529988396
 30
0.0
 10
52.8549592921
 20
137.8719559432
 30
0.0
 10
52.3880521024
 20
137.7028032316
 30
0.0
 10
52.1872738473
 20
137.586884544
 30
0.0
  0
SPLINE
  5
3AF
100
AcDbEntity
  8
0
100
AcDbSpline
 62
7
  6
CONTINUOUS
 70
0
 71
3
 72
11
 73
7
 74
0
 42
0.0000001
 43
0.0000001
 44
0.0000000001
 40
0.0
 40
0.0
 40
0.0
 40
0.0
 40
0.2177806852
 40
0.4509251718
 40
0.7102606761
 40
1.0
 40
1.0
 40
1.0
 40
1.0
 10
36.3296232677
 20
113.8672372809
 30
0.0
 10
36.4632313391
 20
113.9443441566
 30
0.0
 10
36.7131736694
 20
114.1545196652
 30
0.0
 10
36.9792706593
 20
114.5895742678
 30
0.0
 10
37.1373722831
 20
115.1257624785
 30
0.0
 10
37.1684387456
 20
115.5160173682
 30
0.0
 10
37.1684387456
 20
115.7212495297
 30
0.0
  0
SPLINE
  5
3B0
100
AcDbEntity
  8
0
100
AcDbSpline
 62
7
  6
CONTINUOUS
 70
0
 71
3
 72
11
 73
7
 74
0
 42
0.0000001
 43
0.0000001
 44
0.0000000001
 40
0.0
 40
0.0
 40
0.0
 40
0.0
 40
0.2372416196
 40
0.5000015492
 40
0.7627606319
 40
1.0
 40
1.0
 40
1.0
 40
1.0
 10
66.690371043
 20
74.9172788403
 30
0.0
 10
66.690371043
 20
75.149119196
 30
0.0
 10
66.7773324072
 20
75.6380519302
 30
0.0
 10
67.0804095836
 20
76.3250867018
 30
0.0
 10
67.5238560284
 20
76.9310771968
 30
0.0
 10
67.9038006856
 20
77.2508534235
 30
0.0
 10
68.1045787174
 20
77.3667719823
 30
0.0
  0
SPLINE
  5
3B1
100
AcDbEntity
  8
0
100
AcDbSpline
 62
7
  6
CONTINUOUS
 70
0
 71
3
 72
17
 73
13
 74
0
 42
0.0000001
 43
0.0000001
 44
0.0000000001
 40
0.0
 40
0.0
 40
0.0
 40
0.0
 40
0.0428582532
 40
0.0874871768
 40
0.1353189084
 40
0.1872843038
 40
0.3045447318
 40
0.4382119605
 40
0.582555363
 40
0.7297158282
 40
0.8713052736
 40
1.0
 40
1.0
 40
1.0
 40
1.0
 10
31.7139820162
 20
120.555417188
 30
0.0
 10
31.8138354009
 20
120.6130446956
 30
0.0
 10
32.0339078594
 20
120.704573919
 30
0.0
 10
32.3972253584
 20
120.757731206
 30
0.0
 10
32.7873914981
 20
120.72912912
 30
0.0
 10
33.3542702358
 20
120.5782409883
 30
0.0
 10
34.0789894385
 20
120.1820670177
 30
0.0
 10
34.8796485857
 20
119.4729560703
 30
0.0
 10
35.5874026717
 20
118.5670496828
 30
0.0
 10
36.1443976388
 20
117.5374978908
 30
0.0
 10
36.5059141011
 20
116.4687457417
 30
0.0
 10
36.6027556759
 20
115.7408448891
 30
0.0
 10
36.6027556759
 20
115.3946542066
 30
0.0
  0
SPLINE
  5
3B2
100
AcDbEntity
  8
0
100
AcDbSpline
 62
7
  6
CONTINUOUS
 70
0
 71
3
 72
11
 73
7
 74
0
 42
0.0000001
 43
0.0000001
 44
0.0000000001
 40
0.0
 40
0.0
 40
0.0
 40
0.0
 40
0.2177817009
 40
0.4509079353
 40
0.7102947134
 40
1.0
 40
1.0
 40
1.0
 40
1.0
 10
97.3209571016
 20
112.6841985182
 30
0.0
 10
97.3209570875
 20
112.7603753457
 30
0.0
 10
97.292805977
 20
112.9191519669
 30
0.0
 10
97.1724368493
 20
113.1403786031
 30
0.0
 10
96.9821503731
 20
113.3403584047
 30
0.0
 10
96.8229336222
 20
113.450020367
 30
0.0
 10
96.7351747557
 20
113.500686826
 30
0.0
  0
SPLINE
  5
3B3
100
AcDbEntity
  8
0
100
AcDbSpline
 62
7
  6
CONTINUOUS
 70
0
 71
3
 72
11
 73
7
 74
0
 42
0.0000001
 43
0.0000001
 44
0.0000000001
 40
0.0
 40
0.0
 40
0.0
 40
0.0
 40
0.2177817009
 40
0.4509079353
 40
0.7102947134
 40
1.0
 40
1.0
 40
1.0
 40
1.0
 10
84.5929820489
 20
120.0325320996
 30
0.0
 10
84.5929820348
 20
120.1087089271
 30
0.0
 10
84.5648309243
 20
120.2674855483
 30
0.0
 10
84.4444617966
 20
120.4887121845
 30
0.0
 10
84.2541753204
 20
120.6886919861
 30
0.0
 10
84.0949585695
 20
120.7983539484
 30
0.0
 10
84.0071997031
 20
120.8490204073
 30
0.0
  0
SPLINE
  5
3B4
100
AcDbEntity
  8
0
100
AcDbSpline
 62
7
  6
CONTINUOUS
 70
0
 71
3
 72
11
 73
7
 74
0
 42
0.0000001
 43
0.0000001
 44
0.0000000001
 40
0.0
 40
0.0
 40
0.0
 40
0.0
 40
0.2897033281
 40
0.5490895198
 40
0.7822165953
 40
1.0
 40
1.0
 40
1.0
 40
1.0
 10
26.7740299498
 20
91.9571029093
 30
0.0
 10
26.7740299498
 20
91.8202989232
 30
0.0
 10
26.7532884528
 20
91.560126736
 30
0.0
 10
26.6479218384
 20
91.2026637847
 30
0.0
 10
26.4705194534
 20
90.9126028148
 30
0.0
 10
26.3038847667
 20
90.7725132541
 30
0.0
 10
26.2148209273
 20
90.7210925687
 30
0.0
  0
SPLINE
  5
3B5
100
AcDbEntity
  8
0
100
AcDbSpline
 62
7
  6
CONTINUOUS
 70
0
 71
3
 72
13
 73
9
 74
0
 42
0.0000001
 43
0.0000001
 44
0.0000000001
 40
0.0
 40
0.0
 40
0.0
 40
0.0
 40
0.1142472153
 40
0.2375935366
 40
0.5000349381
 40
0.7624572159
 40
0.885781215
 40
1.0
 40
1.0
 40
1.0
 40
1.0
 10
24.8659320851
 20
95.2632749039
 30
0.0
 10
24.9965415623
 20
95.1877824306
 30
0.0
 10
25.2545967639
 20
95.0066907079
 30
0.0
 10
25.7377200422
 20
94.5543231233
 30
0.0
 10
26.2479459066
 20
93.8570420686
 30
0.0
 10
26.5964339779
 20
93.0664459766
 30
0.0
 10
26.7463705671
 20
92.4218975177
 30
0.0
 10
26.7740299498
 20
92.1079227485
 30
0.0
 10
26.7740299498
 20
91.9571029093
 30
0.0
  0
SPLINE
  5
3B6
100
AcDbEntity
  8
0
100
AcDbSpline
 62
7
  6
CONTINUOUS
 70
0
 71
3
 72
11
 73
7
 74
0
 42
0.0000001
 43
0.0000001
 44
0.0000000001
 40
0.0
 40
0.0
 40
0.0
 40
0.0
 40
0.2177817009
 40
0.4509079353
 40
0.7102947134
 40
1.0
 40
1.0
 40
1.0
 40
1.0
 10
71.8650069963
 20
127.3808656809
 30
0.0
 10
71.8650069822
 20
127.4570425085
 30
0.0
 10
71.8368558717
 20
127.6158191297
 30
0.0
 10
71.716486744
 20
127.8370457658
 30
0.0
 10
71.5262002678
 20
128.0370255674
 30
0.0
 10
71.3669835169
 20
128.1466875298
 30
0.0
 10
71.2792246505
 20
128.1973539887
 30
0.0
  0
SPLINE
  5
3B7
100
AcDbEntity
  8
0
100
AcDbSpline
 62
7
  6
CONTINUOUS
 70
0
 71
3
 72
13
 73
9
 74
0
 42
0.0000001
 43
0.0000001
 44
0.0000000001
 40
0.0
 40
0.0
 40
0.0
 40
0.0
 40
0.1119157118
 40
0.2341576724
 40
0.3626925201
 40
0.4932637918
 40
0.7503531227
 40
1.0
 40
1.0
 40
1.0
 40
1.0
 10
29.038010584
 20
71.7942257831
 30
0.0
 10
29.038010584
 20
71.72777986
 30
0.0
 10
29.0079654679
 20
71.5881577586
 30
0.0
 10
28.8948947236
 20
71.4012714453
 30
0.0
 10
28.7255132751
 20
71.24658826
 30
0.0
 10
28.4503436616
 20
71.1047341335
 30
0.0
 10
28.0616696599
 20
71.0594924957
 30
0.0
 10
27.763979844
 20
71.1499608214
 30
0.0
 10
27.6356118806
 20
71.2240586694
 30
0.0
  0
SPLINE
  5
3B8
100
AcDbEntity
  8
0
100
AcDbSpline
 62
7
  6
CONTINUOUS
 70
0
 71
3
 72
11
 73
7
 74
0
 42
0.0000001
 43
0.0000001
 44
0.0000000001
 40
0.0
 40
0.0
 40
0.0
 40
0.0
 40
0.2177817009
 40
0.4509079353
 40
0.7102947134
 40
1.0
 40
1.0
 40
1.0
 40
1.0
 10
59.1370319436
 20
134.7291992623
 30
0.0
 10
59.1370319295
 20
134.8053760898
 30
0.0
 10
59.108880819
 20
134.964152711
 30
0.0
 10
58.9885116913
 20
135.1853793472
 30
0.0
 10
58.7982252151
 20
135.3853591488
 30
0.0
 10
58.6390084642
 20
135.4950211111
 30
0.0
 10
58.5512495978
 20
135.5456875701
 30
0.0
  0
ENDSEC
  0
SECTION
  2
OBJECTS
  0
DICTIONARY
  5
C
100
AcDbDictionary
280
0
281
1
  3
ACAD_GROUP
350
D
  3
ACAD_MLINESTYLE
350
17
  3
ACAD_LAYOUT
350
1A
  3
ACAD_PLOTSETTINGS
350
19
  3
ACAD_PLOTSTYLENAME
350
E
  0
DICTIONARY
  5
D
102
{ACAD_REACTORS
330
C
102
}
100
AcDbDictionary
280
0
281
1
  0
ACDBDICTIONARYWDFLT
  5
E
102
{ACAD_REACTORS
330
C
102
}
100
AcDbDictionary
281
1
  3
Normal
350
F
100
AcDbDictionaryWithDefault
340
F
  0
DICTIONARY
  5
17
102
{ACAD_REACTORS
330
C
102
}
100
AcDbDictionary
280
0
281
1
  3
Standard
350
18
  0
DICTIONARY
  5
19
102
{ACAD_REACTORS
330
C
102
}
100
AcDbDictionary
281
1
  0
DICTIONARY
  5
1A
102
{ACAD_REACTORS
330
C
102
}
100
AcDbDictionary
281
1
  3
Model
350
3B9
  3
Layout1
350
3BA
  0
ACDBPLACEHOLDER
  5
F
102
{ACAD_REACTORS
330
E
102
}
  0
MLINESTYLE
  5
18
102
{ACAD_REACTORS
330
17
102
}
100
AcDbMlineStyle
  2
STANDARD
 70
0
  3

 62
256
 51
90.0
 52
90.0
 71
2
 49
0.5
 62
256
  6
BYLAYER
 49
-0.5
 62
256
  6
BYLAYER
  0
LAYOUT
  5
3B9
102
{ACAD_REACTORS
330
1A
102
}
100
AcDbPlotSettings
  1

  2
none_device
  4

  6

 40
0.0
 41
0.0
 42
0.0
 43
0.0
 44
210.0
 45
297.0
 46
0.0
 47
0.0
 48
0.0
 49
0.0
140
0.0
141
0.0
142
1.0
143
1.0
 70
1024
 72
1
 73
0
 74
0
  7

 75
0
147
1.0
148
0.0
149
0.0
100
AcDbLayout
  1
Model
 70
0
 71
0
 10
0.0
 20
0.0
 11
210.0
 21
297.0
 12
0.0
 22
0.0
 32
0.0
 14
0.0
 24
0.0
 34
0.0
 15
0.0
 25
0.0
 35
0.0
146
0.0
 13
0.0
 23
0.0
 33
0.0
 16
1.0
 26
0.0
 36
0.0
 17
0.0
 27
1.0
 37
0.0
 76
0
330
210
345
0
346
0
  0
LAYOUT
  5
3BA
102
{ACAD_REACTORS
330
1A
102
}
100
AcDbPlotSettings
  1

  2
none_device
  4

  6

 40
0.0
 41
0.0
 42
0.0
 43
0.0
 44
210.0
 45
297.0
 46
0.0
 47
0.0
 48
0.0
 49
0.0
140
0.0
141
0.0
142
1.0
143
1.0
 70
0
 72
1
 73
0
 74
0
  7

 75
0
147
1.0
148
0.0
149
0.0
100
AcDbLayout
  1
Layout1
 70
0
 71
1
 10
0.0
 20
0.0
 11
210.0
 21
297.0
 12
0.0
 22
0.0
 32
0.0
 14
0.0
 24
0.0
 34
0.0
 15
0.0
 25
0.0
 35
0.0
146
0.0
 13
0.0
 23
0.0
 33
0.0
 16
1.0
 26
0.0
 36
0.0
 17
0.0
 27
1.0
 37
0.0
 76
0
330
211
345
0
346
0
  0
ENDSEC
  0
EOF
