999
DXF file: C:\Users\SESA621925\Desktop\Projects\Drawing_creation_tool\Gen2D (3) (1)\CAD\G12E3A100_3D-CAD\drw0001_1.dxf
999
Pro/ENGINEER 2019471 by Parametric Technology Corporation
  0
SECTION
  2
HEADER
  9
$ACADVER
  1
AC1024
  9
$DWGCODEPAGE
  3
ANSI_1252
  9
$EXTMAX
 10
131.5733691105
 20
186.0823363134
 30
0.0
  9
$EXTMIN
 10
0.0
 20
0.0
 30
0.0
  9
$LIMMIN
 10
0.0
 20
0.0
  9
$LIMMAX
 10
131.5733691105
 20
186.0823363134
  9
$VIEWCTR
 10
65.7866845552
 20
93.0411681567
  9
$VIEWSIZE
 40
186.0823363134
  9
$CLAYER
  8
0
  9
$LTSCALE
 40
12.1298115523
  9
$CELTYPE
  6
BYLAYER
  9
$DIMSCALE
 40
1.0
  9
$DIMASZ
 40
1.5663496323
  9
$DIMEXO
 40
1.0
  9
$DIMDLI
 40
8.3805970725
  9
$DIMEXE
 40
1.0
  9
$DIMCEN
 40
1.984878254
  9
$DIMLFAC
 40
1.0
  9
$DIMBLK
  1
_FILLED
  9
$DIMALT
 70
0
  9
$DIMALTF
 40
0.0393700787
  9
$DIMTXT
 40
2.1928894852
  9
$DIMTOL
 70
1
  9
$DIMLIM
 70
0
  9
$DIMTFAC
 40
1.0
  9
$DIMTP
 40
0.01
  9
$DIMTM
 40
0.01
  9
$DIMGAP
 40
0.625
  9
$DIMDSEP
 70
46
  9
$AUNITS
 70
0
  9
$PDMODE
 70
3
  9
$PDSIZE
 40
0.3125
  9
$HANDSEED
  5
4B6
  9
$TILEMODE
 70
1
  9
$MEASUREMENT
 70
1
  9
$INSUNITS
 70
4
  0
ENDSEC
  0
SECTION
  2
CLASSES
  0
CLASS
  1
ACDBDICTIONARYWDFLT
  2
AcDbDictionaryWithDefault
  3
AutoCAD 2000
 90
0
 91
1
280
0
281
0
  0
CLASS
  1
ACDBPLACEHOLDER
  2
AcDbPlaceHolder
  3
AutoCAD 2000
 90
0
 91
1
280
0
281
0
  0
CLASS
  1
LAYOUT
  2
AcDbLayout
  3
AutoCAD 2000
 90
0
 91
0
280
0
281
0
  0
ENDSEC
  0
SECTION
  2
TABLES
  0
TABLE
  2
VPORT
  5
8
100
AcDbSymbolTable
 70
2
  0
VPORT
  5
1F4
100
AcDbSymbolTableRecord
100
AcDbViewportTableRecord
  2
*ACTIVE
 70
0
 10
0.0
 20
0.0
 11
1.0
 21
1.0
 12
65.7866845552
 22
93.0411681567
 13
0.0
 23
0.0
 14
1.0
 24
1.0
 15
0.0
 25
0.0
 16
0.0
 26
0.0
 36
1.0
 17
0.0
 27
0.0
 37
0.0
 40
186.0823363134
 41
0.7070707071
 42
50.0
 43
0.0
 44
0.0
 50
0.0
 51
0.0
 71
0
 72
100
 73
1
 74
1
 75
0
 76
0
 77
0
 78
0
  0
ENDTAB
  0
TABLE
  2
LTYPE
  5
5
100
AcDbSymbolTable
 70
6
  0
LTYPE
  5
14
100
AcDbSymbolTableRecord
100
AcDbLinetypeTableRecord
  2
BYBLOCK
 70
0
  3

 72
65
 73
0
 40
0.0
  0
LTYPE
  5
15
100
AcDbSymbolTableRecord
100
AcDbLinetypeTableRecord
  2
BYLAYER
 70
0
  3

 72
65
 73
0
 40
0.0
  0
LTYPE
  5
16
100
AcDbSymbolTableRecord
100
AcDbLinetypeTableRecord
  2
CONTINUOUS
 70
64
  3
Solid line
 72
65
 73
0
 40
0.0
  0
LTYPE
  5
1F5
100
AcDbSymbolTableRecord
100
AcDbLinetypeTableRecord
  2
CENTER
 70
64
  3
____ _ ____ _ ____ _ ____ _ ____ _ ____ _ ____
 72
65
 73
4
 40
0.6
 49
0.375
 74
0
 49
-0.075
 74
0
 49
0.075
 74
0
 49
-0.075
 74
0
  0
LTYPE
  5
1F6
100
AcDbSymbolTableRecord
100
AcDbLinetypeTableRecord
  2
HIDDEN
 70
64
  3
- - - - - - - - - - - - - - - - - - - -
 72
65
 73
2
 40
0.2
 49
0.1
 74
0
 49
-0.1
 74
0
  0
LTYPE
  5
1F7
100
AcDbSymbolTableRecord
100
AcDbLinetypeTableRecord
  2
PHANTOM
 70
64
  3
_____ _ _ _____ _ _ _____ _ _ _____
 72
65
 73
6
 40
0.8
 49
0.45
 74
0
 49
-0.05
 74
0
 49
0.1
 74
0
 49
-0.05
 74
0
 49
0.1
 74
0
 49
-0.05
 74
0
  0
LTYPE
  5
1F8
100
AcDbSymbolTableRecord
100
AcDbLinetypeTableRecord
  2
DOT
 70
64
  3
. . . . . . . . . . . . . . . . . . . .
 72
65
 73
2
 40
0.2
 49
0.1
 74
0
 49
-0.1
 74
0
  0
LTYPE
  5
1F9
100
AcDbSymbolTableRecord
100
AcDbLinetypeTableRecord
  2
DASHED
 70
64
  3
- - - - - - - - - - - - - - - - - - - -
 72
65
 73
2
 40
0.2
 49
0.1
 74
0
 49
-0.1
 74
0
  0
ENDTAB
  0
TABLE
  2
LAYER
  5
2
100
AcDbSymbolTable
 70
36
  0
LAYER
  5
10
100
AcDbSymbolTableRecord
100
AcDbLayerTableRecord
  2
0
 70
0
 62
7
  6
CONTINUOUS
370
-3
390
F
  0
LAYER
  5
1FA
100
AcDbSymbolTableRecord
100
AcDbLayerTableRecord
  2
DEFAULT_1
 70
0
 62
7
  6
CENTER
370
-3
390
F
  0
LAYER
  5
1FB
100
AcDbSymbolTableRecord
100
AcDbLayerTableRecord
  2
DEFAULT_2
 70
0
 62
8
  6
HIDDEN
370
-3
390
F
  0
LAYER
  5
1FC
100
AcDbSymbolTableRecord
100
AcDbLayerTableRecord
  2
DEFAULT_3
 70
0
 62
7
  6
PHANTOM
370
-3
390
F
  0
LAYER
  5
1FD
100
AcDbSymbolTableRecord
100
AcDbLayerTableRecord
  2
00_COMPONENTS
 70
0
 62
7
  6
CONTINUOUS
370
-3
390
F
  0
LAYER
  5
1FE
100
AcDbSymbolTableRecord
100
AcDbLayerTableRecord
  2
00_COMPONENTS_2
 70
0
 62
7
  6
CONTINUOUS
370
-3
390
F
  0
LAYER
  5
1FF
100
AcDbSymbolTableRecord
100
AcDbLayerTableRecord
  2
00_COMPONENTS_3
 70
0
 62
7
  6
CONTINUOUS
370
-3
390
F
  0
LAYER
  5
200
100
AcDbSymbolTableRecord
100
AcDbLayerTableRecord
  2
01_1_DEFAULT_DATUMS
 70
0
 62
7
  6
CONTINUOUS
370
-3
390
F
  0
LAYER
  5
201
100
AcDbSymbolTableRecord
100
AcDbLayerTableRecord
  2
01_PLANES
 70
0
 62
7
  6
CONTINUOUS
370
-3
390
F
  0
LAYER
  5
202
100
AcDbSymbolTableRecord
100
AcDbLayerTableRecord
  2
02_COORD_SYS
 70
0
 62
7
  6
CONTINUOUS
370
-3
390
F
  0
LAYER
  5
203
100
AcDbSymbolTableRecord
100
AcDbLayerTableRecord
  2
03_AXES
 70
0
 62
7
  6
CONTINUOUS
370
-3
390
F
  0
LAYER
  5
204
100
AcDbSymbolTableRecord
100
AcDbLayerTableRecord
  2
04_POINTS
 70
0
 62
7
  6
CONTINUOUS
370
-3
390
F
  0
LAYER
  5
205
100
AcDbSymbolTableRecord
100
AcDbLayerTableRecord
  2
05_CURVES
 70
0
 62
7
  6
CONTINUOUS
370
-3
390
F
  0
LAYER
  5
206
100
AcDbSymbolTableRecord
100
AcDbLayerTableRecord
  2
06_SURFS
 70
0
 62
7
  6
CONTINUOUS
370
-3
390
F
  0
LAYER
  5
207
100
AcDbSymbolTableRecord
100
AcDbLayerTableRecord
  2
07_COSMETICS
 70
0
 62
7
  6
CONTINUOUS
370
-3
390
F
  0
LAYER
  5
208
100
AcDbSymbolTableRecord
100
AcDbLayerTableRecord
  2
10_NOTES
 70
0
 62
7
  6
CONTINUOUS
370
-3
390
F
  0
LAYER
  5
209
100
AcDbSymbolTableRecord
100
AcDbLayerTableRecord
  2
11_NOTES_PUB
 70
0
 62
7
  6
CONTINUOUS
370
-3
390
F
  0
LAYER
  5
20A
100
AcDbSymbolTableRecord
100
AcDbLayerTableRecord
  2
13_REF_GTOL
 70
0
 62
7
  6
CONTINUOUS
370
-3
390
F
  0
LAYER
  5
20B
100
AcDbSymbolTableRecord
100
AcDbLayerTableRecord
  2
16_MISC
 70
0
 62
7
  6
CONTINUOUS
370
-3
390
F
  0
LAYER
  5
20C
100
AcDbSymbolTableRecord
100
AcDbLayerTableRecord
  2
17_NO_PRINT
 70
0
 62
7
  6
CONTINUOUS
370
-3
390
F
  0
LAYER
  5
20D
100
AcDbSymbolTableRecord
100
AcDbLayerTableRecord
  2
18_DATUM_CAMS_JOINTS
 70
0
 62
7
  6
CONTINUOUS
370
-3
390
F
  0
LAYER
  5
20E
100
AcDbSymbolTableRecord
100
AcDbLayerTableRecord
  2
19_DATUM_FUNCTIONAL
 70
0
 62
7
  6
CONTINUOUS
370
-3
390
F
  0
LAYER
  5
20F
100
AcDbSymbolTableRecord
100
AcDbLayerTableRecord
  2
20_DATUM_KINEMATIC_SCHEME
 70
0
 62
7
  6
CONTINUOUS
370
-3
390
F
  0
ENDTAB
  0
TABLE
  2
STYLE
  5
3
100
AcDbSymbolTable
 70
1
  0
STYLE
  5
11
100
AcDbSymbolTableRecord
100
AcDbTextStyleTableRecord
  2
STANDARD
 70
0
 40
0.0
 41
0.8
 50
0.0
 71
0
 42
0.2
  3
txt
  4

  0
STYLE
  5
210
100
AcDbSymbolTableRecord
100
AcDbTextStyleTableRecord
  2
TEXTSTYLE_1
 70
0
 40
0.0
 41
0.8
 50
0.0
 71
0
 42
0.2
  3
gdt
  4

  0
ENDTAB
  0
TABLE
  2
VIEW
  5
6
100
AcDbSymbolTable
 70
0
  0
ENDTAB
  0
TABLE
  2
UCS
  5
7
100
AcDbSymbolTable
 70
0
  0
ENDTAB
  0
TABLE
  2
APPID
  5
9
100
AcDbSymbolTable
 70
1
  0
APPID
  5
211
100
AcDbSymbolTableRecord
100
AcDbRegAppTableRecord
  2
ACAD
 70
0
  0
ENDTAB
  0
TABLE
  2
BLOCK_RECORD
  5
1
100
AcDbSymbolTable
 70
0
  0
BLOCK_RECORD
  5
212
100
AcDbSymbolTableRecord
100
AcDbBlockTableRecord
  2
*Model_Space
  0
BLOCK_RECORD
  5
213
100
AcDbSymbolTableRecord
100
AcDbBlockTableRecord
  2
*Paper_Space
  0
BLOCK_RECORD
  5
214
100
AcDbSymbolTableRecord
100
AcDbBlockTableRecord
  2
_FILLED
  0
ENDTAB
  0
TABLE
  2
DIMSTYLE
  5
A
100
AcDbSymbolTable
 70
1
100
AcDbDimStyleTable
 71
0
  0
DIMSTYLE
105
215
100
AcDbSymbolTableRecord
100
AcDbDimStyleTableRecord
  2
STANDARD
 70
0
  3

  4

 40
1.0
 41
1.5663496323
 42
1.0
 43
0.38
 44
1.0
 45
0.0
 46
0.0
 47
0.01
 48
0.01
140
2.1928894852
141
0.09
142
0.0
143
25.4
144
1.0
145
0.0
146
1.0
147
0.625
 71
1
 72
0
 73
0
 74
0
 75
0
 76
0
 77
1
 78
8
 79
2
170
0
171
1
172
0
173
0
174
0
175
0
176
0
177
0
178
0
270
2
179
2
271
2
272
2
273
2
274
2
275
0
280
0
281
0
282
0
283
1
284
8
285
0
286
0
287
3
288
0
340
11
278
46
341
214
342
214
343
214
344
214
  0
ENDTAB
  0
ENDSEC
  0
SECTION
  2
BLOCKS
  0
BLOCK
  5
20
100
AcDbEntity
  8
0
100
AcDbBlockBegin
  2
*Model_Space
 70
0
 10
0.0
 20
0.0
 30
0.0
  3
*Model_Space
  1

  0
ENDBLK
  5
21
100
AcDbEntity
  8
0
100
AcDbBlockEnd
  0
BLOCK
  5
1C
100
AcDbEntity
  8
0
100
AcDbBlockBegin
  2
*Paper_Space
 70
0
 10
0.0
 20
0.0
 30
0.0
  3
*Paper_Space
  1

  0
ENDBLK
  5
1D
100
AcDbEntity
  8
0
100
AcDbBlockEnd
  0
BLOCK
  5
216
100
AcDbEntity
  8
0
100
AcDbBlockBegin
  2
_FILLED
 70
64
 10
0.0
 20
0.0
  3
_FILLED
  1

  0
SOLID
  5
217
100
AcDbEntity
  8
0
  6
BYBLOCK
 62
0
100
AcDbTrace
 10
0.0
 20
0.0
 11
-1.0
 21
0.25
 12
-1.0
 22
-0.25
 13
-1.0
 23
-0.25
  0
ENDBLK
  5
218
100
AcDbEntity
  8
0
  6
BYBLOCK
 62
0
100
AcDbBlockEnd
  0
ENDSEC
  0
SECTION
  2
ENTITIES
  0
LINE
  5
219
100
AcDbEntity
  8
00_COMPONENTS
100
AcDbLine
 62
7
  6
CONTINUOUS
 10
26.1391989069
 20
149.9291857247
 11
57.765720586
 21
168.1886575353
  0
LINE
  5
21A
100
AcDbEntity
  8
00_COMPONENTS
100
AcDbLine
 62
7
  6
CONTINUOUS
 10
59.7195660241
 20
168.5002156837
 11
66.083500559
 21
172.1744130685
  0
LINE
  5
21B
100
AcDbEntity
  8
00_COMPONENTS
100
AcDbLine
 62
7
  6
CONTINUOUS
 10
53.8506153623
 20
163.5604678806
 11
30.5161887342
 21
150.0884108028
  0
LINE
  5
21C
100
AcDbEntity
  8
00_COMPONENTS
100
AcDbLine
 62
7
  6
CONTINUOUS
 10
26.5844729897
 20
147.6550902884
 11
24.8377159736
 21
146.6466056747
  0
LINE
  5
21D
100
AcDbEntity
  8
00_COMPONENTS
100
AcDbLine
 62
7
  6
CONTINUOUS
 10
55.4416122439
 20
162.6011010621
 11
54.3809564881
 21
161.9887348313
  0
LINE
  5
21E
100
AcDbEntity
  8
00_COMPONENTS
100
AcDbLine
 62
7
  6
CONTINUOUS
 10
33.2739166623
 20
148.4962718602
 11
30.9475450379
 21
147.153148594
  0
LINE
  5
21F
100
AcDbEntity
  8
00_COMPONENTS
100
AcDbLine
 62
7
  6
CONTINUOUS
 10
55.5504068201
 20
159.3917118414
 11
54.7018822154
 21
158.9018188567
  0
LINE
  5
220
100
AcDbEntity
  8
00_COMPONENTS
100
AcDbLine
 62
7
  6
CONTINUOUS
 10
52.7078045355
 20
156.5958456284
 11
53.839170675
 21
157.2490362746
  0
LINE
  5
221
100
AcDbEntity
  8
00_COMPONENTS
100
AcDbLine
 62
7
  6
CONTINUOUS
 10
26.2576360606
 20
44.1296539419
 11
31.0659821916
 21
41.3536168111
  0
LINE
  5
222
100
AcDbEntity
  8
00_COMPONENTS
100
AcDbLine
 62
7
  6
CONTINUOUS
 10
37.571391663
 20
37.5978018696
 11
42.379737794
 21
34.8217647388
  0
LINE
  5
223
100
AcDbEntity
  8
00_COMPONENTS
100
AcDbLine
 62
7
  6
CONTINUOUS
 10
43.9353791893
 20
33.9236350789
 11
48.7437253203
 21
31.1475979481
  0
LINE
  5
224
100
AcDbEntity
  8
00_COMPONENTS
100
AcDbLine
 62
7
  6
CONTINUOUS
 10
55.2491347917
 20
27.3917830065
 11
60.0574809227
 21
24.6157458758
  0
LINE
  5
225
100
AcDbEntity
  8
00_COMPONENTS
100
AcDbLine
 62
7
  6
CONTINUOUS
 10
61.613122318
 20
23.7176162159
 11
66.421468449
 21
20.9415790851
  0
LINE
  5
226
100
AcDbEntity
  8
00_COMPONENTS
100
AcDbLine
 62
7
  6
CONTINUOUS
 10
72.9268779203
 20
17.1857641435
 11
77.7352240513
 21
14.4097270128
  0
LINE
  5
227
100
AcDbEntity
  8
00_COMPONENTS
100
AcDbLine
 62
7
  6
CONTINUOUS
 10
26.0298470641
 20
44.5034107408
 11
30.8381931951
 21
41.7273736101
  0
LINE
  5
228
100
AcDbEntity
  8
00_COMPONENTS
100
AcDbLine
 62
7
  6
CONTINUOUS
 10
37.3436026665
 20
37.9715586685
 11
42.1519487975
 21
35.1955215378
  0
LINE
  5
229
100
AcDbEntity
  8
00_COMPONENTS
100
AcDbLine
 62
7
  6
CONTINUOUS
 10
43.7075901928
 20
34.2973918778
 11
48.5159363238
 21
31.5213547471
  0
LINE
  5
22A
100
AcDbEntity
  8
00_COMPONENTS
100
AcDbLine
 62
7
  6
CONTINUOUS
 10
55.0213457951
 20
27.7655398055
 11
59.8296919261
 21
24.9895026748
  0
LINE
  5
22B
100
AcDbEntity
  8
00_COMPONENTS
100
AcDbLine
 62
7
  6
CONTINUOUS
 10
61.3853333215
 20
24.0913730148
 11
66.1936794525
 21
21.3153358841
  0
LINE
  5
22C
100
AcDbEntity
  8
00_COMPONENTS
100
AcDbLine
 62
7
  6
CONTINUOUS
 10
72.6990889238
 20
17.5595209425
 11
77.5074350548
 21
14.7834838118
  0
LINE
  5
22D
100
AcDbEntity
  8
00_COMPONENTS
100
AcDbLine
 62
7
  6
CONTINUOUS
 10
77.3775877811
 20
15.5588485531
 11
76.6704780559
 21
15.9670893076
  0
LINE
  5
22E
100
AcDbEntity
  8
00_COMPONENTS
100
AcDbLine
 62
7
  6
CONTINUOUS
 10
62.669705498
 20
24.0502562471
 11
61.2554860477
 21
24.8667377561
  0
LINE
  5
22F
100
AcDbEntity
  8
00_COMPONENTS
100
AcDbLine
 62
7
  6
CONTINUOUS
 10
59.6998446524
 20
25.7648674161
 11
58.2856252021
 21
26.5813489251
  0
LINE
  5
230
100
AcDbEntity
  8
00_COMPONENTS
100
AcDbLine
 62
7
  6
CONTINUOUS
 10
44.9919623693
 20
34.2562751101
 11
43.577742919
 21
35.0727566192
  0
LINE
  5
231
100
AcDbEntity
  8
00_COMPONENTS
100
AcDbLine
 62
7
  6
CONTINUOUS
 10
42.0221015237
 20
35.9708862791
 11
40.6078820734
 21
36.7873677881
  0
LINE
  5
232
100
AcDbEntity
  8
00_COMPONENTS
100
AcDbLine
 62
7
  6
CONTINUOUS
 10
26.6071095155
 20
44.8705347276
 11
25.8999997904
 21
45.2787754822
  0
LINE
  5
233
100
AcDbEntity
  8
00_COMPONENTS
100
AcDbLine
 62
7
  6
CONTINUOUS
 10
52.9178035953
 20
156.232114416
 11
50.2308090139
 21
154.6807866313
  0
LINE
  5
234
100
AcDbEntity
  8
00_COMPONENTS
100
AcDbLine
 62
7
  6
CONTINUOUS
 10
22.5612484858
 20
136.6365471882
 11
24.2583013166
 21
137.6163352483
  0
LINE
  5
235
100
AcDbEntity
  8
00_COMPONENTS
100
AcDbLine
 62
7
  6
CONTINUOUS
 10
30.0747746452
 20
140.9337404607
 11
33.2739166623
 21
142.7807549403
  0
LINE
  5
236
100
AcDbEntity
  8
00_COMPONENTS
100
AcDbLine
 62
7
  6
CONTINUOUS
 10
50.2029171309
 20
152.3354556722
 11
49.2129464088
 21
151.763899221
  0
LINE
  5
237
100
AcDbEntity
  8
00_COMPONENTS
100
AcDbLine
 62
7
  6
CONTINUOUS
 10
39.7793261337
 20
144.7404569186
 11
37.4529545092
 21
143.3973336524
  0
LINE
  5
238
100
AcDbEntity
  8
00_COMPONENTS
100
AcDbLine
 62
7
  6
CONTINUOUS
 10
53.1950634777
 20
151.5877642235
 11
52.3465318076
 21
151.0978671596
  0
LINE
  5
239
100
AcDbEntity
  8
00_COMPONENTS
100
AcDbLine
 62
7
  6
CONTINUOUS
 10
63.2198280524
 20
156.8857253998
 11
64.2804838082
 21
157.4980916306
  0
LINE
  5
23A
100
AcDbEntity
  8
00_COMPONENTS
100
AcDbLine
 62
7
  6
CONTINUOUS
 10
34.15601431
 20
139.8606660363
 11
37.2035633156
 21
141.6201587722
  0
LINE
  5
23B
100
AcDbEntity
  8
00_COMPONENTS
100
AcDbLine
 62
7
  6
CONTINUOUS
 10
41.1937300944
 20
143.9238688848
 11
50.1454877033
 21
149.0921376996
  0
LINE
  5
23C
100
AcDbEntity
  8
00_COMPONENTS
100
AcDbLine
 62
7
  6
CONTINUOUS
 10
53.3365025297
 20
150.5263202268
 11
52.3465318076
 21
149.9547637756
  0
LINE
  5
23D
100
AcDbEntity
  8
00_COMPONENTS
100
AcDbLine
 62
7
  6
CONTINUOUS
 10
59.9319668426
 20
26.7153707329
 11
59.2248571175
 21
27.1236114874
  0
LINE
  5
23E
100
AcDbEntity
  8
00_COMPONENTS
100
AcDbLine
 62
7
  6
CONTINUOUS
 10
42.2542237139
 20
36.9213895959
 11
41.5471139888
 21
37.3296303504
  0
LINE
  5
23F
100
AcDbEntity
  8
00_COMPONENTS
100
AcDbLine
 62
7
  6
CONTINUOUS
 10
26.3328102493
 20
46.5084742354
 11
25.0246572577
 21
47.2637196313
  0
LINE
  5
240
100
AcDbEntity
  8
00_COMPONENTS
100
AcDbLine
 62
7
  6
CONTINUOUS
 10
76.3961787897
 20
17.6050288154
 11
77.7043317812
 21
16.8497834195
  0
LINE
  5
241
100
AcDbEntity
  8
00_COMPONENTS
100
AcDbLine
 62
7
  6
CONTINUOUS
 10
42.2542237139
 20
38.7176949136
 11
44.4578857011
 21
37.4454388543
  0
LINE
  5
242
100
AcDbEntity
  8
00_COMPONENTS
100
AcDbLine
 62
7
  6
CONTINUOUS
 10
59.9319668426
 20
28.5116760506
 11
62.1356288298
 21
27.2394199913
  0
LINE
  5
243
100
AcDbEntity
  8
00_COMPONENTS
100
AcDbLine
 62
7
  6
CONTINUOUS
 10
75.2409230093
 20
23.9191673297
 11
22.5612484858
 21
54.3331035415
  0
LINE
  5
244
100
AcDbEntity
  8
00_COMPONENTS
100
AcDbLine
 62
7
  6
CONTINUOUS
 10
82.8422907313
 20
19.6120456186
 11
82.6655133
 21
19.7141058072
  0
LINE
  5
245
100
AcDbEntity
  8
00_COMPONENTS
100
AcDbLine
 62
7
  6
CONTINUOUS
 10
26.0298470641
 20
44.5034107408
 11
26.2577190671
 21
44.129797373
  0
LINE
  5
246
100
AcDbEntity
  8
00_COMPONENTS
100
AcDbLine
 62
7
  6
CONTINUOUS
 10
31.0660651981
 20
41.3537602423
 11
30.8381931951
 21
41.7273736101
  0
LINE
  5
247
100
AcDbEntity
  8
00_COMPONENTS
100
AcDbLine
 62
7
  6
CONTINUOUS
 10
15.7730516486
 20
67.8871113909
 11
15.7730516486
 21
98.0977008247
  0
LINE
  5
248
100
AcDbEntity
  8
00_COMPONENTS
100
AcDbLine
 62
7
  6
CONTINUOUS
 10
54.1850341999
 20
150.0364313214
 11
53.1950634777
 21
149.4648748702
  0
LINE
  5
249
100
AcDbEntity
  8
00_COMPONENTS
100
AcDbLine
 62
7
  6
CONTINUOUS
 10
42.5370540617
 20
143.148317976
 11
65.8714806898
 21
156.6203750537
  0
LINE
  5
24A
100
AcDbEntity
  8
00_COMPONENTS
100
AcDbLine
 62
7
  6
CONTINUOUS
 10
74.4274483072
 20
160.0088079896
 11
80.7913828421
 21
163.6830053745
  0
LINE
  5
24B
100
AcDbEntity
  8
00_COMPONENTS
100
AcDbLine
 62
7
  6
CONTINUOUS
 10
42.2613006402
 20
140.6212965216
 11
73.9326953586
 21
158.9066756389
  0
LINE
  5
24C
100
AcDbEntity
  8
00_COMPONENTS
100
AcDbLine
 62
7
  6
CONTINUOUS
 10
73.9326953586
 20
157.2736708046
 11
42.0119376709
 21
138.8443227693
  0
LINE
  5
24D
100
AcDbEntity
  8
00_COMPONENTS
100
AcDbLine
 62
7
  6
CONTINUOUS
 10
43.8169420356
 20
139.7231668617
 11
75.4879089787
 21
158.0082990043
  0
LINE
  5
24E
100
AcDbEntity
  8
00_COMPONENTS
100
AcDbLine
 62
7
  6
CONTINUOUS
 10
77.3973091528
 20
158.2941968207
 11
83.7612436877
 21
161.9683942055
  0
LINE
  5
24F
100
AcDbEntity
  8
00_COMPONENTS
100
AcDbLine
 62
7
  6
CONTINUOUS
 10
43.6922536564
 20
138.8346308551
 11
42.2542237139
 21
138.0043888365
  0
LINE
  5
250
100
AcDbEntity
  8
00_COMPONENTS
100
AcDbLine
 62
7
  6
CONTINUOUS
 10
71.528358491
 20
153.3544490176
 11
48.1939318629
 21
139.8823919398
  0
LINE
  5
251
100
AcDbEntity
  8
00_COMPONENTS
100
AcDbLine
 62
7
  6
CONTINUOUS
 10
69.6207783605
 20
36.3975203019
 11
69.1706448139
 21
36.5348211962
  0
LINE
  5
252
100
AcDbEntity
  8
00_COMPONENTS_3
100
AcDbLine
 62
7
  6
CONTINUOUS
 10
28.828376366
 20
55.2844923558
 11
37.726855866
 21
50.1470690452
  0
LINE
  5
253
100
AcDbEntity
  8
00_COMPONENTS
100
AcDbLine
 62
7
  6
CONTINUOUS
 10
82.8422907313
 20
25.2928100856
 11
82.6655133
 21
25.3948702742
  0
LINE
  5
254
100
AcDbEntity
  8
00_COMPONENTS
100
AcDbLine
 62
7
  6
CONTINUOUS
 10
65.6242872714
 20
35.8401285287
 11
39.6083520369
 21
50.8600959425
  0
LINE
  5
255
100
AcDbEntity
  8
00_COMPONENTS
100
AcDbLine
 62
7
  6
CONTINUOUS
 10
28.5554530298
 20
57.2413457964
 11
18.6014905492
 21
62.9881387043
  0
LINE
  5
256
100
AcDbEntity
  8
00_COMPONENTS
100
AcDbLine
 62
7
  6
CONTINUOUS
 10
82.2865774957
 20
26.8090977258
 11
82.463354927
 21
26.7070375372
  0
LINE
  5
257
100
AcDbEntity
  8
00_COMPONENTS
100
AcDbLine
 62
7
  6
CONTINUOUS
 10
37.3436026665
 20
37.9715586685
 11
37.5714746694
 21
37.5979453007
  0
LINE
  5
258
100
AcDbEntity
  8
00_COMPONENTS
100
AcDbLine
 62
7
  6
CONTINUOUS
 10
42.3798208004
 20
34.82190817
 11
42.1519487975
 21
35.1955215378
  0
LINE
  5
259
100
AcDbEntity
  8
00_COMPONENTS
100
AcDbLine
 62
7
  6
CONTINUOUS
 10
43.7075901928
 20
34.2973918778
 11
43.9354621957
 21
33.92377851
  0
LINE
  5
25A
100
AcDbEntity
  8
00_COMPONENTS
100
AcDbLine
 62
7
  6
CONTINUOUS
 10
22.5612484858
 20
136.6365471882
 11
22.5612484858
 21
103.3696867317
  0
LINE
  5
25B
100
AcDbEntity
  8
00_COMPONENTS
100
AcDbLine
 62
7
  6
CONTINUOUS
 10
22.5612484858
 20
60.7020231125
 11
22.5612484858
 21
54.3331035415
  0
LINE
  5
25C
100
AcDbEntity
  8
00_COMPONENTS
100
AcDbLine
 62
7
  6
CONTINUOUS
 10
24.8377159736
 20
146.6466056747
 11
23.9503920558
 21
140.3234883487
  0
LINE
  5
25D
100
AcDbEntity
  8
00_COMPONENTS
100
AcDbLine
 62
7
  6
CONTINUOUS
 10
26.1391989069
 20
149.9291857247
 11
25.8898359376
 21
148.1522119724
  0
LINE
  5
25E
100
AcDbEntity
  8
00_COMPONENTS
100
AcDbLine
 62
7
  6
CONTINUOUS
 10
26.5969456627
 20
147.7439712178
 11
26.3226463964
 21
145.7893000903
  0
LINE
  5
25F
100
AcDbEntity
  8
00_COMPONENTS
100
AcDbLine
 62
7
  6
CONTINUOUS
 10
37.8793774963
 20
131.7013331263
 11
38.0919689332
 21
132.0083397716
  0
LINE
  5
260
100
AcDbEntity
  8
00_COMPONENTS
100
AcDbLine
 62
7
  6
CONTINUOUS
 10
39.724947828
 20
133.4413961451
 11
41.5471139888
 21
134.4934179888
  0
LINE
  5
261
100
AcDbEntity
  8
00_COMPONENTS
100
AcDbLine
 62
7
  6
CONTINUOUS
 10
73.1193553726
 20
152.3950821991
 11
72.0586996167
 21
151.7827159682
  0
LINE
  5
262
100
AcDbEntity
  8
00_COMPONENTS
100
AcDbLine
 62
7
  6
CONTINUOUS
 10
50.951659791
 20
138.2902529972
 11
48.6252881666
 21
136.947129731
  0
LINE
  5
263
100
AcDbEntity
  8
00_COMPONENTS
100
AcDbLine
 62
7
  6
CONTINUOUS
 10
73.2281499488
 20
149.1856929784
 11
72.3796253441
 21
148.6957999937
  0
LINE
  5
264
100
AcDbEntity
  8
00_COMPONENTS
100
AcDbLine
 62
7
  6
CONTINUOUS
 10
70.3855476642
 20
146.3898267654
 11
71.5169138037
 21
147.0430174116
  0
LINE
  5
265
100
AcDbEntity
  8
00_COMPONENTS
100
AcDbLine
 62
7
  6
CONTINUOUS
 10
70.595546724
 20
146.026095553
 11
67.9085521426
 21
144.4747677683
  0
LINE
  5
266
100
AcDbEntity
  8
00_COMPONENTS
100
AcDbLine
 62
7
  6
CONTINUOUS
 10
49.1839861618
 20
48.4344352564
 11
49.3339822363
 21
48.4195836087
  0
LINE
  5
267
100
AcDbEntity
  8
00_COMPONENTS_3
100
AcDbLine
 62
7
  6
CONTINUOUS
 10
29.3388938282
 20
58.5174922491
 11
38.2373733278
 21
53.3800689381
  0
LINE
  5
268
100
AcDbEntity
  8
00_COMPONENTS
100
AcDbLine
 62
7
  6
CONTINUOUS
 10
79.3421252651
 20
30.9980986578
 11
79.5189026964
 21
30.8960384691
  0
LINE
  5
269
100
AcDbEntity
  8
00_COMPONENTS
100
AcDbLine
 62
7
  6
CONTINUOUS
 10
49.1839861618
 20
48.4344352564
 11
46.6383911513
 21
49.9041019727
  0
LINE
  5
26A
100
AcDbEntity
  8
00_COMPONENTS
100
AcDbLine
 62
7
  6
CONTINUOUS
 10
49.3961190793
 20
48.8710693457
 11
46.7053988429
 21
50.4245222548
  0
LINE
  5
26B
100
AcDbEntity
  8
00_COMPONENTS
100
AcDbLine
 62
7
  6
CONTINUOUS
 10
49.2882742588
 20
49.7275671296
 11
46.4598353582
 21
51.3605301477
  0
LINE
  5
26C
100
AcDbEntity
  8
00_COMPONENTS
100
AcDbLine
 62
7
  6
CONTINUOUS
 10
49.2586664269
 20
50.1665722003
 11
46.6201611805
 21
51.6898794528
  0
LINE
  5
26D
100
AcDbEntity
  8
00_COMPONENTS
100
AcDbLine
 62
7
  6
CONTINUOUS
 10
46.6383911513
 20
51.7167373387
 11
49.1839861618
 21
50.2470706224
  0
LINE
  5
26E
100
AcDbEntity
  8
00_COMPONENTS
100
AcDbLine
 62
7
  6
CONTINUOUS
 10
46.5323246925
 20
52.2188847571
 11
43.4161256094
 21
54.0179824355
  0
LINE
  5
26F
100
AcDbEntity
  8
00_COMPONENTS
100
AcDbLine
 62
7
  6
CONTINUOUS
 10
48.7438083267
 20
31.1477413793
 11
48.5159363238
 21
31.5213547471
  0
LINE
  5
270
100
AcDbEntity
  8
00_COMPONENTS
100
AcDbLine
 62
7
  6
CONTINUOUS
 10
55.0213457951
 20
27.7655398055
 11
55.2492177981
 21
27.3919264377
  0
LINE
  5
271
100
AcDbEntity
  8
00_COMPONENTS
100
AcDbLine
 62
7
  6
CONTINUOUS
 10
23.9777267587
 20
53.5153179302
 11
25.0246572577
 21
47.2637196313
  0
LINE
  5
272
100
AcDbEntity
  8
00_COMPONENTS
100
AcDbLine
 62
7
  6
CONTINUOUS
 10
25.8999997904
 20
45.2787754822
 11
26.0298470641
 21
44.5034107408
  0
LINE
  5
273
100
AcDbEntity
  8
00_COMPONENTS
100
AcDbLine
 62
7
  6
CONTINUOUS
 10
26.3328102493
 20
46.5084742354
 11
26.6071095155
 21
44.8705347276
  0
LINE
  5
274
100
AcDbEntity
  8
00_COMPONENTS
100
AcDbLine
 62
7
  6
CONTINUOUS
 10
30.8381931951
 20
41.7273736101
 11
30.0849384981
 21
46.2253281419
  0
LINE
  5
275
100
AcDbEntity
  8
00_COMPONENTS
100
AcDbLine
 62
7
  6
CONTINUOUS
 10
23.9400994964
 20
137.8000449987
 11
23.9400994964
 21
140.1787405613
  0
LINE
  5
276
100
AcDbEntity
  8
00_COMPONENTS
100
AcDbLine
 62
7
  6
CONTINUOUS
 10
30.0747746452
 20
140.9337404607
 11
30.9475450379
 21
147.153148594
  0
LINE
  5
277
100
AcDbEntity
  8
00_COMPONENTS
100
AcDbLine
 62
7
  6
CONTINUOUS
 10
47.7525177739
 20
130.7277215977
 11
50.951659791
 21
132.5747360773
  0
LINE
  5
278
100
AcDbEntity
  8
00_COMPONENTS
100
AcDbLine
 62
7
  6
CONTINUOUS
 10
67.8806602596
 20
142.1294368092
 11
66.8906895375
 21
141.557880358
  0
LINE
  5
279
100
AcDbEntity
  8
00_COMPONENTS
100
AcDbLine
 62
7
  6
CONTINUOUS
 10
57.4570692623
 20
134.5344380556
 11
55.1306976379
 21
133.1913147894
  0
LINE
  5
27A
100
AcDbEntity
  8
00_COMPONENTS
100
AcDbLine
 62
7
  6
CONTINUOUS
 10
70.8728066064
 20
141.3817453605
 11
70.0242749362
 21
140.8918482966
  0
LINE
  5
27B
100
AcDbEntity
  8
00_COMPONENTS
100
AcDbLine
 62
7
  6
CONTINUOUS
 10
80.8975711811
 20
146.6797065367
 11
81.9582269369
 21
147.2920727676
  0
LINE
  5
27C
100
AcDbEntity
  8
00_COMPONENTS
100
AcDbLine
 62
7
  6
CONTINUOUS
 10
51.8337574387
 20
129.6546471732
 11
54.8813064443
 21
131.4141399092
  0
LINE
  5
27D
100
AcDbEntity
  8
00_COMPONENTS
100
AcDbLine
 62
7
  6
CONTINUOUS
 10
58.8714732231
 20
133.7178500218
 11
67.823230832
 21
138.8861188366
  0
LINE
  5
27E
100
AcDbEntity
  8
00_COMPONENTS
100
AcDbLine
 62
7
  6
CONTINUOUS
 10
71.0142456584
 20
140.3203013638
 11
70.0242749362
 21
139.7487449126
  0
LINE
  5
27F
100
AcDbEntity
  8
00_COMPONENTS
100
AcDbLine
 62
7
  6
CONTINUOUS
 10
71.8627773286
 20
139.8304124584
 11
70.8728066064
 21
139.2588560072
  0
LINE
  5
280
100
AcDbEntity
  8
00_COMPONENTS
100
AcDbLine
 62
7
  6
CONTINUOUS
 10
60.2147971904
 20
132.942299113
 11
83.5492238185
 21
146.4143561907
  0
LINE
  5
281
100
AcDbEntity
  8
00_COMPONENTS
100
AcDbLine
 62
7
  6
CONTINUOUS
 10
43.1929019461
 20
129.3350272823
 11
43.0846408781
 21
129.276574555
  0
LINE
  5
282
100
AcDbEntity
  8
00_COMPONENTS
100
AcDbLine
 62
7
  6
CONTINUOUS
 10
77.5743656721
 20
37.5955595362
 11
77.7511431034
 21
37.4934993475
  0
LINE
  5
283
100
AcDbEntity
  8
00_COMPONENTS
100
AcDbLine
 62
7
  6
CONTINUOUS
 10
46.5323246925
 20
57.9719334768
 11
46.2362640488
 21
58.1428603023
  0
LINE
  5
284
100
AcDbEntity
  8
00_COMPONENTS_3
100
AcDbLine
 62
7
  6
CONTINUOUS
 10
37.1296532845
 20
65.2189167707
 11
36.2159621603
 21
65.7464246534
  0
LINE
  5
285
100
AcDbEntity
  8
00_COMPONENTS_3
100
AcDbLine
 62
7
  6
CONTINUOUS
 10
44.200750536
 20
61.1365092255
 11
45.1144416603
 21
60.6090013428
  0
LINE
  5
286
100
AcDbEntity
  8
00_COMPONENTS_3
100
AcDbLine
 62
7
  6
CONTINUOUS
 10
44.2483719384
 20
61.1865671691
 11
37.1772746869
 21
65.2689747143
  0
LINE
  5
287
100
AcDbEntity
  8
00_COMPONENTS_3
100
AcDbLine
 62
7
  6
CONTINUOUS
 10
37.6858915301
 20
65.5126312715
 11
44.7569887816
 21
61.4302237263
  0
LINE
  5
288
100
AcDbEntity
  8
00_COMPONENTS_3
100
AcDbLine
 62
7
  6
CONTINUOUS
 10
45.2034600382
 20
61.4377677769
 11
38.1323627867
 21
65.5201753221
  0
LINE
  5
289
100
AcDbEntity
  8
00_COMPONENTS_3
100
AcDbLine
 62
7
  6
CONTINUOUS
 10
38.654660679
 20
65.7764805526
 11
45.7257579305
 21
61.6940730073
  0
LINE
  5
28A
100
AcDbEntity
  8
00_COMPONENTS
100
AcDbLine
 62
7
  6
CONTINUOUS
 10
71.2820701084
 20
35.294273535
 11
70.4731790059
 21
35.980885582
  0
LINE
  5
28B
100
AcDbEntity
  8
00_COMPONENTS
100
AcDbLine
 62
7
  6
CONTINUOUS
 10
60.0575639291
 20
24.615889307
 11
59.8296919261
 21
24.9895026748
  0
LINE
  5
28C
100
AcDbEntity
  8
00_COMPONENTS
100
AcDbLine
 62
7
  6
CONTINUOUS
 10
61.3853333215
 20
24.0913730148
 11
61.6132053244
 21
23.717759647
  0
LINE
  5
28D
100
AcDbEntity
  8
00_COMPONENTS
100
AcDbLine
 62
7
  6
CONTINUOUS
 10
66.4215514554
 20
20.9417225163
 11
66.1936794525
 21
21.3153358841
  0
LINE
  5
28E
100
AcDbEntity
  8
00_COMPONENTS
100
AcDbLine
 62
7
  6
CONTINUOUS
 10
36.5903479694
 20
42.4695132003
 11
37.3436026665
 21
37.9715586685
  0
LINE
  5
28F
100
AcDbEntity
  8
00_COMPONENTS
100
AcDbLine
 62
7
  6
CONTINUOUS
 10
33.2739166623
 20
142.7807549403
 11
33.2739166623
 21
148.4962718602
  0
LINE
  5
290
100
AcDbEntity
  8
00_COMPONENTS
100
AcDbLine
 62
7
  6
CONTINUOUS
 10
37.4529545092
 20
143.3973336524
 11
36.5801841166
 21
137.1779255192
  0
LINE
  5
291
100
AcDbEntity
  8
00_COMPONENTS
100
AcDbLine
 62
7
  6
CONTINUOUS
 10
39.724947828
 20
133.4413961451
 11
40.5977182206
 21
139.6608042783
  0
LINE
  5
292
100
AcDbEntity
  8
00_COMPONENTS
100
AcDbLine
 62
7
  6
CONTINUOUS
 10
42.0119376709
 20
138.8443227693
 11
42.2613006402
 21
140.6212965216
  0
LINE
  5
293
100
AcDbEntity
  8
00_COMPONENTS
100
AcDbLine
 62
7
  6
CONTINUOUS
 10
92.1051914358
 20
149.8027891266
 11
98.4691259708
 21
153.4769865115
  0
LINE
  5
294
100
AcDbEntity
  8
00_COMPONENTS
100
AcDbLine
 62
7
  6
CONTINUOUS
 10
59.9390437689
 20
130.4152776586
 11
91.6104384873
 21
148.7006567759
  0
LINE
  5
295
100
AcDbEntity
  8
00_COMPONENTS
100
AcDbLine
 62
7
  6
CONTINUOUS
 10
91.6104384873
 20
147.0676519416
 11
59.6896807996
 21
128.6383039063
  0
LINE
  5
296
100
AcDbEntity
  8
00_COMPONENTS
100
AcDbLine
 62
7
  6
CONTINUOUS
 10
61.4946851642
 20
129.5171479987
 11
93.1656521074
 21
147.8022801413
  0
LINE
  5
297
100
AcDbEntity
  8
00_COMPONENTS
100
AcDbLine
 62
7
  6
CONTINUOUS
 10
95.0750522815
 20
148.0881779577
 11
101.4389868164
 21
151.7623753425
  0
LINE
  5
298
100
AcDbEntity
  8
00_COMPONENTS
100
AcDbLine
 62
7
  6
CONTINUOUS
 10
61.3699967851
 20
128.6286119921
 11
59.9319668426
 21
127.7983699735
  0
LINE
  5
299
100
AcDbEntity
  8
00_COMPONENTS
100
AcDbLine
 62
7
  6
CONTINUOUS
 10
89.2061016197
 20
143.1484301546
 11
65.8716749916
 21
129.6763730768
  0
LINE
  5
29A
100
AcDbEntity
  8
00_COMPONENTS
100
AcDbLine
 62
7
  6
CONTINUOUS
 10
23.3896963402
 20
103.8479884684
 11
16.6014995029
 21
99.9288445912
  0
LINE
  5
29B
100
AcDbEntity
  8
00_COMPONENTS
100
AcDbLine
 62
7
  6
CONTINUOUS
 10
57.4026909566
 20
123.2353772821
 11
59.2248571175
 21
124.2873991258
  0
LINE
  5
29C
100
AcDbEntity
  8
00_COMPONENTS_3
100
AcDbLine
 62
7
  6
CONTINUOUS
 10
44.7569887816
 20
61.4302237263
 11
45.2034600382
 21
61.4377677769
  0
LINE
  5
29D
100
AcDbEntity
  8
00_COMPONENTS_3
100
AcDbLine
 62
7
  6
CONTINUOUS
 10
39.0534686703
 20
67.5340903757
 11
39.9671597945
 21
67.006582493
  0
LINE
  5
29E
100
AcDbEntity
  8
00_COMPONENTS_3
100
AcDbLine
 62
7
  6
CONTINUOUS
 10
46.5323246925
 20
65.3087316272
 11
40.4350351746
 21
68.8289237343
  0
LINE
  5
29F
100
AcDbEntity
  8
00_COMPONENTS_3
100
AcDbLine
 62
7
  6
CONTINUOUS
 10
46.5323246925
 20
66.7330200706
 11
40.9269361858
 21
69.9692194213
  0
LINE
  5
2A0
100
AcDbEntity
  8
00_COMPONENTS
100
AcDbLine
 62
7
  6
CONTINUOUS
 10
72.6990889238
 20
17.5595209425
 11
72.9269609268
 21
17.1859075747
  0
LINE
  5
2A1
100
AcDbEntity
  8
00_COMPONENTS
100
AcDbLine
 62
7
  6
CONTINUOUS
 10
77.7353070578
 20
14.409870444
 11
77.5074350548
 21
14.7834838117
  0
LINE
  5
2A2
100
AcDbEntity
  8
00_COMPONENTS_3
100
AcDbLine
 62
7
  6
CONTINUOUS
 10
45.1144416603
 20
60.6090013428
 11
46.4263884387
 21
56.5144723522
  0
LINE
  5
2A3
100
AcDbEntity
  8
00_COMPONENTS
100
AcDbLine
 62
7
  6
CONTINUOUS
 10
40.6078820734
 20
36.7873677881
 11
39.7351116808
 21
41.9989934947
  0
LINE
  5
2A4
100
AcDbEntity
  8
00_COMPONENTS
100
AcDbLine
 62
7
  6
CONTINUOUS
 10
42.1519487975
 20
35.1955215378
 11
42.0221015237
 21
35.9708862791
  0
LINE
  5
2A5
100
AcDbEntity
  8
00_COMPONENTS
100
AcDbLine
 62
7
  6
CONTINUOUS
 10
43.5777429191
 20
35.0727566192
 11
43.7075901928
 21
34.2973918778
  0
LINE
  5
2A6
100
AcDbEntity
  8
00_COMPONENTS
100
AcDbLine
 62
7
  6
CONTINUOUS
 10
44.1191919767
 20
39.4679008167
 11
44.9919623693
 21
34.2562751101
  0
LINE
  5
2A7
100
AcDbEntity
  8
00_COMPONENTS
100
AcDbLine
 62
7
  6
CONTINUOUS
 10
37.6934531281
 20
65.5126312715
 11
37.6934531281
 21
88.3816461362
  0
LINE
  5
2A8
100
AcDbEntity
  8
00_COMPONENTS
100
AcDbLine
 62
7
  6
CONTINUOUS
 10
39.1924676316
 20
110.1086248074
 11
39.1924676316
 21
110.9251272245
  0
LINE
  5
2A9
100
AcDbEntity
  8
00_COMPONENTS
100
AcDbLine
 62
7
  6
CONTINUOUS
 10
39.8995773567
 20
108.8838816357
 11
39.8995773567
 21
109.7003840529
  0
LINE
  5
2AA
100
AcDbEntity
  8
00_COMPONENTS
100
AcDbLine
 62
7
  6
CONTINUOUS
 10
39.8995773567
 20
110.51688647
 11
39.8995773567
 21
111.3333888871
  0
LINE
  5
2AB
100
AcDbEntity
  8
00_COMPONENTS
100
AcDbLine
 62
7
  6
CONTINUOUS
 10
40.6066870818
 20
110.9251481326
 11
40.6066870818
 21
108.4756408812
  0
LINE
  5
2AC
100
AcDbEntity
  8
00_COMPONENTS
100
AcDbLine
 62
7
  6
CONTINUOUS
 10
41.313796807
 20
109.700404961
 11
41.313796807
 21
108.8839025438
  0
LINE
  5
2AD
100
AcDbEntity
  8
00_COMPONENTS
100
AcDbLine
 62
7
  6
CONTINUOUS
 10
41.5471139888
 20
37.3296303504
 11
41.5471139888
 21
43.0451472703
  0
LINE
  5
2AE
100
AcDbEntity
  8
00_COMPONENTS
100
AcDbLine
 62
7
  6
CONTINUOUS
 10
41.5471139888
 20
134.4934179888
 11
41.5471139888
 21
139.1126827762
  0
LINE
  5
2AF
100
AcDbEntity
  8
00_COMPONENTS
100
AcDbLine
 62
7
  6
CONTINUOUS
 10
42.2542237139
 20
38.7176949136
 11
42.2542237139
 21
36.9213895959
  0
LINE
  5
2B0
100
AcDbEntity
  8
00_COMPONENTS
100
AcDbLine
 62
7
  6
CONTINUOUS
 10
42.2542237139
 20
138.0043888365
 11
42.2542237139
 21
138.9842058465
  0
LINE
  5
2B1
100
AcDbEntity
  8
00_COMPONENTS
100
AcDbLine
 62
7
  6
CONTINUOUS
 10
43.8169420356
 20
139.7231668617
 11
43.5675790662
 21
137.9461931093
  0
LINE
  5
2B2
100
AcDbEntity
  8
00_COMPONENTS
100
AcDbLine
 62
7
  6
CONTINUOUS
 10
44.9817985165
 20
137.1297116003
 11
44.1090281239
 21
130.9103034671
  0
LINE
  5
2B3
100
AcDbEntity
  8
00_COMPONENTS
100
AcDbLine
 62
7
  6
CONTINUOUS
 10
90.7970985012
 20
142.1890633361
 11
89.7364427454
 21
141.5766971052
  0
LINE
  5
2B4
100
AcDbEntity
  8
00_COMPONENTS
100
AcDbLine
 62
7
  6
CONTINUOUS
 10
39.6645364304
 20
112.5669078951
 11
38.9531380392
 21
112.1561842941
  0
LINE
  5
2B5
100
AcDbEntity
  8
00_COMPONENTS
100
AcDbLine
 62
7
  6
CONTINUOUS
 10
25.3896873864
 20
103.6498913523
 11
18.6014905492
 21
99.7307474751
  0
LINE
  5
2B6
100
AcDbEntity
  8
00_COMPONENTS
100
AcDbLine
 62
7
  6
CONTINUOUS
 10
68.6294029197
 20
128.0842341342
 11
66.3030312952
 21
126.741110868
  0
LINE
  5
2B7
100
AcDbEntity
  8
00_COMPONENTS
100
AcDbLine
 62
7
  6
CONTINUOUS
 10
40.6066811939
 20
110.9251306239
 11
39.1924676316
 21
110.1086248074
  0
LINE
  5
2B8
100
AcDbEntity
  8
00_COMPONENTS
100
AcDbLine
 62
7
  6
CONTINUOUS
 10
40.6066811939
 20
110.1086282067
 11
39.8995773567
 21
109.7003840529
  0
LINE
  5
2B9
100
AcDbEntity
  8
00_COMPONENTS
100
AcDbLine
 62
7
  6
CONTINUOUS
 10
90.9058930774
 20
138.9796741154
 11
90.0573684728
 21
138.4897811307
  0
LINE
  5
2BA
100
AcDbEntity
  8
00_COMPONENTS
100
AcDbLine
 62
7
  6
CONTINUOUS
 10
41.3137909191
 20
109.7003874522
 11
39.8995773567
 21
108.8838816357
  0
LINE
  5
2BB
100
AcDbEntity
  8
00_COMPONENTS
100
AcDbLine
 62
7
  6
CONTINUOUS
 10
88.0632907928
 20
136.1838079024
 11
89.1946569324
 21
136.8369985486
  0
LINE
  5
2BC
100
AcDbEntity
  8
00_COMPONENTS
100
AcDbLine
 62
7
  6
CONTINUOUS
 10
88.2732898527
 20
135.82007669
 11
85.5862952713
 21
134.2687489053
  0
LINE
  5
2BD
100
AcDbEntity
  8
00_COMPONENTS
100
AcDbLine
 62
7
  6
CONTINUOUS
 10
42.2678850504
 20
108.0655091105
 11
41.5531263993
 21
107.6528454742
  0
LINE
  5
2BE
100
AcDbEntity
  8
00_COMPONENTS
100
AcDbLine
 62
7
  6
CONTINUOUS
 10
65.4302609026
 20
120.5217027347
 11
68.6294029197
 21
122.3687172143
  0
LINE
  5
2BF
100
AcDbEntity
  8
00_COMPONENTS
100
AcDbLine
 62
7
  6
CONTINUOUS
 10
60.8706450747
 20
119.1290084193
 11
60.7623840068
 21
119.070555692
  0
LINE
  5
2C0
100
AcDbEntity
  8
00_COMPONENTS_3
100
AcDbLine
 62
7
  6
CONTINUOUS
 10
38.1323627867
 20
65.5201753221
 11
37.6858915301
 21
65.5126312715
  0
LINE
  5
2C1
100
AcDbEntity
  8
00_COMPONENTS
100
AcDbLine
 62
7
  6
CONTINUOUS
 10
79.3421252651
 20
30.9980986578
 11
82.2865774957
 21
26.8090977258
  0
LINE
  5
2C2
100
AcDbEntity
  8
00_COMPONENTS
100
AcDbLine
 62
7
  6
CONTINUOUS
 10
82.463354927
 20
26.7070375372
 11
79.5189026964
 21
30.8960384691
  0
LINE
  5
2C3
100
AcDbEntity
  8
00_COMPONENTS
100
AcDbLine
 62
7
  6
CONTINUOUS
 10
46.4598353582
 20
51.3605301477
 11
46.7053988429
 21
50.4245222548
  0
LINE
  5
2C4
100
AcDbEntity
  8
00_COMPONENTS
100
AcDbLine
 62
7
  6
CONTINUOUS
 10
49.3961190793
 20
49.3164978562
 11
49.2882742588
 21
49.7275671296
  0
LINE
  5
2C5
100
AcDbEntity
  8
00_COMPONENTS
100
AcDbLine
 62
7
  6
CONTINUOUS
 10
48.5159363238
 20
31.5213547471
 11
47.7626816267
 21
36.0193092788
  0
LINE
  5
2C6
100
AcDbEntity
  8
00_COMPONENTS
100
AcDbLine
 62
7
  6
CONTINUOUS
 10
46.4262582337
 20
50.2715249242
 11
46.4262582337
 21
51.5860938157
  0
LINE
  5
2C7
100
AcDbEntity
  8
00_COMPONENTS
100
AcDbLine
 62
7
  6
CONTINUOUS
 10
46.5323246925
 20
52.2188847571
 11
46.5323246925
 21
83.2786367047
  0
LINE
  5
2C8
100
AcDbEntity
  8
00_COMPONENTS
100
AcDbLine
 62
7
  6
CONTINUOUS
 10
47.7525177739
 20
130.7277215977
 11
48.6252881666
 21
136.947129731
  0
LINE
  5
2C9
100
AcDbEntity
  8
00_COMPONENTS
100
AcDbLine
 62
7
  6
CONTINUOUS
 10
74.4274483072
 20
160.0088079896
 11
73.9326953586
 21
158.9066756389
  0
LINE
  5
2CA
100
AcDbEntity
  8
00_COMPONENTS
100
AcDbLine
 62
7
  6
CONTINUOUS
 10
73.9326953586
 20
157.2736708046
 11
74.4274483072
 21
158.3758031554
  0
LINE
  5
2CB
100
AcDbEntity
  8
00_COMPONENTS
100
AcDbLine
 62
7
  6
CONTINUOUS
 10
85.5584033883
 20
131.9234179462
 11
84.5684326662
 21
131.351861495
  0
LINE
  5
2CC
100
AcDbEntity
  8
00_COMPONENTS
100
AcDbLine
 62
7
  6
CONTINUOUS
 10
75.134812391
 20
124.3284191926
 11
72.8084407666
 21
122.9852959264
  0
LINE
  5
2CD
100
AcDbEntity
  8
00_COMPONENTS
100
AcDbLine
 62
7
  6
CONTINUOUS
 10
88.5505497351
 20
131.1757264975
 11
87.7020180649
 21
130.6858294336
  0
LINE
  5
2CE
100
AcDbEntity
  8
00_COMPONENTS
100
AcDbLine
 62
7
  6
CONTINUOUS
 10
98.5753143097
 20
136.4736876737
 11
99.6359700656
 21
137.0860539045
  0
LINE
  5
2CF
100
AcDbEntity
  8
00_COMPONENTS
100
AcDbLine
 62
7
  6
CONTINUOUS
 10
69.5115005674
 20
119.4486283102
 11
72.559049573
 21
121.2081210462
  0
LINE
  5
2D0
100
AcDbEntity
  8
00_COMPONENTS
100
AcDbLine
 62
7
  6
CONTINUOUS
 10
76.5492163518
 20
123.5118311588
 11
85.5009739606
 21
128.6800999736
  0
LINE
  5
2D1
100
AcDbEntity
  8
00_COMPONENTS
100
AcDbLine
 62
7
  6
CONTINUOUS
 10
88.6919887871
 20
130.1142825008
 11
87.7020180649
 21
129.5427260496
  0
LINE
  5
2D2
100
AcDbEntity
  8
00_COMPONENTS
100
AcDbLine
 62
7
  6
CONTINUOUS
 10
89.5405204572
 20
129.6243935954
 11
88.5505497351
 21
129.0528371442
  0
LINE
  5
2D3
100
AcDbEntity
  8
00_COMPONENTS
100
AcDbLine
 62
7
  6
CONTINUOUS
 10
77.8925403191
 20
122.73628025
 11
101.2269669472
 21
136.2083373277
  0
LINE
  5
2D4
100
AcDbEntity
  8
00_COMPONENTS
100
AcDbLine
 62
7
  6
CONTINUOUS
 10
109.7829345645
 20
139.5967702636
 11
116.1468690994
 21
143.2709676485
  0
LINE
  5
2D5
100
AcDbEntity
  8
00_COMPONENTS_3
100
AcDbLine
 62
7
  6
CONTINUOUS
 10
46.5323246925
 20
80.8933099499
 11
42.4404448199
 21
83.2557044514
  0
LINE
  5
2D6
100
AcDbEntity
  8
00_COMPONENTS
100
AcDbLine
 62
7
  6
CONTINUOUS
 10
46.5323246925
 20
83.2786367047
 11
37.6934531281
 21
88.3816461362
  0
LINE
  5
2D7
100
AcDbEntity
  8
00_COMPONENTS
100
AcDbLine
 62
7
  6
CONTINUOUS
 10
65.6242872714
 20
72.5827372995
 11
18.6014905492
 21
99.7307474751
  0
LINE
  5
2D8
100
AcDbEntity
  8
00_COMPONENTS
100
AcDbLine
 62
7
  6
CONTINUOUS
 10
54.2680910981
 20
32.2634943373
 11
55.0213457951
 21
27.7655398055
  0
LINE
  5
2D9
100
AcDbEntity
  8
00_COMPONENTS
100
AcDbLine
 62
7
  6
CONTINUOUS
 10
58.2856252021
 20
26.5813489251
 11
57.4128548095
 21
31.7929746317
  0
LINE
  5
2DA
100
AcDbEntity
  8
00_COMPONENTS
100
AcDbLine
 62
7
  6
CONTINUOUS
 10
59.8296919261
 20
24.9895026748
 11
59.6998446524
 21
25.7648674161
  0
LINE
  5
2DB
100
AcDbEntity
  8
00_COMPONENTS
100
AcDbLine
 62
7
  6
CONTINUOUS
 10
49.3961190793
 20
49.8714826468
 11
49.3961190793
 21
48.5569137552
  0
LINE
  5
2DC
100
AcDbEntity
  8
00_COMPONENTS
100
AcDbLine
 62
7
  6
CONTINUOUS
 10
50.951659791
 20
132.5747360773
 11
50.951659791
 21
138.2902529972
  0
LINE
  5
2DD
100
AcDbEntity
  8
00_COMPONENTS
100
AcDbLine
 62
7
  6
CONTINUOUS
 10
52.3465318076
 20
148.8117887868
 11
52.3465318076
 21
149.9547637756
  0
LINE
  5
2DE
100
AcDbEntity
  8
00_COMPONENTS
100
AcDbLine
 62
7
  6
CONTINUOUS
 10
52.3465318076
 20
151.0978671596
 11
52.3465318076
 21
152.8615123806
  0
LINE
  5
2DF
100
AcDbEntity
  8
00_COMPONENTS
100
AcDbLine
 62
7
  6
CONTINUOUS
 10
53.1950634777
 20
152.3716234752
 11
53.1950634777
 21
150.6079782542
  0
LINE
  5
2E0
100
AcDbEntity
  8
00_COMPONENTS
100
AcDbLine
 62
7
  6
CONTINUOUS
 10
53.1950634777
 20
149.4648748702
 11
53.1950634777
 21
149.3016858507
  0
LINE
  5
2E1
100
AcDbEntity
  8
00_COMPONENTS
100
AcDbLine
 62
7
  6
CONTINUOUS
 10
53.8506153623
 20
157.7171695666
 11
53.8506153623
 21
163.5604678806
  0
LINE
  5
2E2
100
AcDbEntity
  8
00_COMPONENTS
100
AcDbLine
 62
7
  6
CONTINUOUS
 10
54.0435810169
 20
149.9547637756
 11
54.0435810169
 21
150.1180975071
  0
LINE
  5
2E3
100
AcDbEntity
  8
00_COMPONENTS
100
AcDbLine
 62
7
  6
CONTINUOUS
 10
54.3809564881
 20
158.6399427659
 11
54.3809564881
 21
161.9887348313
  0
LINE
  5
2E4
100
AcDbEntity
  8
00_COMPONENTS
100
AcDbLine
 62
7
  6
CONTINUOUS
 10
55.1306976379
 20
133.1913147894
 11
54.2579272453
 21
126.9719066562
  0
LINE
  5
2E5
100
AcDbEntity
  8
00_COMPONENTS
100
AcDbLine
 62
7
  6
CONTINUOUS
 10
57.4026909566
 20
123.2353772821
 11
58.2754613493
 21
129.4547854153
  0
LINE
  5
2E6
100
AcDbEntity
  8
00_COMPONENTS
100
AcDbLine
 62
7
  6
CONTINUOUS
 10
59.6896807996
 20
128.6383039063
 11
59.9390437689
 21
130.4152776586
  0
LINE
  5
2E7
100
AcDbEntity
  8
00_COMPONENTS
100
AcDbLine
 62
7
  6
CONTINUOUS
 10
64.1838592718
 20
116.5147770581
 11
64.3964507086
 21
116.8217837035
  0
LINE
  5
2E8
100
AcDbEntity
  8
00_COMPONENTS
100
AcDbLine
 62
7
  6
CONTINUOUS
 10
77.6167868976
 20
120.2092587956
 11
109.2424530366
 21
138.4682366629
  0
LINE
  5
2E9
100
AcDbEntity
  8
00_COMPONENTS
100
AcDbLine
 62
7
  6
CONTINUOUS
 10
109.2424530366
 20
136.8352318287
 11
77.3674239283
 21
118.4322850433
  0
LINE
  5
2EA
100
AcDbEntity
  8
00_COMPONENTS
100
AcDbLine
 62
7
  6
CONTINUOUS
 10
116.3590002506
 20
139.9641307427
 11
76.3860149368
 21
116.8858546702
  0
LINE
  5
2EB
100
AcDbEntity
  8
00_COMPONENTS
100
AcDbLine
 62
7
  6
CONTINUOUS
 10
77.8709453597
 20
116.0285490857
 11
117.8439306734
 21
139.1068251582
  0
LINE
  5
2EC
100
AcDbEntity
  8
00_COMPONENTS
100
AcDbLine
 62
7
  6
CONTINUOUS
 10
57.342279559
 20
102.3608890321
 11
56.6308811679
 21
101.9501654311
  0
LINE
  5
2ED
100
AcDbEntity
  8
00_COMPONENTS
100
AcDbLine
 62
7
  6
CONTINUOUS
 10
116.6418441407
 20
47.046159855
 11
116.4297129895
 21
47.1686310615
  0
LINE
  5
2EE
100
AcDbEntity
  8
00_COMPONENTS
100
AcDbLine
 62
7
  6
CONTINUOUS
 10
72.4124841087
 20
76.5018811767
 11
25.3896873864
 21
103.6498913523
  0
LINE
  5
2EF
100
AcDbEntity
  8
00_COMPONENTS
100
AcDbLine
 62
7
  6
CONTINUOUS
 10
61.2554860477
 20
24.8667377561
 11
61.3853333215
 21
24.0913730148
  0
LINE
  5
2F0
100
AcDbEntity
  8
00_COMPONENTS
100
AcDbLine
 62
7
  6
CONTINUOUS
 10
61.7969351054
 20
29.2618819537
 11
62.669705498
 21
24.0502562471
  0
LINE
  5
2F1
100
AcDbEntity
  8
00_COMPONENTS
100
AcDbLine
 62
7
  6
CONTINUOUS
 10
66.1936794525
 20
21.3153358841
 11
65.4404247554
 21
25.8132904158
  0
LINE
  5
2F2
100
AcDbEntity
  8
00_COMPONENTS
100
AcDbLine
 62
7
  6
CONTINUOUS
 10
56.8702107602
 20
99.9026059444
 11
56.8702107602
 21
100.7191083615
  0
LINE
  5
2F3
100
AcDbEntity
  8
00_COMPONENTS
100
AcDbLine
 62
7
  6
CONTINUOUS
 10
57.5773204854
 20
98.6778627727
 11
57.5773204854
 21
99.4943651899
  0
LINE
  5
2F4
100
AcDbEntity
  8
00_COMPONENTS
100
AcDbLine
 62
7
  6
CONTINUOUS
 10
57.5773204854
 20
100.310867607
 11
57.5773204854
 21
101.1273700241
  0
LINE
  5
2F5
100
AcDbEntity
  8
00_COMPONENTS
100
AcDbLine
 62
7
  6
CONTINUOUS
 10
58.2844302105
 20
100.7191292696
 11
58.2844302105
 21
98.2696220182
  0
LINE
  5
2F6
100
AcDbEntity
  8
00_COMPONENTS
100
AcDbLine
 62
7
  6
CONTINUOUS
 10
58.9915399357
 20
99.4943860979
 11
58.9915399357
 21
98.6778836808
  0
LINE
  5
2F7
100
AcDbEntity
  8
00_COMPONENTS
100
AcDbLine
 62
7
  6
CONTINUOUS
 10
59.2248571175
 20
27.1236114874
 11
59.2248571175
 21
32.8391284073
  0
LINE
  5
2F8
100
AcDbEntity
  8
00_COMPONENTS
100
AcDbLine
 62
7
  6
CONTINUOUS
 10
59.2248571175
 20
124.2873991258
 11
59.2248571175
 21
128.9066639132
  0
LINE
  5
2F9
100
AcDbEntity
  8
00_COMPONENTS
100
AcDbLine
 62
7
  6
CONTINUOUS
 10
59.9319668426
 20
28.5116760506
 11
59.9319668426
 21
26.7153707329
  0
LINE
  5
2FA
100
AcDbEntity
  8
00_COMPONENTS
100
AcDbLine
 62
7
  6
CONTINUOUS
 10
59.9319668426
 20
127.7983699735
 11
59.9319668426
 21
128.7781869835
  0
LINE
  5
2FB
100
AcDbEntity
  8
00_COMPONENTS
100
AcDbLine
 62
7
  6
CONTINUOUS
 10
61.4946851642
 20
129.5171479987
 11
61.2453221949
 21
127.7401742463
  0
LINE
  5
2FC
100
AcDbEntity
  8
00_COMPONENTS
100
AcDbLine
 62
7
  6
CONTINUOUS
 10
62.6595416452
 20
126.9236927373
 11
61.7867712526
 21
120.7042846041
  0
LINE
  5
2FD
100
AcDbEntity
  8
00_COMPONENTS
100
AcDbLine
 62
7
  6
CONTINUOUS
 10
58.2844243226
 20
100.7191117609
 11
56.8702107602
 21
99.9026059444
  0
LINE
  5
2FE
100
AcDbEntity
  8
00_COMPONENTS
100
AcDbLine
 62
7
  6
CONTINUOUS
 10
58.2844243226
 20
99.9026093437
 11
57.5773204854
 21
99.4943651899
  0
LINE
  5
2FF
100
AcDbEntity
  8
00_COMPONENTS
100
AcDbLine
 62
7
  6
CONTINUOUS
 10
58.9915340477
 20
99.4943685892
 11
57.5773204854
 21
98.6778627727
  0
LINE
  5
300
100
AcDbEntity
  8
00_COMPONENTS
100
AcDbLine
 62
7
  6
CONTINUOUS
 10
117.8439306734
 20
132.5748058212
 11
117.6317995222
 21
132.452332575
  0
LINE
  5
301
100
AcDbEntity
  8
00_COMPONENTS
100
AcDbLine
 62
7
  6
CONTINUOUS
 10
59.945628179
 20
97.8594902475
 11
59.230869528
 21
97.4468266112
  0
LINE
  5
302
100
AcDbEntity
  8
00_COMPONENTS
100
AcDbLine
 62
7
  6
CONTINUOUS
 10
75.2409230093
 20
106.2226109764
 11
76.93797584
 21
107.2023990365
  0
LINE
  5
303
100
AcDbEntity
  8
00_COMPONENTS
100
AcDbLine
 62
7
  6
CONTINUOUS
 10
77.7511431034
 20
107.631056979
 11
76.9733288824
 21
107.1819884097
  0
LINE
  5
304
100
AcDbEntity
  8
00_COMPONENTS
100
AcDbLine
 62
7
  6
CONTINUOUS
 10
77.5743656721
 20
48.3253618883
 11
77.7511431034
 21
47.8630800451
  0
LINE
  5
305
100
AcDbEntity
  8
00_COMPONENTS
100
AcDbLine
 62
7
  6
CONTINUOUS
 10
71.9458342268
 20
22.0574754743
 11
72.6990889238
 21
17.5595209425
  0
LINE
  5
306
100
AcDbEntity
  8
00_COMPONENTS
100
AcDbLine
 62
7
  6
CONTINUOUS
 10
63.2198280524
 20
155.0894518281
 11
63.2198280524
 21
156.8857253998
  0
LINE
  5
307
100
AcDbEntity
  8
00_COMPONENTS
100
AcDbLine
 62
7
  6
CONTINUOUS
 10
64.2804838082
 20
155.7018180589
 11
64.2804838082
 21
157.4980916306
  0
LINE
  5
308
100
AcDbEntity
  8
00_COMPONENTS
100
AcDbLine
 62
7
  6
CONTINUOUS
 10
65.4302609026
 20
120.5217027347
 11
66.3030312952
 21
126.741110868
  0
LINE
  5
309
100
AcDbEntity
  8
00_COMPONENTS
100
AcDbLine
 62
7
  6
CONTINUOUS
 10
92.1051914358
 20
149.8027891266
 11
91.6104384873
 21
148.7006567759
  0
LINE
  5
30A
100
AcDbEntity
  8
00_COMPONENTS
100
AcDbLine
 62
7
  6
CONTINUOUS
 10
91.6104384873
 20
147.0676519416
 11
92.1051914358
 21
148.1697842924
  0
LINE
  5
30B
100
AcDbEntity
  8
00_COMPONENTS
100
AcDbLine
 62
7
  6
CONTINUOUS
 10
46.4911900827
 20
51.7297410555
 11
46.4262582337
 21
51.5860938157
  0
LINE
  5
30C
100
AcDbEntity
  8
00_COMPONENTS
100
AcDbLine
 62
7
  6
CONTINUOUS
 10
46.6201611805
 20
51.6898794528
 11
46.4598353582
 21
51.3605301477
  0
LINE
  5
30D
100
AcDbEntity
  8
00_COMPONENTS_3
100
AcDbLine
 62
7
  6
CONTINUOUS
 10
46.5323246925
 20
58.7085892288
 11
46.0305691466
 21
57.7498071943
  0
LINE
  5
30E
100
AcDbEntity
  8
00_COMPONENTS_3
100
AcDbLine
 62
7
  6
CONTINUOUS
 10
36.2159621603
 20
65.7464246534
 11
29.3388930282
 21
58.5174914708
  0
LINE
  5
30F
100
AcDbEntity
  8
00_COMPONENTS_3
100
AcDbLine
 62
7
  6
CONTINUOUS
 10
37.1772746869
 20
65.2689747143
 11
37.1296532845
 21
65.2189167707
  0
LINE
  5
310
100
AcDbEntity
  8
00_COMPONENTS_3
100
AcDbLine
 62
7
  6
CONTINUOUS
 10
39.9671597945
 20
67.006582493
 11
38.654660679
 21
65.7764805525
  0
LINE
  5
311
100
AcDbEntity
  8
00_COMPONENTS
100
AcDbLine
 62
7
  6
CONTINUOUS
 10
58.2844302105
 20
98.2696220182
 11
57.5773204854
 21
98.6778627727
  0
LINE
  5
312
100
AcDbEntity
  8
00_COMPONENTS
100
AcDbLine
 62
7
  6
CONTINUOUS
 10
40.6066870818
 20
108.4756408812
 11
39.8995773567
 21
108.8838816357
  0
LINE
  5
313
100
AcDbEntity
  8
00_COMPONENTS
100
AcDbLine
 62
7
  6
CONTINUOUS
 10
58.9915399357
 20
98.6778836808
 11
58.2844302105
 21
99.0861244353
  0
LINE
  5
314
100
AcDbEntity
  8
00_COMPONENTS
100
AcDbLine
 62
7
  6
CONTINUOUS
 10
57.5773204854
 20
99.4943651899
 11
56.8702107602
 21
99.9026059444
  0
LINE
  5
315
100
AcDbEntity
  8
00_COMPONENTS
100
AcDbLine
 62
7
  6
CONTINUOUS
 10
41.313796807
 20
108.8839025438
 11
40.6066870818
 21
109.2921432983
  0
LINE
  5
316
100
AcDbEntity
  8
00_COMPONENTS
100
AcDbLine
 62
7
  6
CONTINUOUS
 10
39.8995773567
 20
109.7003840529
 11
39.1924676316
 21
110.1086248074
  0
LINE
  5
317
100
AcDbEntity
  8
00_COMPONENTS
100
AcDbLine
 62
7
  6
CONTINUOUS
 10
77.5743656721
 20
37.5955595362
 11
79.3421252651
 21
30.9980986578
  0
LINE
  5
318
100
AcDbEntity
  8
00_COMPONENTS
100
AcDbLine
 62
7
  6
CONTINUOUS
 10
79.5189026964
 20
30.8960384691
 11
77.7511431034
 21
37.4934993475
  0
LINE
  5
319
100
AcDbEntity
  8
00_COMPONENTS
100
AcDbLine
 62
7
  6
CONTINUOUS
 10
76.6704780559
 20
15.9670893076
 11
76.3961787897
 21
17.6050288154
  0
LINE
  5
31A
100
AcDbEntity
  8
00_COMPONENTS
100
AcDbLine
 62
7
  6
CONTINUOUS
 10
77.5074350548
 20
14.7834838117
 11
77.3775877811
 21
15.5588485531
  0
LINE
  5
31B
100
AcDbEntity
  8
00_COMPONENTS
100
AcDbLine
 62
7
  6
CONTINUOUS
 10
77.7043317812
 20
16.8497834195
 11
76.4076443407
 21
24.5927701836
  0
LINE
  5
31C
100
AcDbEntity
  8
00_COMPONENTS
100
AcDbLine
 62
7
  6
CONTINUOUS
 10
68.452726172
 20
37.4731751791
 11
68.452726172
 21
67.6837646129
  0
LINE
  5
31D
100
AcDbEntity
  8
00_COMPONENTS
100
AcDbLine
 62
7
  6
CONTINUOUS
 10
68.6294029197
 20
122.3687172143
 11
68.6294029197
 21
128.0842341342
  0
LINE
  5
31E
100
AcDbEntity
  8
00_COMPONENTS
100
AcDbLine
 62
7
  6
CONTINUOUS
 10
70.0242749362
 20
138.6057699238
 11
70.0242749362
 21
139.7487449126
  0
LINE
  5
31F
100
AcDbEntity
  8
00_COMPONENTS
100
AcDbLine
 62
7
  6
CONTINUOUS
 10
70.0242749362
 20
140.8918482966
 11
70.0242749362
 21
142.6554935176
  0
LINE
  5
320
100
AcDbEntity
  8
00_COMPONENTS
100
AcDbLine
 62
7
  6
CONTINUOUS
 10
70.8728066064
 20
142.1656046122
 11
70.8728066064
 21
140.4019593912
  0
LINE
  5
321
100
AcDbEntity
  8
00_COMPONENTS
100
AcDbLine
 62
7
  6
CONTINUOUS
 10
70.8728066064
 20
139.2588560072
 11
70.8728066064
 21
139.0956669877
  0
LINE
  5
322
100
AcDbEntity
  8
00_COMPONENTS
100
AcDbLine
 62
7
  6
CONTINUOUS
 10
71.528358491
 20
147.510173847
 11
71.528358491
 21
153.3544490176
  0
LINE
  5
323
100
AcDbEntity
  8
00_COMPONENTS
100
AcDbLine
 62
7
  6
CONTINUOUS
 10
71.7213241456
 20
139.7487449126
 11
71.7213241456
 21
139.9120786441
  0
LINE
  5
324
100
AcDbEntity
  8
00_COMPONENTS
100
AcDbLine
 62
7
  6
CONTINUOUS
 10
72.0586996167
 20
148.4350482548
 11
72.0586996167
 21
151.7827159682
  0
LINE
  5
325
100
AcDbEntity
  8
00_COMPONENTS
100
AcDbLine
 62
7
  6
CONTINUOUS
 10
72.8084407666
 20
122.9852959264
 11
71.9356703739
 21
116.7658877931
  0
LINE
  5
326
100
AcDbEntity
  8
00_COMPONENTS
100
AcDbLine
 62
7
  6
CONTINUOUS
 10
76.3860149368
 20
116.8858546702
 11
76.6603142031
 21
118.8405257978
  0
LINE
  5
327
100
AcDbEntity
  8
00_COMPONENTS
100
AcDbLine
 62
7
  6
CONTINUOUS
 10
77.3674239283
 20
118.4322850433
 11
77.6167868976
 21
120.2092587956
  0
LINE
  5
328
100
AcDbEntity
  8
00_COMPONENTS
100
AcDbLine
 62
7
  6
CONTINUOUS
 10
49.3339822363
 20
48.4195836087
 11
49.3961190793
 21
48.5569137552
  0
LINE
  5
329
100
AcDbEntity
  8
00_COMPONENTS
100
AcDbLine
 62
7
  6
CONTINUOUS
 10
49.2882742588
 20
49.7275671296
 11
49.3819390838
 21
49.9199780875
  0
LINE
  5
32A
100
AcDbEntity
  8
00_COMPONENTS_3
100
AcDbLine
 62
7
  6
CONTINUOUS
 10
44.200750536
 20
61.1365092255
 11
44.2483719384
 21
61.1865671691
  0
LINE
  5
32B
100
AcDbEntity
  8
00_COMPONENTS_3
100
AcDbLine
 62
7
  6
CONTINUOUS
 10
38.2373717166
 20
53.3800673071
 11
45.1144416603
 21
60.6090013428
  0
LINE
  5
32C
100
AcDbEntity
  8
00_COMPONENTS
100
AcDbLine
 62
7
  6
CONTINUOUS
 10
39.1924676316
 20
110.9251272245
 11
41.313796807
 21
109.700404961
  0
LINE
  5
32D
100
AcDbEntity
  8
00_COMPONENTS
100
AcDbLine
 62
7
  6
CONTINUOUS
 10
56.8702107602
 20
100.7191083615
 11
58.9915399357
 21
99.4943860979
  0
LINE
  5
32E
100
AcDbEntity
  8
00_COMPONENTS
100
AcDbLine
 62
7
  6
CONTINUOUS
 10
39.8995773567
 20
111.3333888871
 11
40.6066870818
 21
110.9251481326
  0
LINE
  5
32F
100
AcDbEntity
  8
00_COMPONENTS
100
AcDbLine
 62
7
  6
CONTINUOUS
 10
57.5773204854
 20
101.1273700241
 11
58.2844302105
 21
100.7191292696
  0
LINE
  5
330
100
AcDbEntity
  8
00_COMPONENTS
100
AcDbLine
 62
7
  6
CONTINUOUS
 10
73.9326953586
 20
157.2736708046
 11
73.9326953586
 21
158.9066756389
  0
LINE
  5
331
100
AcDbEntity
  8
00_COMPONENTS
100
AcDbLine
 62
7
  6
CONTINUOUS
 10
74.4274483072
 20
158.3758031554
 11
74.4274483072
 21
160.0088079896
  0
LINE
  5
332
100
AcDbEntity
  8
00_COMPONENTS
100
AcDbLine
 62
7
  6
CONTINUOUS
 10
75.2409230093
 20
23.9191673297
 11
75.2409230093
 21
41.3923190563
  0
LINE
  5
333
100
AcDbEntity
  8
00_COMPONENTS
100
AcDbLine
 62
7
  6
CONTINUOUS
 10
75.2409230093
 20
71.6029084901
 11
75.2409230093
 21
106.2226109764
  0
LINE
  5
334
100
AcDbEntity
  8
00_COMPONENTS
100
AcDbLine
 62
7
  6
CONTINUOUS
 10
76.9733288824
 20
107.1819884097
 11
76.9733288824
 21
109.5606839723
  0
LINE
  5
335
100
AcDbEntity
  8
00_COMPONENTS
100
AcDbLine
 62
7
  6
CONTINUOUS
 10
77.5743656721
 20
107.5289950907
 11
77.5743656721
 21
37.5955595362
  0
LINE
  5
336
100
AcDbEntity
  8
00_COMPONENTS
100
AcDbLine
 62
7
  6
CONTINUOUS
 10
77.7511431034
 20
37.4934993475
 11
77.7511431034
 21
47.8630800451
  0
LINE
  5
337
100
AcDbEntity
  8
00_COMPONENTS
100
AcDbLine
 62
7
  6
CONTINUOUS
 10
77.7511431034
 20
63.3766259705
 11
77.7511431034
 21
107.631056979
  0
LINE
  5
338
100
AcDbEntity
  8
00_COMPONENTS
100
AcDbLine
 62
7
  6
CONTINUOUS
 10
71.5766195852
 20
35.445409819
 11
71.5710217694
 21
35.3695653298
  0
LINE
  5
339
100
AcDbEntity
  8
00_COMPONENTS
100
AcDbLine
 62
7
  6
CONTINUOUS
 10
71.953793589
 20
35.9594633872
 11
72.0164979523
 21
36.7873182549
  0
LINE
  5
33A
100
AcDbEntity
  8
00_COMPONENTS
100
AcDbLine
 62
7
  6
CONTINUOUS
 10
76.9836214418
 20
109.7054317597
 11
77.8709453597
 21
116.0285490857
  0
LINE
  5
33B
100
AcDbEntity
  8
00_COMPONENTS_3
100
AcDbLine
 62
7
  6
CONTINUOUS
 10
45.7257579305
 20
61.6940730073
 11
46.5323246925
 21
62.4500044418
  0
LINE
  5
33C
100
AcDbEntity
  8
00_COMPONENTS
100
AcDbLine
 62
7
  6
CONTINUOUS
 10
80.7913828421
 20
160.2536952225
 11
80.7913828421
 21
163.6830053745
  0
LINE
  5
33D
100
AcDbEntity
  8
00_COMPONENTS
100
AcDbLine
 62
7
  6
CONTINUOUS
 10
80.8975711811
 20
144.8834329651
 11
80.8975711811
 21
146.6797065367
  0
LINE
  5
33E
100
AcDbEntity
  8
00_COMPONENTS
100
AcDbLine
 62
7
  6
CONTINUOUS
 10
81.9582269369
 20
145.4957991959
 11
81.9582269369
 21
147.2920727676
  0
LINE
  5
33F
100
AcDbEntity
  8
00_COMPONENTS
100
AcDbLine
 62
7
  6
CONTINUOUS
 10
82.6655133
 20
19.7141058072
 11
82.6655133
 21
25.3948702742
  0
LINE
  5
340
100
AcDbEntity
  8
00_COMPONENTS
100
AcDbLine
 62
7
  6
CONTINUOUS
 10
82.8422907313
 20
25.2928100856
 11
82.8422907313
 21
19.6120456186
  0
LINE
  5
341
100
AcDbEntity
  8
00_COMPONENTS
100
AcDbLine
 62
7
  6
CONTINUOUS
 10
109.7829345645
 20
139.5967702636
 11
109.2424530366
 21
138.4682366629
  0
LINE
  5
342
100
AcDbEntity
  8
00_COMPONENTS
100
AcDbLine
 62
7
  6
CONTINUOUS
 10
109.2424530366
 20
136.8352318287
 11
109.7829345645
 21
137.9637654294
  0
LINE
  5
343
100
AcDbEntity
  8
00_COMPONENTS_3
100
AcDbLine
 62
7
  6
CONTINUOUS
 10
46.4263884387
 20
56.5144723522
 11
39.1615349601
 21
50.4895388217
  0
LINE
  5
344
100
AcDbEntity
  8
00_COMPONENTS
100
AcDbLine
 62
7
  6
CONTINUOUS
 10
65.6242872714
 20
72.5827372995
 11
72.4124841087
 21
76.5018811767
  0
LINE
  5
345
100
AcDbEntity
  8
00_COMPONENTS
100
AcDbLine
 62
7
  6
CONTINUOUS
 10
67.0187932051
 20
115.4598334559
 11
64.4282241583
 21
116.9541297736
  0
LINE
  5
346
100
AcDbEntity
  8
00_COMPONENTS
100
AcDbLine
 62
7
  6
CONTINUOUS
 10
49.3410500019
 20
125.6658524157
 11
43.0846408781
 21
129.276574555
  0
LINE
  5
347
100
AcDbEntity
  8
00_COMPONENTS
100
AcDbLine
 62
7
  6
CONTINUOUS
 10
31.6633069519
 20
135.8718712032
 11
23.9503920558
 21
140.3234883487
  0
LINE
  5
348
100
AcDbEntity
  8
00_COMPONENTS
100
AcDbLine
 62
7
  6
CONTINUOUS
 10
75.2409230093
 20
106.2226109764
 11
22.5612484858
 21
136.6365471882
  0
LINE
  5
349
100
AcDbEntity
  8
00_COMPONENTS
100
AcDbLine
 62
7
  6
CONTINUOUS
 10
76.9733288824
 20
107.1819884097
 11
23.9400994964
 21
137.8000449987
  0
LINE
  5
34A
100
AcDbEntity
  8
00_COMPONENTS
100
AcDbLine
 62
7
  6
CONTINUOUS
 10
76.9733288824
 20
109.5606839723
 11
68.8518490057
 21
114.2495164898
  0
LINE
  5
34B
100
AcDbEntity
  8
00_COMPONENTS
100
AcDbLine
 62
7
  6
CONTINUOUS
 10
67.4170656306
 20
115.0778703178
 11
64.3964507086
 21
116.8217837035
  0
LINE
  5
34C
100
AcDbEntity
  8
00_COMPONENTS
100
AcDbLine
 62
7
  6
CONTINUOUS
 10
62.8214594457
 20
117.731084762
 11
60.6044448288
 21
119.0110497912
  0
LINE
  5
34D
100
AcDbEntity
  8
00_COMPONENTS
100
AcDbLine
 62
7
  6
CONTINUOUS
 10
57.9867266788
 20
120.5223558794
 11
51.174105877
 21
124.4555353528
  0
LINE
  5
34E
100
AcDbEntity
  8
00_COMPONENTS
100
AcDbLine
 62
7
  6
CONTINUOUS
 10
49.7393225019
 20
125.2838891808
 11
42.9267017001
 21
129.2170686542
  0
LINE
  5
34F
100
AcDbEntity
  8
00_COMPONENTS
100
AcDbLine
 62
7
  6
CONTINUOUS
 10
40.3089835501
 20
130.7283747424
 11
38.0919689332
 21
132.0083397716
  0
LINE
  5
350
100
AcDbEntity
  8
00_COMPONENTS
100
AcDbLine
 62
7
  6
CONTINUOUS
 10
36.5169776702
 20
132.9176408301
 11
33.4963627483
 21
134.6615542158
  0
LINE
  5
351
100
AcDbEntity
  8
00_COMPONENTS
100
AcDbLine
 62
7
  6
CONTINUOUS
 10
32.0615793732
 20
135.4899080438
 11
23.9400994964
 21
140.1787405613
  0
LINE
  5
352
100
AcDbEntity
  8
00_COMPONENTS
100
AcDbLine
 62
7
  6
CONTINUOUS
 10
38.1237423828
 20
132.1406858418
 11
40.1716294909
 21
130.9583644164
  0
LINE
  5
353
100
AcDbEntity
  8
00_COMPONENTS
100
AcDbLine
 62
7
  6
CONTINUOUS
 10
60.7623840068
 20
119.070555692
 11
62.8102711148
 21
117.8882342665
  0
LINE
  5
354
100
AcDbEntity
  8
00_COMPONENTS
100
AcDbLine
 62
7
  6
CONTINUOUS
 10
57.8493726195
 20
120.7523455534
 11
51.5933118554
 21
124.3655388355
  0
LINE
  5
355
100
AcDbEntity
  8
00_COMPONENTS
100
AcDbLine
 62
7
  6
CONTINUOUS
 10
76.9836214418
 20
109.7054317597
 11
69.2710550307
 21
114.1595199739
  0
LINE
  5
356
100
AcDbEntity
  8
00_COMPONENTS
100
AcDbLine
 62
7
  6
CONTINUOUS
 10
36.5057893394
 20
133.0747903347
 11
33.9155687788
 21
134.5715577
  0
LINE
  5
357
100
AcDbEntity
  8
00_COMPONENTS
100
AcDbLine
 62
7
  6
CONTINUOUS
 10
87.7020180649
 20
128.3997510608
 11
87.7020180649
 21
129.5427260496
  0
LINE
  5
358
100
AcDbEntity
  8
00_COMPONENTS
100
AcDbLine
 62
7
  6
CONTINUOUS
 10
87.7020180649
 20
130.6858294336
 11
87.7020180649
 21
132.4494746546
  0
LINE
  5
359
100
AcDbEntity
  8
00_COMPONENTS
100
AcDbLine
 62
7
  6
CONTINUOUS
 10
88.5505497351
 20
131.9595857491
 11
88.5505497351
 21
130.1959405281
  0
LINE
  5
35A
100
AcDbEntity
  8
00_COMPONENTS
100
AcDbLine
 62
7
  6
CONTINUOUS
 10
88.5505497351
 20
129.0528371442
 11
88.5505497351
 21
128.8896481247
  0
LINE
  5
35B
100
AcDbEntity
  8
00_COMPONENTS
100
AcDbLine
 62
7
  6
CONTINUOUS
 10
89.2061016197
 20
137.304154984
 11
89.2061016197
 21
143.1484301546
  0
LINE
  5
35C
100
AcDbEntity
  8
00_COMPONENTS
100
AcDbLine
 62
7
  6
CONTINUOUS
 10
89.3990672742
 20
129.5427260496
 11
89.3990672742
 21
129.7060597811
  0
LINE
  5
35D
100
AcDbEntity
  8
00_COMPONENTS
100
AcDbLine
 62
7
  6
CONTINUOUS
 10
89.7364427454
 20
138.2290293918
 11
89.7364427454
 21
141.5766971052
  0
LINE
  5
35E
100
AcDbEntity
  8
00_COMPONENTS
100
AcDbLine
 62
7
  6
CONTINUOUS
 10
91.6104384873
 20
147.0676519416
 11
91.6104384873
 21
148.7006567759
  0
LINE
  5
35F
100
AcDbEntity
  8
00_COMPONENTS
100
AcDbLine
 62
7
  6
CONTINUOUS
 10
92.1051914358
 20
148.1697842924
 11
92.1051914358
 21
149.8027891266
  0
LINE
  5
360
100
AcDbEntity
  8
00_COMPONENTS
100
AcDbLine
 62
7
  6
CONTINUOUS
 10
26.4824301854
 20
45.6150398203
 11
25.8999997904
 21
45.2787754822
  0
LINE
  5
361
100
AcDbEntity
  8
00_COMPONENTS
100
AcDbLine
 62
7
  6
CONTINUOUS
 10
32.7435623907
 20
47.7602761996
 11
30.0849384981
 21
46.2253281419
  0
LINE
  5
362
100
AcDbEntity
  8
00_COMPONENTS
100
AcDbLine
 62
7
  6
CONTINUOUS
 10
75.2409230093
 20
71.6029084901
 11
68.452726172
 21
67.6837646129
  0
LINE
  5
363
100
AcDbEntity
  8
00_COMPONENTS
100
AcDbLine
 62
7
  6
CONTINUOUS
 10
70.577256169
 20
114.4262431642
 11
69.2710550307
 21
114.1595199739
  0
LINE
  5
364
100
AcDbEntity
  8
00_COMPONENTS
100
AcDbLine
 62
7
  6
CONTINUOUS
 10
26.3226463964
 20
145.7893000903
 11
24.8377159736
 21
146.6466056747
  0
LINE
  5
365
100
AcDbEntity
  8
00_COMPONENTS
100
AcDbLine
 62
7
  6
CONTINUOUS
 10
76.3860149369
 20
116.8858546702
 11
77.8709453597
 21
116.0285490857
  0
LINE
  5
366
100
AcDbEntity
  8
00_COMPONENTS
100
AcDbLine
 62
7
  6
CONTINUOUS
 10
98.4691259708
 20
150.0476763595
 11
98.4691259708
 21
153.4769865115
  0
LINE
  5
367
100
AcDbEntity
  8
00_COMPONENTS
100
AcDbLine
 62
7
  6
CONTINUOUS
 10
98.5753143097
 20
134.6774141021
 11
98.5753143097
 21
136.4736876737
  0
LINE
  5
368
100
AcDbEntity
  8
00_COMPONENTS
100
AcDbLine
 62
7
  6
CONTINUOUS
 10
77.7511431034
 20
63.3766259705
 11
77.5743656721
 21
63.1184645046
  0
LINE
  5
369
100
AcDbEntity
  8
00_COMPONENTS
100
AcDbLine
 62
7
  6
CONTINUOUS
 10
46.6166262428
 20
51.696002181
 11
46.4262582337
 21
51.5860938157
  0
LINE
  5
36A
100
AcDbEntity
  8
00_COMPONENTS
100
AcDbLine
 62
7
  6
CONTINUOUS
 10
46.6201611805
 20
51.6898794528
 11
46.6454634704
 21
51.7044876495
  0
LINE
  5
36B
100
AcDbEntity
  8
00_COMPONENTS
100
AcDbLine
 62
7
  6
CONTINUOUS
 10
46.4262582337
 20
50.2715249242
 11
46.7018639052
 21
50.430644983
  0
LINE
  5
36C
100
AcDbEntity
  8
00_COMPONENTS
100
AcDbLine
 62
7
  6
CONTINUOUS
 10
36.063229761
 20
43.9613586889
 11
31.6459723508
 21
41.4110691572
  0
LINE
  5
36D
100
AcDbEntity
  8
00_COMPONENTS
100
AcDbLine
 62
7
  6
CONTINUOUS
 10
47.1225983462
 20
50.1836574583
 11
46.6383911513
 21
49.9041019727
  0
LINE
  5
36E
100
AcDbEntity
  8
00_COMPONENTS
100
AcDbLine
 62
7
  6
CONTINUOUS
 10
49.1839861618
 20
48.4344352564
 11
49.3961209122
 21
48.5569105806
  0
LINE
  5
36F
100
AcDbEntity
  8
00_COMPONENTS
100
AcDbLine
 62
7
  6
CONTINUOUS
 10
41.5471139888
 20
43.0451472703
 11
39.7351116808
 21
41.9989934947
  0
LINE
  5
370
100
AcDbEntity
  8
00_COMPONENTS
100
AcDbLine
 62
7
  6
CONTINUOUS
 10
117.6317995222
 20
86.4015962489
 11
77.7511431034
 21
63.3766259705
  0
LINE
  5
371
100
AcDbEntity
  8
00_COMPONENTS
100
AcDbLine
 62
7
  6
CONTINUOUS
 10
62.5686656594
 20
126.2761056401
 11
59.9319668426
 21
127.7983699735
  0
LINE
  5
372
100
AcDbEntity
  8
00_COMPONENTS
100
AcDbLine
 62
7
  6
CONTINUOUS
 10
44.8909225307
 20
136.4821245031
 11
42.2542237139
 21
138.0043888365
  0
LINE
  5
373
100
AcDbEntity
  8
00_COMPONENTS
100
AcDbLine
 62
7
  6
CONTINUOUS
 10
25.8898359376
 20
148.1522119724
 11
26.5969456627
 21
147.7439712178
  0
LINE
  5
374
100
AcDbEntity
  8
00_COMPONENTS
100
AcDbLine
 62
7
  6
CONTINUOUS
 10
40.5977182206
 20
139.6608042783
 11
42.0119376709
 21
138.8443227693
  0
LINE
  5
375
100
AcDbEntity
  8
00_COMPONENTS
100
AcDbLine
 62
7
  6
CONTINUOUS
 10
43.5675790662
 20
137.9461931093
 11
44.9817985165
 21
137.1297116003
  0
LINE
  5
376
100
AcDbEntity
  8
00_COMPONENTS
100
AcDbLine
 62
7
  6
CONTINUOUS
 10
58.2754613493
 20
129.4547854153
 11
59.6896807996
 21
128.6383039063
  0
LINE
  5
377
100
AcDbEntity
  8
00_COMPONENTS
100
AcDbLine
 62
7
  6
CONTINUOUS
 10
61.2453221949
 20
127.7401742463
 11
62.6595416452
 21
126.9236927373
  0
LINE
  5
378
100
AcDbEntity
  8
00_COMPONENTS
100
AcDbLine
 62
7
  6
CONTINUOUS
 10
76.6603142031
 20
118.8405257978
 11
77.3674239283
 21
118.4322850433
  0
LINE
  5
379
100
AcDbEntity
  8
00_COMPONENTS
100
AcDbLine
 62
7
  6
CONTINUOUS
 10
77.6167868976
 20
120.2092587956
 11
72.8084407666
 21
122.9852959264
  0
LINE
  5
37A
100
AcDbEntity
  8
00_COMPONENTS
100
AcDbLine
 62
7
  6
CONTINUOUS
 10
66.3030312952
 20
126.741110868
 11
61.4946851642
 21
129.5171479987
  0
LINE
  5
37B
100
AcDbEntity
  8
00_COMPONENTS
100
AcDbLine
 62
7
  6
CONTINUOUS
 10
59.9390437689
 20
130.4152776586
 11
55.1306976379
 21
133.1913147894
  0
LINE
  5
37C
100
AcDbEntity
  8
00_COMPONENTS
100
AcDbLine
 62
7
  6
CONTINUOUS
 10
48.6252881666
 20
136.947129731
 11
43.8169420356
 21
139.7231668617
  0
LINE
  5
37D
100
AcDbEntity
  8
00_COMPONENTS
100
AcDbLine
 62
7
  6
CONTINUOUS
 10
42.2613006402
 20
140.6212965216
 11
37.4529545092
 21
143.3973336524
  0
LINE
  5
37E
100
AcDbEntity
  8
00_COMPONENTS
100
AcDbLine
 62
7
  6
CONTINUOUS
 10
30.9475450379
 20
147.153148594
 11
26.1391989069
 21
149.9291857247
  0
LINE
  5
37F
100
AcDbEntity
  8
00_COMPONENTS
100
AcDbLine
 62
7
  6
CONTINUOUS
 10
77.8925403191
 20
122.73628025
 11
75.134812391
 21
124.3284191926
  0
LINE
  5
380
100
AcDbEntity
  8
00_COMPONENTS
100
AcDbLine
 62
7
  6
CONTINUOUS
 10
68.6294029197
 20
128.0842341342
 11
65.8716749916
 21
129.6763730768
  0
LINE
  5
381
100
AcDbEntity
  8
00_COMPONENTS
100
AcDbLine
 62
7
  6
CONTINUOUS
 10
60.2147971904
 20
132.942299113
 11
57.4570692623
 21
134.5344380556
  0
LINE
  5
382
100
AcDbEntity
  8
00_COMPONENTS
100
AcDbLine
 62
7
  6
CONTINUOUS
 10
50.951659791
 20
138.2902529972
 11
48.1939318629
 21
139.8823919398
  0
LINE
  5
383
100
AcDbEntity
  8
00_COMPONENTS
100
AcDbLine
 62
7
  6
CONTINUOUS
 10
42.5370540617
 20
143.148317976
 11
39.7793261337
 21
144.7404569186
  0
LINE
  5
384
100
AcDbEntity
  8
00_COMPONENTS
100
AcDbLine
 62
7
  6
CONTINUOUS
 10
33.2739166623
 20
148.4962718602
 11
30.5161887342
 21
150.0884108028
  0
LINE
  5
385
100
AcDbEntity
  8
00_COMPONENTS
100
AcDbLine
 62
7
  6
CONTINUOUS
 10
107.2373731414
 20
64.8868612715
 11
106.035286648
 21
68.0303778206
  0
LINE
  5
386
100
AcDbEntity
  8
00_COMPONENTS
100
AcDbLine
 62
7
  6
CONTINUOUS
 10
99.6359700656
 20
135.2897803329
 11
99.6359700656
 21
137.0860539045
  0
LINE
  5
387
100
AcDbEntity
  8
00_COMPONENTS
100
AcDbLine
 62
7
  6
CONTINUOUS
 10
72.0164979523
 20
36.7873182549
 11
72.0727088462
 21
36.862081943
  0
LINE
  5
388
100
AcDbEntity
  8
00_COMPONENTS
100
AcDbLine
 62
7
  6
CONTINUOUS
 10
71.8874714424
 20
36.8849518073
 11
71.8626973077
 21
36.8522118315
  0
LINE
  5
389
100
AcDbEntity
  8
00_COMPONENTS
100
AcDbLine
 62
7
  6
CONTINUOUS
 10
116.4297129895
 20
84.6460982802
 11
77.5743656721
 21
62.2130869541
  0
LINE
  5
38A
100
AcDbEntity
  8
00_COMPONENTS
100
AcDbLine
 62
7
  6
CONTINUOUS
 10
55.0164667305
 20
49.0763220168
 11
54.5715129398
 21
48.8194293595
  0
LINE
  5
38B
100
AcDbEntity
  8
00_COMPONENTS
100
AcDbLine
 62
7
  6
CONTINUOUS
 10
41.5471139888
 20
37.3296303504
 11
40.6078820734
 21
36.7873677881
  0
LINE
  5
38C
100
AcDbEntity
  8
00_COMPONENTS
100
AcDbLine
 62
7
  6
CONTINUOUS
 10
43.8098919916
 20
37.8195497335
 11
42.2542237139
 21
36.9213895959
  0
LINE
  5
38D
100
AcDbEntity
  8
00_COMPONENTS
100
AcDbLine
 62
7
  6
CONTINUOUS
 10
42.0221015237
 20
35.9708862791
 11
44.4683091828
 21
37.3831964992
  0
LINE
  5
38E
100
AcDbEntity
  8
00_COMPONENTS
100
AcDbLine
 62
7
  6
CONTINUOUS
 10
52.8995130407
 20
124.6322620265
 11
51.5933118554
 21
124.3655388355
  0
LINE
  5
38F
100
AcDbEntity
  8
00_COMPONENTS
100
AcDbLine
 62
7
  6
CONTINUOUS
 10
108.6515807896
 20
64.0703447353
 11
108.6515807896
 21
34.5129572349
  0
LINE
  5
390
100
AcDbEntity
  8
00_COMPONENTS
100
AcDbLine
 62
7
  6
CONTINUOUS
 10
109.2424530366
 20
136.8352318287
 11
109.2424530366
 21
138.4682366629
  0
LINE
  5
391
100
AcDbEntity
  8
00_COMPONENTS
100
AcDbLine
 62
7
  6
CONTINUOUS
 10
109.2475121534
 20
32.3258433011
 11
109.2475121534
 21
33.9588481353
  0
LINE
  5
392
100
AcDbEntity
  8
00_COMPONENTS
100
AcDbLine
 62
7
  6
CONTINUOUS
 10
109.5708057685
 20
65.9890864822
 11
109.5708057685
 21
36.4316989792
  0
LINE
  5
393
100
AcDbEntity
  8
00_COMPONENTS
100
AcDbLine
 62
7
  6
CONTINUOUS
 10
109.7829345645
 20
137.9637654294
 11
109.7829345645
 21
139.5967702636
  0
LINE
  5
394
100
AcDbEntity
  8
00_COMPONENTS
100
AcDbLine
 62
7
  6
CONTINUOUS
 10
109.7900056029
 20
35.0885433126
 11
109.7900056029
 21
33.4555384783
  0
LINE
  5
395
100
AcDbEntity
  8
00_COMPONENTS
100
AcDbLine
 62
7
  6
CONTINUOUS
 10
71.2844362767
 20
36.1200246544
 11
71.6607534851
 21
36.5853352714
  0
LINE
  5
396
100
AcDbEntity
  8
00_COMPONENTS
100
AcDbLine
 62
7
  6
CONTINUOUS
 10
44.7176721521
 20
35.894160583
 11
42.9597279531
 21
34.8792170849
  0
LINE
  5
397
100
AcDbEntity
  8
00_COMPONENTS
100
AcDbLine
 62
7
  6
CONTINUOUS
 10
44.7426037091
 20
35.7452852954
 11
43.5777429191
 21
35.0727566192
  0
LINE
  5
398
100
AcDbEntity
  8
00_COMPONENTS
100
AcDbLine
 62
7
  6
CONTINUOUS
 10
58.6558504654
 20
42.7482073023
 11
58.2214965992
 21
42.4974344776
  0
LINE
  5
399
100
AcDbEntity
  8
00_COMPONENTS
100
AcDbLine
 62
7
  6
CONTINUOUS
 10
50.4213055194
 20
37.5542573365
 11
47.7626816267
 21
36.0193092788
  0
LINE
  5
39A
100
AcDbEntity
  8
00_COMPONENTS
100
AcDbLine
 62
7
  6
CONTINUOUS
 10
77.5743656721
 20
51.5985555309
 11
106.035286648
 21
68.0303778206
  0
LINE
  5
39B
100
AcDbEntity
  8
00_COMPONENTS
100
AcDbLine
 62
7
  6
CONTINUOUS
 10
87.7020180649
 20
129.5427260496
 11
84.5684326662
 21
131.351861495
  0
LINE
  5
39C
100
AcDbEntity
  8
00_COMPONENTS
100
AcDbLine
 62
7
  6
CONTINUOUS
 10
71.0141344633
 20
139.1772621768
 11
70.8728066064
 21
139.2588560072
  0
LINE
  5
39D
100
AcDbEntity
  8
00_COMPONENTS
100
AcDbLine
 62
7
  6
CONTINUOUS
 10
70.0242749362
 20
139.7487449126
 11
66.8906895375
 21
141.557880358
  0
LINE
  5
39E
100
AcDbEntity
  8
00_COMPONENTS
100
AcDbLine
 62
7
  6
CONTINUOUS
 10
53.3363913346
 20
149.3832810399
 11
53.1950634777
 21
149.4648748702
  0
LINE
  5
39F
100
AcDbEntity
  8
00_COMPONENTS
100
AcDbLine
 62
7
  6
CONTINUOUS
 10
52.3465318076
 20
149.9547637756
 11
49.2129464088
 21
151.763899221
  0
LINE
  5
3A0
100
AcDbEntity
  8
00_COMPONENTS
100
AcDbLine
 62
7
  6
CONTINUOUS
 10
88.5505497351
 20
129.0528371442
 11
88.691877592
 21
128.9712433138
  0
LINE
  5
3A1
100
AcDbEntity
  8
00_COMPONENTS
100
AcDbLine
 62
7
  6
CONTINUOUS
 10
52.3465318076
 20
151.0978671596
 11
49.2129464088
 21
152.907002605
  0
LINE
  5
3A2
100
AcDbEntity
  8
00_COMPONENTS
100
AcDbLine
 62
7
  6
CONTINUOUS
 10
53.1950634777
 20
150.6079782542
 11
54.3263620568
 21
149.954837491
  0
LINE
  5
3A3
100
AcDbEntity
  8
00_COMPONENTS
100
AcDbLine
 62
7
  6
CONTINUOUS
 10
66.8906895375
 20
142.700983742
 11
70.0242749362
 21
140.8918482966
  0
LINE
  5
3A4
100
AcDbEntity
  8
00_COMPONENTS
100
AcDbLine
 62
7
  6
CONTINUOUS
 10
70.8728066064
 20
140.4019593912
 11
72.0041051855
 21
139.748818628
  0
LINE
  5
3A5
100
AcDbEntity
  8
00_COMPONENTS
100
AcDbLine
 62
7
  6
CONTINUOUS
 10
84.5684326662
 20
132.494964879
 11
87.7020180649
 21
130.6858294336
  0
LINE
  5
3A6
100
AcDbEntity
  8
00_COMPONENTS
100
AcDbLine
 62
7
  6
CONTINUOUS
 10
88.5505497351
 20
130.1959405281
 11
89.6818483141
 21
129.542799765
  0
LINE
  5
3A7
100
AcDbEntity
  8
00_COMPONENTS
100
AcDbLine
 62
7
  6
CONTINUOUS
 10
88.5505497351
 20
131.0123927659
 11
88.4090965521
 21
131.0940589517
  0
LINE
  5
3A8
100
AcDbEntity
  8
00_COMPONENTS
100
AcDbLine
 62
7
  6
CONTINUOUS
 10
70.8728066064
 20
141.2184116289
 11
70.7313534234
 21
141.3000778147
  0
LINE
  5
3A9
100
AcDbEntity
  8
00_COMPONENTS
100
AcDbLine
 62
7
  6
CONTINUOUS
 10
53.1950634777
 20
151.4244304919
 11
53.0536102947
 21
151.5060966777
  0
LINE
  5
3AA
100
AcDbEntity
  8
00_COMPONENTS
100
AcDbLine
 62
7
  6
CONTINUOUS
 10
52.3465318076
 20
152.8615123806
 11
53.1950634777
 21
152.3716234752
  0
LINE
  5
3AB
100
AcDbEntity
  8
00_COMPONENTS
100
AcDbLine
 62
7
  6
CONTINUOUS
 10
70.0242749362
 20
142.6554935176
 11
70.8728066064
 21
142.1656046122
  0
LINE
  5
3AC
100
AcDbEntity
  8
00_COMPONENTS
100
AcDbLine
 62
7
  6
CONTINUOUS
 10
87.7020180649
 20
132.4494746546
 11
88.5505497351
 21
131.9595857491
  0
LINE
  5
3AD
100
AcDbEntity
  8
00_COMPONENTS
100
AcDbLine
 62
7
  6
CONTINUOUS
 10
116.1468690994
 20
37.1256534216
 11
116.1468690994
 21
40.2283682505
  0
LINE
  5
3AE
100
AcDbEntity
  8
00_COMPONENTS
100
AcDbLine
 62
7
  6
CONTINUOUS
 10
116.1468690994
 20
139.8416574965
 11
116.1468690994
 21
143.2709676485
  0
LINE
  5
3AF
100
AcDbEntity
  8
00_COMPONENTS
100
AcDbLine
 62
7
  6
CONTINUOUS
 10
116.4297129895
 20
84.6460982802
 11
116.4297129895
 21
46.9236866088
  0
LINE
  5
3B0
100
AcDbEntity
  8
00_COMPONENTS
100
AcDbLine
 62
7
  6
CONTINUOUS
 10
116.6418441407
 20
40.5141405179
 11
116.6418441407
 21
47.046159855
  0
LINE
  5
3B1
100
AcDbEntity
  8
00_COMPONENTS
100
AcDbLine
 62
7
  6
CONTINUOUS
 10
117.6317995222
 20
132.452332575
 11
117.6317995222
 21
86.4015962489
  0
LINE
  5
3B2
100
AcDbEntity
  8
00_COMPONENTS
100
AcDbLine
 62
7
  6
CONTINUOUS
 10
108.6515807896
 20
64.0703447361
 11
109.5708057685
 21
65.9890864822
  0
LINE
  5
3B3
100
AcDbEntity
  8
00_COMPONENTS
100
AcDbLine
 62
7
  6
CONTINUOUS
 10
116.4297129895
 20
84.6460982802
 11
117.6317995222
 21
86.4015962489
  0
LINE
  5
3B4
100
AcDbEntity
  8
00_COMPONENTS
100
AcDbLine
 62
7
  6
CONTINUOUS
 10
77.7511431034
 20
47.8630800451
 11
107.237373133
 21
64.8868612685
  0
LINE
  5
3B5
100
AcDbEntity
  8
00_COMPONENTS
100
AcDbLine
 62
7
  6
CONTINUOUS
 10
53.7409728896
 20
33.7553398259
 11
49.3237154794
 21
31.2050502942
  0
LINE
  5
3B6
100
AcDbEntity
  8
00_COMPONENTS
100
AcDbLine
 62
7
  6
CONTINUOUS
 10
59.2248571175
 20
32.8391284073
 11
57.4128548095
 21
31.7929746317
  0
LINE
  5
3B7
100
AcDbEntity
  8
00_COMPONENTS
100
AcDbLine
 62
7
  6
CONTINUOUS
 10
68.452726172
 20
37.4731751791
 11
75.2409230093
 21
41.3923190563
  0
LINE
  5
3B8
100
AcDbEntity
  8
00_COMPONENTS
100
AcDbLine
 62
7
  6
CONTINUOUS
 10
74.4124751549
 20
39.5611752898
 11
67.6242783177
 21
35.6420314126
  0
LINE
  5
3B9
100
AcDbEntity
  8
00_COMPONENTS
100
AcDbLine
 62
7
  6
CONTINUOUS
 10
35.2217699116
 20
134.8382808903
 11
33.9155687788
 21
134.5715577
  0
LINE
  5
3BA
100
AcDbEntity
  8
00_COMPONENTS
100
AcDbLine
 62
7
  6
CONTINUOUS
 10
93.1656521074
 20
147.8022801413
 11
95.0750522815
 21
148.0881779577
  0
LINE
  5
3BB
100
AcDbEntity
  8
00_COMPONENTS
100
AcDbLine
 62
7
  6
CONTINUOUS
 10
117.8439306734
 20
132.5748058212
 11
117.8439306734
 21
139.1068251582
  0
LINE
  5
3BC
100
AcDbEntity
  8
00_COMPONENTS
100
AcDbLine
 62
7
  6
CONTINUOUS
 10
72.0164979523
 20
36.7873182549
 11
71.6626930359
 21
36.5828596765
  0
LINE
  5
3BD
100
AcDbEntity
  8
00_COMPONENTS
100
AcDbLine
 62
7
  6
CONTINUOUS
 10
59.2248571175
 20
27.1236114874
 11
58.2856252021
 21
26.5813489251
  0
LINE
  5
3BE
100
AcDbEntity
  8
00_COMPONENTS
100
AcDbLine
 62
7
  6
CONTINUOUS
 10
61.4876351202
 20
27.6135308705
 11
59.9319668426
 21
26.7153707329
  0
LINE
  5
3BF
100
AcDbEntity
  8
00_COMPONENTS
100
AcDbLine
 62
7
  6
CONTINUOUS
 10
59.6998446524
 20
25.7648674161
 11
62.1460523114
 21
27.1771776362
  0
LINE
  5
3C0
100
AcDbEntity
  8
00_COMPONENTS
100
AcDbLine
 62
7
  6
CONTINUOUS
 10
62.3954152808
 20
25.68814172
 11
60.6374710818
 21
24.6731982219
  0
LINE
  5
3C1
100
AcDbEntity
  8
00_COMPONENTS
100
AcDbLine
 62
7
  6
CONTINUOUS
 10
62.4203468377
 20
25.5392664324
 11
61.2554860477
 21
24.8667377561
  0
LINE
  5
3C2
100
AcDbEntity
  8
00_COMPONENTS
100
AcDbLine
 62
7
  6
CONTINUOUS
 10
98.5753143097
 20
136.4736876737
 11
89.7364427454
 21
141.5766971052
  0
LINE
  5
3C3
100
AcDbEntity
  8
00_COMPONENTS
100
AcDbLine
 62
7
  6
CONTINUOUS
 10
54.3809564881
 20
161.9887348313
 11
63.2198280524
 21
156.8857253998
  0
LINE
  5
3C4
100
AcDbEntity
  8
00_COMPONENTS
100
AcDbLine
 62
7
  6
CONTINUOUS
 10
72.0586996167
 20
151.7827159682
 11
80.8975711811
 21
146.6797065367
  0
LINE
  5
3C5
100
AcDbEntity
  8
00_COMPONENTS
100
AcDbLine
 62
7
  6
CONTINUOUS
 10
55.4416122439
 20
162.6011010621
 11
64.2804838082
 21
157.4980916306
  0
LINE
  5
3C6
100
AcDbEntity
  8
00_COMPONENTS
100
AcDbLine
 62
7
  6
CONTINUOUS
 10
73.1193553726
 20
152.3950821991
 11
81.9582269369
 21
147.2920727676
  0
LINE
  5
3C7
100
AcDbEntity
  8
00_COMPONENTS
100
AcDbLine
 62
7
  6
CONTINUOUS
 10
90.7970985012
 20
142.1890633361
 11
99.6359700656
 21
137.0860539045
  0
LINE
  5
3C8
100
AcDbEntity
  8
00_COMPONENTS
100
AcDbLine
 62
7
  6
CONTINUOUS
 10
101.2269669472
 20
136.2083373277
 11
89.2061016197
 21
143.1484301546
  0
LINE
  5
3C9
100
AcDbEntity
  8
00_COMPONENTS
100
AcDbLine
 62
7
  6
CONTINUOUS
 10
83.5492238185
 20
146.4143561907
 11
71.528358491
 21
153.3544490176
  0
LINE
  5
3CA
100
AcDbEntity
  8
00_COMPONENTS
100
AcDbLine
 62
7
  6
CONTINUOUS
 10
65.8714806898
 20
156.6203750537
 11
53.8506153623
 21
163.5604678806
  0
LINE
  5
3CB
100
AcDbEntity
  8
00_COMPONENTS
100
AcDbLine
 62
7
  6
CONTINUOUS
 10
108.6515807896
 20
34.5129572349
 11
109.5708057685
 21
36.4316989792
  0
LINE
  5
3CC
100
AcDbEntity
  8
00_COMPONENTS
100
AcDbLine
 62
7
  6
CONTINUOUS
 10
68.0990486481
 20
27.3482384735
 11
65.4404247554
 21
25.8132904158
  0
LINE
  5
3CD
100
AcDbEntity
  8
00_COMPONENTS
100
AcDbLine
 62
7
  6
CONTINUOUS
 10
71.4187160183
 20
23.5493209629
 11
67.0014586081
 21
20.9990314312
  0
LINE
  5
3CE
100
AcDbEntity
  8
00_COMPONENTS
100
AcDbLine
 62
7
  6
CONTINUOUS
 10
75.4879089787
 20
158.0082990043
 11
77.3973091528
 21
158.2941968207
  0
LINE
  5
3CF
100
AcDbEntity
  8
00_COMPONENTS
100
AcDbLine
 62
7
  6
CONTINUOUS
 10
109.7900056029
 20
35.0885433126
 11
109.2475121534
 21
33.9588481353
  0
LINE
  5
3D0
100
AcDbEntity
  8
00_COMPONENTS
100
AcDbLine
 62
7
  6
CONTINUOUS
 10
109.2475121534
 20
32.3258433011
 11
109.7900056029
 21
33.4555384783
  0
LINE
  5
3D1
100
AcDbEntity
  8
00_COMPONENTS
100
AcDbLine
 62
7
  6
CONTINUOUS
 10
76.4076443407
 20
24.5927701836
 11
75.2409230093
 21
23.9191673297
  0
LINE
  5
3D2
100
AcDbEntity
  8
00_COMPONENTS
100
AcDbLine
 62
7
  6
CONTINUOUS
 10
116.6418441407
 20
47.046159855
 11
116.4297129895
 21
46.9236866088
  0
LINE
  5
3D3
100
AcDbEntity
  8
00_COMPONENTS
100
AcDbLine
 62
7
  6
CONTINUOUS
 10
117.8439306734
 20
139.1068251582
 11
116.3590002506
 21
139.9641307427
  0
LINE
  5
3D4
100
AcDbEntity
  8
00_COMPONENTS
100
AcDbLine
 62
7
  6
CONTINUOUS
 10
98.6812058011
 20
150.1701792351
 11
98.4691259708
 21
150.2926208123
  0
LINE
  5
3D5
100
AcDbEntity
  8
00_COMPONENTS
100
AcDbLine
 62
7
  6
CONTINUOUS
 10
81.0034626725
 20
160.3761980981
 11
80.7913828421
 21
160.4986396753
  0
LINE
  5
3D6
100
AcDbEntity
  8
00_COMPONENTS
100
AcDbLine
 62
7
  6
CONTINUOUS
 10
116.1468690994
 20
143.2709676485
 11
101.4389868164
 21
151.7623753425
  0
LINE
  5
3D7
100
AcDbEntity
  8
00_COMPONENTS
100
AcDbLine
 62
7
  6
CONTINUOUS
 10
98.4691259708
 20
153.4769865115
 11
83.7612436877
 21
161.9683942055
  0
LINE
  5
3D8
100
AcDbEntity
  8
00_COMPONENTS
100
AcDbLine
 62
7
  6
CONTINUOUS
 10
80.7913828421
 20
163.6830053745
 11
66.083500559
 21
172.1744130685
  0
LINE
  5
3D9
100
AcDbEntity
  8
00_COMPONENTS
100
AcDbLine
 62
7
  6
CONTINUOUS
 10
116.6418441407
 20
40.5141405179
 11
109.5708057685
 21
36.4316989792
  0
LINE
  5
3DA
100
AcDbEntity
  8
00_COMPONENTS
100
AcDbLine
 62
7
  6
CONTINUOUS
 10
77.7043317812
 20
16.8497834195
 11
82.6655133
 21
19.7141058072
  0
LINE
  5
3DB
100
AcDbEntity
  8
00_COMPONENTS
100
AcDbLine
 62
7
  6
CONTINUOUS
 10
108.6515807896
 20
34.5129572349
 11
82.8422907313
 21
19.6120456186
  0
LINE
  5
3DC
100
AcDbEntity
  8
00_COMPONENTS
100
AcDbLine
 62
7
  6
CONTINUOUS
 10
109.7900056029
 20
35.0885433126
 11
76.6704780559
 21
15.9670893076
  0
LINE
  5
3DD
100
AcDbEntity
  8
00_COMPONENTS
100
AcDbLine
 62
7
  6
CONTINUOUS
 10
109.2475121534
 20
33.9588481353
 11
77.3775877811
 21
15.5588485531
  0
LINE
  5
3DE
100
AcDbEntity
  8
00_COMPONENTS
100
AcDbLine
 62
7
  6
CONTINUOUS
 10
109.7900056029
 20
33.4555384783
 11
116.1468690994
 21
37.1256534216
  0
LINE
  5
3DF
100
AcDbEntity
  8
00_COMPONENTS
100
AcDbLine
 62
7
  6
CONTINUOUS
 10
109.2475121534
 20
32.3258433011
 11
78.3152142105
 21
14.4671793589
  0
LINE
  5
3E0
100
AcDbEntity
  8
00_COMPONENTS
100
AcDbLine
 62
7
  6
CONTINUOUS
 10
57.765720586
 20
168.1886575353
 11
59.7195660241
 21
168.5002156837
  0
ARC
  5
3E1
100
AcDbEntity
  8
00_COMPONENTS
100
AcDbCircle
 62
7
  6
CONTINUOUS
 10
135.9310252085
 20
-11.7719982226
 40
80.4307126044
100
AcDbArc
 50
142.80353232
 51
143.0419804665
  0
ARC
  5
3E2
100
AcDbEntity
  8
00_COMPONENTS
100
AcDbCircle
 62
7
  6
CONTINUOUS
 10
72.6842725422
 20
39.4243227276
 40
4.8392327016
100
AcDbArc
 50
218.9042314551
 51
219.2239658503
  0
ARC
  5
3E3
100
AcDbEntity
  8
00_COMPONENTS
100
AcDbCircle
 62
7
  6
CONTINUOUS
 10
74.9377887525
 20
145.9993417445
 40
3.8798561888
100
AcDbArc
 50
161.8042700211
 51
165.3075397981
  0
ARC
  5
3E4
100
AcDbEntity
  8
00_COMPONENTS
100
AcDbCircle
 62
7
  6
CONTINUOUS
 10
92.6154221006
 20
135.7933531104
 40
3.879742331
100
AcDbArc
 50
161.8015457084
 51
165.3075604243
  0
ARC
  5
3E5
100
AcDbEntity
  8
00_COMPONENTS
100
AcDbCircle
 62
7
  6
CONTINUOUS
 10
57.2570958348
 20
156.2063018082
 40
3.8767627251
100
AcDbArc
 50
161.8062302889
 51
165.2587559538
  0
ARC
  5
3E6
100
AcDbEntity
  8
00_COMPONENTS
100
AcDbCircle
 62
7
  6
CONTINUOUS
 10
57.228700283
 20
47.1690309576
 40
3.5899228545
100
AcDbArc
 50
180.0017330711
 51
180.7729791846
  0
ARC
  5
3E7
100
AcDbEntity
  8
00_COMPONENTS
100
AcDbCircle
 62
7
  6
CONTINUOUS
 10
55.4378294403
 20
44.1674371578
 40
3.5396259444
100
AcDbArc
 50
0.014827363
 51
2.2814209993
  0
ARC
  5
3E8
100
AcDbEntity
  8
00_COMPONENTS
100
AcDbCircle
 62
7
  6
CONTINUOUS
 10
57.1587730396
 20
47.1689526436
 40
3.5199956095
100
AcDbArc
 50
179.5188312303
 51
180.0004927656
  0
ARC
  5
3E9
100
AcDbEntity
  8
00_COMPONENTS
100
AcDbCircle
 62
7
  6
CONTINUOUS
 10
55.6262913109
 20
44.1679260287
 40
3.3511639826
100
AcDbArc
 50
358.2625241161
 51
0.0073028601
  0
ARC
  5
3EA
100
AcDbEntity
  8
00_COMPONENTS
100
AcDbCircle
 62
7
  6
CONTINUOUS
 10
55.8324395208
 20
44.1614429349
 40
3.1449139917
100
AcDbArc
 50
355.2150155271
 51
358.2667088044
  0
ARC
  5
3EB
100
AcDbEntity
  8
00_COMPONENTS
100
AcDbCircle
 62
7
  6
CONTINUOUS
 10
69.1932267323
 20
36.676248681
 40
2.90105809
100
AcDbArc
 50
0.0142672891
 51
2.2219165267
  0
ARC
  5
3EC
100
AcDbEntity
  8
00_COMPONENTS
100
AcDbCircle
 62
7
  6
CONTINUOUS
 10
42.7426628038
 20
110.1326293266
 40
2.4806911582
100
AcDbArc
 50
245.0306504121
 51
247.7979727192
  0
ARC
  5
3ED
100
AcDbEntity
  8
00_COMPONENTS
100
AcDbCircle
 62
7
  6
CONTINUOUS
 10
60.4204059324
 20
99.9266104636
 40
2.4806911582
100
AcDbArc
 50
245.0306504121
 51
247.7979727192
  0
ARC
  5
3EE
100
AcDbEntity
  8
00_COMPONENTS
100
AcDbCircle
 62
7
  6
CONTINUOUS
 10
42.6823629298
 20
109.9864029069
 40
2.3225207163
100
AcDbArc
 50
247.8121325472
 51
249.4789574889
  0
ARC
  5
3EF
100
AcDbEntity
  8
00_COMPONENTS
100
AcDbCircle
 62
7
  6
CONTINUOUS
 10
60.3601060584
 20
99.7803840437
 40
2.322520716
100
AcDbArc
 50
247.8121325471
 51
249.478957489
  0
ARC
  5
3F0
100
AcDbEntity
  8
00_COMPONENTS
100
AcDbCircle
 62
7
  6
CONTINUOUS
 10
70.8487690056
 20
37.5859684489
 40
1.7194998834
100
AcDbArc
 50
243.8046085572
 51
247.8299790326
  0
ARC
  5
3F1
100
AcDbEntity
  8
00_COMPONENTS
100
AcDbCircle
 62
7
  6
CONTINUOUS
 10
57.591687131
 20
43.4243625146
 40
1.2676303223
100
AcDbArc
 50
300.0143440885
 51
305.0064164722
  0
ARC
  5
3F2
100
AcDbEntity
  8
00_COMPONENTS
100
AcDbCircle
 62
7
  6
CONTINUOUS
 10
55.0586288488
 20
47.8124695316
 40
1.2655934893
100
AcDbArc
 50
114.9574241314
 51
120.0010685615
  0
ARC
  5
3F3
100
AcDbEntity
  8
00_COMPONENTS
100
AcDbCircle
 62
7
  6
CONTINUOUS
 10
55.1787788502
 20
47.767466054
 40
1.2146562668
100
AcDbArc
 50
119.9965108835
 51
122.2516856117
  0
ARC
  5
3F4
100
AcDbEntity
  8
00_COMPONENTS
100
AcDbCircle
 62
7
  6
CONTINUOUS
 10
57.6154300991
 20
43.5473851567
 40
1.2123132294
100
AcDbArc
 50
297.9451395812
 51
299.9949727444
  0
ARC
  5
3F5
100
AcDbEntity
  8
00_COMPONENTS
100
AcDbCircle
 62
7
  6
CONTINUOUS
 10
71.1464997676
 20
36.4254595084
 40
1.139280924
100
AcDbArc
 50
276.8341861475
 51
281.9431577661
  0
ARC
  5
3F6
100
AcDbEntity
  8
00_COMPONENTS
100
AcDbCircle
 62
7
  6
CONTINUOUS
 10
71.1608856936
 20
36.3576539242
 40
1.0699660614
100
AcDbArc
 50
281.9408684568
 51
288.6552921025
  0
ARC
  5
3F7
100
AcDbEntity
  8
00_COMPONENTS
100
AcDbCircle
 62
7
  6
CONTINUOUS
 10
70.9671931614
 20
36.1803314838
 40
1.0120752889
100
AcDbArc
 50
288.7642877048
 51
299.9795035043
  0
ARC
  5
3F8
100
AcDbEntity
  8
00_COMPONENTS
100
AcDbCircle
 62
7
  6
CONTINUOUS
 10
37.142600873
 20
133.0411553918
 40
0.6376991757
100
AcDbArc
 50
176.9765760983
 51
191.16807974
  0
ARC
  5
3F9
100
AcDbEntity
  8
00_COMPONENTS
100
AcDbCircle
 62
7
  6
CONTINUOUS
 10
63.4470826485
 20
117.8545993236
 40
0.6376991758
100
AcDbArc
 50
176.9765760982
 51
191.16807974
  0
ARC
  5
3FA
100
AcDbEntity
  8
00_COMPONENTS
100
AcDbCircle
 62
7
  6
CONTINUOUS
 10
46.5154146626
 20
51.5031419909
 40
0.2464674205
100
AcDbArc
 50
60.0690222306
 51
64.337292753
  0
SPLINE
  5
3FB
100
AcDbEntity
  8
00_COMPONENTS_3
100
AcDbSpline
 62
7
  6
CONTINUOUS
 70
0
 71
3
 72
13
 73
9
 74
0
 42
0.0000001
 43
0.0000001
 44
0.0000000001
 40
0.0
 40
0.0
 40
0.0
 40
0.0
 40
0.2996897892
 40
0.5632083573
 40
0.6817908447
 40
0.792705509
 40
0.8978941458
 40
1.0
 40
1.0
 40
1.0
 40
1.0
 10
39.1615349601
 20
50.4895388217
 30
0.0
 10
39.0413001049
 20
50.3898249028
 30
0.0
 10
38.7990589662
 20
50.2206448963
 30
0.0
 10
38.4663554656
 20
50.0838285799
 30
0.0
 10
38.2117806358
 20
50.041856838
 30
0.0
 10
38.0363555348
 20
50.0432148385
 30
0.0
 10
37.8727766901
 20
50.0765914203
 30
0.0
 10
37.7729546323
 20
50.1204763099
 30
0.0
 10
37.7268653493
 20
50.1470854638
 30
0.0
  0
SPLINE
  5
3FC
100
AcDbEntity
  8
00_COMPONENTS_3
100
AcDbSpline
 62
7
  6
CONTINUOUS
 70
0
 71
3
 72
11
 73
7
 74
0
 42
0.0000001
 43
0.0000001
 44
0.0000000001
 40
0.0
 40
0.0
 40
0.0
 40
0.0
 40
0.2568421631
 40
0.5187836685
 40
0.7708833523
 40
1.0
 40
1.0
 40
1.0
 40
1.0
 10
29.3388930282
 20
58.5174914708
 30
0.0
 10
29.1928543287
 20
58.3639806699
 30
0.0
 10
28.9272018338
 20
58.0250788992
 30
0.0
 10
28.6226421043
 20
57.4635582033
 30
0.0
 10
28.4247813021
 20
56.8801876025
 30
0.0
 10
28.3717628823
 20
56.4827653779
 30
0.0
 10
28.3717628823
 20
56.2937578935
 30
0.0
  0
SPLINE
  5
3FD
100
AcDbEntity
  8
00_COMPONENTS_3
100
AcDbSpline
 62
7
  6
CONTINUOUS
 70
0
 71
3
 72
12
 73
8
 74
0
 42
0.0000001
 43
0.0000001
 44
0.0000000001
 40
0.0
 40
0.0
 40
0.0
 40
0.0
 40
0.2895560209
 40
0.5486497047
 40
0.781630695
 40
0.8918377874
 40
1.0
 40
1.0
 40
1.0
 40
1.0
 10
28.3717628823
 20
56.2937578935
 30
0.0
 10
28.3717628823
 20
56.1820225443
 30
0.0
 10
28.3887120392
 20
55.9695540975
 30
0.0
 10
28.4745856061
 20
55.6777870479
 30
0.0
 10
28.5980899179
 20
55.4765161091
 30
0.0
 10
28.7227264233
 20
55.3538642519
 30
0.0
 10
28.7922393486
 20
55.3053775676
 30
0.0
 10
28.82838585
 20
55.2845087757
 30
0.0
  0
SPLINE
  5
3FE
100
AcDbEntity
  8
00_COMPONENTS_3
100
AcDbSpline
 62
7
  6
CONTINUOUS
 70
0
 71
3
 72
10
 73
6
 74
0
 42
0.0000001
 43
0.0000001
 44
0.0000000001
 40
0.0
 40
0.0
 40
0.0
 40
0.0
 40
0.2862539213
 40
0.5500400688
 40
1.0
 40
1.0
 40
1.0
 40
1.0
 10
38.654660679
 20
65.7764805525
 30
0.0
 10
38.6134476008
 20
65.7378547837
 30
0.0
 10
38.5294138571
 20
65.6682972456
 30
0.0
 10
38.3611815103
 20
65.5654428547
 30
0.0
 10
38.2211371556
 20
65.5216753478
 30
0.0
 10
38.1323627867
 20
65.5201753221
 30
0.0
  0
SPLINE
  5
3FF
100
AcDbEntity
  8
00_COMPONENTS_3
100
AcDbSpline
 62
7
  6
CONTINUOUS
 70
0
 71
3
 72
10
 73
6
 74
0
 42
0.0000001
 43
0.0000001
 44
0.0000000001
 40
0.0
 40
0.0
 40
0.0
 40
0.0
 40
0.4509095738
 40
0.7143166998
 40
1.0
 40
1.0
 40
1.0
 40
1.0
 10
37.6858915301
 20
65.5126312715
 30
0.0
 10
37.5997048129
 20
65.5111749695
 30
0.0
 10
37.4638311231
 20
65.4698541134
 30
0.0
 10
37.2997371281
 20
65.3719920542
 30
0.0
 10
37.2176280257
 20
65.305774321
 30
0.0
 10
37.1772746869
 20
65.2689747143
 30
0.0
  0
SPLINE
  5
400
100
AcDbEntity
  8
00_COMPONENTS_3
100
AcDbSpline
 62
7
  6
CONTINUOUS
 70
0
 71
3
 72
12
 73
8
 74
0
 42
0.0000001
 43
0.0000001
 44
0.0000000001
 40
0.0
 40
0.0
 40
0.0
 40
0.0
 40
0.1081622215
 40
0.2183693183
 40
0.4513503239
 40
0.7104439844
 40
1.0
 40
1.0
 40
1.0
 40
1.0
 10
37.7268653493
 20
50.1470854638
 30
0.0
 10
37.6907188464
 20
50.1679542602
 30
0.0
 10
37.6212059179
 20
50.216440948
 30
0.0
 10
37.4965693935
 20
50.3390928037
 30
0.0
 10
37.3730651021
 20
50.5403637564
 30
0.0
 10
37.2871915274
 20
50.8321307966
 30
0.0
 10
37.2702423823
 20
51.0445992353
 30
0.0
 10
37.2702423823
 20
51.1563345829
 30
0.0
  0
SPLINE
  5
401
100
AcDbEntity
  8
00_COMPONENTS_3
100
AcDbSpline
 62
7
  6
CONTINUOUS
 70
0
 71
3
 72
11
 73
7
 74
0
 42
0.0000001
 43
0.0000001
 44
0.0000000001
 40
0.0
 40
0.0
 40
0.0
 40
0.0
 40
0.2291167162
 40
0.4812164174
 40
0.7431578953
 40
1.0
 40
1.0
 40
1.0
 40
1.0
 10
37.2702423823
 20
51.1563345829
 30
0.0
 10
37.2702423823
 20
51.3453420342
 30
0.0
 10
37.3232607808
 20
51.742764139
 30
0.0
 10
37.5211214481
 20
52.3261345321
 30
0.0
 10
37.8256809763
 20
52.8876549111
 30
0.0
 10
38.0913331196
 20
53.2265566139
 30
0.0
 10
38.2373717166
 20
53.3800673071
 30
0.0
  0
SPLINE
  5
402
100
AcDbEntity
  8
00_COMPONENTS_3
100
AcDbSpline
 62
7
  6
CONTINUOUS
 70
0
 71
3
 72
10
 73
6
 74
0
 42
0.0000001
 43
0.0000001
 44
0.0000000001
 40
0.0
 40
0.0
 40
0.0
 40
0.0
 40
0.2856833002
 40
0.5490904262
 40
1.0
 40
1.0
 40
1.0
 40
1.0
 10
44.2483719384
 20
61.1865671691
 30
0.0
 10
44.2887252772
 20
61.2233667758
 30
0.0
 10
44.3708343796
 20
61.289584509
 30
0.0
 10
44.5349283745
 20
61.3874465682
 30
0.0
 10
44.6708020644
 20
61.4287674243
 30
0.0
 10
44.7569887816
 20
61.4302237263
 30
0.0
  0
SPLINE
  5
403
100
AcDbEntity
  8
00_COMPONENTS_3
100
AcDbSpline
 62
7
  6
CONTINUOUS
 70
0
 71
3
 72
10
 73
6
 74
0
 42
0.0000001
 43
0.0000001
 44
0.0000000001
 40
0.0
 40
0.0
 40
0.0
 40
0.0
 40
0.4499599312
 40
0.7137460787
 40
1.0
 40
1.0
 40
1.0
 40
1.0
 10
45.2034600382
 20
61.4377677769
 30
0.0
 10
45.2922344071
 20
61.4392678026
 30
0.0
 10
45.4322787618
 20
61.4830353095
 30
0.0
 10
45.6005111085
 20
61.5858897004
 30
0.0
 10
45.6845448523
 20
61.6554472385
 30
0.0
 10
45.7257579305
 20
61.6940730073
 30
0.0
  0
SPLINE
  5
404
100
AcDbEntity
  8
00_COMPONENTS
100
AcDbSpline
 62
7
  6
CONTINUOUS
 70
0
 71
3
 72
9
 73
5
 74
0
 42
0.0000001
 43
0.0000001
 44
0.0000000001
 40
0.0
 40
0.0
 40
0.0
 40
0.0
 40
0.2572521568
 40
1.0
 40
1.0
 40
1.0
 40
1.0
 10
23.9503920558
 20
140.3234883487
 30
0.0
 10
23.9486958723
 20
140.3111555519
 30
0.0
 10
23.9428560765
 20
140.2631170174
 30
0.0
 10
23.9400994964
 20
140.2146834584
 30
0.0
 10
23.9400994964
 20
140.1787405613
 30
0.0
  0
SPLINE
  5
405
100
AcDbEntity
  8
00_COMPONENTS
100
AcDbSpline
 62
7
  6
CONTINUOUS
 70
0
 71
3
 72
11
 73
7
 74
0
 42
0.0000001
 43
0.0000001
 44
0.0000000001
 40
0.0
 40
0.0
 40
0.0
 40
0.0
 40
0.2260177912
 40
0.462920121
 40
0.7192469526
 40
1.0
 40
1.0
 40
1.0
 40
1.0
 10
71.0729308983
 20
35.9964686487
 30
0.0
 10
71.0140638668
 20
35.9624504155
 30
0.0
 10
70.8829220398
 20
35.9097338107
 30
0.0
 10
70.6658297192
 20
35.8847254317
 30
0.0
 10
70.4329008367
 20
35.9121951633
 30
0.0
 10
70.2781275883
 20
35.9617541672
 30
0.0
 10
70.1999049103
 20
35.9935943613
 30
0.0
  0
SPLINE
  5
406
100
AcDbEntity
  8
00_COMPONENTS
100
AcDbSpline
 62
7
  6
CONTINUOUS
 70
0
 71
3
 72
9
 73
5
 74
0
 42
0.0000001
 43
0.0000001
 44
0.0000000001
 40
0.0
 40
0.0
 40
0.0
 40
0.0
 40
0.4756152361
 40
1.0
 40
1.0
 40
1.0
 40
1.0
 10
70.0897238429
 20
36.0430717285
 30
0.0
 10
69.9579293502
 20
36.1077335133
 30
0.0
 10
69.6964957143
 20
36.2762800845
 30
0.0
 10
69.4693279421
 20
36.4872780867
 30
0.0
 10
69.3589869344
 20
36.605692836
 30
0.0
  0
SPLINE
  5
407
100
AcDbEntity
  8
00_COMPONENTS
100
AcDbSpline
 62
7
  6
CONTINUOUS
 70
0
 71
3
 72
9
 73
5
 74
0
 42
0.0000001
 43
0.0000001
 44
0.0000000001
 40
0.0
 40
0.0
 40
0.0
 40
0.0
 40
0.4916262428
 40
1.0
 40
1.0
 40
1.0
 40
1.0
 10
71.4729172281
 20
35.3036676037
 30
0.0
 10
71.5400337062
 20
35.3424526457
 30
0.0
 10
71.6677016334
 20
35.4376739303
 30
0.0
 10
71.7705704076
 20
35.5589620862
 30
0.0
 10
71.8160904601
 20
35.6249408099
 30
0.0
  0
SPLINE
  5
408
100
AcDbEntity
  8
00_COMPONENTS
100
AcDbSpline
 62
7
  6
CONTINUOUS
 70
0
 71
3
 72
9
 73
5
 74
0
 42
0.0000001
 43
0.0000001
 44
0.0000000001
 40
0.0
 40
0.0
 40
0.0
 40
0.0
 40
0.2247067726
 40
1.0
 40
1.0
 40
1.0
 40
1.0
 10
71.8160904601
 20
35.6249408099
 30
0.0
 10
71.8627969502
 20
35.6926392075
 30
0.0
 10
72.0400272204
 20
36.015349696
 30
0.0
 10
72.0942847324
 20
36.3931988413
 30
0.0
 10
72.0942847324
 20
36.6769710769
 30
0.0
  0
SPLINE
  5
409
100
AcDbEntity
  8
00_COMPONENTS
100
AcDbSpline
 62
7
  6
CONTINUOUS
 70
0
 71
3
 72
17
 73
13
 74
0
 42
0.0000001
 43
0.0000001
 44
0.0000000001
 40
0.0
 40
0.0
 40
0.0
 40
0.0
 40
0.0428785007
 40
0.0877166363
 40
0.1358644724
 40
0.1881638077
 40
0.3059644858
 40
0.4398065194
 40
0.5839555108
 40
0.7306712531
 40
0.8717359231
 40
1.0
 40
1.0
 40
1.0
 40
1.0
 10
58.1835515135
 20
42.4764316447
 30
0.0
 10
58.0922628534
 20
42.4280047301
 30
0.0
 10
57.8918917004
 20
42.352832338
 30
0.0
 10
57.5639833651
 20
42.3144864431
 30
0.0
 10
57.2131839435
 20
42.3486503321
 30
0.0
 10
56.7052201275
 20
42.4937772619
 30
0.0
 10
56.0584083892
 20
42.8575372424
 30
0.0
 10
55.345101301
 20
43.4989802767
 30
0.0
 10
54.7159829449
 20
44.3128833829
 30
0.0
 10
54.2216782472
 20
45.2345245863
 30
0.0
 10
53.901239496
 20
46.1895581596
 30
0.0
 10
53.8155542727
 20
46.8393911882
 30
0.0
 10
53.8155542727
 20
47.1485106725
 30
0.0
  0
SPLINE
  5
40A
100
AcDbEntity
  8
00_COMPONENTS
100
AcDbSpline
 62
7
  6
CONTINUOUS
 70
0
 71
3
 72
11
 73
7
 74
0
 42
0.0000001
 43
0.0000001
 44
0.0000000001
 40
0.0
 40
0.0
 40
0.0
 40
0.0
 40
0.217895497
 40
0.4523833407
 40
0.7121317855
 40
1.0
 40
1.0
 40
1.0
 40
1.0
 10
58.3188862962
 20
42.3860619761
 30
0.0
 10
58.4310079487
 20
42.4645765758
 30
0.0
 10
58.6380742368
 20
42.6669126235
 30
0.0
 10
58.8567017962
 20
43.0629161297
 30
0.0
 10
58.9869028005
 20
43.540458262
 30
0.0
 10
59.0128113413
 20
43.8854579798
 30
0.0
 10
59.0128113413
 20
44.066292636
 30
0.0
  0
SPLINE
  5
40B
100
AcDbEntity
  8
00_COMPONENTS
100
AcDbSpline
 62
7
  6
CONTINUOUS
 70
0
 71
3
 72
11
 73
7
 74
0
 42
0.0000001
 43
0.0000001
 44
0.0000000001
 40
0.0
 40
0.0
 40
0.0
 40
0.0
 40
0.2177843137
 40
0.4509117637
 40
0.7102976701
 40
1.0
 40
1.0
 40
1.0
 40
1.0
 10
67.624268338
 20
35.6420486981
 30
0.0
 10
67.4923248824
 20
35.5658716215
 30
0.0
 10
67.1891642802
 20
35.4558521561
 30
0.0
 10
66.6856196861
 20
35.443102504
 30
0.0
 10
66.1489591598
 20
35.572696454
 30
0.0
 10
65.7998025677
 20
35.7387970176
 30
0.0
 10
65.6242872714
 20
35.8401285287
 30
0.0
  0
SPLINE
  5
40C
100
AcDbEntity
  8
00_COMPONENTS
100
AcDbSpline
 62
7
  6
CONTINUOUS
 70
0
 71
3
 72
17
 73
13
 74
0
 42
0.0000001
 43
0.0000001
 44
0.0000000001
 40
0.0
 40
0.0
 40
0.0
 40
0.0
 40
0.042857965
 40
0.0874854797
 40
0.1353180708
 40
0.1872814984
 40
0.3045423159
 40
0.4382097446
 40
0.5825520305
 40
0.7297107839
 40
0.8713099826
 40
1.0
 40
1.0
 40
1.0
 40
1.0
 10
41.5531030772
 20
107.652885703
 30
0.0
 10
41.4890214754
 20
107.6158540603
 30
0.0
 10
41.347715252
 20
107.5571536907
 30
0.0
 10
41.1144932393
 20
107.5229472608
 30
0.0
 10
40.8640231736
 20
107.5414041803
 30
0.0
 10
40.5000881221
 20
107.6381764002
 30
0.0
 10
40.0348526669
 20
107.8925681886
 30
0.0
 10
39.5208441233
 20
108.3477711823
 30
0.0
 10
39.0664812693
 20
108.9293339245
 30
0.0
 10
38.7088792007
 20
109.5902782603
 30
0.0
 10
38.4768249335
 20
110.2764052798
 30
0.0
 10
38.4146469339
 20
110.7437039451
 30
0.0
 10
38.4146469339
 20
110.9659408459
 30
0.0
  0
SPLINE
  5
40D
100
AcDbEntity
  8
00_COMPONENTS
100
AcDbSpline
 62
7
  6
CONTINUOUS
 70
0
 71
3
 72
9
 73
5
 74
0
 42
0.0000001
 43
0.0000001
 44
0.0000000001
 40
0.0
 40
0.0
 40
0.0
 40
0.0
 40
0.2466797152
 40
1.0
 40
1.0
 40
1.0
 40
1.0
 10
41.6621776304
 20
107.0230538421
 30
0.0
 10
41.692663909
 20
107.0406728544
 30
0.0
 10
41.8127144239
 20
107.1181372081
 30
0.0
 10
41.9167840493
 20
107.219672415
 30
0.0
 10
41.9830750679
 20
107.3043376126
 30
0.0
  0
SPLINE
  5
40E
100
AcDbEntity
  8
00_COMPONENTS
100
AcDbSpline
 62
7
  6
CONTINUOUS
 70
0
 71
3
 72
10
 73
6
 74
0
 42
0.0000001
 43
0.0000001
 44
0.0000000001
 40
0.0
 40
0.0
 40
0.0
 40
0.0
 40
0.4600868967
 40
0.7199415611
 40
1.0
 40
1.0
 40
1.0
 40
1.0
 10
41.9830750679
 20
107.3043376126
 30
0.0
 10
42.101291423
 20
107.4553205253
 30
0.0
 10
42.2309838558
 20
107.7364570699
 30
0.0
 10
42.311674172
 20
108.145620176
 30
0.0
 10
42.3249653037
 20
108.3711942681
 30
0.0
 10
42.3249653037
 20
108.4879185482
 30
0.0
  0
SPLINE
  5
40F
100
AcDbEntity
  8
00_COMPONENTS
100
AcDbSpline
 62
7
  6
CONTINUOUS
 70
0
 71
3
 72
17
 73
13
 74
0
 42
0.0000001
 43
0.0000001
 44
0.0000000001
 40
0.0
 40
0.0
 40
0.0
 40
0.0
 40
0.042857965
 40
0.0874854797
 40
0.1353180708
 40
0.1872814984
 40
0.3045423159
 40
0.4382097446
 40
0.5825520305
 40
0.7297107839
 40
0.8713099826
 40
1.0
 40
1.0
 40
1.0
 40
1.0
 10
59.2308462059
 20
97.44686684
 30
0.0
 10
59.1667646041
 20
97.4098351973
 30
0.0
 10
59.0254583807
 20
97.3511348277
 30
0.0
 10
58.792236368
 20
97.3169283977
 30
0.0
 10
58.5417663023
 20
97.3353853173
 30
0.0
 10
58.1778312508
 20
97.4321575372
 30
0.0
 10
57.7125957956
 20
97.6865493255
 30
0.0
 10
57.1985872519
 20
98.1417523192
 30
0.0
 10
56.7442243979
 20
98.7233150615
 30
0.0
 10
56.3866223294
 20
99.3842593973
 30
0.0
 10
56.1545680622
 20
100.0703864168
 30
0.0
 10
56.0923900626
 20
100.5376850821
 30
0.0
 10
56.0923900626
 20
100.7599219829
 30
0.0
  0
SPLINE
  5
410
100
AcDbEntity
  8
00_COMPONENTS
100
AcDbSpline
 62
7
  6
CONTINUOUS
 70
0
 71
3
 72
9
 73
5
 74
0
 42
0.0000001
 43
0.0000001
 44
0.0000000001
 40
0.0
 40
0.0
 40
0.0
 40
0.0
 40
0.2466797152
 40
1.0
 40
1.0
 40
1.0
 40
1.0
 10
59.3399207591
 20
96.8170349791
 30
0.0
 10
59.3704070377
 20
96.8346539914
 30
0.0
 10
59.4904575526
 20
96.9121183451
 30
0.0
 10
59.594527178
 20
97.013653552
 30
0.0
 10
59.6608181965
 20
97.0983187496
 30
0.0
  0
SPLINE
  5
411
100
AcDbEntity
  8
00_COMPONENTS
100
AcDbSpline
 62
7
  6
CONTINUOUS
 70
0
 71
3
 72
10
 73
6
 74
0
 42
0.0000001
 43
0.0000001
 44
0.0000000001
 40
0.0
 40
0.0
 40
0.0
 40
0.0
 40
0.4600868967
 40
0.7199415611
 40
1.0
 40
1.0
 40
1.0
 40
1.0
 10
59.6608181965
 20
97.0983187496
 30
0.0
 10
59.7790345517
 20
97.2493016623
 30
0.0
 10
59.9087269845
 20
97.5304382068
 30
0.0
 10
59.9894173007
 20
97.939601313
 30
0.0
 10
60.0027084324
 20
98.1651754051
 30
0.0
 10
60.0027084324
 20
98.2818996851
 30
0.0
  0
SPLINE
  5
412
100
AcDbEntity
  8
00_COMPONENTS
100
AcDbSpline
 62
7
  6
CONTINUOUS
 70
0
 71
3
 72
13
 73
9
 74
0
 42
0.0000001
 43
0.0000001
 44
0.0000000001
 40
0.0
 40
0.0
 40
0.0
 40
0.0
 40
0.3072193116
 40
0.5818151502
 40
0.7019533314
 40
0.8099867789
 40
0.9079316859
 40
1.0
 40
1.0
 40
1.0
 40
1.0
 10
44.5587727863
 20
133.8790500816
 30
0.0
 10
44.441612366
 20
134.0606358033
 30
0.0
 10
44.1836536128
 20
134.3826633876
 30
0.0
 10
43.7880532341
 20
134.6901480894
 30
0.0
 10
43.4616160707
 20
134.8310794364
 30
0.0
 10
43.2349569095
 20
134.8776728992
 30
0.0
 10
43.0229315107
 20
134.8669605467
 30
0.0
 10
42.8952841906
 20
134.8190301906
 30
0.0
 10
42.8391973773
 20
134.7866515261
 30
0.0
  0
SPLINE
  5
413
100
AcDbEntity
  8
00_COMPONENTS
100
AcDbSpline
 62
7
  6
CONTINUOUS
 70
0
 71
3
 72
10
 73
6
 74
0
 42
0.0000001
 43
0.0000001
 44
0.0000000001
 40
0.0
 40
0.0
 40
0.0
 40
0.0
 40
0.5226383611
 40
0.764522043
 40
1.0
 40
1.0
 40
1.0
 40
1.0
 10
53.5741479508
 20
157.4167497049
 30
0.0
 10
53.6777938563
 20
157.7313702738
 30
0.0
 10
53.8956563978
 20
158.1778228268
 30
0.0
 10
54.3257247981
 20
158.6478657202
 30
0.0
 10
54.5726667902
 20
158.827130742
 30
0.0
 10
54.7019025895
 20
158.9017839891
 30
0.0
  0
SPLINE
  5
414
100
AcDbEntity
  8
00_COMPONENTS
100
AcDbSpline
 62
7
  6
CONTINUOUS
 70
0
 71
3
 72
9
 73
5
 74
0
 42
0.0000001
 43
0.0000001
 44
0.0000000001
 40
0.0
 40
0.0
 40
0.0
 40
0.0
 40
0.5122594513
 40
1.0
 40
1.0
 40
1.0
 40
1.0
 10
51.9703669279
 20
155.8337293837
 30
0.0
 10
52.0605663027
 20
155.9926296618
 30
0.0
 10
52.2728879964
 20
156.2845356023
 30
0.0
 10
52.5571597783
 20
156.5088286365
 30
0.0
 10
52.7078242215
 20
156.5958115092
 30
0.0
  0
SPLINE
  5
415
100
AcDbEntity
  8
00_COMPONENTS
100
AcDbSpline
 62
7
  6
CONTINUOUS
 70
0
 71
3
 72
11
 73
7
 74
0
 42
0.0000001
 43
0.0000001
 44
0.0000000001
 40
0.0
 40
0.0
 40
0.0
 40
0.0
 40
0.2897768794
 40
0.5490678086
 40
0.7822253369
 40
1.0
 40
1.0
 40
1.0
 40
1.0
 10
56.5891583636
 20
156.97665274
 30
0.0
 10
56.3477608826
 20
157.1160204877
 30
0.0
 10
55.8677200496
 20
157.3445034862
 30
0.0
 10
55.1297661747
 20
157.522540393
 30
0.0
 10
54.4374551366
 20
157.505087232
 30
0.0
 10
54.0206073675
 20
157.3537393584
 30
0.0
 10
53.8391903611
 20
157.2490021554
 30
0.0
  0
SPLINE
  5
416
100
AcDbEntity
  8
00_COMPONENTS
100
AcDbSpline
 62
7
  6
CONTINUOUS
 70
0
 71
3
 72
11
 73
7
 74
0
 42
0.0000001
 43
0.0000001
 44
0.0000000001
 40
0.0
 40
0.0
 40
0.0
 40
0.0
 40
0.257717304
 40
0.5153663379
 40
0.7651816579
 40
1.0
 40
1.0
 40
1.0
 40
1.0
 10
50.8288197417
 20
147.9131853143
 30
0.0
 10
50.6098202676
 20
148.2021534489
 30
0.0
 10
50.2085935087
 20
148.808743169
 30
0.0
 10
49.7279611785
 20
149.7750075483
 30
0.0
 10
49.3836441715
 20
150.7638807753
 30
0.0
 10
49.2499270238
 20
151.435613007
 30
0.0
 10
49.2129464088
 20
151.763899221
 30
0.0
  0
SPLINE
  5
417
100
AcDbEntity
  8
00_COMPONENTS
100
AcDbSpline
 62
7
  6
CONTINUOUS
 70
0
 71
3
 72
11
 73
7
 74
0
 42
0.0000001
 43
0.0000001
 44
0.0000000001
 40
0.0
 40
0.0
 40
0.0
 40
0.0
 40
0.2811820416
 40
0.5378016443
 40
0.7744491382
 40
1.0
 40
1.0
 40
1.0
 40
1.0
 10
49.2129464088
 20
152.907002605
 30
0.0
 10
49.238405678
 20
153.1036137694
 30
0.0
 10
49.316282969
 20
153.4770236002
 30
0.0
 10
49.5301188683
 20
153.9838746198
 30
0.0
 10
49.8330247768
 20
154.3966918318
 30
0.0
 10
50.0931290269
 20
154.6011978329
 30
0.0
 10
50.2308353305
 20
154.6807412521
 30
0.0
  0
SPLINE
  5
418
100
AcDbEntity
  8
00_COMPONENTS
100
AcDbSpline
 62
7
  6
CONTINUOUS
 70
0
 71
3
 72
11
 73
7
 74
0
 42
0.0000001
 43
0.0000001
 44
0.0000000001
 40
0.0
 40
0.0
 40
0.0
 40
0.0
 40
0.2787844737
 40
0.5369270383
 40
0.7755990485
 40
1.0
 40
1.0
 40
1.0
 40
1.0
 10
36.5801841166
 20
137.1779255192
 30
0.0
 10
36.5441037932
 20
136.9208152202
 30
0.0
 10
36.4350951915
 20
136.4297621565
 30
0.0
 10
36.146379857
 20
135.7621457181
 30
0.0
 10
35.7453193092
 20
135.2155029948
 30
0.0
 10
35.4029029614
 20
134.9424485472
 30
0.0
 10
35.2219218101
 20
134.8379518204
 30
0.0
  0
SPLINE
  5
419
100
AcDbEntity
  8
00_COMPONENTS
100
AcDbSpline
 62
7
  6
CONTINUOUS
 70
0
 71
3
 72
15
 73
11
 74
0
 42
0.0000001
 43
0.0000001
 44
0.0000000001
 40
0.0
 40
0.0
 40
0.0
 40
0.0
 40
0.1136876627
 40
0.2365833272
 40
0.3661455318
 40
0.4992341307
 40
0.6324337741
 40
0.7622905815
 40
0.8857082757
 40
1.0
 40
1.0
 40
1.0
 40
1.0
 10
71.9212467263
 20
116.7126258413
 30
0.0
 10
71.6966747596
 20
116.839165452
 30
0.0
 10
71.2525611306
 20
117.1447402785
 30
0.0
 10
70.6410318003
 20
117.7094767129
 30
0.0
 10
70.0767024171
 20
118.3799108529
 30
0.0
 10
69.5811080195
 20
119.1305232284
 30
0.0
 10
69.1730534094
 20
119.932836902
 30
0.0
 10
68.8678060069
 20
120.7565129327
 30
0.0
 10
68.6773173795
 20
121.5701107666
 30
0.0
 10
68.6294029197
 20
122.1095786304
 30
0.0
 10
68.6294029197
 20
122.3687172143
 30
0.0
  0
SPLINE
  5
41A
100
AcDbEntity
  8
00_COMPONENTS
100
AcDbSpline
 62
7
  6
CONTINUOUS
 70
0
 71
3
 72
11
 73
7
 74
0
 42
0.0000001
 43
0.0000001
 44
0.0000000001
 40
0.0
 40
0.0
 40
0.0
 40
0.0
 40
0.2629424854
 40
0.5237381523
 40
0.7722619071
 40
1.0
 40
1.0
 40
1.0
 40
1.0
 10
95.1741600702
 20
132.7114027641
 30
0.0
 10
94.9957616614
 20
133.1214547485
 30
0.0
 10
94.5806329434
 20
133.9134383357
 30
0.0
 10
93.812626601
 20
134.9841775683
 30
0.0
 10
92.9375646287
 20
135.8880888842
 30
0.0
 10
92.2800646026
 20
136.3709645783
 30
0.0
 10
91.944644621
 20
136.564615014
 30
0.0
  0
SPLINE
  5
41B
100
AcDbEntity
  8
00_COMPONENTS
100
AcDbSpline
 62
7
  6
CONTINUOUS
 70
0
 71
3
 72
10
 73
6
 74
0
 42
0.0000001
 43
0.0000001
 44
0.0000000001
 40
0.0
 40
0.0
 40
0.0
 40
0.0
 40
0.5226388215
 40
0.7645216643
 40
1.0
 40
1.0
 40
1.0
 40
1.0
 10
71.2519435078
 20
147.2108816234
 30
0.0
 10
71.3555975294
 20
147.5254707014
 30
0.0
 10
71.5734558914
 20
147.9718759749
 30
0.0
 10
72.0034953912
 20
148.4418739128
 30
0.0
 10
72.2504214066
 20
148.6211164418
 30
0.0
 10
72.3796466419
 20
148.6957635402
 30
0.0
  0
SPLINE
  5
41C
100
AcDbEntity
  8
00_COMPONENTS
100
AcDbSpline
 62
7
  6
CONTINUOUS
 70
0
 71
3
 72
9
 73
5
 74
0
 42
0.0000001
 43
0.0000001
 44
0.0000000001
 40
0.0
 40
0.0
 40
0.0
 40
0.0
 40
0.5122594513
 40
1.0
 40
1.0
 40
1.0
 40
1.0
 10
69.6481100565
 20
145.6277105207
 30
0.0
 10
69.7383094314
 20
145.7866107988
 30
0.0
 10
69.9506311251
 20
146.0785167393
 30
0.0
 10
70.234902907
 20
146.3028097735
 30
0.0
 10
70.3855673502
 20
146.3897926462
 30
0.0
  0
SPLINE
  5
41D
100
AcDbEntity
  8
00_COMPONENTS
100
AcDbSpline
 62
7
  6
CONTINUOUS
 70
0
 71
3
 72
11
 73
7
 74
0
 42
0.0000001
 43
0.0000001
 44
0.0000000001
 40
0.0
 40
0.0
 40
0.0
 40
0.0
 40
0.2897768794
 40
0.5490678086
 40
0.7822253369
 40
1.0
 40
1.0
 40
1.0
 40
1.0
 10
74.2669014923
 20
146.770633877
 30
0.0
 10
74.0255040112
 20
146.9100016247
 30
0.0
 10
73.5454631782
 20
147.1384846232
 30
0.0
 10
72.8075093033
 20
147.31652153
 30
0.0
 10
72.1151982653
 20
147.299068369
 30
0.0
 10
71.6983504961
 20
147.1477204954
 30
0.0
 10
71.5169334898
 20
147.0429832924
 30
0.0
  0
SPLINE
  5
41E
100
AcDbEntity
  8
00_COMPONENTS
100
AcDbSpline
 62
7
  6
CONTINUOUS
 70
0
 71
3
 72
10
 73
6
 74
0
 42
0.0000001
 43
0.0000001
 44
0.0000000001
 40
0.0
 40
0.0
 40
0.0
 40
0.0
 40
0.234994313
 40
0.4744541406
 40
1.0
 40
1.0
 40
1.0
 40
1.0
 10
36.8557368698
 20
133.7658319186
 30
0.0
 10
36.8994334544
 20
133.7910359779
 30
0.0
 10
36.9956783271
 20
133.8294488559
 30
0.0
 10
37.2122162204
 20
133.8472613159
 30
0.0
 10
37.3750020512
 20
133.7896136358
 30
0.0
 10
37.4727030936
 20
133.7332071887
 30
0.0
  0
SPLINE
  5
41F
100
AcDbEntity
  8
00_COMPONENTS
100
AcDbSpline
 62
7
  6
CONTINUOUS
 70
0
 71
3
 72
11
 73
7
 74
0
 42
0.0000001
 43
0.0000001
 44
0.0000000001
 40
0.0
 40
0.0
 40
0.0
 40
0.0
 40
0.257717304
 40
0.5153663379
 40
0.7651816579
 40
1.0
 40
1.0
 40
1.0
 40
1.0
 10
68.5065628704
 20
137.7071664513
 30
0.0
 10
68.2875633963
 20
137.9961345859
 30
0.0
 10
67.8863366374
 20
138.602724306
 30
0.0
 10
67.4057043072
 20
139.5689886853
 30
0.0
 10
67.0613873002
 20
140.5578619123
 30
0.0
 10
66.9276701525
 20
141.229594144
 30
0.0
 10
66.8906895375
 20
141.557880358
 30
0.0
  0
SPLINE
  5
420
100
AcDbEntity
  8
00_COMPONENTS
100
AcDbSpline
 62
7
  6
CONTINUOUS
 70
0
 71
3
 72
15
 73
11
 74
0
 42
0.0000001
 43
0.0000001
 44
0.0000000001
 40
0.0
 40
0.0
 40
0.0
 40
0.0
 40
0.1136876627
 40
0.2365833272
 40
0.3661455318
 40
0.4992341307
 40
0.6324337741
 40
0.7622905815
 40
0.8857082757
 40
1.0
 40
1.0
 40
1.0
 40
1.0
 10
54.2435035976
 20
126.9186447043
 30
0.0
 10
54.0189316309
 20
127.045184315
 30
0.0
 10
53.5748180019
 20
127.3507591415
 30
0.0
 10
52.9632886716
 20
127.915495576
 30
0.0
 10
52.3989592885
 20
128.5859297159
 30
0.0
 10
51.9033648908
 20
129.3365420915
 30
0.0
 10
51.4953102807
 20
130.138855765
 30
0.0
 10
51.1900628782
 20
130.9625317957
 30
0.0
 10
50.9995742508
 20
131.7761296296
 30
0.0
 10
50.951659791
 20
132.3155974935
 30
0.0
 10
50.951659791
 20
132.5747360773
 30
0.0
  0
SPLINE
  5
421
100
AcDbEntity
  8
00_COMPONENTS
100
AcDbSpline
 62
7
  6
CONTINUOUS
 70
0
 71
3
 72
11
 73
7
 74
0
 42
0.0000001
 43
0.0000001
 44
0.0000000001
 40
0.0
 40
0.0
 40
0.0
 40
0.0
 40
0.2811820416
 40
0.5378016443
 40
0.7744491382
 40
1.0
 40
1.0
 40
1.0
 40
1.0
 10
66.8906895375
 20
142.700983742
 30
0.0
 10
66.9161488067
 20
142.8975949064
 30
0.0
 10
66.9940260977
 20
143.2710047372
 30
0.0
 10
67.207861997
 20
143.7778557568
 30
0.0
 10
67.5107679054
 20
144.1906729688
 30
0.0
 10
67.7708721556
 20
144.3951789699
 30
0.0
 10
67.9085784591
 20
144.4747223891
 30
0.0
  0
SPLINE
  5
422
100
AcDbEntity
  8
00_COMPONENTS
100
AcDbSpline
 62
7
  6
CONTINUOUS
 70
0
 71
3
 72
11
 73
7
 74
0
 42
0.0000001
 43
0.0000001
 44
0.0000000001
 40
0.0
 40
0.0
 40
0.0
 40
0.0
 40
0.2629424854
 40
0.5237381523
 40
0.7722619071
 40
1.0
 40
1.0
 40
1.0
 40
1.0
 10
77.4964169415
 20
142.9174216271
 30
0.0
 10
77.3180185328
 20
143.3274736115
 30
0.0
 10
76.9028898147
 20
144.1194571987
 30
0.0
 10
76.1348834723
 20
145.1901964313
 30
0.0
 10
75.2598215
 20
146.0941077472
 30
0.0
 10
74.6023214739
 20
146.5769834413
 30
0.0
 10
74.2669014923
 20
146.770633877
 30
0.0
  0
SPLINE
  5
423
100
AcDbEntity
  8
00_COMPONENTS
100
AcDbSpline
 62
7
  6
CONTINUOUS
 70
0
 71
3
 72
11
 73
7
 74
0
 42
0.0000001
 43
0.0000001
 44
0.0000000001
 40
0.0
 40
0.0
 40
0.0
 40
0.0
 40
0.2787844737
 40
0.5369270383
 40
0.7755990486
 40
1.0
 40
1.0
 40
1.0
 40
1.0
 10
54.2579272453
 20
126.9719066562
 30
0.0
 10
54.2218469219
 20
126.7147963572
 30
0.0
 10
54.1128383202
 20
126.2237432934
 30
0.0
 10
53.8241229855
 20
125.5561268551
 30
0.0
 10
53.4230624381
 20
125.0094841316
 30
0.0
 10
53.0806460901
 20
124.736429684
 30
0.0
 10
52.8996649386
 20
124.6319329578
 30
0.0
  0
SPLINE
  5
424
100
AcDbEntity
  8
00_COMPONENTS
100
AcDbSpline
 62
7
  6
CONTINUOUS
 70
0
 71
3
 72
11
 73
7
 74
0
 42
0.0000001
 43
0.0000001
 44
0.0000000001
 40
0.0
 40
0.0
 40
0.0
 40
0.0
 40
0.2322951361
 40
0.4899022223
 40
0.7527913769
 40
1.0
 40
1.0
 40
1.0
 40
1.0
 10
37.4727030936
 20
133.7332071887
 30
0.0
 10
37.5877208609
 20
133.6668031521
 30
0.0
 10
37.8009069563
 20
133.4749788304
 30
0.0
 10
38.0260666884
 20
133.1027291997
 30
0.0
 10
38.1532943996
 20
132.678125258
 30
0.0
 10
38.1626107539
 20
132.3816566882
 30
0.0
 10
38.142968763
 20
132.2416913657
 30
0.0
  0
SPLINE
  5
425
100
AcDbEntity
  8
00_COMPONENTS
100
AcDbSpline
 62
7
  6
CONTINUOUS
 70
0
 71
3
 72
9
 73
5
 74
0
 42
0.0000001
 43
0.0000001
 44
0.0000000001
 40
0.0
 40
0.0
 40
0.0
 40
0.0
 40
0.2524430771
 40
1.0
 40
1.0
 40
1.0
 40
1.0
 10
38.142968763
 20
132.2416913657
 30
0.0
 10
38.1417662579
 20
132.2331225288
 30
0.0
 10
38.135750857
 20
132.1993713384
 30
0.0
 10
38.1295432998
 20
132.1656440159
 30
0.0
 10
38.1237423828
 20
132.1406858418
 30
0.0
  0
SPLINE
  5
426
100
AcDbEntity
  8
00_COMPONENTS
100
AcDbSpline
 62
7
  6
CONTINUOUS
 70
0
 71
3
 72
9
 73
5
 74
0
 42
0.0000001
 43
0.0000001
 44
0.0000000001
 40
0.0
 40
0.0
 40
0.0
 40
0.0
 40
0.2329619793
 40
1.0
 40
1.0
 40
1.0
 40
1.0
 10
38.0919689332
 20
132.0083397716
 30
0.0
 10
38.0945892597
 20
132.0185792065
 30
0.0
 10
38.1056050663
 20
132.0625918621
 30
0.0
 10
38.1159528899
 20
132.1067685996
 30
0.0
 10
38.1237423828
 20
132.1406858418
 30
0.0
  0
SPLINE
  5
427
100
AcDbEntity
  8
00_COMPONENTS
100
AcDbSpline
 62
7
  6
CONTINUOUS
 70
0
 71
3
 72
10
 73
6
 74
0
 42
0.0000001
 43
0.0000001
 44
0.0000000001
 40
0.0
 40
0.0
 40
0.0
 40
0.0
 40
0.234994313
 40
0.4744541406
 40
1.0
 40
1.0
 40
1.0
 40
1.0
 10
63.1602186452
 20
118.5792758505
 30
0.0
 10
63.2039152298
 20
118.6044799098
 30
0.0
 10
63.3001601026
 20
118.6428927877
 30
0.0
 10
63.5166979958
 20
118.6607052477
 30
0.0
 10
63.6794838267
 20
118.6030575676
 30
0.0
 10
63.7771848691
 20
118.5466511205
 30
0.0
  0
SPLINE
  5
428
100
AcDbEntity
  8
00_COMPONENTS
100
AcDbSpline
 62
7
  6
CONTINUOUS
 70
0
 71
3
 72
15
 73
11
 74
0
 42
0.0000001
 43
0.0000001
 44
0.0000000001
 40
0.0
 40
0.0
 40
0.0
 40
0.0
 40
0.1136876627
 40
0.2365833272
 40
0.3661455318
 40
0.4992341307
 40
0.6324337741
 40
0.7622905815
 40
0.8857082757
 40
1.0
 40
1.0
 40
1.0
 40
1.0
 10
36.565760469
 20
137.1246635673
 30
0.0
 10
36.3411885022
 20
137.251203178
 30
0.0
 10
35.8970748732
 20
137.5567780045
 30
0.0
 10
35.285545543
 20
138.121514439
 30
0.0
 10
34.7212161598
 20
138.7919485789
 30
0.0
 10
34.2256217621
 20
139.5425609545
 30
0.0
 10
33.817567152
 20
140.344874628
 30
0.0
 10
33.5123197495
 20
141.1685506587
 30
0.0
 10
33.3218311221
 20
141.9821484926
 30
0.0
 10
33.2739166623
 20
142.5216163565
 30
0.0
 10
33.2739166623
 20
142.7807549403
 30
0.0
  0
SPLINE
  5
429
100
AcDbEntity
  8
00_COMPONENTS
100
AcDbSpline
 62
7
  6
CONTINUOUS
 70
0
 71
3
 72
11
 73
7
 74
0
 42
0.0000001
 43
0.0000001
 44
0.0000000001
 40
0.0
 40
0.0
 40
0.0
 40
0.0
 40
0.2629424854
 40
0.5237381523
 40
0.7722619071
 40
1.0
 40
1.0
 40
1.0
 40
1.0
 10
59.8186738128
 20
153.1234404901
 30
0.0
 10
59.6402754041
 20
153.5334924745
 30
0.0
 10
59.225146686
 20
154.3254760617
 30
0.0
 10
58.4571403437
 20
155.3962152943
 30
0.0
 10
57.5820783713
 20
156.3001266102
 30
0.0
 10
56.9245783452
 20
156.7830023043
 30
0.0
 10
56.5891583636
 20
156.97665274
 30
0.0
  0
SPLINE
  5
42A
100
AcDbEntity
  8
00_COMPONENTS
100
AcDbSpline
 62
7
  6
CONTINUOUS
 70
0
 71
3
 72
9
 73
5
 74
0
 42
0.0000001
 43
0.0000001
 44
0.0000000001
 40
0.0
 40
0.0
 40
0.0
 40
0.0
 40
0.2524430771
 40
1.0
 40
1.0
 40
1.0
 40
1.0
 10
64.4474505385
 20
117.0551352975
 30
0.0
 10
64.4462480334
 20
117.0465664607
 30
0.0
 10
64.4402326325
 20
117.0128152702
 30
0.0
 10
64.4340250752
 20
116.9790879477
 30
0.0
 10
64.4282241583
 20
116.9541297736
 30
0.0
  0
SPLINE
  5
42B
100
AcDbEntity
  8
00_COMPONENTS
100
AcDbSpline
 62
7
  6
CONTINUOUS
 70
0
 71
3
 72
11
 73
7
 74
0
 42
0.0000001
 43
0.0000001
 44
0.0000000001
 40
0.0
 40
0.0
 40
0.0
 40
0.0
 40
0.2322951361
 40
0.4899022223
 40
0.7527913769
 40
1.0
 40
1.0
 40
1.0
 40
1.0
 10
63.7771848691
 20
118.5466511205
 30
0.0
 10
63.8922026364
 20
118.4802470839
 30
0.0
 10
64.1053887318
 20
118.2884227623
 30
0.0
 10
64.3305484639
 20
117.9161731316
 30
0.0
 10
64.4577761751
 20
117.4915691898
 30
0.0
 10
64.4670925293
 20
117.19510062
 30
0.0
 10
64.4474505385
 20
117.0551352975
 30
0.0
  0
SPLINE
  5
42C
100
AcDbEntity
  8
00_COMPONENTS
100
AcDbSpline
 62
7
  6
CONTINUOUS
 70
0
 71
3
 72
9
 73
5
 74
0
 42
0.0000001
 43
0.0000001
 44
0.0000000001
 40
0.0
 40
0.0
 40
0.0
 40
0.0
 40
0.2329619793
 40
1.0
 40
1.0
 40
1.0
 40
1.0
 10
64.3964507086
 20
116.8217837035
 30
0.0
 10
64.3990710352
 20
116.8320231384
 30
0.0
 10
64.4100868417
 20
116.8760357939
 30
0.0
 10
64.4204346654
 20
116.9202125314
 30
0.0
 10
64.4282241583
 20
116.9541297736
 30
0.0
  0
SPLINE
  5
42D
100
AcDbEntity
  8
00_COMPONENTS
100
AcDbSpline
 62
7
  6
CONTINUOUS
 70
0
 71
3
 72
13
 73
9
 74
0
 42
0.0000001
 43
0.0000001
 44
0.0000000001
 40
0.0
 40
0.0
 40
0.0
 40
0.0
 40
0.3072193116
 40
0.5818151502
 40
0.7019533314
 40
0.8099867789
 40
0.9079316859
 40
1.0
 40
1.0
 40
1.0
 40
1.0
 10
62.236515915
 20
123.6730312186
 30
0.0
 10
62.1193554947
 20
123.8546169402
 30
0.0
 10
61.8613967414
 20
124.1766445246
 30
0.0
 10
61.4657963628
 20
124.4841292264
 30
0.0
 10
61.1393591993
 20
124.6250605734
 30
0.0
 10
60.9127000381
 20
124.6716540362
 30
0.0
 10
60.7006746394
 20
124.6609416837
 30
0.0
 10
60.5730273193
 20
124.6130113276
 30
0.0
 10
60.516940506
 20
124.5806326631
 30
0.0
  0
SPLINE
  5
42E
100
AcDbEntity
  8
00_COMPONENTS
100
AcDbSpline
 62
7
  6
CONTINUOUS
 70
0
 71
3
 72
10
 73
6
 74
0
 42
0.0000001
 43
0.0000001
 44
0.0000000001
 40
0.0
 40
0.0
 40
0.0
 40
0.0
 40
0.522635615
 40
0.7645195664
 40
1.0
 40
1.0
 40
1.0
 40
1.0
 10
88.9297426294
 20
137.0050326844
 30
0.0
 10
89.0334016426
 20
137.3195854003
 30
0.0
 10
89.251258713
 20
137.7659366487
 30
0.0
 10
89.6812695973
 20
138.2358793417
 30
0.0
 10
89.9281754557
 20
138.415103887
 30
0.0
 10
90.0573897705
 20
138.4897446772
 30
0.0
  0
SPLINE
  5
42F
100
AcDbEntity
  8
00_COMPONENTS
100
AcDbSpline
 62
7
  6
CONTINUOUS
 70
0
 71
3
 72
9
 73
5
 74
0
 42
0.0000001
 43
0.0000001
 44
0.0000000001
 40
0.0
 40
0.0
 40
0.0
 40
0.0
 40
0.5122594513
 40
1.0
 40
1.0
 40
1.0
 40
1.0
 10
87.3258531852
 20
135.4216916577
 30
0.0
 10
87.41605256
 20
135.5805919358
 30
0.0
 10
87.6283742538
 20
135.8724978763
 30
0.0
 10
87.9126460356
 20
136.0967909104
 30
0.0
 10
88.0633104789
 20
136.1837737832
 30
0.0
  0
SPLINE
  5
430
100
AcDbEntity
  8
00_COMPONENTS
100
AcDbSpline
 62
7
  6
CONTINUOUS
 70
0
 71
3
 72
11
 73
7
 74
0
 42
0.0000001
 43
0.0000001
 44
0.0000000001
 40
0.0
 40
0.0
 40
0.0
 40
0.0
 40
0.257717304
 40
0.5153663379
 40
0.7651816579
 40
1.0
 40
1.0
 40
1.0
 40
1.0
 10
86.184305999
 20
127.5011475883
 30
0.0
 10
85.965306525
 20
127.7901157228
 30
0.0
 10
85.5640797661
 20
128.396705443
 30
0.0
 10
85.0834474359
 20
129.3629698223
 30
0.0
 10
84.7391304288
 20
130.3518430493
 30
0.0
 10
84.6054132812
 20
131.0235752809
 30
0.0
 10
84.5684326661
 20
131.351861495
 30
0.0
  0
SPLINE
  5
431
100
AcDbEntity
  8
00_COMPONENTS
100
AcDbSpline
 62
7
  6
CONTINUOUS
 70
0
 71
3
 72
11
 73
7
 74
0
 42
0.0000001
 43
0.0000001
 44
0.0000000001
 40
0.0
 40
0.0
 40
0.0
 40
0.0
 40
0.2811820416
 40
0.5378016443
 40
0.7744491382
 40
1.0
 40
1.0
 40
1.0
 40
1.0
 10
84.5684326661
 20
132.494964879
 30
0.0
 10
84.5938919353
 20
132.6915760434
 30
0.0
 10
84.6717692264
 20
133.0649858742
 30
0.0
 10
84.8856051256
 20
133.5718368938
 30
0.0
 10
85.1885110341
 20
133.9846541058
 30
0.0
 10
85.4486152843
 20
134.1891601069
 30
0.0
 10
85.5863215878
 20
134.2687035261
 30
0.0
  0
SPLINE
  5
432
100
AcDbEntity
  8
00_COMPONENTS
100
AcDbSpline
 62
7
  6
CONTINUOUS
 70
0
 71
3
 72
11
 73
7
 74
0
 42
0.0000001
 43
0.0000001
 44
0.0000000001
 40
0.0
 40
0.0
 40
0.0
 40
0.0
 40
0.2897768794
 40
0.5490678086
 40
0.7822253369
 40
1.0
 40
1.0
 40
1.0
 40
1.0
 10
91.944644621
 20
136.564615014
 30
0.0
 10
91.7032471399
 20
136.7039827617
 30
0.0
 10
91.2232063069
 20
136.9324657602
 30
0.0
 10
90.485252432
 20
137.110502667
 30
0.0
 10
89.7929413939
 20
137.093049506
 30
0.0
 10
89.3760936248
 20
136.9417016324
 30
0.0
 10
89.1946766184
 20
136.8369644294
 30
0.0
  0
SPLINE
  5
433
100
AcDbEntity
  8
00_COMPONENTS
100
AcDbSpline
 62
7
  6
CONTINUOUS
 70
0
 71
3
 72
11
 73
7
 74
0
 42
0.0000001
 43
0.0000001
 44
0.0000000001
 40
0.0
 40
0.0
 40
0.0
 40
0.0
 40
0.2787844737
 40
0.5369270383
 40
0.7755990485
 40
1.0
 40
1.0
 40
1.0
 40
1.0
 10
71.9356703739
 20
116.7658877931
 30
0.0
 10
71.8995900506
 20
116.5087774942
 30
0.0
 10
71.7905814489
 20
116.0177244304
 30
0.0
 10
71.5018661144
 20
115.3501079921
 30
0.0
 10
71.1008055665
 20
114.8034652688
 30
0.0
 10
70.7583892187
 20
114.5304108211
 30
0.0
 10
70.5774080674
 20
114.4259140944
 30
0.0
  0
SPLINE
  5
434
100
AcDbEntity
  8
00_COMPONENTS
100
AcDbSpline
 62
7
  6
CONTINUOUS
 70
0
 71
3
 72
11
 73
7
 74
0
 42
0.0000001
 43
0.0000001
 44
0.0000000001
 40
0.0
 40
0.0
 40
0.0
 40
0.0
 40
0.2894156761
 40
0.5491593669
 40
0.7823473435
 40
1.0
 40
1.0
 40
1.0
 40
1.0
 10
42.9597279531
 20
34.8792170849
 30
0.0
 10
42.9088815118
 20
34.8498610536
 30
0.0
 10
42.8075800512
 20
34.8017935334
 30
0.0
 10
42.6519689396
 20
34.764032815
 30
0.0
 10
42.5058813434
 20
34.7678120318
 30
0.0
 10
42.4179856791
 20
34.7997034689
 30
0.0
 10
42.3797526397
 20
34.8217901332
 30
0.0
  0
SPLINE
  5
435
100
AcDbEntity
  8
00_COMPONENTS
100
AcDbSpline
 62
7
  6
CONTINUOUS
 70
0
 71
3
 72
11
 73
7
 74
0
 42
0.0000001
 43
0.0000001
 44
0.0000000001
 40
0.0
 40
0.0
 40
0.0
 40
0.0
 40
0.2894156761
 40
0.5491593669
 40
0.7823473435
 40
1.0
 40
1.0
 40
1.0
 40
1.0
 10
78.3152142105
 20
14.4671793589
 30
0.0
 10
78.2643677691
 20
14.4378233275
 30
0.0
 10
78.1630663086
 20
14.3897558073
 30
0.0
 10
78.0074551969
 20
14.351995089
 30
0.0
 10
77.8613676007
 20
14.3557743058
 30
0.0
 10
77.7734719365
 20
14.3876657429
 30
0.0
 10
77.735238897
 20
14.4097524071
 30
0.0
  0
SPLINE
  5
436
100
AcDbEntity
  8
00_COMPONENTS
100
AcDbSpline
 62
7
  6
CONTINUOUS
 70
0
 71
3
 72
11
 73
7
 74
0
 42
0.0000001
 43
0.0000001
 44
0.0000000001
 40
0.0
 40
0.0
 40
0.0
 40
0.0
 40
0.2894156761
 40
0.5491593669
 40
0.7823473435
 40
1.0
 40
1.0
 40
1.0
 40
1.0
 10
60.6374710818
 20
24.6731982219
 30
0.0
 10
60.5866246405
 20
24.6438421906
 30
0.0
 10
60.4853231799
 20
24.5957746704
 30
0.0
 10
60.3297120682
 20
24.558013952
 30
0.0
 10
60.1836244721
 20
24.5617931688
 30
0.0
 10
60.0957288078
 20
24.5936846059
 30
0.0
 10
60.0574957683
 20
24.6157712701
 30
0.0
  0
SPLINE
  5
437
100
AcDbEntity
  8
00_COMPONENTS
100
AcDbSpline
 62
7
  6
CONTINUOUS
 70
0
 71
3
 72
9
 73
5
 74
0
 42
0.0000001
 43
0.0000001
 44
0.0000000001
 40
0.0
 40
0.0
 40
0.0
 40
0.0
 40
0.264894724
 40
1.0
 40
1.0
 40
1.0
 40
1.0
 10
53.8155542727
 20
47.1485106725
 30
0.0
 10
53.8155542727
 20
47.2168949884
 30
0.0
 10
53.8232342341
 20
47.4748743102
 30
0.0
 10
53.8632552792
 20
47.7327963304
 30
0.0
 10
53.9163331585
 20
47.9149947132
 30
0.0
  0
SPLINE
  5
438
100
AcDbEntity
  8
00_COMPONENTS
100
AcDbSpline
 62
7
  6
CONTINUOUS
 70
0
 71
3
 72
10
 73
6
 74
0
 42
0.0000001
 43
0.0000001
 44
0.0000000001
 40
0.0
 40
0.0
 40
0.0
 40
0.0
 40
0.5246702104
 40
0.7662613844
 40
1.0
 40
1.0
 40
1.0
 40
1.0
 10
53.9163331585
 20
47.9149947132
 30
0.0
 10
53.9698347851
 20
48.098647677
 30
0.0
 10
54.0854031117
 20
48.3604633496
 30
0.0
 10
54.3213582257
 20
48.6408667154
 30
0.0
 10
54.4585203013
 20
48.7492406542
 30
0.0
 10
54.530590413
 20
48.7947155837
 30
0.0
  0
SPLINE
  5
439
100
AcDbEntity
  8
00_COMPONENTS
100
AcDbSpline
 62
7
  6
CONTINUOUS
 70
0
 71
3
 72
11
 73
7
 74
0
 42
0.0000001
 43
0.0000001
 44
0.0000000001
 40
0.0
 40
0.0
 40
0.0
 40
0.0
 40
0.2894156761
 40
0.5491593669
 40
0.7823473435
 40
1.0
 40
1.0
 40
1.0
 40
1.0
 10
67.0014586081
 20
20.9990314312
 30
0.0
 10
66.9506121668
 20
20.9696753999
 30
0.0
 10
66.8493107062
 20
20.9216078797
 30
0.0
 10
66.6936995946
 20
20.8838471613
 30
0.0
 10
66.5476119984
 20
20.8876263781
 30
0.0
 10
66.4597163341
 20
20.9195178152
 30
0.0
 10
66.4214832947
 20
20.9416044795
 30
0.0
  0
SPLINE
  5
43A
100
AcDbEntity
  8
00_COMPONENTS
100
AcDbSpline
 62
7
  6
CONTINUOUS
 70
0
 71
3
 72
11
 73
7
 74
0
 42
0.0000001
 43
0.0000001
 44
0.0000000001
 40
0.0
 40
0.0
 40
0.0
 40
0.0
 40
0.2894156761
 40
0.5491593669
 40
0.7823473435
 40
1.0
 40
1.0
 40
1.0
 40
1.0
 10
49.3237154794
 20
31.2050502942
 30
0.0
 10
49.2728690381
 20
31.1756942629
 30
0.0
 10
49.1715675775
 20
31.1276267427
 30
0.0
 10
49.0159564659
 20
31.0898660243
 30
0.0
 10
48.8698688697
 20
31.0936452411
 30
0.0
 10
48.7819732055
 20
31.1255366782
 30
0.0
 10
48.743740166
 20
31.1476233425
 30
0.0
  0
SPLINE
  5
43B
100
AcDbEntity
  8
00_COMPONENTS
100
AcDbSpline
 62
7
  6
CONTINUOUS
 70
0
 71
3
 72
11
 73
7
 74
0
 42
0.0000001
 43
0.0000001
 44
0.0000000001
 40
0.0
 40
0.0
 40
0.0
 40
0.0
 40
0.2896413964
 40
0.5491107671
 40
0.7822355978
 40
1.0
 40
1.0
 40
1.0
 40
1.0
 10
38.4146469339
 20
110.9659408459
 30
0.0
 10
38.4146469339
 20
111.0976496073
 30
0.0
 10
38.4346667143
 20
111.3481908466
 30
0.0
 10
38.5360702885
 20
111.692426457
 30
0.0
 10
38.7068842314
 20
111.971822608
 30
0.0
 10
38.8674237418
 20
112.1065977869
 30
0.0
 10
38.9531613613
 20
112.1561440654
 30
0.0
  0
SPLINE
  5
43C
100
AcDbEntity
  8
00_COMPONENTS
100
AcDbSpline
 62
7
  6
CONTINUOUS
 70
0
 71
3
 72
11
 73
7
 74
0
 42
0.0000001
 43
0.0000001
 44
0.0000000001
 40
0.0
 40
0.0
 40
0.0
 40
0.0
 40
0.2894156761
 40
0.5491593669
 40
0.7823473435
 40
1.0
 40
1.0
 40
1.0
 40
1.0
 10
31.6459723508
 20
41.4110691572
 30
0.0
 10
31.5951259094
 20
41.3817131259
 30
0.0
 10
31.4938244489
 20
41.3336456057
 30
0.0
 10
31.3382133372
 20
41.2958848873
 30
0.0
 10
31.192125741
 20
41.2996641041
 30
0.0
 10
31.1042300768
 20
41.3315555412
 30
0.0
 10
31.0659970373
 20
41.3536422055
 30
0.0
  0
SPLINE
  5
43D
100
AcDbEntity
  8
00_COMPONENTS
100
AcDbSpline
 62
7
  6
CONTINUOUS
 70
0
 71
3
 72
11
 73
7
 74
0
 42
0.0000001
 43
0.0000001
 44
0.0000000001
 40
0.0
 40
0.0
 40
0.0
 40
0.0
 40
0.2896413964
 40
0.5491107671
 40
0.7822355978
 40
1.0
 40
1.0
 40
1.0
 40
1.0
 10
56.0923900626
 20
100.7599219829
 30
0.0
 10
56.0923900626
 20
100.8916307442
 30
0.0
 10
56.112409843
 20
101.1421719836
 30
0.0
 10
56.2138134171
 20
101.486407594
 30
0.0
 10
56.3846273601
 20
101.765803745
 30
0.0
 10
56.5451668705
 20
101.9005789239
 30
0.0
 10
56.63090449
 20
101.9501252024
 30
0.0
  0
SPLINE
  5
43E
100
AcDbEntity
  8
00_COMPONENTS
100
AcDbSpline
 62
7
  6
CONTINUOUS
 70
0
 71
3
 72
17
 73
13
 74
0
 42
0.0000001
 43
0.0000001
 44
0.0000000001
 40
0.0
 40
0.0
 40
0.0
 40
0.0
 40
0.1286889617
 40
0.2702830997
 40
0.4174385712
 40
0.5617801152
 40
0.6954483663
 40
0.8127097952
 40
0.8646744913
 40
0.9125077733
 40
0.9571384188
 40
1.0
 40
1.0
 40
1.0
 40
1.0
 10
42.3249653037
 20
108.4879185482
 30
0.0
 10
42.3249653037
 20
108.7614392214
 30
0.0
 10
42.2484341817
 20
109.3365638316
 30
0.0
 10
41.9628377812
 20
110.1810098466
 30
0.0
 10
41.5227417227
 20
110.994476051
 30
0.0
 10
40.9635387834
 20
111.7102490454
 30
0.0
 10
40.3309109267
 20
112.2705074424
 30
0.0
 10
39.7583103915
 20
112.5835982768
 30
0.0
 10
39.3103942791
 20
112.7027529307
 30
0.0
 10
39.0021121653
 20
112.7254523207
 30
0.0
 10
38.7150466746
 20
112.6833854972
 30
0.0
 10
38.5411255148
 20
112.6111083841
 30
0.0
 10
38.462250736
 20
112.5655240832
 30
0.0
  0
SPLINE
  5
43F
100
AcDbEntity
  8
00_COMPONENTS
100
AcDbSpline
 62
7
  6
CONTINUOUS
 70
0
 71
3
 72
17
 73
13
 74
0
 42
0.0000001
 43
0.0000001
 44
0.0000000001
 40
0.0
 40
0.0
 40
0.0
 40
0.0
 40
0.1286889617
 40
0.2702830997
 40
0.4174385712
 40
0.5617801152
 40
0.6954483663
 40
0.8127097952
 40
0.8646744913
 40
0.9125077733
 40
0.9571384188
 40
1.0
 40
1.0
 40
1.0
 40
1.0
 10
60.0027084324
 20
98.2818996851
 30
0.0
 10
60.0027084324
 20
98.5554203584
 30
0.0
 10
59.9261773103
 20
99.1305449686
 30
0.0
 10
59.6405809099
 20
99.9749909836
 30
0.0
 10
59.2004848514
 20
100.788457188
 30
0.0
 10
58.6412819121
 20
101.5042301824
 30
0.0
 10
58.0086540554
 20
102.0644885794
 30
0.0
 10
57.4360535202
 20
102.3775794138
 30
0.0
 10
56.9881374078
 20
102.4967340677
 30
0.0
 10
56.679855294
 20
102.5194334577
 30
0.0
 10
56.3927898032
 20
102.4773666342
 30
0.0
 10
56.2188686434
 20
102.4050895211
 30
0.0
 10
56.1399938647
 20
102.3595052202
 30
0.0
  0
SPLINE
  5
440
100
AcDbEntity
  8
00_COMPONENTS
100
AcDbSpline
 62
7
  6
CONTINUOUS
 70
0
 71
3
 72
17
 73
13
 74
0
 42
0.0000001
 43
0.0000001
 44
0.0000000001
 40
0.0
 40
0.0
 40
0.0
 40
0.0
 40
0.1276313974
 40
0.2679293434
 40
0.4139808977
 40
0.5578201747
 40
0.6918875621
 40
0.810449901
 40
0.8632424899
 40
0.9118609085
 40
0.9570383554
 40
1.0
 40
1.0
 40
1.0
 40
1.0
 10
59.0128113413
 20
44.066292636
 30
0.0
 10
59.0128113413
 20
44.3837385636
 30
0.0
 10
58.9259935562
 20
45.0509000695
 30
0.0
 10
58.60048627
 20
46.0327232559
 30
0.0
 10
58.0975063495
 20
46.9826377257
 30
0.0
 10
57.4558590827
 20
47.8258641349
 30
0.0
 10
56.7259647406
 20
48.4969266885
 30
0.0
 10
56.0623339792
 20
48.885250356
 30
0.0
 10
55.5382860893
 20
49.0499961944
 30
0.0
 10
55.1745925555
 20
49.0977039901
 30
0.0
 10
54.8327837425
 20
49.0724331462
 30
0.0
 10
54.6214918044
 20
49.0049776544
 30
0.0
 10
54.5246184119
 20
48.9598839003
 30
0.0
  0
SPLINE
  5
441
100
AcDbEntity
  8
00_COMPONENTS
100
AcDbSpline
 62
7
  6
CONTINUOUS
 70
0
 71
3
 72
9
 73
5
 74
0
 42
0.0000001
 43
0.0000001
 44
0.0000000001
 40
0.0
 40
0.0
 40
0.0
 40
0.0
 40
0.5435251863
 40
1.0
 40
1.0
 40
1.0
 40
1.0
 10
46.6221529242
 20
51.725297641
 30
0.0
 10
46.6000823467
 20
51.7358853326
 30
0.0
 10
46.5557349784
 20
51.7499995412
 30
0.0
 10
46.508993701
 20
51.7400208207
 30
0.0
 10
46.4911896918
 20
51.7297417327
 30
0.0
  0
SPLINE
  5
442
100
AcDbEntity
  8
00_COMPONENTS
100
AcDbSpline
 62
7
  6
CONTINUOUS
 70
0
 71
3
 72
11
 73
7
 74
0
 42
0.0000001
 43
0.0000001
 44
0.0000000001
 40
0.0
 40
0.0
 40
0.0
 40
0.0
 40
0.2365910884
 40
0.4985462925
 40
0.7617796485
 40
1.0
 40
1.0
 40
1.0
 40
1.0
 10
49.3961190793
 20
49.8714826468
 30
0.0
 10
49.3961369056
 20
49.9067148157
 30
0.0
 10
49.3832042237
 20
49.9810012718
 30
0.0
 10
49.3381586246
 20
50.0859744254
 30
0.0
 10
49.272075588
 20
50.1794401673
 30
0.0
 10
49.2146502528
 20
50.2292331698
 30
0.0
 10
49.1839861618
 20
50.2470706224
 30
0.0
  0
SPLINE
  5
443
100
AcDbEntity
  8
00_COMPONENTS
100
AcDbSpline
 62
7
  6
CONTINUOUS
 70
0
 71
3
 72
11
 73
7
 74
0
 42
0.0000001
 43
0.0000001
 44
0.0000000001
 40
0.0
 40
0.0
 40
0.0
 40
0.0
 40
0.2897033281
 40
0.5490895198
 40
0.7822165953
 40
1.0
 40
1.0
 40
1.0
 40
1.0
 10
15.7730516486
 20
98.0977008247
 30
0.0
 10
15.7730516486
 20
98.3003734023
 30
0.0
 10
15.8037797932
 20
98.6858136903
 30
0.0
 10
15.9598784855
 20
99.2153884476
 30
0.0
 10
16.2226968409
 20
99.6451084148
 30
0.0
 10
16.4695630502
 20
99.8526485105
 30
0.0
 10
16.6015094826
 20
99.9288273057
 30
0.0
  0
SPLINE
  5
444
100
AcDbEntity
  8
00_COMPONENTS
100
AcDbSpline
 62
7
  6
CONTINUOUS
 70
0
 71
3
 72
13
 73
9
 74
0
 42
0.0000001
 43
0.0000001
 44
0.0000000001
 40
0.0
 40
0.0
 40
0.0
 40
0.0
 40
0.1142250362
 40
0.2375584228
 40
0.4999988469
 40
0.762439898
 40
0.8857740437
 40
1.0
 40
1.0
 40
1.0
 40
1.0
 10
18.6014905492
 20
62.9881387043
 30
0.0
 10
18.4079153224
 20
63.0998968853
 30
0.0
 10
18.0254323133
 20
63.3680710341
 30
0.0
 10
17.3093091713
 20
64.0381916994
 30
0.0
 10
16.5529617758
 20
65.0713975554
 30
0.0
 10
16.036346956
 20
66.2430153739
 30
0.0
 10
15.8140599452
 20
67.1982594816
 30
0.0
 10
15.7730516486
 20
67.663589436
 30
0.0
 10
15.7730516486
 20
67.8871113909
 30
0.0
  0
SPLINE
  5
445
100
AcDbEntity
  8
00_COMPONENTS
100
AcDbSpline
 62
7
  6
CONTINUOUS
 70
0
 71
3
 72
9
 73
5
 74
0
 42
0.0000001
 43
0.0000001
 44
0.0000000001
 40
0.0
 40
0.0
 40
0.0
 40
0.0
 40
0.2348248619
 40
1.0
 40
1.0
 40
1.0
 40
1.0
 10
72.092103689
 20
36.7887228189
 30
0.0
 10
72.0882632497
 20
36.8883362984
 30
0.0
 10
72.0509539696
 20
37.3116748105
 30
0.0
 10
71.9387637942
 20
37.7266662434
 30
0.0
 10
71.8236494339
 20
38.0304158638
 30
0.0
  0
SPLINE
  5
446
100
AcDbEntity
  8
00_COMPONENTS
100
AcDbSpline
 62
7
  6
CONTINUOUS
 70
0
 71
3
 72
11
 73
7
 74
0
 42
0.0000001
 43
0.0000001
 44
0.0000000001
 40
0.0
 40
0.0
 40
0.0
 40
0.0
 40
0.2624795154
 40
0.523403718
 40
0.7722025658
 40
1.0
 40
1.0
 40
1.0
 40
1.0
 10
93.8350988044
 20
131.9185567154
 30
0.0
 10
93.6717032208
 20
132.3064840772
 30
0.0
 10
93.2877782869
 20
133.0567642222
 30
0.0
 10
92.5707846751
 20
134.0716262689
 30
0.0
 10
91.7492384436
 20
134.9286806879
 30
0.0
 10
91.1296525663
 20
135.3858388217
 30
0.0
 10
90.8132784814
 20
135.5684933526
 30
0.0
  0
SPLINE
  5
447
100
AcDbEntity
  8
00_COMPONENTS
100
AcDbSpline
 62
7
  6
CONTINUOUS
 70
0
 71
3
 72
11
 73
7
 74
0
 42
0.0000001
 43
0.0000001
 44
0.0000000001
 40
0.0
 40
0.0
 40
0.0
 40
0.0
 40
0.2897770141
 40
0.5490677265
 40
0.7822253581
 40
1.0
 40
1.0
 40
1.0
 40
1.0
 10
90.8132784814
 20
135.5684933526
 30
0.0
 10
90.5903148768
 20
135.6972185376
 30
0.0
 10
90.1469318111
 20
135.9082539402
 30
0.0
 10
89.4653307091
 20
136.0726948928
 30
0.0
 10
88.8258870471
 20
136.0565751155
 30
0.0
 10
88.4408714346
 20
135.9167841472
 30
0.0
 10
88.2733079914
 20
135.820045251
 30
0.0
  0
SPLINE
  5
448
100
AcDbEntity
  8
00_COMPONENTS
100
AcDbSpline
 62
7
  6
CONTINUOUS
 70
0
 71
3
 72
11
 73
7
 74
0
 42
0.0000001
 43
0.0000001
 44
0.0000000001
 40
0.0
 40
0.0
 40
0.0
 40
0.0
 40
0.2277549786
 40
0.4763014232
 40
0.7371106072
 40
1.0
 40
1.0
 40
1.0
 40
1.0
 10
90.8132784814
 20
135.9114243678
 30
0.0
 10
91.1496470648
 20
135.717226269
 30
0.0
 10
91.8088983388
 20
135.2327753245
 30
0.0
 10
92.6858312649
 20
134.3257035539
 30
0.0
 10
93.4549535832
 20
133.2513144637
 30
0.0
 10
93.870173837
 20
132.4566505367
 30
0.0
 10
94.04838647
 20
132.0452741487
 30
0.0
  0
SPLINE
  5
449
100
AcDbEntity
  8
00_COMPONENTS
100
AcDbSpline
 62
7
  6
CONTINUOUS
 70
0
 71
3
 72
11
 73
7
 74
0
 42
0.0000001
 43
0.0000001
 44
0.0000000001
 40
0.0
 40
0.0
 40
0.0
 40
0.0
 40
0.2277880642
 40
0.4765676858
 40
0.7374849145
 40
1.0
 40
1.0
 40
1.0
 40
1.0
 10
88.1262839
 20
134.0171655679
 30
0.0
 10
88.4420518426
 20
133.8348609855
 30
0.0
 10
89.0605117671
 20
133.3787191929
 30
0.0
 10
89.8808738496
 20
132.5237067617
 30
0.0
 10
90.5971593795
 20
131.5111947385
 30
0.0
 10
90.9810825355
 20
130.7626546374
 30
0.0
 10
91.1446138732
 20
130.3755792792
 30
0.0
  0
SPLINE
  5
44A
100
AcDbEntity
  8
00_COMPONENTS
100
AcDbSpline
 62
7
  6
CONTINUOUS
 70
0
 71
3
 72
11
 73
7
 74
0
 42
0.0000001
 43
0.0000001
 44
0.0000000001
 40
0.0
 40
0.0
 40
0.0
 40
0.0
 40
0.2177746631
 40
0.4509321914
 40
0.7102231206
 40
1.0
 40
1.0
 40
1.0
 40
1.0
 10
88.0633104789
 20
136.1837737832
 30
0.0
 10
88.2447274853
 20
136.2885109862
 30
0.0
 10
88.6615752544
 20
136.4398588598
 30
0.0
 10
89.3538862925
 20
136.4573120208
 30
0.0
 10
90.0918401674
 20
136.279275114
 30
0.0
 10
90.5718810004
 20
136.0507921155
 30
0.0
 10
90.8132784814
 20
135.9114243678
 30
0.0
  0
SPLINE
  5
44B
100
AcDbEntity
  8
00_COMPONENTS
100
AcDbSpline
 62
7
  6
CONTINUOUS
 70
0
 71
3
 72
16
 73
12
 74
0
 42
0.0000001
 43
0.0000001
 44
0.0000000001
 40
0.0
 40
0.0
 40
0.0
 40
0.0
 40
0.151879662
 40
0.3026845989
 40
0.4477605007
 40
0.5830675701
 40
0.7056700266
 40
0.8144197087
 40
0.9107982729
 40
0.9559053971
 40
1.0
 40
1.0
 40
1.0
 40
1.0
 10
80.2235129265
 20
144.4703914459
 30
0.0
 10
80.0294129084
 20
144.8975278623
 30
0.0
 10
79.5877165576
 20
145.7249236435
 30
0.0
 10
78.788495451
 20
146.8580711887
 30
0.0
 10
77.8836219429
 20
147.8411415995
 30
0.0
 10
76.9139061166
 20
148.6296319302
 30
0.0
 10
75.920629459
 20
149.1879857665
 30
0.0
 10
74.9447307222
 20
149.4901422018
 30
0.0
 10
74.1576176468
 20
149.5079944166
 30
0.0
 10
73.5985465637
 20
149.3690210385
 30
0.0
 10
73.3461500791
 20
149.253734988
 30
0.0
 10
73.2281691869
 20
149.185659566
 30
0.0
  0
SPLINE
  5
44C
100
AcDbEntity
  8
00_COMPONENTS
100
AcDbSpline
 62
7
  6
CONTINUOUS
 70
0
 71
3
 72
11
 73
7
 74
0
 42
0.0000001
 43
0.0000001
 44
0.0000000001
 40
0.0
 40
0.0
 40
0.0
 40
0.0
 40
0.2484368277
 40
0.506344449
 40
0.7607783606
 40
1.0
 40
1.0
 40
1.0
 40
1.0
 10
67.0187932051
 20
115.4598334559
 30
0.0
 10
66.7171163369
 20
115.7957539095
 30
0.0
 10
66.1855040521
 20
116.5579447159
 30
0.0
 10
65.6409244223
 20
117.8383203901
 30
0.0
 10
65.3621545517
 20
119.1843973546
 30
0.0
 10
65.3698440981
 20
120.0911693799
 30
0.0
 10
65.4302609026
 20
120.5217027347
 30
0.0
  0
SPLINE
  5
44D
100
AcDbEntity
  8
00_COMPONENTS
100
AcDbSpline
 62
7
  6
CONTINUOUS
 70
0
 71
3
 72
11
 73
7
 74
0
 42
0.0000001
 43
0.0000001
 44
0.0000000001
 40
0.0
 40
0.0
 40
0.0
 40
0.0
 40
0.2177239861
 40
0.4508730345
 40
0.7104683317
 40
1.0
 40
1.0
 40
1.0
 40
1.0
 10
42.8391973773
 20
134.7866515261
 30
0.0
 10
42.7798373225
 20
134.752383234
 30
0.0
 10
42.6686787562
 20
134.6591015064
 30
0.0
 10
42.5503890154
 20
134.4656479869
 30
0.0
 10
42.4802760247
 20
134.2272963194
 30
0.0
 10
42.4663566315
 20
134.0538521711
 30
0.0
 10
42.4663566315
 20
133.962705008
 30
0.0
  0
SPLINE
  5
44E
100
AcDbEntity
  8
00_COMPONENTS
100
AcDbSpline
 62
7
  6
CONTINUOUS
 70
0
 71
3
 72
9
 73
5
 74
0
 42
0.0000001
 43
0.0000001
 44
0.0000000001
 40
0.0
 40
0.0
 40
0.0
 40
0.0
 40
0.2427216093
 40
1.0
 40
1.0
 40
1.0
 40
1.0
 10
76.9733288824
 20
109.5606839723
 30
0.0
 10
76.9733288824
 20
109.5724299041
 30
0.0
 10
76.9742335403
 20
109.6208206125
 30
0.0
 10
76.9786282675
 20
109.669126841
 30
0.0
 10
76.9836214418
 20
109.7054317597
 30
0.0
  0
SPLINE
  5
44F
100
AcDbEntity
  8
00_COMPONENTS
100
AcDbSpline
 62
7
  6
CONTINUOUS
 70
0
 71
3
 72
16
 73
12
 74
0
 42
0.0000001
 43
0.0000001
 44
0.0000000001
 40
0.0
 40
0.0
 40
0.0
 40
0.0
 40
0.151879662
 40
0.3026845989
 40
0.4477605007
 40
0.5830675701
 40
0.7056700266
 40
0.8144197087
 40
0.9107982729
 40
0.9559053971
 40
1.0
 40
1.0
 40
1.0
 40
1.0
 10
62.5457697978
 20
154.6764103089
 30
0.0
 10
62.3516697797
 20
155.1035467253
 30
0.0
 10
61.9099734289
 20
155.9309425065
 30
0.0
 10
61.1107523224
 20
157.0640900517
 30
0.0
 10
60.2058788142
 20
158.0471604625
 30
0.0
 10
59.236162988
 20
158.8356507932
 30
0.0
 10
58.2428863303
 20
159.3940046296
 30
0.0
 10
57.2669875935
 20
159.6961610648
 30
0.0
 10
56.4798745181
 20
159.7140132796
 30
0.0
 10
55.9208034351
 20
159.5750399015
 30
0.0
 10
55.6684069504
 20
159.459753851
 30
0.0
 10
55.5504260583
 20
159.391678429
 30
0.0
  0
SPLINE
  5
450
100
AcDbEntity
  8
00_COMPONENTS
100
AcDbSpline
 62
7
  6
CONTINUOUS
 70
0
 71
3
 72
15
 73
11
 74
0
 42
0.0000001
 43
0.0000001
 44
0.0000000001
 40
0.0
 40
0.0
 40
0.0
 40
0.0
 40
0.1448892291
 40
0.2745371648
 40
0.3911157631
 40
0.5000029437
 40
0.6088895898
 40
0.725466767
 40
0.855112789
 40
1.0
 40
1.0
 40
1.0
 40
1.0
 10
109.5708057684
 20
65.9890864803
 30
0.0
 10
109.5708057684
 20
66.2424899895
 30
0.0
 10
109.532457696
 20
66.7243082697
 30
0.0
 10
109.3373350633
 20
67.3861607449
 30
0.0
 10
109.0084872423
 20
67.9235306555
 30
0.0
 10
108.5522414027
 20
68.307380447
 30
0.0
 10
107.9917021552
 20
68.5105896061
 30
0.0
 10
107.3619089144
 20
68.5267068702
 30
0.0
 10
106.6911736132
 20
68.3647711367
 30
0.0
 10
106.2547378556
 20
68.1570772783
 30
0.0
 10
106.0352867066
 20
68.0303778591
 30
0.0
  0
SPLINE
  5
451
100
AcDbEntity
  8
00_COMPONENTS
100
AcDbSpline
 62
7
  6
CONTINUOUS
 70
0
 71
3
 72
11
 73
7
 74
0
 42
0.0000001
 43
0.0000001
 44
0.0000000001
 40
0.0
 40
0.0
 40
0.0
 40
0.0
 40
0.2177842682
 40
0.4509274252
 40
0.7102502432
 40
1.0
 40
1.0
 40
1.0
 40
1.0
 10
85.5863215878
 20
134.2687035261
 30
0.0
 10
85.7538694733
 20
134.3654843659
 30
0.0
 10
86.1389144882
 20
134.5052056328
 30
0.0
 10
86.7783643195
 20
134.5213743786
 30
0.0
 10
87.4599491964
 20
134.3568834997
 30
0.0
 10
87.9033424777
 20
134.1458779462
 30
0.0
 10
88.1262839
 20
134.0171655679
 30
0.0
  0
SPLINE
  5
452
100
AcDbEntity
  8
00_COMPONENTS
100
AcDbSpline
 62
7
  6
CONTINUOUS
 70
0
 71
3
 72
16
 73
12
 74
0
 42
0.0000001
 43
0.0000001
 44
0.0000000001
 40
0.0
 40
0.0
 40
0.0
 40
0.0
 40
0.0440898874
 40
0.0891919866
 40
0.1855665503
 40
0.2943197192
 40
0.4169291241
 40
0.5522427158
 40
0.6973235324
 40
0.8481165356
 40
1.0
 40
1.0
 40
1.0
 40
1.0
 10
90.0573897705
 20
138.4897446772
 30
0.0
 10
90.1753885861
 20
138.557906822
 30
0.0
 10
90.427913571
 20
138.6732335384
 30
0.0
 10
90.9872865397
 20
138.8120875914
 30
0.0
 10
91.7747984892
 20
138.7941034313
 30
0.0
 10
92.7511687854
 20
138.491499014
 30
0.0
 10
93.7448621786
 20
137.9325322752
 30
0.0
 10
94.7149169252
 20
137.1432944519
 30
0.0
 10
95.6199399201
 20
136.1593848031
 30
0.0
 10
96.419239947
 20
135.0253889714
 30
0.0
 10
96.8607964245
 20
134.197363627
 30
0.0
 10
97.0547761869
 20
133.7698818151
 30
0.0
  0
SPLINE
  5
453
100
AcDbEntity
  8
00_COMPONENTS
100
AcDbSpline
 62
7
  6
CONTINUOUS
 70
0
 71
3
 72
17
 73
13
 74
0
 42
0.0000001
 43
0.0000001
 44
0.0000000001
 40
0.0
 40
0.0
 40
0.0
 40
0.0
 40
0.042857965
 40
0.0874854797
 40
0.1353180708
 40
0.1872814984
 40
0.3045423159
 40
0.4382097446
 40
0.5825520305
 40
0.7297107839
 40
0.8713099826
 40
1.0
 40
1.0
 40
1.0
 40
1.0
 10
38.9531613613
 20
112.1561440654
 30
0.0
 10
39.0172429631
 20
112.193175708
 30
0.0
 10
39.1585491865
 20
112.2518760776
 30
0.0
 10
39.3917711992
 20
112.2860825076
 30
0.0
 10
39.6422412649
 20
112.267625588
 30
0.0
 10
40.0061763164
 20
112.1708533681
 30
0.0
 10
40.4714117717
 20
111.9164615798
 30
0.0
 10
40.9854203153
 20
111.4612585861
 30
0.0
 10
41.4397831693
 20
110.8796958439
 30
0.0
 10
41.7973852379
 20
110.218751508
 30
0.0
 10
42.0294395051
 20
109.5326244885
 30
0.0
 10
42.0916175047
 20
109.0653258232
 30
0.0
 10
42.0916175047
 20
108.8430889224
 30
0.0
  0
SPLINE
  5
454
100
AcDbEntity
  8
00_COMPONENTS
100
AcDbSpline
 62
7
  6
CONTINUOUS
 70
0
 71
3
 72
11
 73
7
 74
0
 42
0.0000001
 43
0.0000001
 44
0.0000000001
 40
0.0
 40
0.0
 40
0.0
 40
0.0
 40
0.2897770141
 40
0.5490677265
 40
0.7822253581
 40
1.0
 40
1.0
 40
1.0
 40
1.0
 10
73.1355353527
 20
145.7745122156
 30
0.0
 10
72.9125717481
 20
145.9032374006
 30
0.0
 10
72.4691886825
 20
146.1142728032
 30
0.0
 10
71.7875875804
 20
146.2787137558
 30
0.0
 10
71.1481439185
 20
146.2625939785
 30
0.0
 10
70.7631283059
 20
146.1228030102
 30
0.0
 10
70.5955648627
 20
146.026064114
 30
0.0
  0
SPLINE
  5
455
100
AcDbEntity
  8
00_COMPONENTS
100
AcDbSpline
 62
7
  6
CONTINUOUS
 70
0
 71
3
 72
11
 73
7
 74
0
 42
0.0000001
 43
0.0000001
 44
0.0000000001
 40
0.0
 40
0.0
 40
0.0
 40
0.0
 40
0.2277549786
 40
0.4763014232
 40
0.7371106072
 40
1.0
 40
1.0
 40
1.0
 40
1.0
 10
73.1355353527
 20
146.1174432308
 30
0.0
 10
73.4719039361
 20
145.923245132
 30
0.0
 10
74.1311552101
 20
145.4387941875
 30
0.0
 10
75.0080881363
 20
144.5317224169
 30
0.0
 10
75.7772104545
 20
143.4573333267
 30
0.0
 10
76.1924307083
 20
142.6626693997
 30
0.0
 10
76.3706433414
 20
142.2512930117
 30
0.0
  0
SPLINE
  5
456
100
AcDbEntity
  8
00_COMPONENTS
100
AcDbSpline
 62
7
  6
CONTINUOUS
 70
0
 71
3
 72
9
 73
5
 74
0
 42
0.0000001
 43
0.0000001
 44
0.0000000001
 40
0.0
 40
0.0
 40
0.0
 40
0.0
 40
0.2405060696
 40
1.0
 40
1.0
 40
1.0
 40
1.0
 10
42.2634854313
 20
107.7067587717
 30
0.0
 10
42.2310317984
 20
107.7116008095
 30
0.0
 10
42.0966944003
 20
107.7357049597
 30
0.0
 10
41.9652484059
 20
107.7749476528
 30
0.0
 10
41.868200132
 20
107.8112612067
 30
0.0
  0
SPLINE
  5
457
100
AcDbEntity
  8
00_COMPONENTS
100
AcDbSpline
 62
7
  6
CONTINUOUS
 70
0
 71
3
 72
11
 73
7
 74
0
 42
0.0000001
 43
0.0000001
 44
0.0000000001
 40
0.0
 40
0.0
 40
0.0
 40
0.0
 40
0.2177699473
 40
0.4509056099
 40
0.7103757301
 40
1.0
 40
1.0
 40
1.0
 40
1.0
 10
38.462250736
 20
112.5655240832
 30
0.0
 10
38.3567274551
 20
112.5045387458
 30
0.0
 10
38.1591310562
 20
112.3386591487
 30
0.0
 10
37.9489130524
 20
111.9947671484
 30
0.0
 10
37.8241031466
 20
111.5711013882
 30
0.0
 10
37.7994630628
 20
111.2627523493
 30
0.0
 10
37.7994630628
 20
111.1006593771
 30
0.0
  0
SPLINE
  5
458
100
AcDbEntity
  8
00_COMPONENTS
100
AcDbSpline
 62
7
  6
CONTINUOUS
 70
0
 71
3
 72
11
 73
7
 74
0
 42
0.0000001
 43
0.0000001
 44
0.0000000001
 40
0.0
 40
0.0
 40
0.0
 40
0.0
 40
0.2624795154
 40
0.523403718
 40
0.7722025658
 40
1.0
 40
1.0
 40
1.0
 40
1.0
 10
76.1573556757
 20
142.1245755784
 30
0.0
 10
75.9939600921
 20
142.5125029402
 30
0.0
 10
75.6100351583
 20
143.2627830852
 30
0.0
 10
74.8930415464
 20
144.2776451319
 30
0.0
 10
74.0714953149
 20
145.1346995509
 30
0.0
 10
73.4519094376
 20
145.5918576847
 30
0.0
 10
73.1355353527
 20
145.7745122156
 30
0.0
  0
SPLINE
  5
459
100
AcDbEntity
  8
00_COMPONENTS
100
AcDbSpline
 62
7
  6
CONTINUOUS
 70
0
 71
3
 72
13
 73
9
 74
0
 42
0.0000001
 43
0.0000001
 44
0.0000000001
 40
0.0
 40
0.0
 40
0.0
 40
0.0
 40
0.1106635613
 40
0.2317930452
 40
0.4939988836
 40
0.7595147285
 40
0.8845589207
 40
1.0
 40
1.0
 40
1.0
 40
1.0
 10
43.9378803647
 20
130.592441528
 30
0.0
 10
43.7786983138
 20
130.6676442071
 30
0.0
 10
43.4610540151
 20
130.8595471794
 30
0.0
 10
42.8595976734
 20
131.3690230947
 30
0.0
 10
42.2170643814
 20
132.1914287562
 30
0.0
 10
41.7750136124
 20
133.1429034413
 30
0.0
 10
41.5828840234
 20
133.9267839348
 30
0.0
 10
41.5471139888
 20
134.3097653679
 30
0.0
 10
41.5471139888
 20
134.4934179888
 30
0.0
  0
SPLINE
  5
45A
100
AcDbEntity
  8
00_COMPONENTS
100
AcDbSpline
 62
7
  6
CONTINUOUS
 70
0
 71
3
 72
11
 73
7
 74
0
 42
0.0000001
 43
0.0000001
 44
0.0000000001
 40
0.0
 40
0.0
 40
0.0
 40
0.0
 40
0.2177239861
 40
0.4508730345
 40
0.7104683317
 40
1.0
 40
1.0
 40
1.0
 40
1.0
 10
60.516940506
 20
124.5806326631
 30
0.0
 10
60.4575804512
 20
124.546364371
 30
0.0
 10
60.3464218848
 20
124.4530826433
 30
0.0
 10
60.2281321441
 20
124.2596291239
 30
0.0
 10
60.1580191534
 20
124.0212774564
 30
0.0
 10
60.1440997601
 20
123.8478333081
 30
0.0
 10
60.1440997601
 20
123.756686145
 30
0.0
  0
SPLINE
  5
45B
100
AcDbEntity
  8
00_COMPONENTS
100
AcDbSpline
 62
7
  6
CONTINUOUS
 70
0
 71
3
 72
11
 73
7
 74
0
 42
0.0000001
 43
0.0000001
 44
0.0000000001
 40
0.0
 40
0.0
 40
0.0
 40
0.0
 40
0.2897770141
 40
0.5490677265
 40
0.7822253581
 40
1.0
 40
1.0
 40
1.0
 40
1.0
 10
55.4577922241
 20
155.9805310786
 30
0.0
 10
55.2348286194
 20
156.1092562636
 30
0.0
 10
54.7914455538
 20
156.3202916662
 30
0.0
 10
54.1098444517
 20
156.4847326188
 30
0.0
 10
53.4704007898
 20
156.4686128415
 30
0.0
 10
53.0853851773
 20
156.3288218732
 30
0.0
 10
52.9178217341
 20
156.232082977
 30
0.0
  0
SPLINE
  5
45C
100
AcDbEntity
  8
00_COMPONENTS
100
AcDbSpline
 62
7
  6
CONTINUOUS
 70
0
 71
3
 72
11
 73
7
 74
0
 42
0.0000001
 43
0.0000001
 44
0.0000000001
 40
0.0
 40
0.0
 40
0.0
 40
0.0
 40
0.2277880642
 40
0.4765676858
 40
0.7374849145
 40
1.0
 40
1.0
 40
1.0
 40
1.0
 10
70.4485407713
 20
144.2231844309
 30
0.0
 10
70.7643087139
 20
144.0408798485
 30
0.0
 10
71.3827686384
 20
143.5847380559
 30
0.0
 10
72.2031307209
 20
142.7297256247
 30
0.0
 10
72.9194162509
 20
141.7172136015
 30
0.0
 10
73.3033394069
 20
140.9686735004
 30
0.0
 10
73.4668707445
 20
140.5815981422
 30
0.0
  0
SPLINE
  5
45D
100
AcDbEntity
  8
00_COMPONENTS
100
AcDbSpline
 62
7
  6
CONTINUOUS
 70
0
 71
3
 72
17
 73
13
 74
0
 42
0.0000001
 43
0.0000001
 44
0.0000000001
 40
0.0
 40
0.0
 40
0.0
 40
0.0
 40
0.042857965
 40
0.0874854797
 40
0.1353180708
 40
0.1872814984
 40
0.3045423159
 40
0.4382097446
 40
0.5825520305
 40
0.7297107839
 40
0.8713099826
 40
1.0
 40
1.0
 40
1.0
 40
1.0
 10
56.63090449
 20
101.9501252024
 30
0.0
 10
56.6949860918
 20
101.987156845
 30
0.0
 10
56.8362923152
 20
102.0458572146
 30
0.0
 10
57.0695143279
 20
102.0800636446
 30
0.0
 10
57.3199843936
 20
102.061606725
 30
0.0
 10
57.6839194451
 20
101.9648345051
 30
0.0
 10
58.1491549003
 20
101.7104427168
 30
0.0
 10
58.6631634439
 20
101.2552397231
 30
0.0
 10
59.117526298
 20
100.6736769808
 30
0.0
 10
59.4751283665
 20
100.012732645
 30
0.0
 10
59.7071826337
 20
99.3266056255
 30
0.0
 10
59.7693606333
 20
98.8593069602
 30
0.0
 10
59.7693606333
 20
98.6370700594
 30
0.0
  0
SPLINE
  5
45E
100
AcDbEntity
  8
00_COMPONENTS
100
AcDbSpline
 62
7
  6
CONTINUOUS
 70
0
 71
3
 72
11
 73
7
 74
0
 42
0.0000001
 43
0.0000001
 44
0.0000000001
 40
0.0
 40
0.0
 40
0.0
 40
0.0
 40
0.2277549786
 40
0.4763014232
 40
0.7371106072
 40
1.0
 40
1.0
 40
1.0
 40
1.0
 10
55.4577922241
 20
156.3234620938
 30
0.0
 10
55.7941608074
 20
156.129263995
 30
0.0
 10
56.4534120815
 20
155.6448130505
 30
0.0
 10
57.3303450076
 20
154.7377412799
 30
0.0
 10
58.0994673259
 20
153.6633521897
 30
0.0
 10
58.5146875796
 20
152.8686882627
 30
0.0
 10
58.6929002127
 20
152.4573118747
 30
0.0
  0
SPLINE
  5
45F
100
AcDbEntity
  8
00_COMPONENTS
100
AcDbSpline
 62
7
  6
CONTINUOUS
 70
0
 71
3
 72
11
 73
7
 74
0
 42
0.0000001
 43
0.0000001
 44
0.0000000001
 40
0.0
 40
0.0
 40
0.0
 40
0.0
 40
0.2624795154
 40
0.523403718
 40
0.7722025658
 40
1.0
 40
1.0
 40
1.0
 40
1.0
 10
58.4796125471
 20
152.3305944414
 30
0.0
 10
58.3162169634
 20
152.7185218032
 30
0.0
 10
57.9322920296
 20
153.4688019482
 30
0.0
 10
57.2152984177
 20
154.4836639949
 30
0.0
 10
56.3937521862
 20
155.340718414
 30
0.0
 10
55.7741663089
 20
155.7978765477
 30
0.0
 10
55.4577922241
 20
155.9805310786
 30
0.0
  0
SPLINE
  5
460
100
AcDbEntity
  8
00_COMPONENTS
100
AcDbSpline
 62
7
  6
CONTINUOUS
 70
0
 71
3
 72
9
 73
5
 74
0
 42
0.0000001
 43
0.0000001
 44
0.0000000001
 40
0.0
 40
0.0
 40
0.0
 40
0.0
 40
0.2405060696
 40
1.0
 40
1.0
 40
1.0
 40
1.0
 10
59.94122856
 20
97.5007399087
 30
0.0
 10
59.9087749271
 20
97.5055819465
 30
0.0
 10
59.774437529
 20
97.5296860967
 30
0.0
 10
59.6429915345
 20
97.5689287898
 30
0.0
 10
59.5459432607
 20
97.6052423437
 30
0.0
  0
SPLINE
  5
461
100
AcDbEntity
  8
00_COMPONENTS
100
AcDbSpline
 62
7
  6
CONTINUOUS
 70
0
 71
3
 72
15
 73
11
 74
0
 42
0.0000001
 43
0.0000001
 44
0.0000000001
 40
0.0
 40
0.0
 40
0.0
 40
0.0
 40
0.1447692424
 40
0.2745568059
 40
0.3911250333
 40
0.4999971902
 40
0.6088698911
 40
0.7254394958
 40
0.8552288085
 40
1.0
 40
1.0
 40
1.0
 40
1.0
 10
107.237373133
 20
64.8868612685
 30
0.0
 10
107.3250797815
 20
64.9374984216
 30
0.0
 10
107.4997157235
 20
65.0204521776
 30
0.0
 10
107.7679506207
 20
65.0854225984
 30
0.0
 10
108.019984894
 20
65.0789961852
 30
0.0
 10
108.2440670414
 20
64.9975093332
 30
0.0
 10
108.4266744391
 20
64.8441865445
 30
0.0
 10
108.5582540488
 20
64.6291270572
 30
0.0
 10
108.6361036733
 20
64.3643395151
 30
0.0
 10
108.6515807896
 20
64.1716208609
 30
0.0
 10
108.6515807896
 20
64.0703447353
 30
0.0
  0
SPLINE
  5
462
100
AcDbEntity
  8
00_COMPONENTS
100
AcDbSpline
 62
7
  6
CONTINUOUS
 70
0
 71
3
 72
9
 73
5
 74
0
 42
0.0000001
 43
0.0000001
 44
0.0000000001
 40
0.0
 40
0.0
 40
0.0
 40
0.0
 40
0.5371430575
 40
1.0
 40
1.0
 40
1.0
 40
1.0
 10
82.8422907313
 20
25.2928100856
 30
0.0
 10
82.8422907313
 20
25.5579853984
 30
0.0
 10
82.7921095313
 20
26.0545272385
 30
0.0
 10
82.5947558905
 20
26.5200965663
 30
0.0
 10
82.463354927
 20
26.7070375372
 30
0.0
  0
SPLINE
  5
463
100
AcDbEntity
  8
00_COMPONENTS
100
AcDbSpline
 62
7
  6
CONTINUOUS
 70
0
 71
3
 72
11
 73
7
 74
0
 42
0.0000001
 43
0.0000001
 44
0.0000000001
 40
0.0
 40
0.0
 40
0.0
 40
0.0
 40
0.2177699473
 40
0.4509056099
 40
0.7103757301
 40
1.0
 40
1.0
 40
1.0
 40
1.0
 10
56.1399938647
 20
102.3595052202
 30
0.0
 10
56.0344705838
 20
102.2985198828
 30
0.0
 10
55.8368741848
 20
102.1326402857
 30
0.0
 10
55.6266561811
 20
101.7887482854
 30
0.0
 10
55.5018462753
 20
101.3650825252
 30
0.0
 10
55.4772061914
 20
101.0567334863
 30
0.0
 10
55.4772061914
 20
100.8946405141
 30
0.0
  0
SPLINE
  5
464
100
AcDbEntity
  8
00_COMPONENTS
100
AcDbSpline
 62
7
  6
CONTINUOUS
 70
0
 71
3
 72
11
 73
7
 74
0
 42
0.0000001
 43
0.0000001
 44
0.0000000001
 40
0.0
 40
0.0
 40
0.0
 40
0.0
 40
0.2177843137
 40
0.4509117637
 40
0.7102976701
 40
1.0
 40
1.0
 40
1.0
 40
1.0
 10
16.6015094826
 20
99.9288273057
 30
0.0
 10
16.7334529382
 20
100.0050043824
 30
0.0
 10
17.0366135404
 20
100.1150238478
 30
0.0
 10
17.5401581346
 20
100.1277734998
 30
0.0
 10
18.0768186608
 20
99.9981795499
 30
0.0
 10
18.4259752529
 20
99.8320789862
 30
0.0
 10
18.6014905492
 20
99.7307474751
 30
0.0
  0
SPLINE
  5
465
100
AcDbEntity
  8
00_COMPONENTS
100
AcDbSpline
 62
7
  6
CONTINUOUS
 70
0
 71
3
 72
11
 73
7
 74
0
 42
0.0000001
 43
0.0000001
 44
0.0000000001
 40
0.0
 40
0.0
 40
0.0
 40
0.0
 40
0.2177746631
 40
0.4509321914
 40
0.7102231206
 40
1.0
 40
1.0
 40
1.0
 40
1.0
 10
70.3855673502
 20
146.3897926462
 30
0.0
 10
70.5669843566
 20
146.4945298492
 30
0.0
 10
70.9838321257
 20
146.6458777228
 30
0.0
 10
71.6761431638
 20
146.6633308838
 30
0.0
 10
72.4140970387
 20
146.485293977
 30
0.0
 10
72.8941378717
 20
146.2568109785
 30
0.0
 10
73.1355353527
 20
146.1174432308
 30
0.0
  0
SPLINE
  5
466
100
AcDbEntity
  8
00_COMPONENTS
100
AcDbSpline
 62
7
  6
CONTINUOUS
 70
0
 71
3
 72
9
 73
5
 74
0
 42
0.0000001
 43
0.0000001
 44
0.0000000001
 40
0.0
 40
0.0
 40
0.0
 40
0.0
 40
0.2345397149
 40
1.0
 40
1.0
 40
1.0
 40
1.0
 10
71.7398354153
 20
37.1265499566
 30
0.0
 10
71.7398354516
 20
37.1904820187
 30
0.0
 10
71.7275018153
 20
37.4630284808
 30
0.0
 10
71.6700314108
 20
37.7326641053
 30
0.0
 10
71.6073404267
 20
37.93167663
 30
0.0
  0
SPLINE
  5
467
100
AcDbEntity
  8
00_COMPONENTS
100
AcDbSpline
 62
7
  6
CONTINUOUS
 70
0
 71
3
 72
9
 73
5
 74
0
 42
0.0000001
 43
0.0000001
 44
0.0000000001
 40
0.0
 40
0.0
 40
0.0
 40
0.0
 40
0.2323318627
 40
1.0
 40
1.0
 40
1.0
 40
1.0
 10
71.6607534851
 20
36.5853352714
 30
0.0
 10
71.6751572875
 20
36.6253099454
 30
0.0
 10
71.7266189666
 20
36.8012404399
 30
0.0
 10
71.7398353357
 20
36.986153301
 30
0.0
 10
71.7398354153
 20
37.1265499566
 30
0.0
  0
LINE
  5
468
100
AcDbEntity
  8
00_COMPONENTS
100
AcDbLine
 62
7
  6
CONTINUOUS
 10
72.0458057186
 20
37.0938553545
 11
71.8873635865
 21
36.8850899512
  0
SPLINE
  5
469
100
AcDbEntity
  8
00_COMPONENTS
100
AcDbSpline
 62
7
  6
CONTINUOUS
 70
0
 71
3
 72
11
 73
7
 74
0
 42
0.0000001
 43
0.0000001
 44
0.0000000001
 40
0.0
 40
0.0
 40
0.0
 40
0.0
 40
0.2152485792
 40
0.4474028288
 40
0.7076428367
 40
1.0
 40
1.0
 40
1.0
 40
1.0
 10
54.5715147765
 20
48.8194262201
 30
0.0
 10
54.6991011328
 20
48.8930757292
 30
0.0
 10
54.9952850134
 20
48.9969280224
 30
0.0
 10
55.4867796089
 20
48.995722498
 30
0.0
 10
56.0089300601
 20
48.8501987806
 30
0.0
 10
56.3462339237
 20
48.6735387844
 30
0.0
 10
56.5154713675
 20
48.5667900554
 30
0.0
  0
SPLINE
  5
46A
100
AcDbEntity
  8
00_COMPONENTS
100
AcDbSpline
 62
7
  6
CONTINUOUS
 70
0
 71
3
 72
9
 73
5
 74
0
 42
0.0000001
 43
0.0000001
 44
0.0000000001
 40
0.0
 40
0.0
 40
0.0
 40
0.0
 40
0.2381916124
 40
1.0
 40
1.0
 40
1.0
 40
1.0
 10
56.5154713675
 20
48.5667900554
 30
0.0
 10
56.5873306255
 20
48.5214638895
 30
0.0
 10
56.8824014753
 20
48.3207372829
 30
0.0
 10
57.1510965305
 20
48.082404112
 30
0.0
 10
57.3402733622
 20
47.887344744
 30
0.0
  0
SPLINE
  5
46B
100
AcDbEntity
  8
00_COMPONENTS
100
AcDbSpline
 62
7
  6
CONTINUOUS
 70
0
 71
3
 72
9
 73
5
 74
0
 42
0.0000001
 43
0.0000001
 44
0.0000000001
 40
0.0
 40
0.0
 40
0.0
 40
0.0
 40
0.2612747062
 40
1.0
 40
1.0
 40
1.0
 40
1.0
 10
58.8029870641
 20
45.3462016381
 30
0.0
 10
58.827821155
 20
45.2578966989
 30
0.0
 10
58.9140937922
 20
44.917603003
 30
0.0
 10
58.9643913162
 20
44.5674968569
 30
0.0
 10
58.9746497212
 20
44.3083418332
 30
0.0
  0
SPLINE
  5
46C
100
AcDbEntity
  8
00_COMPONENTS
100
AcDbSpline
 62
7
  6
CONTINUOUS
 70
0
 71
3
 72
11
 73
7
 74
0
 42
0.0000001
 43
0.0000001
 44
0.0000000001
 40
0.0
 40
0.0
 40
0.0
 40
0.0
 40
0.2177842682
 40
0.4509274252
 40
0.7102502432
 40
1.0
 40
1.0
 40
1.0
 40
1.0
 10
67.9085784591
 20
144.4747223891
 30
0.0
 10
68.0761263446
 20
144.5715032289
 30
0.0
 10
68.4611713595
 20
144.7112244958
 30
0.0
 10
69.1006211908
 20
144.7273932416
 30
0.0
 10
69.7822060677
 20
144.5629023627
 30
0.0
 10
70.2255993491
 20
144.3518968092
 30
0.0
 10
70.4485407713
 20
144.2231844309
 30
0.0
  0
SPLINE
  5
46D
100
AcDbEntity
  8
00_COMPONENTS
100
AcDbSpline
 62
7
  6
CONTINUOUS
 70
0
 71
3
 72
11
 73
7
 74
0
 42
0.0000001
 43
0.0000001
 44
0.0000000001
 40
0.0
 40
0.0
 40
0.0
 40
0.0
 40
0.2484368282
 40
0.5063444497
 40
0.7607783609
 40
1.0
 40
1.0
 40
1.0
 40
1.0
 10
49.3410500019
 20
125.6658524157
 30
0.0
 10
49.0393731471
 20
126.0017728691
 30
0.0
 10
48.5077608744
 20
126.7639636594
 30
0.0
 10
47.9631812783
 20
128.0443393156
 30
0.0
 10
47.6844114214
 20
129.3904162494
 30
0.0
 10
47.6921009709
 20
130.297188253
 30
0.0
 10
47.7525177739
 20
130.7277215977
 30
0.0
  0
SPLINE
  5
46E
100
AcDbEntity
  8
00_COMPONENTS
100
AcDbSpline
 62
7
  6
CONTINUOUS
 70
0
 71
3
 72
16
 73
12
 74
0
 42
0.0000001
 43
0.0000001
 44
0.0000000001
 40
0.0
 40
0.0
 40
0.0
 40
0.0
 40
0.0440898874
 40
0.0891919866
 40
0.1855665503
 40
0.2943197192
 40
0.4169291241
 40
0.5522427158
 40
0.6973235324
 40
0.8481165356
 40
1.0
 40
1.0
 40
1.0
 40
1.0
 10
72.3796466419
 20
148.6957635402
 30
0.0
 10
72.4976454575
 20
148.763925685
 30
0.0
 10
72.7501704424
 20
148.8792524014
 30
0.0
 10
73.309543411
 20
149.0181064544
 30
0.0
 10
74.0970553605
 20
149.0001222943
 30
0.0
 10
75.0734256567
 20
148.697517877
 30
0.0
 10
76.0671190499
 20
148.1385511382
 30
0.0
 10
77.0371737965
 20
147.3493133149
 30
0.0
 10
77.9421967914
 20
146.3654036661
 30
0.0
 10
78.7414968183
 20
145.2314078344
 30
0.0
 10
79.1830532959
 20
144.4033824901
 30
0.0
 10
79.3770330582
 20
143.9759006781
 30
0.0
  0
SPLINE
  5
46F
100
AcDbEntity
  8
00_COMPONENTS
100
AcDbSpline
 62
7
  6
CONTINUOUS
 70
0
 71
3
 72
9
 73
5
 74
0
 42
0.0000001
 43
0.0000001
 44
0.0000000001
 40
0.0
 40
0.0
 40
0.0
 40
0.0
 40
0.7521688338
 40
1.0
 40
1.0
 40
1.0
 40
1.0
 10
36.5057893394
 20
133.0747903347
 30
0.0
 10
36.5073003518
 20
133.1015420463
 30
0.0
 10
36.5107710726
 20
133.1370089822
 30
0.0
 10
36.5144416342
 20
133.1724495867
 30
0.0
 10
36.5156684892
 20
133.1811923625
 30
0.0
  0
SPLINE
  5
470
100
AcDbEntity
  8
00_COMPONENTS
100
AcDbSpline
 62
7
  6
CONTINUOUS
 70
0
 71
3
 72
11
 73
7
 74
0
 42
0.0000001
 43
0.0000001
 44
0.0000000001
 40
0.0
 40
0.0
 40
0.0
 40
0.0
 40
0.2896413964
 40
0.5491107671
 40
0.7822355978
 40
1.0
 40
1.0
 40
1.0
 40
1.0
 10
71.5285969523
 20
37.0035636805
 30
0.0
 10
71.5285969523
 20
36.8921178055
 30
0.0
 10
71.5116571381
 20
36.6801213723
 30
0.0
 10
71.4258541138
 20
36.3888450865
 30
0.0
 10
71.281319239
 20
36.1524329588
 30
0.0
 10
71.1454781148
 20
36.0383924227
 30
0.0
 10
71.0729308983
 20
35.9964686487
 30
0.0
  0
SPLINE
  5
471
100
AcDbEntity
  8
00_COMPONENTS
100
AcDbSpline
 62
7
  6
CONTINUOUS
 70
0
 71
3
 72
9
 73
5
 74
0
 42
0.0000001
 43
0.0000001
 44
0.0000000001
 40
0.0
 40
0.0
 40
0.0
 40
0.0
 40
0.2645318644
 40
1.0
 40
1.0
 40
1.0
 40
1.0
 10
71.3949916052
 20
37.8090776982
 30
0.0
 10
71.4166300196
 20
37.7402531266
 30
0.0
 10
71.4898368794
 20
37.4776183979
 30
0.0
 10
71.5285969523
 20
37.204148478
 30
0.0
 10
71.5285969523
 20
37.0035636805
 30
0.0
  0
SPLINE
  5
472
100
AcDbEntity
  8
00_COMPONENTS
100
AcDbSpline
 62
7
  6
CONTINUOUS
 70
0
 71
3
 72
11
 73
7
 74
0
 42
0.0000001
 43
0.0000001
 44
0.0000000001
 40
0.0
 40
0.0
 40
0.0
 40
0.0
 40
0.2784640599
 40
0.5367931455
 40
0.7755056567
 40
1.0
 40
1.0
 40
1.0
 40
1.0
 10
36.5156684892
 20
133.1811923625
 30
0.0
 10
36.5246760548
 20
133.2453817953
 30
0.0
 10
36.5522580846
 20
133.3680327551
 30
0.0
 10
36.6246621176
 20
133.5347192265
 30
0.0
 10
36.7247625638
 20
133.6715534832
 30
0.0
 10
36.8104712026
 20
133.7397228172
 30
0.0
 10
36.8557368698
 20
133.7658319186
 30
0.0
  0
SPLINE
  5
473
100
AcDbEntity
  8
00_COMPONENTS
100
AcDbSpline
 62
7
  6
CONTINUOUS
 70
0
 71
3
 72
8
 73
4
 74
0
 42
0.0000001
 43
0.0000001
 44
0.0000000001
 40
0.0
 40
0.0
 40
0.0
 40
0.0
 40
1.0
 40
1.0
 40
1.0
 40
1.0
 10
71.6607534851
 20
36.5853352714
 30
0.0
 10
71.6319753755
 20
36.2053920447
 30
0.0
 10
71.6052553906
 20
35.825295206
 30
0.0
 10
71.5767342769
 20
35.4453326011
 30
0.0
  0
SPLINE
  5
474
100
AcDbEntity
  8
00_COMPONENTS
100
AcDbSpline
 62
7
  6
CONTINUOUS
 70
0
 71
3
 72
10
 73
6
 74
0
 42
0.0000001
 43
0.0000001
 44
0.0000000001
 40
0.0
 40
0.0
 40
0.0
 40
0.0
 40
0.2350008361
 40
0.4766712542
 40
1.0
 40
1.0
 40
1.0
 40
1.0
 10
54.4258116633
 20
48.9084938424
 30
0.0
 10
54.3486681086
 20
48.8639412135
 30
0.0
 10
54.2014296007
 20
48.756435293
 30
0.0
 10
53.9458567773
 20
48.4737003572
 30
0.0
 10
53.8183826547
 20
48.2048828008
 30
0.0
 10
53.7585260125
 20
48.0157436963
 30
0.0
  0
SPLINE
  5
475
100
AcDbEntity
  8
00_COMPONENTS
100
AcDbSpline
 62
7
  6
CONTINUOUS
 70
0
 71
3
 72
9
 73
5
 74
0
 42
0.0000001
 43
0.0000001
 44
0.0000000001
 40
0.0
 40
0.0
 40
0.0
 40
0.0
 40
0.2353415501
 40
1.0
 40
1.0
 40
1.0
 40
1.0
 10
53.7585260125
 20
48.0157436963
 30
0.0
 10
53.738934807
 20
47.9538380677
 30
0.0
 10
53.667557328
 20
47.6870509531
 30
0.0
 10
53.6406750976
 20
47.4094780106
 30
0.0
 10
53.638901555
 20
47.1985131464
 30
0.0
  0
SPLINE
  5
476
100
AcDbEntity
  8
00_COMPONENTS
100
AcDbSpline
 62
7
  6
CONTINUOUS
 70
0
 71
3
 72
8
 73
4
 74
0
 42
0.0000001
 43
0.0000001
 44
0.0000000001
 40
0.0
 40
0.0
 40
0.0
 40
0.0
 40
1.0
 40
1.0
 40
1.0
 40
1.0
 10
40.1716294909
 20
130.9583644164
 30
0.0
 10
40.2115764762
 20
130.8785037509
 30
0.0
 10
40.2579749906
 20
130.8016660405
 30
0.0
 10
40.3089835501
 20
130.7283747424
 30
0.0
  0
SPLINE
  5
477
100
AcDbEntity
  8
00_COMPONENTS
100
AcDbSpline
 62
7
  6
CONTINUOUS
 70
0
 71
3
 72
11
 73
7
 74
0
 42
0.0000001
 43
0.0000001
 44
0.0000000001
 40
0.0
 40
0.0
 40
0.0
 40
0.0
 40
0.2494177651
 40
0.5136492999
 40
0.7706085033
 40
1.0
 40
1.0
 40
1.0
 40
1.0
 10
42.4873614652
 20
42.2368931611
 30
0.0
 10
42.5165398963
 20
42.0364493613
 30
0.0
 10
42.6331121077
 20
41.6312009785
 30
0.0
 10
42.9288957784
 20
41.0751346774
 30
0.0
 10
43.3196065141
 20
40.6020719408
 30
0.0
 10
43.639165697
 20
40.3597120776
 30
0.0
 10
43.8046113542
 20
40.2740807925
 30
0.0
  0
SPLINE
  5
478
100
AcDbEntity
  8
00_COMPONENTS
100
AcDbSpline
 62
7
  6
CONTINUOUS
 70
0
 71
3
 72
13
 73
9
 74
0
 42
0.0000001
 43
0.0000001
 44
0.0000000001
 40
0.0
 40
0.0
 40
0.0
 40
0.0
 40
0.1106635613
 40
0.2317930452
 40
0.4939988836
 40
0.7595147285
 40
0.8845589207
 40
1.0
 40
1.0
 40
1.0
 40
1.0
 10
61.6156234934
 20
120.386422665
 30
0.0
 10
61.4564414425
 20
120.4616253441
 30
0.0
 10
61.1387971437
 20
120.6535283164
 30
0.0
 10
60.5373408021
 20
121.1630042317
 30
0.0
 10
59.8948075101
 20
121.9854098932
 30
0.0
 10
59.4527567411
 20
122.9368845783
 30
0.0
 10
59.2606271521
 20
123.7207650718
 30
0.0
 10
59.2248571175
 20
124.1037465049
 30
0.0
 10
59.2248571175
 20
124.2873991258
 30
0.0
  0
SPLINE
  5
479
100
AcDbEntity
  8
00_COMPONENTS
100
AcDbSpline
 62
7
  6
CONTINUOUS
 70
0
 71
3
 72
9
 73
5
 74
0
 42
0.0000001
 43
0.0000001
 44
0.0000000001
 40
0.0
 40
0.0
 40
0.0
 40
0.0
 40
0.2528185829
 40
1.0
 40
1.0
 40
1.0
 40
1.0
 10
33.4963627483
 20
134.6615542158
 30
0.0
 10
33.5308448634
 20
134.650649767
 30
0.0
 10
33.6680787914
 20
134.6102956603
 30
0.0
 10
33.8092922683
 20
134.5829532618
 30
0.0
 10
33.9155658102
 20
134.5715564559
 30
0.0
  0
SPLINE
  5
47A
100
AcDbEntity
  8
00_COMPONENTS
100
AcDbSpline
 62
7
  6
CONTINUOUS
 70
0
 71
3
 72
11
 73
7
 74
0
 42
0.0000001
 43
0.0000001
 44
0.0000000001
 40
0.0
 40
0.0
 40
0.0
 40
0.0
 40
0.2494177651
 40
0.5136492999
 40
0.7706085033
 40
1.0
 40
1.0
 40
1.0
 40
1.0
 10
60.1651045939
 20
32.0308742981
 30
0.0
 10
60.194283025
 20
31.8304304983
 30
0.0
 10
60.3108552364
 20
31.4251821155
 30
0.0
 10
60.6066389071
 20
30.8691158144
 30
0.0
 10
60.9973496428
 20
30.3960530778
 30
0.0
 10
61.3169088257
 20
30.1536932146
 30
0.0
 10
61.4823544829
 20
30.0680619295
 30
0.0
  0
SPLINE
  5
47B
100
AcDbEntity
  8
00_COMPONENTS
100
AcDbSpline
 62
7
  6
CONTINUOUS
 70
0
 71
3
 72
9
 73
5
 74
0
 42
0.0000001
 43
0.0000001
 44
0.0000000001
 40
0.0
 40
0.0
 40
0.0
 40
0.0
 40
0.255109546
 40
1.0
 40
1.0
 40
1.0
 40
1.0
 10
58.8784599048
 20
43.4080252373
 30
0.0
 10
58.8726792017
 20
43.387961464
 30
0.0
 10
58.8488758396
 20
43.309650154
 30
0.0
 10
58.8204207359
 20
43.2327343787
 30
0.0
 10
58.7964628133
 20
43.1766719852
 30
0.0
  0
SPLINE
  5
47C
100
AcDbEntity
  8
00_COMPONENTS
100
AcDbSpline
 62
7
  6
CONTINUOUS
 70
0
 71
3
 72
9
 73
5
 74
0
 42
0.0000001
 43
0.0000001
 44
0.0000000001
 40
0.0
 40
0.0
 40
0.0
 40
0.0
 40
0.5185462717
 40
1.0
 40
1.0
 40
1.0
 40
1.0
 10
58.7964628133
 20
43.1766719852
 30
0.0
 10
58.7352060622
 20
43.0333290028
 30
0.0
 10
58.5810203336
 20
42.7694138571
 30
0.0
 10
58.34684295
 20
42.5697935531
 30
0.0
 10
58.2214945915
 20
42.4974379212
 30
0.0
  0
SPLINE
  5
47D
100
AcDbEntity
  8
00_COMPONENTS
100
AcDbSpline
 62
7
  6
CONTINUOUS
 70
0
 71
3
 72
9
 73
5
 74
0
 42
0.0000001
 43
0.0000001
 44
0.0000000001
 40
0.0
 40
0.0
 40
0.0
 40
0.0
 40
0.2600418153
 40
1.0
 40
1.0
 40
1.0
 40
1.0
 10
58.9663927152
 20
43.8991046219
 30
0.0
 10
58.9627549255
 20
43.8559757452
 30
0.0
 10
58.9451545654
 20
43.6904712279
 30
0.0
 10
58.9125574517
 20
43.5263716477
 30
0.0
 10
58.8784599048
 20
43.4080252373
 30
0.0
  0
SPLINE
  5
47E
100
AcDbEntity
  8
00_COMPONENTS
100
AcDbSpline
 62
7
  6
CONTINUOUS
 70
0
 71
3
 72
9
 73
5
 74
0
 42
0.0000001
 43
0.0000001
 44
0.0000000001
 40
0.0
 40
0.0
 40
0.0
 40
0.0
 40
0.2386779451
 40
1.0
 40
1.0
 40
1.0
 40
1.0
 10
42.9267017001
 20
129.2170686542
 30
0.0
 10
42.9396329982
 20
129.2207174619
 30
0.0
 10
42.9934669116
 20
129.2372227446
 30
0.0
 10
43.0457986285
 20
129.2584609771
 30
0.0
 10
43.0846408781
 20
129.276574555
 30
0.0
  0
SPLINE
  5
47F
100
AcDbEntity
  8
00_COMPONENTS
100
AcDbSpline
 62
7
  6
CONTINUOUS
 70
0
 71
3
 72
9
 73
5
 74
0
 42
0.0000001
 43
0.0000001
 44
0.0000000001
 40
0.0
 40
0.0
 40
0.0
 40
0.0
 40
0.2526655215
 40
1.0
 40
1.0
 40
1.0
 40
1.0
 10
49.3410470349
 20
125.6658511722
 30
0.0
 10
49.3721406016
 20
125.6312771138
 30
0.0
 10
49.4979600347
 20
125.4969222234
 30
0.0
 10
49.6339300223
 20
125.3722543985
 30
0.0
 10
49.7393225019
 20
125.2838891808
 30
0.0
  0
SPLINE
  5
480
100
AcDbEntity
  8
00_COMPONENTS
100
AcDbSpline
 62
7
  6
CONTINUOUS
 70
0
 71
3
 72
8
 73
4
 74
0
 42
0.0000001
 43
0.0000001
 44
0.0000000001
 40
0.0
 40
0.0
 40
0.0
 40
0.0
 40
1.0
 40
1.0
 40
1.0
 40
1.0
 10
57.8493726195
 20
120.7523455534
 30
0.0
 10
57.8893196048
 20
120.6724848879
 30
0.0
 10
57.9357181193
 20
120.5956471775
 30
0.0
 10
57.9867266788
 20
120.5223558794
 30
0.0
  0
SPLINE
  5
481
100
AcDbEntity
  8
00_COMPONENTS
100
AcDbSpline
 62
7
  6
CONTINUOUS
 70
0
 71
3
 72
9
 73
5
 74
0
 42
0.0000001
 43
0.0000001
 44
0.0000000001
 40
0.0
 40
0.0
 40
0.0
 40
0.0
 40
0.2528185852
 40
1.0
 40
1.0
 40
1.0
 40
1.0
 10
51.1741058769
 20
124.4555353528
 30
0.0
 10
51.2085879883
 20
124.4446309052
 30
0.0
 10
51.3458218982
 20
124.4042767967
 30
0.0
 10
51.4870353581
 20
124.376934399
 30
0.0
 10
51.5933088869
 20
124.3655375913
 30
0.0
  0
SPLINE
  5
482
100
AcDbEntity
  8
00_COMPONENTS
100
AcDbSpline
 62
7
  6
CONTINUOUS
 70
0
 71
3
 72
11
 73
7
 74
0
 42
0.0000001
 43
0.0000001
 44
0.0000000001
 40
0.0
 40
0.0
 40
0.0
 40
0.0
 40
0.2177746631
 40
0.4509321914
 40
0.7102231206
 40
1.0
 40
1.0
 40
1.0
 40
1.0
 10
52.7078242215
 20
156.5958115092
 30
0.0
 10
52.8892412279
 20
156.7005487122
 30
0.0
 10
53.3060889971
 20
156.8518965858
 30
0.0
 10
53.9984000351
 20
156.8693497469
 30
0.0
 10
54.73635391
 20
156.69131284
 30
0.0
 10
55.216394743
 20
156.4628298416
 30
0.0
 10
55.4577922241
 20
156.3234620938
 30
0.0
  0
SPLINE
  5
483
100
AcDbEntity
  8
00_COMPONENTS
100
AcDbSpline
 62
7
  6
CONTINUOUS
 70
0
 71
3
 72
11
 73
7
 74
0
 42
0.0000001
 43
0.0000001
 44
0.0000000001
 40
0.0
 40
0.0
 40
0.0
 40
0.0
 40
0.2177842682
 40
0.4509274252
 40
0.7102502432
 40
1.0
 40
1.0
 40
1.0
 40
1.0
 10
50.2308353305
 20
154.6807412521
 30
0.0
 10
50.398383216
 20
154.7775220919
 30
0.0
 10
50.7834282308
 20
154.9172433588
 30
0.0
 10
51.4228780622
 20
154.9334121046
 30
0.0
 10
52.1044629391
 20
154.7689212257
 30
0.0
 10
52.5478562204
 20
154.5579156722
 30
0.0
 10
52.7707976427
 20
154.4292032939
 30
0.0
  0
SPLINE
  5
484
100
AcDbEntity
  8
00_COMPONENTS
100
AcDbSpline
 62
7
  6
CONTINUOUS
 70
0
 71
3
 72
11
 73
7
 74
0
 42
0.0000001
 43
0.0000001
 44
0.0000000001
 40
0.0
 40
0.0
 40
0.0
 40
0.0
 40
0.2277880642
 40
0.4765676858
 40
0.7374849145
 40
1.0
 40
1.0
 40
1.0
 40
1.0
 10
52.7707976427
 20
154.4292032939
 30
0.0
 10
53.0865655853
 20
154.2468987115
 30
0.0
 10
53.7050255098
 20
153.7907569189
 30
0.0
 10
54.5253875922
 20
152.9357444877
 30
0.0
 10
55.2416731222
 20
151.9232324645
 30
0.0
 10
55.6255962782
 20
151.1746923634
 30
0.0
 10
55.7891276159
 20
150.7876170052
 30
0.0
  0
SPLINE
  5
485
100
AcDbEntity
  8
00_COMPONENTS
100
AcDbSpline
 62
7
  6
CONTINUOUS
 70
0
 71
3
 72
16
 73
12
 74
0
 42
0.0000001
 43
0.0000001
 44
0.0000000001
 40
0.0
 40
0.0
 40
0.0
 40
0.0
 40
0.0440898563
 40
0.0891918959
 40
0.1855665255
 40
0.2943197213
 40
0.4169291257
 40
0.5522427124
 40
0.6973235247
 40
0.8481165034
 40
1.0
 40
1.0
 40
1.0
 40
1.0
 10
54.7019025895
 20
158.9017839891
 30
0.0
 10
54.819901298
 20
158.9699461144
 30
0.0
 10
55.072428133
 20
159.0852677563
 30
0.0
 10
55.631798782
 20
159.2241287848
 30
0.0
 10
56.4193120179
 20
159.2061410166
 30
0.0
 10
57.3956820019
 20
158.9035375315
 30
0.0
 10
58.389375476
 20
158.344570277
 30
0.0
 10
59.3594300976
 20
157.5553326085
 30
0.0
 10
60.2644528775
 20
156.57142297
 30
0.0
 10
61.0637532177
 20
155.4374274007
 30
0.0
 10
61.5053092234
 20
154.6094018465
 30
0.0
 10
61.6992892792
 20
154.1819200825
 30
0.0
  0
SPLINE
  5
486
100
AcDbEntity
  8
00_COMPONENTS
100
AcDbSpline
 62
7
  6
CONTINUOUS
 70
0
 71
3
 72
14
 73
10
 74
0
 42
0.0000001
 43
0.0000001
 44
0.0000000001
 40
0.0
 40
0.0
 40
0.0
 40
0.0
 40
0.1204109864
 40
0.2519013026
 40
0.5281839699
 40
0.66300864
 40
0.7886395207
 40
0.9014371103
 40
1.0
 40
1.0
 40
1.0
 40
1.0
 10
42.4663566315
 20
133.962705008
 30
0.0
 10
42.4663566315
 20
133.8363710613
 30
0.0
 10
42.4955218772
 20
133.5717226179
 30
0.0
 10
42.6476995393
 20
133.0372785264
 30
0.0
 10
42.922912979
 20
132.5282510377
 30
0.0
 10
43.288616492
 20
132.0981164779
 30
0.0
 10
43.5874942249
 20
131.841874768
 30
0.0
 10
43.8957854653
 20
131.6642982706
 30
0.0
 10
44.1121808193
 20
131.6015321864
 30
0.0
 10
44.2149534719
 20
131.5900583772
 30
0.0
  0
SPLINE
  5
487
100
AcDbEntity
  8
00_COMPONENTS
100
AcDbSpline
 62
7
  6
CONTINUOUS
 70
0
 71
3
 72
11
 73
7
 74
0
 42
0.0000001
 43
0.0000001
 44
0.0000000001
 40
0.0
 40
0.0
 40
0.0
 40
0.0
 40
0.2896413964
 40
0.5491107671
 40
0.7822355978
 40
1.0
 40
1.0
 40
1.0
 40
1.0
 10
42.0916175047
 20
108.8430889224
 30
0.0
 10
42.0916175047
 20
108.7113801611
 30
0.0
 10
42.0715977242
 20
108.4608389218
 30
0.0
 10
41.9701941501
 20
108.1166033113
 30
0.0
 10
41.7993802071
 20
107.8372071604
 30
0.0
 10
41.6388406967
 20
107.7024319814
 30
0.0
 10
41.5531030772
 20
107.652885703
 30
0.0
  0
SPLINE
  5
488
100
AcDbEntity
  8
00_COMPONENTS
100
AcDbSpline
 62
7
  6
CONTINUOUS
 70
0
 71
3
 72
9
 73
5
 74
0
 42
0.0000001
 43
0.0000001
 44
0.0000000001
 40
0.0
 40
0.0
 40
0.0
 40
0.0
 40
0.2585414055
 40
1.0
 40
1.0
 40
1.0
 40
1.0
 10
39.2136707372
 20
111.9171476848
 30
0.0
 10
39.2136707372
 20
111.9551333773
 30
0.0
 10
39.2164849723
 20
112.1020293624
 30
0.0
 10
39.2307958224
 20
112.2488101303
 30
0.0
 10
39.2490244069
 20
112.3562115599
 30
0.0
  0
SPLINE
  5
489
100
AcDbEntity
  8
00_COMPONENTS
100
AcDbSpline
 62
7
  6
CONTINUOUS
 70
0
 71
3
 72
11
 73
7
 74
0
 42
0.0000001
 43
0.0000001
 44
0.0000000001
 40
0.0
 40
0.0
 40
0.0
 40
0.0
 40
0.2177833598
 40
0.4509104088
 40
0.7102966711
 40
1.0
 40
1.0
 40
1.0
 40
1.0
 10
74.4124651752
 20
39.5611925752
 30
0.0
 10
74.5444115446
 20
39.637371416
 30
0.0
 10
74.7912777785
 20
39.8449113664
 30
0.0
 10
75.0540961429
 20
40.2746313592
 30
0.0
 10
75.2101947957
 20
40.8042061475
 30
0.0
 10
75.2409230093
 20
41.1896464788
 30
0.0
 10
75.2409230093
 20
41.3923190563
 30
0.0
  0
SPLINE
  5
48A
100
AcDbEntity
  8
00_COMPONENTS
100
AcDbSpline
 62
7
  6
CONTINUOUS
 70
0
 71
3
 72
11
 73
7
 74
0
 42
0.0000001
 43
0.0000001
 44
0.0000000001
 40
0.0
 40
0.0
 40
0.0
 40
0.0
 40
0.2484368269
 40
0.5063444486
 40
0.7607783604
 40
1.0
 40
1.0
 40
1.0
 40
1.0
 10
31.6633069519
 20
135.8718712032
 30
0.0
 10
31.3616300859
 20
136.2077916552
 30
0.0
 10
30.8300177805
 20
136.9699824434
 30
0.0
 10
30.2854381672
 20
138.2503581227
 30
0.0
 10
30.0066682932
 20
139.5964350827
 30
0.0
 10
30.0143578409
 20
140.5032071067
 30
0.0
 10
30.0747746452
 20
140.9337404607
 30
0.0
  0
SPLINE
  5
48B
100
AcDbEntity
  8
00_COMPONENTS
100
AcDbSpline
 62
7
  6
CONTINUOUS
 70
0
 71
3
 72
11
 73
7
 74
0
 42
0.0000001
 43
0.0000001
 44
0.0000000001
 40
0.0
 40
0.0
 40
0.0
 40
0.0
 40
0.2896413964
 40
0.5491107671
 40
0.7822355978
 40
1.0
 40
1.0
 40
1.0
 40
1.0
 10
59.7693606333
 20
98.6370700594
 30
0.0
 10
59.7693606333
 20
98.5053612981
 30
0.0
 10
59.7493408529
 20
98.2548200588
 30
0.0
 10
59.6479372788
 20
97.9105844483
 30
0.0
 10
59.4771233358
 20
97.6311882973
 30
0.0
 10
59.3165838254
 20
97.4964131184
 30
0.0
 10
59.2308462059
 20
97.44686684
 30
0.0
  0
SPLINE
  5
48C
100
AcDbEntity
  8
00_COMPONENTS
100
AcDbSpline
 62
7
  6
CONTINUOUS
 70
0
 71
3
 72
9
 73
5
 74
0
 42
0.0000001
 43
0.0000001
 44
0.0000000001
 40
0.0
 40
0.0
 40
0.0
 40
0.0
 40
0.2526655233
 40
1.0
 40
1.0
 40
1.0
 40
1.0
 10
67.0187902383
 20
115.4598322124
 30
0.0
 10
67.0498837998
 20
115.4252581626
 30
0.0
 10
67.1757032085
 20
115.2909033044
 30
0.0
 10
67.3116731743
 20
115.166235516
 30
0.0
 10
67.4170656306
 20
115.0778703178
 30
0.0
  0
SPLINE
  5
48D
100
AcDbEntity
  8
00_COMPONENTS
100
AcDbSpline
 62
7
  6
CONTINUOUS
 70
0
 71
3
 72
9
 73
5
 74
0
 42
0.0000001
 43
0.0000001
 44
0.0000000001
 40
0.0
 40
0.0
 40
0.0
 40
0.0
 40
0.2528185832
 40
1.0
 40
1.0
 40
1.0
 40
1.0
 10
68.8518490056
 20
114.2495164898
 30
0.0
 10
68.8863311203
 20
114.2386120411
 30
0.0
 10
69.0235650464
 20
114.1982579341
 30
0.0
 10
69.1647785215
 20
114.1709155358
 30
0.0
 10
69.2710520621
 20
114.1595187297
 30
0.0
  0
SPLINE
  5
48E
100
AcDbEntity
  8
00_COMPONENTS
100
AcDbSpline
 62
7
  6
CONTINUOUS
 70
0
 71
3
 72
9
 73
5
 74
0
 42
0.0000001
 43
0.0000001
 44
0.0000000001
 40
0.0
 40
0.0
 40
0.0
 40
0.0
 40
0.2585414055
 40
1.0
 40
1.0
 40
1.0
 40
1.0
 10
56.8914138659
 20
101.7111288218
 30
0.0
 10
56.8914138659
 20
101.7491145143
 30
0.0
 10
56.894228101
 20
101.8960104994
 30
0.0
 10
56.9085389511
 20
102.0427912673
 30
0.0
 10
56.9267675356
 20
102.1501926969
 30
0.0
  0
SPLINE
  5
48F
100
AcDbEntity
  8
00_COMPONENTS
100
AcDbSpline
 62
7
  6
CONTINUOUS
 70
0
 71
3
 72
17
 73
13
 74
0
 42
0.0000001
 43
0.0000001
 44
0.0000000001
 40
0.0
 40
0.0
 40
0.0
 40
0.0
 40
0.1286889617
 40
0.2702830997
 40
0.4174385712
 40
0.5617801152
 40
0.6954483663
 40
0.8127097952
 40
0.8646744913
 40
0.9125077733
 40
0.9571384188
 40
1.0
 40
1.0
 40
1.0
 40
1.0
 10
37.7994630628
 20
111.1006593771
 30
0.0
 10
37.7994630628
 20
110.8271387038
 30
0.0
 10
37.8759941848
 20
110.2520140936
 30
0.0
 10
38.1615905852
 20
109.4075680786
 30
0.0
 10
38.6016866437
 20
108.5941018742
 30
0.0
 10
39.160889583
 20
107.8783288799
 30
0.0
 10
39.7935174397
 20
107.3180704829
 30
0.0
 10
40.3661179749
 20
107.0049796485
 30
0.0
 10
40.8140340874
 20
106.8858249945
 30
0.0
 10
41.1223162011
 20
106.8631256045
 30
0.0
 10
41.4093816919
 20
106.905192428
 30
0.0
 10
41.5833028517
 20
106.9774695412
 30
0.0
 10
41.6621776304
 20
107.0230538421
 30
0.0
  0
SPLINE
  5
490
100
AcDbEntity
  8
00_COMPONENTS
100
AcDbSpline
 62
7
  6
CONTINUOUS
 70
0
 71
3
 72
17
 73
13
 74
0
 42
0.0000001
 43
0.0000001
 44
0.0000000001
 40
0.0
 40
0.0
 40
0.0
 40
0.0
 40
0.1286889617
 40
0.2702830997
 40
0.4174385712
 40
0.5617801152
 40
0.6954483663
 40
0.8127097952
 40
0.8646744913
 40
0.9125077733
 40
0.9571384188
 40
1.0
 40
1.0
 40
1.0
 40
1.0
 10
55.4772061914
 20
100.8946405141
 30
0.0
 10
55.4772061914
 20
100.6211198408
 30
0.0
 10
55.5537373135
 20
100.0459952306
 30
0.0
 10
55.8393337139
 20
99.2015492156
 30
0.0
 10
56.2794297724
 20
98.3880830112
 30
0.0
 10
56.8386327117
 20
97.6723100168
 30
0.0
 10
57.4712605684
 20
97.1120516199
 30
0.0
 10
58.0438611036
 20
96.7989607855
 30
0.0
 10
58.491777216
 20
96.6798061315
 30
0.0
 10
58.8000593298
 20
96.6571067415
 30
0.0
 10
59.0871248206
 20
96.699173565
 30
0.0
 10
59.2610459804
 20
96.7714506782
 30
0.0
 10
59.3399207591
 20
96.8170349791
 30
0.0
  0
SPLINE
  5
491
100
AcDbEntity
  8
00_COMPONENTS
100
AcDbSpline
 62
7
  6
CONTINUOUS
 70
0
 71
3
 72
11
 73
7
 74
0
 42
0.0000001
 43
0.0000001
 44
0.0000000001
 40
0.0
 40
0.0
 40
0.0
 40
0.0
 40
0.289702329
 40
0.5490881649
 40
0.7822156415
 40
1.0
 40
1.0
 40
1.0
 40
1.0
 10
25.3896873864
 20
103.6498913523
 30
0.0
 10
25.2141720901
 20
103.7512228634
 30
0.0
 10
24.8650155699
 20
103.9173234652
 30
0.0
 10
24.3283550508
 20
104.0469173654
 30
0.0
 10
23.8248104833
 20
104.0341677083
 30
0.0
 10
23.5216497676
 20
103.9241483369
 30
0.0
 10
23.3897063199
 20
103.8479711829
 30
0.0
  0
SPLINE
  5
492
100
AcDbEntity
  8
00_COMPONENTS
100
AcDbSpline
 62
7
  6
CONTINUOUS
 70
0
 71
3
 72
13
 73
9
 74
0
 42
0.0000001
 43
0.0000001
 44
0.0000000001
 40
0.0
 40
0.0
 40
0.0
 40
0.0
 40
0.1142259181
 40
0.2375599982
 40
0.5000010158
 40
0.7624414734
 40
0.8857749255
 40
1.0
 40
1.0
 40
1.0
 40
1.0
 10
75.2409230093
 20
71.6029084901
 30
0.0
 10
75.2409230093
 20
71.8264303701
 30
0.0
 10
75.1999147999
 20
72.2917601267
 30
0.0
 10
74.9776278422
 20
73.2470039731
 30
0.0
 10
74.4610132301
 20
74.4186217229
 30
0.0
 10
73.7046658788
 20
75.451827793
 30
0.0
 10
72.9885425371
 20
76.121948635
 30
0.0
 10
72.6060594003
 20
76.3901229583
 30
0.0
 10
72.4124841087
 20
76.5018811767
 30
0.0
  0
SPLINE
  5
493
100
AcDbEntity
  8
00_COMPONENTS
100
AcDbSpline
 62
7
  6
CONTINUOUS
 70
0
 71
3
 72
14
 73
10
 74
0
 42
0.0000001
 43
0.0000001
 44
0.0000000001
 40
0.0
 40
0.0
 40
0.0
 40
0.0
 40
0.1204109864
 40
0.2519013026
 40
0.5281839699
 40
0.66300864
 40
0.7886395207
 40
0.9014371103
 40
1.0
 40
1.0
 40
1.0
 40
1.0
 10
60.1440997601
 20
123.756686145
 30
0.0
 10
60.1440997601
 20
123.6303521983
 30
0.0
 10
60.1732650058
 20
123.3657037549
 30
0.0
 10
60.325442668
 20
122.8312596634
 30
0.0
 10
60.6006561077
 20
122.3222321747
 30
0.0
 10
60.9663596207
 20
121.8920976148
 30
0.0
 10
61.2652373536
 20
121.635855905
 30
0.0
 10
61.573528594
 20
121.4582794076
 30
0.0
 10
61.7899239479
 20
121.3955133234
 30
0.0
 10
61.8926966006
 20
121.3840395142
 30
0.0
  0
SPLINE
  5
494
100
AcDbEntity
  8
00_COMPONENTS
100
AcDbSpline
 62
7
  6
CONTINUOUS
 70
0
 71
3
 72
9
 73
5
 74
0
 42
0.0000001
 43
0.0000001
 44
0.0000000001
 40
0.0
 40
0.0
 40
0.0
 40
0.0
 40
0.2526655256
 40
1.0
 40
1.0
 40
1.0
 40
1.0
 10
31.6633039851
 20
135.8718699597
 30
0.0
 10
31.6943975472
 20
135.8372959085
 30
0.0
 10
31.8202169447
 20
135.7029410345
 30
0.0
 10
31.956186915
 20
135.5782732436
 30
0.0
 10
32.0615793733
 20
135.4899080438
 30
0.0
  0
SPLINE
  5
495
100
AcDbEntity
  8
00_COMPONENTS
100
AcDbSpline
 62
7
  6
CONTINUOUS
 70
0
 71
3
 72
17
 73
13
 74
0
 42
0.0000001
 43
0.0000001
 44
0.0000000001
 40
0.0
 40
0.0
 40
0.0
 40
0.0
 40
0.1294627919
 40
0.2714194539
 40
0.4185923963
 40
0.5626934546
 40
0.6960086401
 40
0.8129490985
 40
0.864797064
 40
0.9125595732
 40
0.957151494
 40
1.0
 40
1.0
 40
1.0
 40
1.0
 10
53.6391041208
 20
47.1206006633
 30
0.0
 10
53.6434745486
 20
46.7959454098
 30
0.0
 10
53.7410838601
 20
46.1156839367
 30
0.0
 10
54.0865726001
 20
45.1191988521
 30
0.0
 10
54.6117341321
 20
44.1622301633
 30
0.0
 10
55.2750124492
 20
43.3222379233
 30
0.0
 10
56.0228495329
 20
42.6662217052
 30
0.0
 10
56.6983520381
 20
42.3007723759
 30
0.0
 10
57.2261944223
 20
42.1626868384
 30
0.0
 10
57.5894598669
 20
42.1371517008
 30
0.0
 10
57.9277079041
 20
42.1876552696
 30
0.0
 10
58.1327200021
 20
42.2729779998
 30
0.0
 10
58.2257771082
 20
42.3267211639
 30
0.0
  0
SPLINE
  5
496
100
AcDbEntity
  8
00_COMPONENTS
100
AcDbSpline
 62
7
  6
CONTINUOUS
 70
0
 71
3
 72
9
 73
5
 74
0
 42
0.0000001
 43
0.0000001
 44
0.0000000001
 40
0.0
 40
0.0
 40
0.0
 40
0.0
 40
0.2287872496
 40
1.0
 40
1.0
 40
1.0
 40
1.0
 10
46.4262582337
 20
50.2715249242
 30
0.0
 10
46.4262582337
 20
50.2547849564
 30
0.0
 10
46.4328201358
 20
50.1816641335
 30
0.0
 10
46.4601795109
 20
50.1113174769
 30
0.0
 10
46.4883937807
 20
50.0624491995
 30
0.0
  0
SPLINE
  5
497
100
AcDbEntity
  8
00_COMPONENTS
100
AcDbSpline
 62
7
  6
CONTINUOUS
 70
0
 71
3
 72
9
 73
5
 74
0
 42
0.0000001
 43
0.0000001
 44
0.0000000001
 40
0.0
 40
0.0
 40
0.0
 40
0.0
 40
0.2670406462
 40
1.0
 40
1.0
 40
1.0
 40
1.0
 10
46.4883937807
 20
50.0624491995
 30
0.0
 10
46.4981573383
 20
50.0455383156
 30
0.0
 10
46.538190239
 20
49.9844817436
 30
0.0
 10
46.5919747049
 20
49.9308999142
 30
0.0
 10
46.6383911513
 20
49.9041019727
 30
0.0
  0
SPLINE
  5
498
100
AcDbEntity
  8
00_COMPONENTS
100
AcDbSpline
 62
7
  6
CONTINUOUS
 70
0
 71
3
 72
11
 73
7
 74
0
 42
0.0000001
 43
0.0000001
 44
0.0000000001
 40
0.0
 40
0.0
 40
0.0
 40
0.0
 40
0.2897033281
 40
0.5490895198
 40
0.7822165953
 40
1.0
 40
1.0
 40
1.0
 40
1.0
 10
68.452726172
 20
37.4731751791
 30
0.0
 10
68.452726172
 20
37.2705026016
 30
0.0
 10
68.4219980274
 20
36.8850623135
 30
0.0
 10
68.2658993351
 20
36.3554875563
 30
0.0
 10
68.0030809797
 20
35.925767589
 30
0.0
 10
67.7562147705
 20
35.7182274934
 30
0.0
 10
67.624268338
 20
35.6420486981
 30
0.0
  0
SPLINE
  5
499
100
AcDbEntity
  8
00_COMPONENTS
100
AcDbSpline
 62
7
  6
CONTINUOUS
 70
0
 71
3
 72
13
 73
9
 74
0
 42
0.0000001
 43
0.0000001
 44
0.0000000001
 40
0.0
 40
0.0
 40
0.0
 40
0.0
 40
0.1142250362
 40
0.2375584228
 40
0.4999988469
 40
0.762439898
 40
0.8857740437
 40
1.0
 40
1.0
 40
1.0
 40
1.0
 10
65.6242872714
 20
72.5827372995
 30
0.0
 10
65.8178624982
 20
72.4709791186
 30
0.0
 10
66.2003455073
 20
72.2028049697
 30
0.0
 10
66.9164686493
 20
71.5326843044
 30
0.0
 10
67.6728160448
 20
70.4994784484
 30
0.0
 10
68.1894308646
 20
69.3278606299
 30
0.0
 10
68.4117178755
 20
68.3726165222
 30
0.0
 10
68.452726172
 20
67.9072865678
 30
0.0
 10
68.452726172
 20
67.6837646129
 30
0.0
  0
SPLINE
  5
49A
100
AcDbEntity
  8
00_COMPONENTS
100
AcDbSpline
 62
7
  6
CONTINUOUS
 70
0
 71
3
 72
11
 73
7
 74
0
 42
0.0000001
 43
0.0000001
 44
0.0000000001
 40
0.0
 40
0.0
 40
0.0
 40
0.0
 40
0.2510280179
 40
0.5135183228
 40
0.7688410676
 40
1.0
 40
1.0
 40
1.0
 40
1.0
 10
62.8214594457
 20
117.731084762
 30
0.0
 10
62.8447635658
 20
117.6131107158
 30
0.0
 10
62.9209982863
 20
117.3770092794
 30
0.0
 10
63.0992398546
 20
117.0524071165
 30
0.0
 10
63.3284239274
 20
116.7737198746
 30
0.0
 10
63.5130547482
 20
116.6269354534
 30
0.0
 10
63.6089550772
 20
116.5715686253
 30
0.0
  0
SPLINE
  5
49B
100
AcDbEntity
  8
00_COMPONENTS
100
AcDbSpline
 62
7
  6
CONTINUOUS
 70
0
 71
3
 72
11
 73
7
 74
0
 42
0.0000001
 43
0.0000001
 44
0.0000000001
 40
0.0
 40
0.0
 40
0.0
 40
0.0
 40
0.2895039426
 40
0.5491656245
 40
0.7823280567
 40
1.0
 40
1.0
 40
1.0
 40
1.0
 10
63.6089550772
 20
116.5715686253
 30
0.0
 10
63.6593799636
 20
116.5424564621
 30
0.0
 10
63.7598014842
 20
116.4947697386
 30
0.0
 10
63.9140821288
 20
116.4573968925
 30
0.0
 10
64.0588985298
 20
116.4611012506
 30
0.0
 10
64.1460263166
 20
116.4927488759
 30
0.0
 10
64.1839388698
 20
116.5146391929
 30
0.0
  0
SPLINE
  5
49C
100
AcDbEntity
  8
00_COMPONENTS
100
AcDbSpline
 62
7
  6
CONTINUOUS
 70
0
 71
3
 72
9
 73
5
 74
0
 42
0.0000001
 43
0.0000001
 44
0.0000000001
 40
0.0
 40
0.0
 40
0.0
 40
0.0
 40
0.5276540675
 40
1.0
 40
1.0
 40
1.0
 40
1.0
 10
67.4170656306
 20
115.0778703178
 30
0.0
 10
67.641404025
 20
114.8897761469
 30
0.0
 10
68.0940134124
 20
114.5641505096
 30
0.0
 10
68.6019743917
 20
114.3285355678
 30
0.0
 10
68.8518490057
 20
114.2495164898
 30
0.0
  0
SPLINE
  5
49D
100
AcDbEntity
  8
00_COMPONENTS
100
AcDbSpline
 62
7
  6
CONTINUOUS
 70
0
 71
3
 72
13
 73
9
 74
0
 42
0.0000001
 43
0.0000001
 44
0.0000000001
 40
0.0
 40
0.0
 40
0.0
 40
0.0
 40
0.301260966
 40
0.5709334964
 40
0.6914606844
 40
0.8022081844
 40
0.9042868623
 40
1.0
 40
1.0
 40
1.0
 40
1.0
 10
68.9354154925
 20
36.3642175069
 30
0.0
 10
69.1109495063
 20
36.149176375
 30
0.0
 10
69.4791885747
 20
35.7689788127
 30
0.0
 10
70.0119115439
 20
35.4072488363
 30
0.0
 10
70.4411864266
 20
35.2331763306
 30
0.0
 10
70.7424230484
 20
35.165170917
 30
0.0
 10
71.0285744743
 20
35.1571252121
 30
0.0
 10
71.2092565542
 20
35.1936553748
 30
0.0
 10
71.292753076
 20
35.2220480537
 30
0.0
  0
SPLINE
  5
49E
100
AcDbEntity
  8
00_COMPONENTS
100
AcDbSpline
 62
7
  6
CONTINUOUS
 70
0
 71
3
 72
9
 73
5
 74
0
 42
0.0000001
 43
0.0000001
 44
0.0000000001
 40
0.0
 40
0.0
 40
0.0
 40
0.0
 40
0.5276540675
 40
1.0
 40
1.0
 40
1.0
 40
1.0
 10
32.0615793732
 20
135.4899080438
 30
0.0
 10
32.2859177676
 20
135.3018138729
 30
0.0
 10
32.738527155
 20
134.9761882356
 30
0.0
 10
33.2464881343
 20
134.7405732938
 30
0.0
 10
33.4963627483
 20
134.6615542158
 30
0.0
  0
SPLINE
  5
49F
100
AcDbEntity
  8
00_COMPONENTS
100
AcDbSpline
 62
7
  6
CONTINUOUS
 70
0
 71
3
 72
9
 73
5
 74
0
 42
0.0000001
 43
0.0000001
 44
0.0000000001
 40
0.0
 40
0.0
 40
0.0
 40
0.0
 40
0.4628569425
 40
1.0
 40
1.0
 40
1.0
 40
1.0
 10
82.2865774957
 20
26.8090977258
 30
0.0
 10
82.4179784593
 20
26.622156755
 30
0.0
 10
82.6153321
 20
26.1565874271
 30
0.0
 10
82.6655133
 20
25.660045587
 30
0.0
 10
82.6655133
 20
25.3948702742
 30
0.0
  0
SPLINE
  5
4A0
100
AcDbEntity
  8
00_COMPONENTS
100
AcDbSpline
 62
7
  6
CONTINUOUS
 70
0
 71
3
 72
11
 73
7
 74
0
 42
0.0000001
 43
0.0000001
 44
0.0000000001
 40
0.0
 40
0.0
 40
0.0
 40
0.0
 40
0.2510280179
 40
0.5135183228
 40
0.7688410676
 40
1.0
 40
1.0
 40
1.0
 40
1.0
 10
36.5169776702
 20
132.9176408301
 30
0.0
 10
36.5402817904
 20
132.799666784
 30
0.0
 10
36.6165165109
 20
132.5635653476
 30
0.0
 10
36.7947580791
 20
132.2389631847
 30
0.0
 10
37.0239421519
 20
131.9602759427
 30
0.0
 10
37.2085729727
 20
131.8134915216
 30
0.0
 10
37.3044733017
 20
131.7581246934
 30
0.0
  0
SPLINE
  5
4A1
100
AcDbEntity
  8
00_COMPONENTS
100
AcDbSpline
 62
7
  6
CONTINUOUS
 70
0
 71
3
 72
11
 73
7
 74
0
 42
0.0000001
 43
0.0000001
 44
0.0000000001
 40
0.0
 40
0.0
 40
0.0
 40
0.0
 40
0.2895039426
 40
0.5491656245
 40
0.7823280567
 40
1.0
 40
1.0
 40
1.0
 40
1.0
 10
37.3044733017
 20
131.7581246934
 30
0.0
 10
37.3548981881
 20
131.7290125303
 30
0.0
 10
37.4553197088
 20
131.6813258068
 30
0.0
 10
37.6096003533
 20
131.6439529606
 30
0.0
 10
37.7544167543
 20
131.6476573187
 30
0.0
 10
37.8415445412
 20
131.6793049441
 30
0.0
 10
37.8794570944
 20
131.7011952611
 30
0.0
  0
SPLINE
  5
4A2
100
AcDbEntity
  8
00_COMPONENTS
100
AcDbSpline
 62
7
  6
CONTINUOUS
 70
0
 71
3
 72
13
 73
9
 74
0
 42
0.0000001
 43
0.0000001
 44
0.0000000001
 40
0.0
 40
0.0
 40
0.0
 40
0.0
 40
0.3000001027
 40
0.5717687462
 40
0.6933570095
 40
0.8044959775
 40
0.9060550085
 40
1.0
 40
1.0
 40
1.0
 40
1.0
 10
40.3089835501
 20
130.7283747424
 30
0.0
 10
40.4912898432
 20
130.4664291982
 30
0.0
 10
40.8843890795
 20
129.997096942
 30
0.0
 10
41.4698291526
 20
129.5357389871
 30
0.0
 10
41.9527861695
 20
129.297408444
 30
0.0
 10
42.2949073571
 20
129.1934364742
 30
0.0
 10
42.6218708912
 20
129.1611764882
 30
0.0
 10
42.8305183957
 20
129.1899287352
 30
0.0
 10
42.9267017001
 20
129.2170686542
 30
0.0
  0
SPLINE
  5
4A3
100
AcDbEntity
  8
00_COMPONENTS
100
AcDbSpline
 62
7
  6
CONTINUOUS
 70
0
 71
3
 72
9
 73
5
 74
0
 42
0.0000001
 43
0.0000001
 44
0.0000000001
 40
0.0
 40
0.0
 40
0.0
 40
0.0
 40
0.5276540675
 40
1.0
 40
1.0
 40
1.0
 40
1.0
 10
49.7393225019
 20
125.2838891808
 30
0.0
 10
49.9636608963
 20
125.0957950099
 30
0.0
 10
50.4162702837
 20
124.7701693726
 30
0.0
 10
50.924231263
 20
124.5345544308
 30
0.0
 10
51.174105877
 20
124.4555353528
 30
0.0
  0
SPLINE
  5
4A4
100
AcDbEntity
  8
00_COMPONENTS
100
AcDbSpline
 62
7
  6
CONTINUOUS
 70
0
 71
3
 72
13
 73
9
 74
0
 42
0.0000001
 43
0.0000001
 44
0.0000000001
 40
0.0
 40
0.0
 40
0.0
 40
0.0
 40
0.3000001027
 40
0.5717687462
 40
0.6933570095
 40
0.8044959775
 40
0.9060550085
 40
1.0
 40
1.0
 40
1.0
 40
1.0
 10
57.9867266788
 20
120.5223558794
 30
0.0
 10
58.1690329719
 20
120.2604103352
 30
0.0
 10
58.5621322082
 20
119.791078079
 30
0.0
 10
59.1475722813
 20
119.3297201241
 30
0.0
 10
59.6305292982
 20
119.091389581
 30
0.0
 10
59.9726504857
 20
118.9874176111
 30
0.0
 10
60.2996140199
 20
118.9551576252
 30
0.0
 10
60.5082615244
 20
118.9839098722
 30
0.0
 10
60.6044448288
 20
119.0110497912
 30
0.0
  0
SPLINE
  5
4A5
100
AcDbEntity
  8
00_COMPONENTS
100
AcDbSpline
 62
7
  6
CONTINUOUS
 70
0
 71
3
 72
9
 73
5
 74
0
 42
0.0000001
 43
0.0000001
 44
0.0000000001
 40
0.0
 40
0.0
 40
0.0
 40
0.0
 40
0.7521688338
 40
1.0
 40
1.0
 40
1.0
 40
1.0
 10
62.8102711148
 20
117.8882342665
 30
0.0
 10
62.8117821273
 20
117.9149859782
 30
0.0
 10
62.8152528481
 20
117.950452914
 30
0.0
 10
62.8189234097
 20
117.9858935185
 30
0.0
 10
62.8201502647
 20
117.9946362943
 30
0.0
  0
SPLINE
  5
4A6
100
AcDbEntity
  8
00_COMPONENTS
100
AcDbSpline
 62
7
  6
CONTINUOUS
 70
0
 71
3
 72
16
 73
12
 74
0
 42
0.0000001
 43
0.0000001
 44
0.0000000001
 40
0.0
 40
0.0
 40
0.0
 40
0.0
 40
0.151879662
 40
0.3026845989
 40
0.4477605007
 40
0.5830675701
 40
0.7056700266
 40
0.8144197087
 40
0.9107982729
 40
0.9559053971
 40
1.0
 40
1.0
 40
1.0
 40
1.0
 10
97.9012560552
 20
134.2643725829
 30
0.0
 10
97.7071560371
 20
134.6915089993
 30
0.0
 10
97.2654596863
 20
135.5189047805
 30
0.0
 10
96.4662385797
 20
136.6520523257
 30
0.0
 10
95.5613650716
 20
137.6351227365
 30
0.0
 10
94.5916492453
 20
138.4236130672
 30
0.0
 10
93.5983725877
 20
138.9819669035
 30
0.0
 10
92.6224738509
 20
139.2841233388
 30
0.0
 10
91.8353607755
 20
139.3019755536
 30
0.0
 10
91.2762896924
 20
139.1630021755
 30
0.0
 10
91.0238932078
 20
139.047716125
 30
0.0
 10
90.9059123156
 20
138.979640703
 30
0.0
  0
SPLINE
  5
4A7
100
AcDbEntity
  8
00_COMPONENTS
100
AcDbSpline
 62
7
  6
CONTINUOUS
 70
0
 71
3
 72
11
 73
7
 74
0
 42
0.0000001
 43
0.0000001
 44
0.0000000001
 40
0.0
 40
0.0
 40
0.0
 40
0.0
 40
0.2784640599
 40
0.5367931455
 40
0.7755056567
 40
1.0
 40
1.0
 40
1.0
 40
1.0
 10
62.8201502647
 20
117.9946362943
 30
0.0
 10
62.8291578302
 20
118.0588257271
 30
0.0
 10
62.85673986
 20
118.181476687
 30
0.0
 10
62.9291438931
 20
118.3481631584
 30
0.0
 10
63.0292443393
 20
118.4849974151
 30
0.0
 10
63.114952978
 20
118.553166749
 30
0.0
 10
63.1602186452
 20
118.5792758505
 30
0.0
  0
SPLINE
  5
4A8
100
AcDbEntity
  8
00_COMPONENTS
100
AcDbSpline
 62
7
  6
CONTINUOUS
 70
0
 71
3
 72
9
 73
5
 74
0
 42
0.0000001
 43
0.0000001
 44
0.0000000001
 40
0.0
 40
0.0
 40
0.0
 40
0.0
 40
0.2386779451
 40
1.0
 40
1.0
 40
1.0
 40
1.0
 10
60.6044448288
 20
119.0110497912
 30
0.0
 10
60.6173761269
 20
119.0146985989
 30
0.0
 10
60.6712100403
 20
119.0312038816
 30
0.0
 10
60.7235417572
 20
119.0524421141
 30
0.0
 10
60.7623840068
 20
119.070555692
 30
0.0
  0
ELLIPSE
  5
4A9
100
AcDbEntity
  8
00_COMPONENTS
100
AcDbEllipse
 62
7
  6
CONTINUOUS
 10
59.5947311046
 20
121.9698309431
 30
0.0
 11
-1.0426504883
 21
2.9503985463
 31
0.0
 40
0.666536471
 41
-3.0182473616
 42
-2.2328372216
  0
ELLIPSE
  5
4AA
100
AcDbEntity
  8
00_COMPONENTS
100
AcDbEllipse
 62
7
  6
CONTINUOUS
 10
41.9169879759
 20
132.1758498061
 30
0.0
 11
-1.0426504883
 21
2.9503985463
 31
0.0
 40
0.666536471
 41
-3.0182473616
 42
-2.2328372216
  0
ELLIPSE
  5
4AB
100
AcDbEntity
  8
00_COMPONENTS
100
AcDbEllipse
 62
7
  6
CONTINUOUS
 10
41.9169879759
 20
132.1758498061
 30
0.0
 11
-1.0426504883
 21
2.9503985463
 31
0.0
 40
0.666536471
 41
0.908755432
 42
1.7527913139
  0
ELLIPSE
  5
4AC
100
AcDbEntity
  8
00_COMPONENTS
100
AcDbEllipse
 62
7
  6
CONTINUOUS
 10
63.6439650146
 20
29.6750991979
 30
0.0
 11
-0.7041835734
 21
0.9188412728
 31
0.0
 40
0.4692948502
 41
0.0
 42
6.2831853072
  0
ELLIPSE
  5
4AD
100
AcDbEntity
  8
00_COMPONENTS
100
AcDbEllipse
 62
7
  6
CONTINUOUS
 10
59.6048949574
 20
30.5274282927
 30
0.0
 11
-1.8982339803
 21
2.4768764745
 31
0.0
 40
0.4692948502
 41
3.8655757708
 42
7.0071684244
  0
ELLIPSE
  5
4AE
100
AcDbEntity
  8
00_COMPONENTS
100
AcDbEllipse
 62
7
  6
CONTINUOUS
 10
51.0153863624
 20
34.141401808
 30
0.0
 11
-2.8167342934
 21
3.6753650912
 31
0.0
 40
0.4692948502
 41
3.8655757708
 42
7.0071684244
  0
ELLIPSE
  5
4AF
100
AcDbEntity
  8
00_COMPONENTS
100
AcDbEllipse
 62
7
  6
CONTINUOUS
 10
41.9271518287
 20
40.7334471557
 30
0.0
 11
-1.8982339803
 21
2.4768764745
 31
0.0
 40
0.4692948502
 41
3.8655757708
 42
7.0071684244
  0
ELLIPSE
  5
4B0
100
AcDbEntity
  8
00_COMPONENTS
100
AcDbEllipse
 62
7
  6
CONTINUOUS
 10
33.3376432337
 20
44.3474206711
 30
0.0
 11
-2.8167342934
 21
3.6753650912
 31
0.0
 40
0.4692948502
 41
3.8655757708
 42
7.0071684244
  0
ELLIPSE
  5
4B1
100
AcDbEntity
  8
00_COMPONENTS
100
AcDbEllipse
 62
7
  6
CONTINUOUS
 10
68.6931294911
 20
23.935382945
 30
0.0
 11
-2.8167342934
 21
3.6753650912
 31
0.0
 40
0.4692948502
 41
3.8655757708
 42
7.0071684244
  0
ELLIPSE
  5
4B2
100
AcDbEntity
  8
00_COMPONENTS
100
AcDbEllipse
 62
7
  6
CONTINUOUS
 10
37.3394832391
 20
44.8616552661
 30
0.0
 11
-0.7041835734
 21
0.9188412728
 31
0.0
 40
0.4692948502
 41
0.0
 42
6.2831853072
  0
ELLIPSE
  5
4B3
100
AcDbEntity
  8
00_COMPONENTS
100
AcDbEllipse
 62
7
  6
CONTINUOUS
 10
59.5947311046
 20
121.9698309431
 30
0.0
 11
-1.0426504883
 21
2.9503985463
 31
0.0
 40
0.666536471
 41
0.908755432
 42
1.7527913139
  0
ENDSEC
  0
SECTION
  2
OBJECTS
  0
DICTIONARY
  5
C
100
AcDbDictionary
280
0
281
1
  3
ACAD_GROUP
350
D
  3
ACAD_MLINESTYLE
350
17
  3
ACAD_LAYOUT
350
1A
  3
ACAD_PLOTSETTINGS
350
19
  3
ACAD_PLOTSTYLENAME
350
E
  0
DICTIONARY
  5
D
102
{ACAD_REACTORS
330
C
102
}
100
AcDbDictionary
280
0
281
1
  0
ACDBDICTIONARYWDFLT
  5
E
102
{ACAD_REACTORS
330
C
102
}
100
AcDbDictionary
281
1
  3
Normal
350
F
100
AcDbDictionaryWithDefault
340
F
  0
DICTIONARY
  5
17
102
{ACAD_REACTORS
330
C
102
}
100
AcDbDictionary
280
0
281
1
  3
Standard
350
18
  0
DICTIONARY
  5
19
102
{ACAD_REACTORS
330
C
102
}
100
AcDbDictionary
281
1
  0
DICTIONARY
  5
1A
102
{ACAD_REACTORS
330
C
102
}
100
AcDbDictionary
281
1
  3
Model
350
4B4
  3
Layout1
350
4B5
  0
ACDBPLACEHOLDER
  5
F
102
{ACAD_REACTORS
330
E
102
}
  0
MLINESTYLE
  5
18
102
{ACAD_REACTORS
330
17
102
}
100
AcDbMlineStyle
  2
STANDARD
 70
0
  3

 62
256
 51
90.0
 52
90.0
 71
2
 49
0.5
 62
256
  6
BYLAYER
 49
-0.5
 62
256
  6
BYLAYER
  0
LAYOUT
  5
4B4
102
{ACAD_REACTORS
330
1A
102
}
100
AcDbPlotSettings
  1

  2
none_device
  4

  6

 40
0.0
 41
0.0
 42
0.0
 43
0.0
 44
210.0
 45
297.0
 46
0.0
 47
0.0
 48
0.0
 49
0.0
140
0.0
141
0.0
142
1.0
143
1.0
 70
1024
 72
1
 73
0
 74
0
  7

 75
0
147
1.0
148
0.0
149
0.0
100
AcDbLayout
  1
Model
 70
0
 71
0
 10
0.0
 20
0.0
 11
210.0
 21
297.0
 12
0.0
 22
0.0
 32
0.0
 14
0.0
 24
0.0
 34
0.0
 15
0.0
 25
0.0
 35
0.0
146
0.0
 13
0.0
 23
0.0
 33
0.0
 16
1.0
 26
0.0
 36
0.0
 17
0.0
 27
1.0
 37
0.0
 76
0
330
212
345
0
346
0
  0
LAYOUT
  5
4B5
102
{ACAD_REACTORS
330
1A
102
}
100
AcDbPlotSettings
  1

  2
none_device
  4

  6

 40
0.0
 41
0.0
 42
0.0
 43
0.0
 44
210.0
 45
297.0
 46
0.0
 47
0.0
 48
0.0
 49
0.0
140
0.0
141
0.0
142
1.0
143
1.0
 70
0
 72
1
 73
0
 74
0
  7

 75
0
147
1.0
148
0.0
149
0.0
100
AcDbLayout
  1
Layout1
 70
0
 71
1
 10
0.0
 20
0.0
 11
210.0
 21
297.0
 12
0.0
 22
0.0
 32
0.0
 14
0.0
 24
0.0
 34
0.0
 15
0.0
 25
0.0
 35
0.0
146
0.0
 13
0.0
 23
0.0
 33
0.0
 16
1.0
 26
0.0
 36
0.0
 17
0.0
 27
1.0
 37
0.0
 76
0
330
213
345
0
346
0
  0
ENDSEC
  0
EOF
