999
DXF file: C:\Users\SESA621925\Desktop\Projects\Drawing_creation_tool\Gen2D (3) (1)\CAD\G12E4F100_3D-CAD\drw0001_1.dxf
999
Pro/ENGINEER 2019471 by Parametric Technology Corporation
  0
SECTION
  2
HEADER
  9
$ACADVER
  1
AC1024
  9
$DWGCODEPAGE
  3
ANSI_1252
  9
$EXTMAX
 10
152.836285984
 20
216.1541758916
 30
0.0
  9
$EXTMIN
 10
0.0
 20
0.0
 30
0.0
  9
$LIMMIN
 10
0.0
 20
0.0
  9
$LIMMAX
 10
152.836285984
 20
216.1541758916
  9
$VIEWCTR
 10
76.418142992
 20
108.0770879458
  9
$VIEWSIZE
 40
216.1541758916
  9
$CLAYER
  8
0
  9
$LTSCALE
 40
14.090049984
  9
$CELTYPE
  6
BYLAYER
  9
$DIMSCALE
 40
1.0
  9
$DIMASZ
 40
1.819479595
  9
$DIMEXO
 40
1.0
  9
$DIMDLI
 40
9.7349436253
  9
$DIMEXE
 40
1.0
  9
$DIMCEN
 40
2.3056445428
  9
$DIMLFAC
 40
1.0
  9
$DIMBLK
  1
_FILLED
  9
$DIMALT
 70
0
  9
$DIMALTF
 40
0.0393700787
  9
$DIMTXT
 40
2.5472714331
  9
$DIMTOL
 70
1
  9
$DIMLIM
 70
0
  9
$DIMTFAC
 40
1.0
  9
$DIMTP
 40
0.01
  9
$DIMTM
 40
0.01
  9
$DIMGAP
 40
0.625
  9
$DIMDSEP
 70
46
  9
$AUNITS
 70
0
  9
$PDMODE
 70
3
  9
$PDSIZE
 40
0.3125
  9
$HANDSEED
  5
54B
  9
$TILEMODE
 70
1
  9
$MEASUREMENT
 70
1
  9
$INSUNITS
 70
4
  0
ENDSEC
  0
SECTION
  2
CLASSES
  0
CLASS
  1
ACDBDICTIONARYWDFLT
  2
AcDbDictionaryWithDefault
  3
AutoCAD 2000
 90
0
 91
1
280
0
281
0
  0
CLASS
  1
ACDBPLACEHOLDER
  2
AcDbPlaceHolder
  3
AutoCAD 2000
 90
0
 91
1
280
0
281
0
  0
CLASS
  1
LAYOUT
  2
AcDbLayout
  3
AutoCAD 2000
 90
0
 91
0
280
0
281
0
  0
ENDSEC
  0
SECTION
  2
TABLES
  0
TABLE
  2
VPORT
  5
8
100
AcDbSymbolTable
 70
2
  0
VPORT
  5
1F4
100
AcDbSymbolTableRecord
100
AcDbViewportTableRecord
  2
*ACTIVE
 70
0
 10
0.0
 20
0.0
 11
1.0
 21
1.0
 12
76.418142992
 22
108.0770879458
 13
0.0
 23
0.0
 14
1.0
 24
1.0
 15
0.0
 25
0.0
 16
0.0
 26
0.0
 36
1.0
 17
0.0
 27
0.0
 37
0.0
 40
216.1541758916
 41
0.7070707071
 42
50.0
 43
0.0
 44
0.0
 50
0.0
 51
0.0
 71
0
 72
100
 73
1
 74
1
 75
0
 76
0
 77
0
 78
0
  0
ENDTAB
  0
TABLE
  2
LTYPE
  5
5
100
AcDbSymbolTable
 70
6
  0
LTYPE
  5
14
100
AcDbSymbolTableRecord
100
AcDbLinetypeTableRecord
  2
BYBLOCK
 70
0
  3

 72
65
 73
0
 40
0.0
  0
LTYPE
  5
15
100
AcDbSymbolTableRecord
100
AcDbLinetypeTableRecord
  2
BYLAYER
 70
0
  3

 72
65
 73
0
 40
0.0
  0
LTYPE
  5
16
100
AcDbSymbolTableRecord
100
AcDbLinetypeTableRecord
  2
CONTINUOUS
 70
64
  3
Solid line
 72
65
 73
0
 40
0.0
  0
LTYPE
  5
1F5
100
AcDbSymbolTableRecord
100
AcDbLinetypeTableRecord
  2
CENTER
 70
64
  3
____ _ ____ _ ____ _ ____ _ ____ _ ____ _ ____
 72
65
 73
4
 40
0.6
 49
0.375
 74
0
 49
-0.075
 74
0
 49
0.075
 74
0
 49
-0.075
 74
0
  0
LTYPE
  5
1F6
100
AcDbSymbolTableRecord
100
AcDbLinetypeTableRecord
  2
HIDDEN
 70
64
  3
- - - - - - - - - - - - - - - - - - - -
 72
65
 73
2
 40
0.2
 49
0.1
 74
0
 49
-0.1
 74
0
  0
LTYPE
  5
1F7
100
AcDbSymbolTableRecord
100
AcDbLinetypeTableRecord
  2
PHANTOM
 70
64
  3
_____ _ _ _____ _ _ _____ _ _ _____
 72
65
 73
6
 40
0.8
 49
0.45
 74
0
 49
-0.05
 74
0
 49
0.1
 74
0
 49
-0.05
 74
0
 49
0.1
 74
0
 49
-0.05
 74
0
  0
LTYPE
  5
1F8
100
AcDbSymbolTableRecord
100
AcDbLinetypeTableRecord
  2
DOT
 70
64
  3
. . . . . . . . . . . . . . . . . . . .
 72
65
 73
2
 40
0.2
 49
0.1
 74
0
 49
-0.1
 74
0
  0
LTYPE
  5
1F9
100
AcDbSymbolTableRecord
100
AcDbLinetypeTableRecord
  2
DASHED
 70
64
  3
- - - - - - - - - - - - - - - - - - - -
 72
65
 73
2
 40
0.2
 49
0.1
 74
0
 49
-0.1
 74
0
  0
ENDTAB
  0
TABLE
  2
LAYER
  5
2
100
AcDbSymbolTable
 70
36
  0
LAYER
  5
10
100
AcDbSymbolTableRecord
100
AcDbLayerTableRecord
  2
0
 70
0
 62
7
  6
CONTINUOUS
370
-3
390
F
  0
LAYER
  5
1FA
100
AcDbSymbolTableRecord
100
AcDbLayerTableRecord
  2
DEFAULT_1
 70
0
 62
7
  6
CENTER
370
-3
390
F
  0
LAYER
  5
1FB
100
AcDbSymbolTableRecord
100
AcDbLayerTableRecord
  2
DEFAULT_2
 70
0
 62
8
  6
HIDDEN
370
-3
390
F
  0
LAYER
  5
1FC
100
AcDbSymbolTableRecord
100
AcDbLayerTableRecord
  2
DEFAULT_3
 70
0
 62
7
  6
PHANTOM
370
-3
390
F
  0
LAYER
  5
1FD
100
AcDbSymbolTableRecord
100
AcDbLayerTableRecord
  2
00_COMPONENTS
 70
0
 62
7
  6
CONTINUOUS
370
-3
390
F
  0
LAYER
  5
1FE
100
AcDbSymbolTableRecord
100
AcDbLayerTableRecord
  2
00_COMPONENTS_1
 70
0
 62
7
  6
CONTINUOUS
370
-3
390
F
  0
LAYER
  5
1FF
100
AcDbSymbolTableRecord
100
AcDbLayerTableRecord
  2
00_COMPONENTS_3
 70
0
 62
7
  6
CONTINUOUS
370
-3
390
F
  0
LAYER
  5
200
100
AcDbSymbolTableRecord
100
AcDbLayerTableRecord
  2
01_1_DEFAULT_DATUMS
 70
0
 62
7
  6
CONTINUOUS
370
-3
390
F
  0
LAYER
  5
201
100
AcDbSymbolTableRecord
100
AcDbLayerTableRecord
  2
01_PLANES
 70
0
 62
7
  6
CONTINUOUS
370
-3
390
F
  0
LAYER
  5
202
100
AcDbSymbolTableRecord
100
AcDbLayerTableRecord
  2
02_COORD_SYS
 70
0
 62
7
  6
CONTINUOUS
370
-3
390
F
  0
LAYER
  5
203
100
AcDbSymbolTableRecord
100
AcDbLayerTableRecord
  2
03_AXES
 70
0
 62
7
  6
CONTINUOUS
370
-3
390
F
  0
LAYER
  5
204
100
AcDbSymbolTableRecord
100
AcDbLayerTableRecord
  2
04_POINTS
 70
0
 62
7
  6
CONTINUOUS
370
-3
390
F
  0
LAYER
  5
205
100
AcDbSymbolTableRecord
100
AcDbLayerTableRecord
  2
05_CURVES
 70
0
 62
7
  6
CONTINUOUS
370
-3
390
F
  0
LAYER
  5
206
100
AcDbSymbolTableRecord
100
AcDbLayerTableRecord
  2
06_SURFS
 70
0
 62
7
  6
CONTINUOUS
370
-3
390
F
  0
LAYER
  5
207
100
AcDbSymbolTableRecord
100
AcDbLayerTableRecord
  2
07_COSMETICS
 70
0
 62
7
  6
CONTINUOUS
370
-3
390
F
  0
LAYER
  5
208
100
AcDbSymbolTableRecord
100
AcDbLayerTableRecord
  2
10_NOTES
 70
0
 62
7
  6
CONTINUOUS
370
-3
390
F
  0
LAYER
  5
209
100
AcDbSymbolTableRecord
100
AcDbLayerTableRecord
  2
11_NOTES_PUB
 70
0
 62
7
  6
CONTINUOUS
370
-3
390
F
  0
LAYER
  5
20A
100
AcDbSymbolTableRecord
100
AcDbLayerTableRecord
  2
13_REF_GTOL
 70
0
 62
7
  6
CONTINUOUS
370
-3
390
F
  0
LAYER
  5
20B
100
AcDbSymbolTableRecord
100
AcDbLayerTableRecord
  2
16_MISC
 70
0
 62
7
  6
CONTINUOUS
370
-3
390
F
  0
LAYER
  5
20C
100
AcDbSymbolTableRecord
100
AcDbLayerTableRecord
  2
17_NO_PRINT
 70
0
 62
7
  6
CONTINUOUS
370
-3
390
F
  0
LAYER
  5
20D
100
AcDbSymbolTableRecord
100
AcDbLayerTableRecord
  2
18_DATUM_CAMS_JOINTS
 70
0
 62
7
  6
CONTINUOUS
370
-3
390
F
  0
LAYER
  5
20E
100
AcDbSymbolTableRecord
100
AcDbLayerTableRecord
  2
19_DATUM_FUNCTIONAL
 70
0
 62
7
  6
CONTINUOUS
370
-3
390
F
  0
LAYER
  5
20F
100
AcDbSymbolTableRecord
100
AcDbLayerTableRecord
  2
20_DATUM_KINEMATIC_SCHEME
 70
0
 62
7
  6
CONTINUOUS
370
-3
390
F
  0
ENDTAB
  0
TABLE
  2
STYLE
  5
3
100
AcDbSymbolTable
 70
1
  0
STYLE
  5
11
100
AcDbSymbolTableRecord
100
AcDbTextStyleTableRecord
  2
STANDARD
 70
0
 40
0.0
 41
0.8
 50
0.0
 71
0
 42
0.2
  3
txt
  4

  0
STYLE
  5
210
100
AcDbSymbolTableRecord
100
AcDbTextStyleTableRecord
  2
TEXTSTYLE_1
 70
0
 40
0.0
 41
0.8
 50
0.0
 71
0
 42
0.2
  3
gdt
  4

  0
ENDTAB
  0
TABLE
  2
VIEW
  5
6
100
AcDbSymbolTable
 70
0
  0
ENDTAB
  0
TABLE
  2
UCS
  5
7
100
AcDbSymbolTable
 70
0
  0
ENDTAB
  0
TABLE
  2
APPID
  5
9
100
AcDbSymbolTable
 70
1
  0
APPID
  5
211
100
AcDbSymbolTableRecord
100
AcDbRegAppTableRecord
  2
ACAD
 70
0
  0
ENDTAB
  0
TABLE
  2
BLOCK_RECORD
  5
1
100
AcDbSymbolTable
 70
0
  0
BLOCK_RECORD
  5
212
100
AcDbSymbolTableRecord
100
AcDbBlockTableRecord
  2
*Model_Space
  0
BLOCK_RECORD
  5
213
100
AcDbSymbolTableRecord
100
AcDbBlockTableRecord
  2
*Paper_Space
  0
BLOCK_RECORD
  5
214
100
AcDbSymbolTableRecord
100
AcDbBlockTableRecord
  2
_FILLED
  0
ENDTAB
  0
TABLE
  2
DIMSTYLE
  5
A
100
AcDbSymbolTable
 70
1
100
AcDbDimStyleTable
 71
0
  0
DIMSTYLE
105
215
100
AcDbSymbolTableRecord
100
AcDbDimStyleTableRecord
  2
STANDARD
 70
0
  3

  4

 40
1.0
 41
1.819479595
 42
1.0
 43
0.38
 44
1.0
 45
0.0
 46
0.0
 47
0.01
 48
0.01
140
2.5472714331
141
0.09
142
0.0
143
25.4
144
1.0
145
0.0
146
1.0
147
0.625
 71
1
 72
0
 73
0
 74
0
 75
0
 76
0
 77
1
 78
8
 79
2
170
0
171
1
172
0
173
0
174
0
175
0
176
0
177
0
178
0
270
2
179
2
271
2
272
2
273
2
274
2
275
0
280
0
281
0
282
0
283
1
284
8
285
0
286
0
287
3
288
0
340
11
278
46
341
214
342
214
343
214
344
214
  0
ENDTAB
  0
ENDSEC
  0
SECTION
  2
BLOCKS
  0
BLOCK
  5
20
100
AcDbEntity
  8
0
100
AcDbBlockBegin
  2
*Model_Space
 70
0
 10
0.0
 20
0.0
 30
0.0
  3
*Model_Space
  1

  0
ENDBLK
  5
21
100
AcDbEntity
  8
0
100
AcDbBlockEnd
  0
BLOCK
  5
1C
100
AcDbEntity
  8
0
100
AcDbBlockBegin
  2
*Paper_Space
 70
0
 10
0.0
 20
0.0
 30
0.0
  3
*Paper_Space
  1

  0
ENDBLK
  5
1D
100
AcDbEntity
  8
0
100
AcDbBlockEnd
  0
BLOCK
  5
216
100
AcDbEntity
  8
0
100
AcDbBlockBegin
  2
_FILLED
 70
64
 10
0.0
 20
0.0
  3
_FILLED
  1

  0
SOLID
  5
217
100
AcDbEntity
  8
0
  6
BYBLOCK
 62
0
100
AcDbTrace
 10
0.0
 20
0.0
 11
-1.0
 21
0.25
 12
-1.0
 22
-0.25
 13
-1.0
 23
-0.25
  0
ENDBLK
  5
218
100
AcDbEntity
  8
0
  6
BYBLOCK
 62
0
100
AcDbBlockEnd
  0
ENDSEC
  0
SECTION
  2
ENTITIES
  0
LINE
  5
219
100
AcDbEntity
  8
00_COMPONENTS_1
100
AcDbLine
 62
7
  6
CONTINUOUS
 10
28.0969148557
 20
170.1048102956
 11
59.7234365348
 21
188.3642821062
  0
LINE
  5
21A
100
AcDbEntity
  8
00_COMPONENTS_1
100
AcDbLine
 62
7
  6
CONTINUOUS
 10
61.6772819729
 20
188.6758402546
 11
68.0412165078
 21
192.3500376394
  0
LINE
  5
21B
100
AcDbEntity
  8
00_COMPONENTS_1
100
AcDbLine
 62
7
  6
CONTINUOUS
 10
55.8083313111
 20
183.7360924515
 11
32.473904683
 21
170.2640353737
  0
LINE
  5
21C
100
AcDbEntity
  8
00_COMPONENTS_1
100
AcDbLine
 62
7
  6
CONTINUOUS
 10
28.5421889385
 20
167.8307148593
 11
26.7954319224
 21
166.8222302457
  0
LINE
  5
21D
100
AcDbEntity
  8
00_COMPONENTS_1
100
AcDbLine
 62
7
  6
CONTINUOUS
 10
57.3993281927
 20
182.776725633
 11
56.3386724368
 21
182.1643594022
  0
LINE
  5
21E
100
AcDbEntity
  8
00_COMPONENTS_1
100
AcDbLine
 62
7
  6
CONTINUOUS
 10
35.2316326111
 20
168.6718964311
 11
32.9052609867
 21
167.3287731649
  0
LINE
  5
21F
100
AcDbEntity
  8
00_COMPONENTS_1
100
AcDbLine
 62
7
  6
CONTINUOUS
 10
57.5081227689
 20
179.5673364123
 11
56.6595981642
 21
179.0774434277
  0
LINE
  5
220
100
AcDbEntity
  8
00_COMPONENTS_1
100
AcDbLine
 62
7
  6
CONTINUOUS
 10
54.6655204843
 20
176.7714701993
 11
55.7968866238
 21
177.4246608455
  0
LINE
  5
221
100
AcDbEntity
  8
00_COMPONENTS_1
100
AcDbLine
 62
7
  6
CONTINUOUS
 10
54.8755195441
 20
176.4077389869
 11
52.1885249627
 21
174.8564112022
  0
LINE
  5
222
100
AcDbEntity
  8
00_COMPONENTS_1
100
AcDbLine
 62
7
  6
CONTINUOUS
 10
24.5189644346
 20
156.8121717591
 11
26.2160172654
 21
157.7919598192
  0
LINE
  5
223
100
AcDbEntity
  8
00_COMPONENTS_1
100
AcDbLine
 62
7
  6
CONTINUOUS
 10
32.032490594
 20
161.1093650317
 11
35.2316326111
 21
162.9563795112
  0
LINE
  5
224
100
AcDbEntity
  8
00_COMPONENTS_1
100
AcDbLine
 62
7
  6
CONTINUOUS
 10
52.1606330797
 20
172.5110802431
 11
51.1706623576
 21
171.9395237919
  0
LINE
  5
225
100
AcDbEntity
  8
00_COMPONENTS_1
100
AcDbLine
 62
7
  6
CONTINUOUS
 10
41.7370420825
 20
164.9160814895
 11
39.410670458
 21
163.5729582233
  0
LINE
  5
226
100
AcDbEntity
  8
00_COMPONENTS_1
100
AcDbLine
 62
7
  6
CONTINUOUS
 10
55.1527794265
 20
171.7633887944
 11
54.3042477564
 21
171.2734917305
  0
LINE
  5
227
100
AcDbEntity
  8
00_COMPONENTS_1
100
AcDbLine
 62
7
  6
CONTINUOUS
 10
65.1775440012
 20
177.0613499707
 11
66.238199757
 21
177.6737162015
  0
LINE
  5
228
100
AcDbEntity
  8
00_COMPONENTS_1
100
AcDbLine
 62
7
  6
CONTINUOUS
 10
36.1210536057
 20
160.0405187182
 11
39.1612792644
 21
161.7957833431
  0
LINE
  5
229
100
AcDbEntity
  8
00_COMPONENTS_1
100
AcDbLine
 62
7
  6
CONTINUOUS
 10
43.1514460432
 20
164.0994934557
 11
52.1032036521
 21
169.2677622705
  0
LINE
  5
22A
100
AcDbEntity
  8
00_COMPONENTS_1
100
AcDbLine
 62
7
  6
CONTINUOUS
 10
55.2942184785
 20
170.7019447977
 11
54.3042477564
 21
170.1303883465
  0
LINE
  5
22B
100
AcDbEntity
  8
00_COMPONENTS_1
100
AcDbLine
 62
7
  6
CONTINUOUS
 10
56.1427501487
 20
170.2120558923
 11
55.1527794265
 21
169.6404994411
  0
LINE
  5
22C
100
AcDbEntity
  8
00_COMPONENTS_1
100
AcDbLine
 62
7
  6
CONTINUOUS
 10
44.4947700105
 20
163.3239425469
 11
67.8291966386
 21
176.7959996247
  0
LINE
  5
22D
100
AcDbEntity
  8
00_COMPONENTS_1
100
AcDbLine
 62
7
  6
CONTINUOUS
 10
76.3851642559
 20
180.1844325606
 11
82.7490987909
 21
183.8586299454
  0
LINE
  5
22E
100
AcDbEntity
  8
00_COMPONENTS_1
100
AcDbLine
 62
7
  6
CONTINUOUS
 10
44.219016589
 20
160.7969210926
 11
75.8904113074
 21
179.0823002098
  0
LINE
  5
22F
100
AcDbEntity
  8
00_COMPONENTS_1
100
AcDbLine
 62
7
  6
CONTINUOUS
 10
28.2153520094
 20
64.3052785128
 11
33.0236981404
 21
61.529241382
  0
LINE
  5
230
100
AcDbEntity
  8
00_COMPONENTS_1
100
AcDbLine
 62
7
  6
CONTINUOUS
 10
39.5291076118
 20
57.7734264405
 11
44.3374537428
 21
54.9973893097
  0
LINE
  5
231
100
AcDbEntity
  8
00_COMPONENTS_1
100
AcDbLine
 62
7
  6
CONTINUOUS
 10
45.8930951381
 20
54.0992596498
 11
50.7014412691
 21
51.323222519
  0
LINE
  5
232
100
AcDbEntity
  8
00_COMPONENTS_1
100
AcDbLine
 62
7
  6
CONTINUOUS
 10
57.2068507404
 20
47.5674075775
 11
62.0151968714
 21
44.7913704467
  0
LINE
  5
233
100
AcDbEntity
  8
00_COMPONENTS_1
100
AcDbLine
 62
7
  6
CONTINUOUS
 10
63.5708382668
 20
43.8932407868
 11
68.3791843978
 21
41.117203656
  0
LINE
  5
234
100
AcDbEntity
  8
00_COMPONENTS_1
100
AcDbLine
 62
7
  6
CONTINUOUS
 10
74.8845938691
 20
37.3613887144
 11
79.6929400001
 21
34.5853515837
  0
LINE
  5
235
100
AcDbEntity
  8
00_COMPONENTS_1
100
AcDbLine
 62
7
  6
CONTINUOUS
 10
81.2485813954
 20
33.6872219238
 11
86.0569275264
 21
30.911184793
  0
LINE
  5
236
100
AcDbEntity
  8
00_COMPONENTS_1
100
AcDbLine
 62
7
  6
CONTINUOUS
 10
92.5623369978
 20
27.1553698514
 11
97.3706831288
 21
24.3793327207
  0
LINE
  5
237
100
AcDbEntity
  8
00_COMPONENTS_1
100
AcDbLine
 62
7
  6
CONTINUOUS
 10
27.9875630129
 20
64.6790353118
 11
32.7959091439
 21
61.902998181
  0
LINE
  5
238
100
AcDbEntity
  8
00_COMPONENTS_1
100
AcDbLine
 62
7
  6
CONTINUOUS
 10
39.3013186152
 20
58.1471832394
 11
44.1096647462
 21
55.3711461087
  0
LINE
  5
239
100
AcDbEntity
  8
00_COMPONENTS_1
100
AcDbLine
 62
7
  6
CONTINUOUS
 10
45.6653061416
 20
54.4730164487
 11
50.4736522726
 21
51.696979318
  0
LINE
  5
23A
100
AcDbEntity
  8
00_COMPONENTS_1
100
AcDbLine
 62
7
  6
CONTINUOUS
 10
56.9790617439
 20
47.9411643764
 11
61.7874078749
 21
45.1651272457
  0
LINE
  5
23B
100
AcDbEntity
  8
00_COMPONENTS_1
100
AcDbLine
 62
7
  6
CONTINUOUS
 10
63.3430492702
 20
44.2669975857
 11
68.1513954012
 21
41.490960455
  0
LINE
  5
23C
100
AcDbEntity
  8
00_COMPONENTS_1
100
AcDbLine
 62
7
  6
CONTINUOUS
 10
74.6568048726
 20
37.7351455134
 11
79.4651510036
 21
34.9591083827
  0
LINE
  5
23D
100
AcDbEntity
  8
00_COMPONENTS_1
100
AcDbLine
 62
7
  6
CONTINUOUS
 10
81.0207923989
 20
34.0609787227
 11
85.8291385299
 21
31.284941592
  0
LINE
  5
23E
100
AcDbEntity
  8
00_COMPONENTS_1
100
AcDbLine
 62
7
  6
CONTINUOUS
 10
92.3345480013
 20
27.5291266504
 11
97.1428941323
 21
24.7530895197
  0
LINE
  5
23F
100
AcDbEntity
  8
00_COMPONENTS_1
100
AcDbLine
 62
7
  6
CONTINUOUS
 10
97.0130468585
 20
25.528454261
 11
96.3059371334
 21
25.9366950155
  0
LINE
  5
240
100
AcDbEntity
  8
00_COMPONENTS_1
100
AcDbLine
 62
7
  6
CONTINUOUS
 10
82.3051645755
 20
34.019861955
 11
80.8909451252
 21
34.836343464
  0
LINE
  5
241
100
AcDbEntity
  8
00_COMPONENTS_1
100
AcDbLine
 62
7
  6
CONTINUOUS
 10
79.3353037299
 20
35.734473124
 11
77.9210842796
 21
36.550954633
  0
LINE
  5
242
100
AcDbEntity
  8
00_COMPONENTS_1
100
AcDbLine
 62
7
  6
CONTINUOUS
 10
64.6274214468
 20
44.225880818
 11
63.2132019965
 21
45.0423623271
  0
LINE
  5
243
100
AcDbEntity
  8
00_COMPONENTS_1
100
AcDbLine
 62
7
  6
CONTINUOUS
 10
61.6575606012
 20
45.940491987
 11
60.2433411509
 21
46.756973496
  0
LINE
  5
244
100
AcDbEntity
  8
00_COMPONENTS_1
100
AcDbLine
 62
7
  6
CONTINUOUS
 10
46.9496783181
 20
54.431899681
 11
45.5354588678
 21
55.2483811901
  0
LINE
  5
245
100
AcDbEntity
  8
00_COMPONENTS_1
100
AcDbLine
 62
7
  6
CONTINUOUS
 10
43.9798174725
 20
56.14651085
 11
42.5655980222
 21
56.9629923591
  0
LINE
  5
246
100
AcDbEntity
  8
00_COMPONENTS_1
100
AcDbLine
 62
7
  6
CONTINUOUS
 10
28.5648254643
 20
65.0461592986
 11
27.8577157392
 21
65.4544000531
  0
LINE
  5
247
100
AcDbEntity
  8
00_COMPONENTS_1
100
AcDbLine
 62
7
  6
CONTINUOUS
 10
79.5674259201
 20
36.6849764408
 11
78.8603161949
 21
37.0932171953
  0
LINE
  5
248
100
AcDbEntity
  8
00_COMPONENTS_1
100
AcDbLine
 62
7
  6
CONTINUOUS
 10
61.8896827914
 20
46.8909953038
 11
61.1825730662
 21
47.2992360583
  0
LINE
  5
249
100
AcDbEntity
  8
00_COMPONENTS_1
100
AcDbLine
 62
7
  6
CONTINUOUS
 10
44.2119396627
 20
57.0970141668
 11
43.5048299376
 21
57.5052549213
  0
LINE
  5
24A
100
AcDbEntity
  8
00_COMPONENTS_1
100
AcDbLine
 62
7
  6
CONTINUOUS
 10
27.9875630129
 20
64.6790353117
 11
28.2154350158
 21
64.305421944
  0
LINE
  5
24B
100
AcDbEntity
  8
00_COMPONENTS_1
100
AcDbLine
 62
7
  6
CONTINUOUS
 10
33.0237811468
 20
61.5293848132
 11
32.7959091439
 21
61.902998181
  0
LINE
  5
24C
100
AcDbEntity
  8
00_COMPONENTS_1
100
AcDbLine
 62
7
  6
CONTINUOUS
 10
17.7307675974
 20
88.0627359618
 11
17.7307675974
 21
118.2733253956
  0
LINE
  5
24D
100
AcDbEntity
  8
00_COMPONENTS_1
100
AcDbLine
 62
7
  6
CONTINUOUS
 10
26.7954319224
 20
166.8222302457
 11
25.9081080046
 21
160.4991129197
  0
LINE
  5
24E
100
AcDbEntity
  8
00_COMPONENTS_1
100
AcDbLine
 62
7
  6
CONTINUOUS
 10
28.0969148557
 20
170.1048102956
 11
27.8475518863
 21
168.3278365433
  0
LINE
  5
24F
100
AcDbEntity
  8
00_COMPONENTS_1
100
AcDbLine
 62
7
  6
CONTINUOUS
 10
28.5546616115
 20
167.9195957887
 11
28.2803623452
 21
165.9649246612
  0
LINE
  5
250
100
AcDbEntity
  8
00_COMPONENTS_1
100
AcDbLine
 62
7
  6
CONTINUOUS
 10
39.8370934451
 20
151.8769576972
 11
40.0496848819
 21
152.1839643425
  0
LINE
  5
251
100
AcDbEntity
  8
00_COMPONENTS_1
100
AcDbLine
 62
7
  6
CONTINUOUS
 10
75.8904113074
 20
177.4492953755
 11
43.9696536197
 21
159.0199473402
  0
LINE
  5
252
100
AcDbEntity
  8
00_COMPONENTS_1
100
AcDbLine
 62
7
  6
CONTINUOUS
 10
45.7746579843
 20
159.8987914326
 11
77.4456249275
 21
178.1839235752
  0
LINE
  5
253
100
AcDbEntity
  8
00_COMPONENTS_1
100
AcDbLine
 62
7
  6
CONTINUOUS
 10
79.3550251016
 20
178.4698213916
 11
85.7189596365
 21
182.1440187764
  0
LINE
  5
254
100
AcDbEntity
  8
00_COMPONENTS_1
100
AcDbLine
 62
7
  6
CONTINUOUS
 10
45.6499696052
 20
159.010255426
 11
44.2119396627
 21
158.1800134075
  0
LINE
  5
255
100
AcDbEntity
  8
00_COMPONENTS_1
100
AcDbLine
 62
7
  6
CONTINUOUS
 10
73.4860744398
 20
173.5300735885
 11
50.1516478117
 21
160.0580165107
  0
LINE
  5
256
100
AcDbEntity
  8
00_COMPONENTS_1
100
AcDbLine
 62
7
  6
CONTINUOUS
 10
41.6826637768
 20
153.617020716
 11
43.5048299376
 21
154.6690425598
  0
LINE
  5
257
100
AcDbEntity
  8
00_COMPONENTS_1
100
AcDbLine
 62
7
  6
CONTINUOUS
 10
75.0770713213
 20
172.57070677
 11
74.0164155655
 21
171.9583405392
  0
LINE
  5
258
100
AcDbEntity
  8
00_COMPONENTS_1
100
AcDbLine
 62
7
  6
CONTINUOUS
 10
52.9093757398
 20
158.4658775681
 11
50.5830041153
 21
157.1227543019
  0
LINE
  5
259
100
AcDbEntity
  8
00_COMPONENTS_1
100
AcDbLine
 62
7
  6
CONTINUOUS
 10
89.3849728317
 20
46.287552853
 11
88.8681426817
 21
46.4448672487
  0
LINE
  5
25A
100
AcDbEntity
  8
00_COMPONENTS_1
100
AcDbLine
 62
7
  6
CONTINUOUS
 10
28.290526198
 20
66.6840988063
 11
26.9823732065
 21
67.4393442022
  0
LINE
  5
25B
100
AcDbEntity
  8
00_COMPONENTS_1
100
AcDbLine
 62
7
  6
CONTINUOUS
 10
96.0316378671
 20
27.5746345233
 11
97.3397908587
 21
26.8193891274
  0
LINE
  5
25C
100
AcDbEntity
  8
00_COMPONENTS_1
100
AcDbLine
 62
7
  6
CONTINUOUS
 10
44.2119396627
 20
58.8933194845
 11
46.4156016499
 21
57.6210634253
  0
LINE
  5
25D
100
AcDbEntity
  8
00_COMPONENTS_1
100
AcDbLine
 62
7
  6
CONTINUOUS
 10
61.8896827914
 20
48.6873006215
 11
64.0933447786
 21
47.4150445622
  0
LINE
  5
25E
100
AcDbEntity
  8
00_COMPONENTS_1
100
AcDbLine
 62
7
  6
CONTINUOUS
 10
79.5674259201
 20
38.4812817585
 11
81.7710879073
 21
37.2090256992
  0
LINE
  5
25F
100
AcDbEntity
  8
00_COMPONENTS_1
100
AcDbLine
 62
7
  6
CONTINUOUS
 10
94.8763820868
 20
33.8887730376
 11
24.5189644346
 21
74.5087281124
  0
LINE
  5
260
100
AcDbEntity
  8
00_COMPONENTS_1
100
AcDbLine
 62
7
  6
CONTINUOUS
 10
102.4777498088
 20
29.5816513265
 11
102.3009723775
 21
29.6837115151
  0
LINE
  5
261
100
AcDbEntity
  8
00_COMPONENTS_1
100
AcDbLine
 62
7
  6
CONTINUOUS
 10
39.3013186153
 20
58.1471832394
 11
39.5291906182
 21
57.7735698716
  0
LINE
  5
262
100
AcDbEntity
  8
00_COMPONENTS_1
100
AcDbLine
 62
7
  6
CONTINUOUS
 10
44.3375367492
 20
54.9975327409
 11
44.1096647463
 21
55.3711461087
  0
LINE
  5
263
100
AcDbEntity
  8
00_COMPONENTS_1
100
AcDbLine
 62
7
  6
CONTINUOUS
 10
45.6653061416
 20
54.4730164487
 11
45.8931781445
 21
54.0994030809
  0
LINE
  5
264
100
AcDbEntity
  8
00_COMPONENTS_1
100
AcDbLine
 62
7
  6
CONTINUOUS
 10
25.9354427075
 20
73.6909425011
 11
26.9823732065
 21
67.4393442022
  0
LINE
  5
265
100
AcDbEntity
  8
00_COMPONENTS_1
100
AcDbLine
 62
7
  6
CONTINUOUS
 10
27.8577157392
 20
65.4544000531
 11
27.9875630129
 21
64.6790353117
  0
LINE
  5
266
100
AcDbEntity
  8
00_COMPONENTS_1
100
AcDbLine
 62
7
  6
CONTINUOUS
 10
28.2905261981
 20
66.6840988063
 11
28.5648254643
 21
65.0461592986
  0
LINE
  5
267
100
AcDbEntity
  8
00_COMPONENTS_1
100
AcDbLine
 62
7
  6
CONTINUOUS
 10
24.5189644346
 20
156.8121717591
 11
24.5189644346
 21
123.5453113026
  0
LINE
  5
268
100
AcDbEntity
  8
00_COMPONENTS_1
100
AcDbLine
 62
7
  6
CONTINUOUS
 10
24.5189644346
 20
80.8776476834
 11
24.5189644346
 21
74.5087281124
  0
LINE
  5
269
100
AcDbEntity
  8
00_COMPONENTS_1
100
AcDbLine
 62
7
  6
CONTINUOUS
 10
25.8978154452
 20
157.9756695696
 11
25.8978154452
 21
160.3543651322
  0
LINE
  5
26A
100
AcDbEntity
  8
00_COMPONENTS_1
100
AcDbLine
 62
7
  6
CONTINUOUS
 10
32.032490594
 20
161.1093650317
 11
32.9052609867
 21
167.3287731649
  0
LINE
  5
26B
100
AcDbEntity
  8
00_COMPONENTS_1
100
AcDbLine
 62
7
  6
CONTINUOUS
 10
75.1858658975
 20
169.3613175493
 11
74.3373412929
 21
168.8714245646
  0
LINE
  5
26C
100
AcDbEntity
  8
00_COMPONENTS_1
100
AcDbLine
 62
7
  6
CONTINUOUS
 10
72.3432636129
 20
166.5654513363
 11
73.4746297525
 21
167.2186419825
  0
LINE
  5
26D
100
AcDbEntity
  8
00_COMPONENTS_1
100
AcDbLine
 62
7
  6
CONTINUOUS
 10
72.5532626728
 20
166.2017201239
 11
69.8662680914
 21
164.6503923392
  0
LINE
  5
26E
100
AcDbEntity
  8
00_COMPONENTS_1
100
AcDbLine
 62
7
  6
CONTINUOUS
 10
49.7102337227
 20
150.9033461687
 11
52.9093757398
 21
152.7503606482
  0
LINE
  5
26F
100
AcDbEntity
  8
00_COMPONENTS_1
100
AcDbLine
 62
7
  6
CONTINUOUS
 10
69.8383762084
 20
162.3050613801
 11
68.8484054863
 21
161.7335049289
  0
LINE
  5
270
100
AcDbEntity
  8
00_COMPONENTS_1
100
AcDbLine
 62
7
  6
CONTINUOUS
 10
59.4147852111
 20
154.7100626265
 11
57.0884135867
 21
153.3669393603
  0
LINE
  5
271
100
AcDbEntity
  8
00_COMPONENTS_1
100
AcDbLine
 62
7
  6
CONTINUOUS
 10
72.8305225552
 20
161.5573699314
 11
71.981990885
 21
161.0674728675
  0
LINE
  5
272
100
AcDbEntity
  8
00_COMPONENTS_1
100
AcDbLine
 62
7
  6
CONTINUOUS
 10
82.8552871299
 20
166.8553311077
 11
83.9159428857
 21
167.4676973385
  0
LINE
  5
273
100
AcDbEntity
  8
00_COMPONENTS_1
100
AcDbLine
 62
7
  6
CONTINUOUS
 10
53.7987967344
 20
149.8344998552
 11
56.8390223931
 21
151.5897644801
  0
LINE
  5
274
100
AcDbEntity
  8
00_COMPONENTS_1
100
AcDbLine
 62
7
  6
CONTINUOUS
 10
60.8291891719
 20
153.8934745927
 11
69.7809467807
 21
159.0617434075
  0
LINE
  5
275
100
AcDbEntity
  8
00_COMPONENTS_1
100
AcDbLine
 62
7
  6
CONTINUOUS
 10
72.9719616072
 20
160.4959259347
 11
71.981990885
 21
159.9243694835
  0
LINE
  5
276
100
AcDbEntity
  8
00_COMPONENTS_1
100
AcDbLine
 62
7
  6
CONTINUOUS
 10
45.1506109684
 20
149.5106665368
 11
45.0423568269
 21
149.4521991259
  0
LINE
  5
277
100
AcDbEntity
  8
00_COMPONENTS
100
AcDbLine
 62
7
  6
CONTINUOUS
 10
48.6052573885
 20
65.1724499128
 11
57.5037368885
 21
60.0350266022
  0
LINE
  5
278
100
AcDbEntity
  8
00_COMPONENTS_1
100
AcDbLine
 62
7
  6
CONTINUOUS
 10
102.4777498088
 20
35.2624157935
 11
102.3009723775
 21
35.3644759821
  0
LINE
  5
279
100
AcDbEntity
  8
00_COMPONENTS_1
100
AcDbLine
 62
7
  6
CONTINUOUS
 10
85.2597463489
 20
45.8097342366
 11
59.3852330594
 21
60.7480534995
  0
LINE
  5
27A
100
AcDbEntity
  8
00_COMPONENTS_1
100
AcDbLine
 62
7
  6
CONTINUOUS
 10
48.3323340523
 20
67.1293033534
 11
20.559206498
 21
83.1637632752
  0
LINE
  5
27B
100
AcDbEntity
  8
00_COMPONENTS_1
100
AcDbLine
 62
7
  6
CONTINUOUS
 10
101.9220365732
 20
36.7787034337
 11
102.0988140045
 21
36.6766432451
  0
LINE
  5
27C
100
AcDbEntity
  8
00_COMPONENTS
100
AcDbLine
 62
7
  6
CONTINUOUS
 10
49.1157748507
 20
68.4054498061
 11
58.0142543503
 21
63.2680264951
  0
LINE
  5
27D
100
AcDbEntity
  8
00_COMPONENTS_1
100
AcDbLine
 62
7
  6
CONTINUOUS
 10
98.9775843426
 20
40.9677043657
 11
99.1543617739
 21
40.865644177
  0
LINE
  5
27E
100
AcDbEntity
  8
00_COMPONENTS_1
100
AcDbLine
 62
7
  6
CONTINUOUS
 10
68.8194452392
 20
58.4040409643
 11
66.2738502287
 21
59.8737076806
  0
LINE
  5
27F
100
AcDbEntity
  8
00_COMPONENTS_1
100
AcDbLine
 62
7
  6
CONTINUOUS
 10
50.7015242755
 20
51.3233659502
 11
50.4736522726
 21
51.696979318
  0
LINE
  5
280
100
AcDbEntity
  8
00_COMPONENTS_1
100
AcDbLine
 62
7
  6
CONTINUOUS
 10
56.9790617439
 20
47.9411643764
 11
57.2069337469
 21
47.5675510086
  0
LINE
  5
281
100
AcDbEntity
  8
00_COMPONENTS_1
100
AcDbLine
 62
7
  6
CONTINUOUS
 10
32.7959091439
 20
61.902998181
 11
32.0426544468
 21
66.4009527128
  0
LINE
  5
282
100
AcDbEntity
  8
00_COMPONENTS_1
100
AcDbLine
 62
7
  6
CONTINUOUS
 10
35.2316326111
 20
162.9563795112
 11
35.2316326111
 21
168.6718964311
  0
LINE
  5
283
100
AcDbEntity
  8
00_COMPONENTS_1
100
AcDbLine
 62
7
  6
CONTINUOUS
 10
39.410670458
 20
163.5729582233
 11
38.5379000654
 21
157.3535500901
  0
LINE
  5
284
100
AcDbEntity
  8
00_COMPONENTS_1
100
AcDbLine
 62
7
  6
CONTINUOUS
 10
41.6826637768
 20
153.617020716
 11
42.5554341694
 21
159.8364288492
  0
LINE
  5
285
100
AcDbEntity
  8
00_COMPONENTS_1
100
AcDbLine
 62
7
  6
CONTINUOUS
 10
43.9696536197
 20
159.0199473402
 11
44.219016589
 21
160.7969210926
  0
LINE
  5
286
100
AcDbEntity
  8
00_COMPONENTS_1
100
AcDbLine
 62
7
  6
CONTINUOUS
 10
73.8204932773
 20
160.0060370293
 11
72.8305225552
 21
159.4344805781
  0
LINE
  5
287
100
AcDbEntity
  8
00_COMPONENTS_1
100
AcDbLine
 62
7
  6
CONTINUOUS
 10
62.1725131392
 20
153.1179236839
 11
85.5069397673
 21
166.5899807616
  0
LINE
  5
288
100
AcDbEntity
  8
00_COMPONENTS_1
100
AcDbLine
 62
7
  6
CONTINUOUS
 10
94.0629073846
 20
169.9784136975
 11
100.4268419195
 21
173.6526110824
  0
LINE
  5
289
100
AcDbEntity
  8
00_COMPONENTS_1
100
AcDbLine
 62
7
  6
CONTINUOUS
 10
61.8967597177
 20
150.5909022295
 11
93.568154436
 21
168.8762813468
  0
LINE
  5
28A
100
AcDbEntity
  8
00_COMPONENTS_1
100
AcDbLine
 62
7
  6
CONTINUOUS
 10
93.568154436
 20
167.2432765125
 11
61.6473967484
 21
148.8139284772
  0
LINE
  5
28B
100
AcDbEntity
  8
00_COMPONENTS_1
100
AcDbLine
 62
7
  6
CONTINUOUS
 10
63.452401113
 20
149.6927725696
 11
95.1233680562
 21
167.9779047122
  0
LINE
  5
28C
100
AcDbEntity
  8
00_COMPONENTS_1
100
AcDbLine
 62
7
  6
CONTINUOUS
 10
97.0327682302
 20
168.2638025286
 11
103.3967027652
 21
171.9379999134
  0
LINE
  5
28D
100
AcDbEntity
  8
00_COMPONENTS_1
100
AcDbLine
 62
7
  6
CONTINUOUS
 10
63.3277127339
 20
148.804236563
 11
61.8896827914
 21
147.9739945445
  0
LINE
  5
28E
100
AcDbEntity
  8
00_COMPONENTS_1
100
AcDbLine
 62
7
  6
CONTINUOUS
 10
91.1638175684
 20
163.3240547255
 11
67.8293909404
 21
149.8519976477
  0
LINE
  5
28F
100
AcDbEntity
  8
00_COMPONENTS_1
100
AcDbLine
 62
7
  6
CONTINUOUS
 10
69.0315781568
 20
58.8406750536
 11
66.3408579203
 21
60.3941279627
  0
LINE
  5
290
100
AcDbEntity
  8
00_COMPONENTS_1
100
AcDbLine
 62
7
  6
CONTINUOUS
 10
68.9237333363
 20
59.6971728375
 11
66.0952944357
 21
61.3301358556
  0
LINE
  5
291
100
AcDbEntity
  8
00_COMPONENTS_1
100
AcDbLine
 62
7
  6
CONTINUOUS
 10
68.9274513197
 20
60.116937675
 11
66.2556202579
 21
61.6594851607
  0
LINE
  5
292
100
AcDbEntity
  8
00_COMPONENTS_1
100
AcDbLine
 62
7
  6
CONTINUOUS
 10
66.2738502287
 20
61.6863430466
 11
68.8194452392
 21
60.2166763303
  0
LINE
  5
293
100
AcDbEntity
  8
00_COMPONENTS_1
100
AcDbLine
 62
7
  6
CONTINUOUS
 10
66.309205715
 20
62.1068423141
 11
63.1930066319
 21
63.9059399925
  0
LINE
  5
294
100
AcDbEntity
  8
00_COMPONENTS_1
100
AcDbLine
 62
7
  6
CONTINUOUS
 10
97.2098247496
 20
47.5651652441
 11
97.3866021808
 21
47.4631050554
  0
LINE
  5
295
100
AcDbEntity
  8
00_COMPONENTS_1
100
AcDbLine
 62
7
  6
CONTINUOUS
 10
66.309205715
 20
67.8598910338
 11
66.0131450712
 21
68.0308178593
  0
LINE
  5
296
100
AcDbEntity
  8
00_COMPONENTS_1
100
AcDbLine
 62
7
  6
CONTINUOUS
 10
62.0152798779
 20
44.7915138779
 11
61.7874078749
 21
45.1651272457
  0
LINE
  5
297
100
AcDbEntity
  8
00_COMPONENTS_1
100
AcDbLine
 62
7
  6
CONTINUOUS
 10
63.3430492703
 20
44.2669975857
 11
63.5709212732
 21
43.8933842179
  0
LINE
  5
298
100
AcDbEntity
  8
00_COMPONENTS_1
100
AcDbLine
 62
7
  6
CONTINUOUS
 10
68.3792674042
 20
41.1173470872
 11
68.1513954012
 21
41.490960455
  0
LINE
  5
299
100
AcDbEntity
  8
00_COMPONENTS_1
100
AcDbLine
 62
7
  6
CONTINUOUS
 10
38.5480639182
 20
62.6451377712
 11
39.3013186153
 21
58.1471832394
  0
LINE
  5
29A
100
AcDbEntity
  8
00_COMPONENTS_1
100
AcDbLine
 62
7
  6
CONTINUOUS
 10
42.5655980222
 20
56.962992359
 11
41.6928276296
 21
62.1746180656
  0
LINE
  5
29B
100
AcDbEntity
  8
00_COMPONENTS_1
100
AcDbLine
 62
7
  6
CONTINUOUS
 10
44.1096647463
 20
55.3711461087
 11
43.9798174725
 21
56.14651085
  0
LINE
  5
29C
100
AcDbEntity
  8
00_COMPONENTS_1
100
AcDbLine
 62
7
  6
CONTINUOUS
 10
45.5354588678
 20
55.2483811901
 11
45.6653061416
 21
54.4730164487
  0
LINE
  5
29D
100
AcDbEntity
  8
00_COMPONENTS_1
100
AcDbLine
 62
7
  6
CONTINUOUS
 10
41.1501835803
 20
130.2842493783
 11
41.1501835803
 21
131.1007517954
  0
LINE
  5
29E
100
AcDbEntity
  8
00_COMPONENTS_1
100
AcDbLine
 62
7
  6
CONTINUOUS
 10
41.8572933055
 20
129.0595062066
 11
41.8572933055
 21
129.8760086238
  0
LINE
  5
29F
100
AcDbEntity
  8
00_COMPONENTS_1
100
AcDbLine
 62
7
  6
CONTINUOUS
 10
41.8572933055
 20
130.6925110409
 11
41.8572933055
 21
131.509013458
  0
LINE
  5
2A0
100
AcDbEntity
  8
00_COMPONENTS_1
100
AcDbLine
 62
7
  6
CONTINUOUS
 10
42.5644030306
 20
131.1007727035
 11
42.5644030306
 21
128.6512654521
  0
LINE
  5
2A1
100
AcDbEntity
  8
00_COMPONENTS_1
100
AcDbLine
 62
7
  6
CONTINUOUS
 10
43.2715127558
 20
129.8760295319
 11
43.2715127558
 21
129.0595271147
  0
LINE
  5
2A2
100
AcDbEntity
  8
00_COMPONENTS_1
100
AcDbLine
 62
7
  6
CONTINUOUS
 10
43.5048299376
 20
57.5052549213
 11
43.5048299376
 21
63.1923212112
  0
LINE
  5
2A3
100
AcDbEntity
  8
00_COMPONENTS_1
100
AcDbLine
 62
7
  6
CONTINUOUS
 10
43.5048299376
 20
154.6690425598
 11
43.5048299376
 21
159.2883073471
  0
LINE
  5
2A4
100
AcDbEntity
  8
00_COMPONENTS_1
100
AcDbLine
 62
7
  6
CONTINUOUS
 10
45.7746579843
 20
159.8987914326
 11
45.525295015
 21
158.1218176803
  0
LINE
  5
2A5
100
AcDbEntity
  8
00_COMPONENTS_1
100
AcDbLine
 62
7
  6
CONTINUOUS
 10
46.9395144653
 20
157.3053361712
 11
46.0667440727
 21
151.085928038
  0
LINE
  5
2A6
100
AcDbEntity
  8
00_COMPONENTS_1
100
AcDbLine
 62
7
  6
CONTINUOUS
 10
49.7102337227
 20
150.9033461687
 11
50.5830041153
 21
157.1227543019
  0
LINE
  5
2A7
100
AcDbEntity
  8
00_COMPONENTS_1
100
AcDbLine
 62
7
  6
CONTINUOUS
 10
57.5397783582
 20
141.6277378073
 11
57.7638861757
 21
141.9568968243
  0
LINE
  5
2A8
100
AcDbEntity
  8
00_COMPONENTS_1
100
AcDbLine
 62
7
  6
CONTINUOUS
 10
25.347412289
 20
124.0236130393
 11
18.5592154517
 21
120.1044691621
  0
LINE
  5
2A9
100
AcDbEntity
  8
00_COMPONENTS_1
100
AcDbLine
 62
7
  6
CONTINUOUS
 10
59.3604069054
 20
143.411001853
 11
61.1825730662
 21
144.4630236968
  0
LINE
  5
2AA
100
AcDbEntity
  8
00_COMPONENTS_1
100
AcDbLine
 62
7
  6
CONTINUOUS
 10
92.75481445
 20
162.364687907
 11
91.6941586942
 21
161.7523216762
  0
LINE
  5
2AB
100
AcDbEntity
  8
00_COMPONENTS_1
100
AcDbLine
 62
7
  6
CONTINUOUS
 10
41.6226249103
 20
132.7427475456
 11
40.910853988
 21
132.3318088651
  0
LINE
  5
2AC
100
AcDbEntity
  8
00_COMPONENTS_1
100
AcDbLine
 62
7
  6
CONTINUOUS
 10
27.3474033352
 20
123.8255159232
 11
20.559206498
 21
119.906372046
  0
LINE
  5
2AD
100
AcDbEntity
  8
00_COMPONENTS_1
100
AcDbLine
 62
7
  6
CONTINUOUS
 10
70.5871188685
 20
148.2598587051
 11
68.260747244
 21
146.9167354389
  0
LINE
  5
2AE
100
AcDbEntity
  8
00_COMPONENTS_1
100
AcDbLine
 62
7
  6
CONTINUOUS
 10
42.5643971427
 20
131.1007551948
 11
41.1501835803
 21
130.2842493783
  0
LINE
  5
2AF
100
AcDbEntity
  8
00_COMPONENTS_1
100
AcDbLine
 62
7
  6
CONTINUOUS
 10
42.5643971427
 20
130.2842527776
 11
41.8572933055
 21
129.8760086238
  0
LINE
  5
2B0
100
AcDbEntity
  8
00_COMPONENTS_1
100
AcDbLine
 62
7
  6
CONTINUOUS
 10
92.8636090262
 20
159.1552986863
 11
92.0150844216
 21
158.6654057016
  0
LINE
  5
2B1
100
AcDbEntity
  8
00_COMPONENTS_1
100
AcDbLine
 62
7
  6
CONTINUOUS
 10
43.2715068678
 20
129.8760120231
 11
41.8572933055
 21
129.0595062066
  0
LINE
  5
2B2
100
AcDbEntity
  8
00_COMPONENTS_1
100
AcDbLine
 62
7
  6
CONTINUOUS
 10
90.0210067416
 20
156.3594324733
 11
91.1523728812
 21
157.0126231195
  0
LINE
  5
2B3
100
AcDbEntity
  8
00_COMPONENTS_1
100
AcDbLine
 62
7
  6
CONTINUOUS
 10
90.2310058015
 20
155.9957012609
 11
87.5440112201
 21
154.4443734762
  0
LINE
  5
2B4
100
AcDbEntity
  8
00_COMPONENTS_1
100
AcDbLine
 62
7
  6
CONTINUOUS
 10
44.2255170956
 20
128.2410852399
 11
43.5108423481
 21
127.8284700451
  0
LINE
  5
2B5
100
AcDbEntity
  8
00_COMPONENTS_1
100
AcDbLine
 62
7
  6
CONTINUOUS
 10
62.8283540971
 20
139.3046476738
 11
62.7200999555
 21
139.2461802629
  0
LINE
  5
2B6
100
AcDbEntity
  8
00_COMPONENTS
100
AcDbLine
 62
7
  6
CONTINUOUS
 10
64.5338698041
 20
71.3181812833
 11
64.9803410607
 21
71.3257253339
  0
LINE
  5
2B7
100
AcDbEntity
  8
00_COMPONENTS
100
AcDbLine
 62
7
  6
CONTINUOUS
 10
56.906534307
 20
75.1068743277
 11
55.9928431828
 21
75.6343822104
  0
LINE
  5
2B8
100
AcDbEntity
  8
00_COMPONENTS
100
AcDbLine
 62
7
  6
CONTINUOUS
 10
63.9776315585
 20
71.0244667825
 11
64.8913226827
 21
70.4969588998
  0
LINE
  5
2B9
100
AcDbEntity
  8
00_COMPONENTS
100
AcDbLine
 62
7
  6
CONTINUOUS
 10
64.0252529609
 20
71.0745247261
 11
56.9541557094
 21
75.1569322713
  0
LINE
  5
2BA
100
AcDbEntity
  8
00_COMPONENTS
100
AcDbLine
 62
7
  6
CONTINUOUS
 10
57.4627725526
 20
75.4005888285
 11
64.5338698041
 21
71.3181812833
  0
LINE
  5
2BB
100
AcDbEntity
  8
00_COMPONENTS
100
AcDbLine
 62
7
  6
CONTINUOUS
 10
64.9803410607
 20
71.3257253339
 11
57.9092438092
 21
75.4081328791
  0
LINE
  5
2BC
100
AcDbEntity
  8
00_COMPONENTS
100
AcDbLine
 62
7
  6
CONTINUOUS
 10
58.4315417015
 20
75.6644381096
 11
65.502638953
 21
71.5820305643
  0
LINE
  5
2BD
100
AcDbEntity
  8
00_COMPONENTS
100
AcDbLine
 62
7
  6
CONTINUOUS
 10
58.8303496928
 20
77.4220479327
 11
59.744040817
 21
76.89454005
  0
LINE
  5
2BE
100
AcDbEntity
  8
00_COMPONENTS
100
AcDbLine
 62
7
  6
CONTINUOUS
 10
66.309205715
 20
75.1966891842
 11
60.2119161971
 21
78.7168812913
  0
LINE
  5
2BF
100
AcDbEntity
  8
00_COMPONENTS_1
100
AcDbLine
 62
7
  6
CONTINUOUS
 10
91.0573406942
 20
45.1820384721
 11
90.3132785903
 21
45.8139495189
  0
LINE
  5
2C0
100
AcDbEntity
  8
00_COMPONENTS_1
100
AcDbLine
 62
7
  6
CONTINUOUS
 10
74.6568048726
 20
37.7351455134
 11
74.8846768755
 21
37.3615321456
  0
LINE
  5
2C1
100
AcDbEntity
  8
00_COMPONENTS_1
100
AcDbLine
 62
7
  6
CONTINUOUS
 10
79.6930230065
 20
34.5854950149
 11
79.4651510036
 21
34.9591083827
  0
LINE
  5
2C2
100
AcDbEntity
  8
00_COMPONENTS_1
100
AcDbLine
 62
7
  6
CONTINUOUS
 10
81.0207923989
 20
34.0609787227
 11
81.2486644019
 21
33.6873653549
  0
LINE
  5
2C3
100
AcDbEntity
  8
00_COMPONENTS_1
100
AcDbLine
 62
7
  6
CONTINUOUS
 10
46.0769079255
 20
59.6435253876
 11
46.9496783181
 21
54.431899681
  0
LINE
  5
2C4
100
AcDbEntity
  8
00_COMPONENTS_1
100
AcDbLine
 62
7
  6
CONTINUOUS
 10
50.4736522726
 20
51.696979318
 11
49.7203975755
 21
56.1949338498
  0
LINE
  5
2C5
100
AcDbEntity
  8
00_COMPONENTS_1
100
AcDbLine
 62
7
  6
CONTINUOUS
 10
44.2119396627
 20
58.8933194845
 11
44.2119396627
 21
57.0970141668
  0
LINE
  5
2C6
100
AcDbEntity
  8
00_COMPONENTS_1
100
AcDbLine
 62
7
  6
CONTINUOUS
 10
44.2119396627
 20
158.1800134075
 11
44.2119396627
 21
159.1598304174
  0
LINE
  5
2C7
100
AcDbEntity
  8
00_COMPONENTS_1
100
AcDbLine
 62
7
  6
CONTINUOUS
 10
76.3851642559
 20
180.1844325606
 11
75.8904113074
 21
179.0823002098
  0
LINE
  5
2C8
100
AcDbEntity
  8
00_COMPONENTS_1
100
AcDbLine
 62
7
  6
CONTINUOUS
 10
75.8904113074
 20
177.4492953755
 11
76.3851642559
 21
178.5514277263
  0
LINE
  5
2C9
100
AcDbEntity
  8
00_COMPONENTS_1
100
AcDbLine
 62
7
  6
CONTINUOUS
 10
67.3879768514
 20
140.6973273056
 11
70.5871188685
 21
142.5443417852
  0
LINE
  5
2CA
100
AcDbEntity
  8
00_COMPONENTS_1
100
AcDbLine
 62
7
  6
CONTINUOUS
 10
87.5161193371
 20
152.0990425171
 11
86.5261486149
 21
151.5274860659
  0
LINE
  5
2CB
100
AcDbEntity
  8
00_COMPONENTS_1
100
AcDbLine
 62
7
  6
CONTINUOUS
 10
77.0925283398
 20
144.5040437635
 11
74.7661567154
 21
143.1609204973
  0
LINE
  5
2CC
100
AcDbEntity
  8
00_COMPONENTS_1
100
AcDbLine
 62
7
  6
CONTINUOUS
 10
90.5082656839
 20
151.3513510684
 11
89.6597340137
 21
150.8614540045
  0
LINE
  5
2CD
100
AcDbEntity
  8
00_COMPONENTS_1
100
AcDbLine
 62
7
  6
CONTINUOUS
 10
100.5330302585
 20
156.6493122446
 11
101.5936860144
 21
157.2616784755
  0
LINE
  5
2CE
100
AcDbEntity
  8
00_COMPONENTS_1
100
AcDbLine
 62
7
  6
CONTINUOUS
 10
71.4765398631
 20
139.6284809922
 11
74.5167655218
 21
141.3837456171
  0
LINE
  5
2CF
100
AcDbEntity
  8
00_COMPONENTS_1
100
AcDbLine
 62
7
  6
CONTINUOUS
 10
78.5069323006
 20
143.6874557297
 11
87.4586899094
 21
148.8557245445
  0
LINE
  5
2D0
100
AcDbEntity
  8
00_COMPONENTS_1
100
AcDbLine
 62
7
  6
CONTINUOUS
 10
90.6497047358
 20
150.2899070717
 11
89.6597340137
 21
149.7183506205
  0
LINE
  5
2D1
100
AcDbEntity
  8
00_COMPONENTS_1
100
AcDbLine
 62
7
  6
CONTINUOUS
 10
91.498236406
 20
149.8000181663
 11
90.5082656839
 21
149.2284617151
  0
LINE
  5
2D2
100
AcDbEntity
  8
00_COMPONENTS_1
100
AcDbLine
 62
7
  6
CONTINUOUS
 10
79.8502562679
 20
142.9119048209
 11
103.1846828959
 21
156.3839618986
  0
LINE
  5
2D3
100
AcDbEntity
  8
00_COMPONENTS_1
100
AcDbLine
 62
7
  6
CONTINUOUS
 10
111.7406505133
 20
159.7723948345
 11
118.1045850482
 21
163.4465922194
  0
LINE
  5
2D4
100
AcDbEntity
  8
00_COMPONENTS_1
100
AcDbLine
 62
7
  6
CONTINUOUS
 10
79.5745028464
 20
140.3848833665
 11
111.2458975647
 21
158.6702624838
  0
LINE
  5
2D5
100
AcDbEntity
  8
00_COMPONENTS
100
AcDbLine
 62
7
  6
CONTINUOUS
 10
57.9092438092
 20
75.4081328791
 11
57.4627725526
 21
75.4005888285
  0
LINE
  5
2D6
100
AcDbEntity
  8
00_COMPONENTS
100
AcDbLine
 62
7
  6
CONTINUOUS
 10
66.309205715
 20
76.6209776276
 11
60.7038172083
 21
79.8571769783
  0
LINE
  5
2D7
100
AcDbEntity
  8
00_COMPONENTS_1
100
AcDbLine
 62
7
  6
CONTINUOUS
 10
86.0570105329
 20
30.9113282242
 11
85.8291385299
 21
31.284941592
  0
LINE
  5
2D8
100
AcDbEntity
  8
00_COMPONENTS_1
100
AcDbLine
 62
7
  6
CONTINUOUS
 10
92.3345480013
 20
27.5291266504
 11
92.5624200042
 21
27.1555132826
  0
LINE
  5
2D9
100
AcDbEntity
  8
00_COMPONENTS_1
100
AcDbLine
 62
7
  6
CONTINUOUS
 10
97.3707661352
 20
24.3794761519
 11
97.1428941323
 21
24.7530895197
  0
LINE
  5
2DA
100
AcDbEntity
  8
00_COMPONENTS_1
100
AcDbLine
 62
7
  6
CONTINUOUS
 10
56.2258070469
 20
52.4391189082
 11
56.9790617439
 21
47.9411643764
  0
LINE
  5
2DB
100
AcDbEntity
  8
00_COMPONENTS_1
100
AcDbLine
 62
7
  6
CONTINUOUS
 10
60.2433411509
 20
46.756973496
 11
59.3705707583
 21
51.9685992026
  0
LINE
  5
2DC
100
AcDbEntity
  8
00_COMPONENTS_1
100
AcDbLine
 62
7
  6
CONTINUOUS
 10
52.9093757398
 20
152.7503606482
 11
52.9093757398
 21
158.4658775681
  0
LINE
  5
2DD
100
AcDbEntity
  8
00_COMPONENTS_1
100
AcDbLine
 62
7
  6
CONTINUOUS
 10
54.3042477564
 20
168.9874133577
 11
54.3042477564
 21
170.1303883465
  0
LINE
  5
2DE
100
AcDbEntity
  8
00_COMPONENTS_1
100
AcDbLine
 62
7
  6
CONTINUOUS
 10
54.3042477564
 20
171.2734917305
 11
54.3042477564
 21
173.0371369515
  0
LINE
  5
2DF
100
AcDbEntity
  8
00_COMPONENTS_1
100
AcDbLine
 62
7
  6
CONTINUOUS
 10
55.1527794265
 20
172.5472480461
 11
55.1527794265
 21
170.7836028251
  0
LINE
  5
2E0
100
AcDbEntity
  8
00_COMPONENTS_1
100
AcDbLine
 62
7
  6
CONTINUOUS
 10
55.1527794265
 20
169.6404994411
 11
55.1527794265
 21
169.4773104216
  0
LINE
  5
2E1
100
AcDbEntity
  8
00_COMPONENTS_1
100
AcDbLine
 62
7
  6
CONTINUOUS
 10
55.8083313111
 20
177.8915865884
 11
55.8083313111
 21
183.7360924515
  0
LINE
  5
2E2
100
AcDbEntity
  8
00_COMPONENTS_1
100
AcDbLine
 62
7
  6
CONTINUOUS
 10
56.0012969657
 20
170.1303883465
 11
56.0012969657
 21
170.293722078
  0
LINE
  5
2E3
100
AcDbEntity
  8
00_COMPONENTS_1
100
AcDbLine
 62
7
  6
CONTINUOUS
 10
56.3386724368
 20
178.8159170667
 11
56.3386724368
 21
182.1643594022
  0
LINE
  5
2E4
100
AcDbEntity
  8
00_COMPONENTS_1
100
AcDbLine
 62
7
  6
CONTINUOUS
 10
57.4703341506
 20
98.2696036932
 11
57.4703341506
 21
75.4005888285
  0
LINE
  5
2E5
100
AcDbEntity
  8
00_COMPONENTS_1
100
AcDbLine
 62
7
  6
CONTINUOUS
 10
57.0884135867
 20
153.3669393603
 11
56.2156431941
 21
147.1475312271
  0
LINE
  5
2E6
100
AcDbEntity
  8
00_COMPONENTS_1
100
AcDbLine
 62
7
  6
CONTINUOUS
 10
59.3604069054
 20
143.411001853
 11
60.2331772981
 21
149.6304099862
  0
LINE
  5
2E7
100
AcDbEntity
  8
00_COMPONENTS_1
100
AcDbLine
 62
7
  6
CONTINUOUS
 10
61.6473967484
 20
148.8139284772
 11
61.8967597177
 21
150.5909022295
  0
LINE
  5
2E8
100
AcDbEntity
  8
00_COMPONENTS_1
100
AcDbLine
 62
7
  6
CONTINUOUS
 10
63.452401113
 20
149.6927725696
 11
63.2030381437
 21
147.9157988173
  0
LINE
  5
2E9
100
AcDbEntity
  8
00_COMPONENTS_1
100
AcDbLine
 62
7
  6
CONTINUOUS
 10
111.2458975647
 20
157.0372576495
 11
79.325139877
 21
138.6079096142
  0
LINE
  5
2EA
100
AcDbEntity
  8
00_COMPONENTS_1
100
AcDbLine
 62
7
  6
CONTINUOUS
 10
81.1301442417
 20
139.4867537066
 11
112.8011111848
 21
157.7718858492
  0
LINE
  5
2EB
100
AcDbEntity
  8
00_COMPONENTS_1
100
AcDbLine
 62
7
  6
CONTINUOUS
 10
114.7105113589
 20
158.0577836656
 11
121.0744458938
 21
161.7319810504
  0
LINE
  5
2EC
100
AcDbEntity
  8
00_COMPONENTS_1
100
AcDbLine
 62
7
  6
CONTINUOUS
 10
81.0054558625
 20
138.5982177
 11
79.5674259201
 21
137.7679756814
  0
LINE
  5
2ED
100
AcDbEntity
  8
00_COMPONENTS_1
100
AcDbLine
 62
7
  6
CONTINUOUS
 10
108.8415606971
 20
153.1180358625
 11
85.5071340691
 21
139.6459787847
  0
LINE
  5
2EE
100
AcDbEntity
  8
00_COMPONENTS_1
100
AcDbLine
 62
7
  6
CONTINUOUS
 10
77.0381500341
 20
133.20498299
 11
78.8603161949
 21
134.2570048337
  0
LINE
  5
2EF
100
AcDbEntity
  8
00_COMPONENTS_1
100
AcDbLine
 62
7
  6
CONTINUOUS
 10
110.4325575787
 20
152.158669044
 11
109.3719018229
 21
151.5463028131
  0
LINE
  5
2F0
100
AcDbEntity
  8
00_COMPONENTS_1
100
AcDbLine
 62
7
  6
CONTINUOUS
 10
59.3003680389
 20
122.5367286826
 11
58.5885971167
 21
122.125790002
  0
LINE
  5
2F1
100
AcDbEntity
  8
00_COMPONENTS_1
100
AcDbLine
 62
7
  6
CONTINUOUS
 10
88.2648619971
 20
138.0538398421
 11
85.9384903727
 21
136.7107165759
  0
LINE
  5
2F2
100
AcDbEntity
  8
00_COMPONENTS
100
AcDbLine
 62
7
  6
CONTINUOUS
 10
66.309205715
 20
90.7812675069
 11
62.2173258424
 21
93.1436620084
  0
LINE
  5
2F3
100
AcDbEntity
  8
00_COMPONENTS_1
100
AcDbLine
 62
7
  6
CONTINUOUS
 10
98.9775843426
 20
40.9677043657
 11
101.9220365732
 21
36.7787034337
  0
LINE
  5
2F4
100
AcDbEntity
  8
00_COMPONENTS_1
100
AcDbLine
 62
7
  6
CONTINUOUS
 10
102.0988140045
 20
36.6766432451
 11
99.1543617739
 21
40.865644177
  0
LINE
  5
2F5
100
AcDbEntity
  8
00_COMPONENTS
100
AcDbLine
 62
7
  6
CONTINUOUS
 10
64.8913226827
 20
70.4969588998
 11
66.2032694612
 21
66.4024299092
  0
LINE
  5
2F6
100
AcDbEntity
  8
00_COMPONENTS_1
100
AcDbLine
 62
7
  6
CONTINUOUS
 10
66.0952944357
 20
61.3301358556
 11
66.3408579203
 21
60.3941279627
  0
LINE
  5
2F7
100
AcDbEntity
  8
00_COMPONENTS_1
100
AcDbLine
 62
7
  6
CONTINUOUS
 10
69.0315781568
 20
59.2861035641
 11
68.9237333363
 21
59.6971728375
  0
LINE
  5
2F8
100
AcDbEntity
  8
00_COMPONENTS_1
100
AcDbLine
 62
7
  6
CONTINUOUS
 10
61.7874078749
 20
45.1651272457
 11
61.6575606012
 21
45.940491987
  0
LINE
  5
2F9
100
AcDbEntity
  8
00_COMPONENTS_1
100
AcDbLine
 62
7
  6
CONTINUOUS
 10
63.2132019965
 20
45.0423623271
 11
63.3430492703
 21
44.2669975857
  0
LINE
  5
2FA
100
AcDbEntity
  8
00_COMPONENTS_1
100
AcDbLine
 62
7
  6
CONTINUOUS
 10
63.7546510542
 20
49.4375065246
 11
64.6274214468
 21
44.225880818
  0
LINE
  5
2FB
100
AcDbEntity
  8
00_COMPONENTS_1
100
AcDbLine
 62
7
  6
CONTINUOUS
 10
68.1513954012
 20
41.490960455
 11
67.3981407042
 21
45.9889149867
  0
LINE
  5
2FC
100
AcDbEntity
  8
00_COMPONENTS_1
100
AcDbLine
 62
7
  6
CONTINUOUS
 10
58.827926709
 20
120.0782305153
 11
58.827926709
 21
120.8947329324
  0
LINE
  5
2FD
100
AcDbEntity
  8
00_COMPONENTS_1
100
AcDbLine
 62
7
  6
CONTINUOUS
 10
59.5350364342
 20
118.8534873436
 11
59.5350364342
 21
119.6699897608
  0
LINE
  5
2FE
100
AcDbEntity
  8
00_COMPONENTS_1
100
AcDbLine
 62
7
  6
CONTINUOUS
 10
59.5350364342
 20
120.4864921779
 11
59.5350364342
 21
121.302994595
  0
LINE
  5
2FF
100
AcDbEntity
  8
00_COMPONENTS_1
100
AcDbLine
 62
7
  6
CONTINUOUS
 10
60.2421461593
 20
120.8947538405
 11
60.2421461593
 21
118.4452465891
  0
LINE
  5
300
100
AcDbEntity
  8
00_COMPONENTS_1
100
AcDbLine
 62
7
  6
CONTINUOUS
 10
60.9492558845
 20
119.6700106689
 11
60.9492558845
 21
118.8535082517
  0
LINE
  5
301
100
AcDbEntity
  8
00_COMPONENTS_1
100
AcDbLine
 62
7
  6
CONTINUOUS
 10
61.1825730662
 20
47.2992360583
 11
61.1825730662
 21
52.9863023482
  0
LINE
  5
302
100
AcDbEntity
  8
00_COMPONENTS_1
100
AcDbLine
 62
7
  6
CONTINUOUS
 10
61.1825730662
 20
144.4630236968
 11
61.1825730662
 21
149.0822884841
  0
LINE
  5
303
100
AcDbEntity
  8
00_COMPONENTS_1
100
AcDbLine
 62
7
  6
CONTINUOUS
 10
61.8896827914
 20
48.6873006215
 11
61.8896827914
 21
46.8909953038
  0
LINE
  5
304
100
AcDbEntity
  8
00_COMPONENTS_1
100
AcDbLine
 62
7
  6
CONTINUOUS
 10
61.8896827914
 20
147.9739945445
 11
61.8896827914
 21
148.9538115544
  0
LINE
  5
305
100
AcDbEntity
  8
00_COMPONENTS_1
100
AcDbLine
 62
7
  6
CONTINUOUS
 10
64.617257594
 20
147.0993173082
 11
63.7444872013
 21
140.879909175
  0
LINE
  5
306
100
AcDbEntity
  8
00_COMPONENTS_1
100
AcDbLine
 62
7
  6
CONTINUOUS
 10
67.3879768514
 20
140.6973273056
 11
68.260747244
 21
146.9167354389
  0
LINE
  5
307
100
AcDbEntity
  8
00_COMPONENTS_1
100
AcDbLine
 62
7
  6
CONTINUOUS
 10
60.2421402714
 20
120.8947363318
 11
58.827926709
 21
120.0782305153
  0
LINE
  5
308
100
AcDbEntity
  8
00_COMPONENTS_1
100
AcDbLine
 62
7
  6
CONTINUOUS
 10
60.2421402714
 20
120.0782339146
 11
59.5350364342
 21
119.6699897608
  0
LINE
  5
309
100
AcDbEntity
  8
00_COMPONENTS_1
100
AcDbLine
 62
7
  6
CONTINUOUS
 10
110.5413521549
 20
148.9492798233
 11
109.6928275502
 21
148.4593868386
  0
LINE
  5
30A
100
AcDbEntity
  8
00_COMPONENTS_1
100
AcDbLine
 62
7
  6
CONTINUOUS
 10
60.9492499965
 20
119.6699931601
 11
59.5350364342
 21
118.8534873436
  0
LINE
  5
30B
100
AcDbEntity
  8
00_COMPONENTS_1
100
AcDbLine
 62
7
  6
CONTINUOUS
 10
107.6987498703
 20
146.1534136103
 11
108.8301160098
 21
146.8066042565
  0
LINE
  5
30C
100
AcDbEntity
  8
00_COMPONENTS_1
100
AcDbLine
 62
7
  6
CONTINUOUS
 10
107.9087489302
 20
145.7896823979
 11
105.2217543487
 21
144.2383546132
  0
LINE
  5
30D
100
AcDbEntity
  8
00_COMPONENTS_1
100
AcDbLine
 62
7
  6
CONTINUOUS
 10
61.9032602242
 20
118.0350663769
 11
61.1885854768
 21
117.6224511821
  0
LINE
  5
30E
100
AcDbEntity
  8
00_COMPONENTS_1
100
AcDbLine
 62
7
  6
CONTINUOUS
 10
85.0657199801
 20
130.4913084426
 11
88.2648619971
 21
132.3383229222
  0
LINE
  5
30F
100
AcDbEntity
  8
00_COMPONENTS_1
100
AcDbLine
 62
7
  6
CONTINUOUS
 10
105.1938624658
 20
141.8930236541
 11
104.2038917436
 21
141.3214672029
  0
LINE
  5
310
100
AcDbEntity
  8
00_COMPONENTS_1
100
AcDbLine
 62
7
  6
CONTINUOUS
 10
94.7702714685
 20
134.2980249005
 11
92.443899844
 21
132.9549016343
  0
LINE
  5
311
100
AcDbEntity
  8
00_COMPONENTS_1
100
AcDbLine
 62
7
  6
CONTINUOUS
 10
108.1860088126
 20
141.1453322054
 11
107.3374771424
 21
140.6554351415
  0
LINE
  5
312
100
AcDbEntity
  8
00_COMPONENTS_1
100
AcDbLine
 62
7
  6
CONTINUOUS
 10
80.5060972258
 20
129.0986288108
 11
80.3978430842
 21
129.0401613999
  0
LINE
  5
313
100
AcDbEntity
  8
00_COMPONENTS_1
100
AcDbLine
 62
7
  6
CONTINUOUS
 10
66.309205715
 20
93.1665942617
 11
57.4703341506
 21
98.2696036932
  0
LINE
  5
314
100
AcDbEntity
  8
00_COMPONENTS_1
100
AcDbLine
 62
7
  6
CONTINUOUS
 10
85.2597463489
 20
82.5523430074
 11
20.559206498
 21
119.906372046
  0
LINE
  5
315
100
AcDbEntity
  8
00_COMPONENTS_1
100
AcDbLine
 62
7
  6
CONTINUOUS
 10
136.2773032181
 20
57.0157655629
 11
136.065172067
 21
57.1382367694
  0
LINE
  5
316
100
AcDbEntity
  8
00_COMPONENTS_1
100
AcDbLine
 62
7
  6
CONTINUOUS
 10
73.9035501755
 20
42.2331000452
 11
74.6568048726
 21
37.7351455134
  0
LINE
  5
317
100
AcDbEntity
  8
00_COMPONENTS_1
100
AcDbLine
 62
7
  6
CONTINUOUS
 10
65.1775440012
 20
175.265076399
 11
65.1775440012
 21
177.0613499707
  0
LINE
  5
318
100
AcDbEntity
  8
00_COMPONENTS_1
100
AcDbLine
 62
7
  6
CONTINUOUS
 10
66.0617173112
 20
60.2411306321
 11
66.0617173112
 21
61.5556995236
  0
LINE
  5
319
100
AcDbEntity
  8
00_COMPONENTS_1
100
AcDbLine
 62
7
  6
CONTINUOUS
 10
66.238199757
 20
175.8774426298
 11
66.238199757
 21
177.6737162015
  0
LINE
  5
31A
100
AcDbEntity
  8
00_COMPONENTS_1
100
AcDbLine
 62
7
  6
CONTINUOUS
 10
66.309205715
 20
93.1665942617
 11
66.309205715
 21
62.1068423141
  0
LINE
  5
31B
100
AcDbEntity
  8
00_COMPONENTS_1
100
AcDbLine
 62
7
  6
CONTINUOUS
 10
69.0315781568
 20
59.8410883547
 11
69.0315781568
 21
58.5265194631
  0
LINE
  5
31C
100
AcDbEntity
  8
00_COMPONENTS_1
100
AcDbLine
 62
7
  6
CONTINUOUS
 10
70.5871188685
 20
142.5443417852
 11
70.5871188685
 21
148.2598587051
  0
LINE
  5
31D
100
AcDbEntity
  8
00_COMPONENTS_1
100
AcDbLine
 62
7
  6
CONTINUOUS
 10
74.7661567154
 20
143.1609204973
 11
73.8933863227
 21
136.9415123641
  0
LINE
  5
31E
100
AcDbEntity
  8
00_COMPONENTS_1
100
AcDbLine
 62
7
  6
CONTINUOUS
 10
94.0629073846
 20
169.9784136975
 11
93.568154436
 21
168.8762813468
  0
LINE
  5
31F
100
AcDbEntity
  8
00_COMPONENTS_1
100
AcDbLine
 62
7
  6
CONTINUOUS
 10
93.568154436
 20
167.2432765125
 11
94.0629073846
 21
168.3454088633
  0
LINE
  5
320
100
AcDbEntity
  8
00_COMPONENTS_1
100
AcDbLine
 62
7
  6
CONTINUOUS
 10
118.2107733872
 20
146.4432933816
 11
119.271429143
 21
147.0556596124
  0
LINE
  5
321
100
AcDbEntity
  8
00_COMPONENTS_1
100
AcDbLine
 62
7
  6
CONTINUOUS
 10
89.1542829917
 20
129.4224621292
 11
92.1945086504
 21
131.1777267541
  0
LINE
  5
322
100
AcDbEntity
  8
00_COMPONENTS_1
100
AcDbLine
 62
7
  6
CONTINUOUS
 10
96.1846754293
 20
133.4814368667
 11
105.1362909226
 21
138.6496236315
  0
LINE
  5
323
100
AcDbEntity
  8
00_COMPONENTS_1
100
AcDbLine
 62
7
  6
CONTINUOUS
 10
108.3274478645
 20
140.0838882087
 11
107.3374771424
 21
139.5123317575
  0
LINE
  5
324
100
AcDbEntity
  8
00_COMPONENTS_1
100
AcDbLine
 62
7
  6
CONTINUOUS
 10
109.1759795347
 20
139.5939993033
 11
108.1860088126
 21
139.0224428521
  0
LINE
  5
325
100
AcDbEntity
  8
00_COMPONENTS_1
100
AcDbLine
 62
7
  6
CONTINUOUS
 10
97.5279993966
 20
132.7058859579
 11
120.8624260246
 21
146.1779430356
  0
LINE
  5
326
100
AcDbEntity
  8
00_COMPONENTS_1
100
AcDbLine
 62
7
  6
CONTINUOUS
 10
129.418393642
 20
149.5663759715
 11
135.7823281769
 21
153.2405733564
  0
LINE
  5
327
100
AcDbEntity
  8
00_COMPONENTS_1
100
AcDbLine
 62
7
  6
CONTINUOUS
 10
97.252245975
 20
130.1788645035
 11
128.8779121141
 21
148.4378423708
  0
LINE
  5
328
100
AcDbEntity
  8
00_COMPONENTS_1
100
AcDbLine
 62
7
  6
CONTINUOUS
 10
128.8779121141
 20
146.8048375366
 11
97.0028830057
 21
128.4018907512
  0
LINE
  5
329
100
AcDbEntity
  8
00_COMPONENTS_1
100
AcDbLine
 62
7
  6
CONTINUOUS
 10
135.9944593281
 20
149.9337364506
 11
96.0214740143
 21
126.8554603781
  0
LINE
  5
32A
100
AcDbEntity
  8
00_COMPONENTS_1
100
AcDbLine
 62
7
  6
CONTINUOUS
 10
92.0479431862
 20
86.4714868846
 11
27.3474033352
 21
123.8255159232
  0
LINE
  5
32B
100
AcDbEntity
  8
00_COMPONENTS_1
100
AcDbLine
 62
7
  6
CONTINUOUS
 10
77.9210842796
 20
36.550954633
 11
77.0483138869
 21
41.7625803396
  0
LINE
  5
32C
100
AcDbEntity
  8
00_COMPONENTS_1
100
AcDbLine
 62
7
  6
CONTINUOUS
 10
79.4651510036
 20
34.9591083827
 11
79.3353037299
 21
35.734473124
  0
LINE
  5
32D
100
AcDbEntity
  8
00_COMPONENTS_1
100
AcDbLine
 62
7
  6
CONTINUOUS
 10
80.8909451252
 20
34.8363434641
 11
81.0207923989
 21
34.0609787227
  0
LINE
  5
32E
100
AcDbEntity
  8
00_COMPONENTS_1
100
AcDbLine
 62
7
  6
CONTINUOUS
 10
81.4323941828
 20
39.2314876616
 11
82.3051645755
 21
34.019861955
  0
LINE
  5
32F
100
AcDbEntity
  8
00_COMPONENTS_1
100
AcDbLine
 62
7
  6
CONTINUOUS
 10
71.981990885
 20
158.7813944947
 11
71.981990885
 21
159.9243694835
  0
LINE
  5
330
100
AcDbEntity
  8
00_COMPONENTS_1
100
AcDbLine
 62
7
  6
CONTINUOUS
 10
71.981990885
 20
161.0674728675
 11
71.981990885
 21
162.8311180885
  0
LINE
  5
331
100
AcDbEntity
  8
00_COMPONENTS_1
100
AcDbLine
 62
7
  6
CONTINUOUS
 10
72.8305225552
 20
162.3412291831
 11
72.8305225552
 21
160.5775839621
  0
LINE
  5
332
100
AcDbEntity
  8
00_COMPONENTS_1
100
AcDbLine
 62
7
  6
CONTINUOUS
 10
72.8305225552
 20
159.4344805781
 11
72.8305225552
 21
159.2712915586
  0
LINE
  5
333
100
AcDbEntity
  8
00_COMPONENTS_1
100
AcDbLine
 62
7
  6
CONTINUOUS
 10
73.4860744398
 20
167.6845818878
 11
73.4860744398
 21
173.5300735885
  0
LINE
  5
334
100
AcDbEntity
  8
00_COMPONENTS_1
100
AcDbLine
 62
7
  6
CONTINUOUS
 10
73.6790400943
 20
159.9243694835
 11
73.6790400943
 21
160.087703215
  0
LINE
  5
335
100
AcDbEntity
  8
00_COMPONENTS_1
100
AcDbLine
 62
7
  6
CONTINUOUS
 10
74.0164155655
 20
168.6110304304
 11
74.0164155655
 21
171.9583405392
  0
LINE
  5
336
100
AcDbEntity
  8
00_COMPONENTS_1
100
AcDbLine
 62
7
  6
CONTINUOUS
 10
75.8904113074
 20
177.4492953755
 11
75.8904113074
 21
179.0823002098
  0
LINE
  5
337
100
AcDbEntity
  8
00_COMPONENTS_1
100
AcDbLine
 62
7
  6
CONTINUOUS
 10
76.3851642559
 20
178.5514277263
 11
76.3851642559
 21
180.1844325606
  0
LINE
  5
338
100
AcDbEntity
  8
00_COMPONENTS_1
100
AcDbLine
 62
7
  6
CONTINUOUS
 10
76.5056698377
 20
109.8722116523
 11
76.5056698377
 21
110.6887140694
  0
LINE
  5
339
100
AcDbEntity
  8
00_COMPONENTS_1
100
AcDbLine
 62
7
  6
CONTINUOUS
 10
77.2127795628
 20
108.6474684806
 11
77.2127795628
 21
109.4639708978
  0
LINE
  5
33A
100
AcDbEntity
  8
00_COMPONENTS_1
100
AcDbLine
 62
7
  6
CONTINUOUS
 10
77.2127795628
 20
110.2804733149
 11
77.2127795628
 21
111.096975732
  0
LINE
  5
33B
100
AcDbEntity
  8
00_COMPONENTS_1
100
AcDbLine
 62
7
  6
CONTINUOUS
 10
77.919889288
 20
110.6887349775
 11
77.919889288
 21
108.2392277261
  0
LINE
  5
33C
100
AcDbEntity
  8
00_COMPONENTS_1
100
AcDbLine
 62
7
  6
CONTINUOUS
 10
77.0381500341
 20
133.20498299
 11
77.9109204267
 21
139.4243911232
  0
LINE
  5
33D
100
AcDbEntity
  8
00_COMPONENTS_1
100
AcDbLine
 62
7
  6
CONTINUOUS
 10
79.325139877
 20
138.6079096142
 11
79.5745028464
 21
140.3848833665
  0
LINE
  5
33E
100
AcDbEntity
  8
00_COMPONENTS_1
100
AcDbLine
 62
7
  6
CONTINUOUS
 10
81.1301442417
 20
139.4867537066
 11
80.8807812724
 21
137.7097799542
  0
LINE
  5
33F
100
AcDbEntity
  8
00_COMPONENTS_1
100
AcDbLine
 62
7
  6
CONTINUOUS
 10
82.2950007227
 20
136.8932984452
 11
81.42223033
 21
130.673890312
  0
LINE
  5
340
100
AcDbEntity
  8
00_COMPONENTS_1
100
AcDbLine
 62
7
  6
CONTINUOUS
 10
83.819172284
 20
126.4846369758
 11
84.0319097861
 21
126.7913894114
  0
LINE
  5
341
100
AcDbEntity
  8
00_COMPONENTS_1
100
AcDbLine
 62
7
  6
CONTINUOUS
 10
97.5064044371
 20
125.9981547936
 11
137.4793897509
 21
149.0764308661
  0
LINE
  5
342
100
AcDbEntity
  8
00_COMPONENTS_1
100
AcDbLine
 62
7
  6
CONTINUOUS
 10
76.9781111676
 20
112.3307098196
 11
76.2663402454
 21
111.919771139
  0
LINE
  5
343
100
AcDbEntity
  8
00_COMPONENTS_1
100
AcDbLine
 62
7
  6
CONTINUOUS
 10
77.9198834001
 20
110.6887174688
 11
76.5056698377
 21
109.8722116523
  0
LINE
  5
344
100
AcDbEntity
  8
00_COMPONENTS_1
100
AcDbLine
 62
7
  6
CONTINUOUS
 10
77.9198834001
 20
109.8722150516
 11
77.2127795628
 21
109.4639708978
  0
LINE
  5
345
100
AcDbEntity
  8
00_COMPONENTS_1
100
AcDbLine
 62
7
  6
CONTINUOUS
 10
78.6269931252
 20
109.4639742971
 11
77.2127795628
 21
108.6474684806
  0
LINE
  5
346
100
AcDbEntity
  8
00_COMPONENTS_1
100
AcDbLine
 62
7
  6
CONTINUOUS
 10
137.4793897509
 20
142.5444115291
 11
137.2672585997
 21
142.4219382829
  0
LINE
  5
347
100
AcDbEntity
  8
00_COMPONENTS_1
100
AcDbLine
 62
7
  6
CONTINUOUS
 10
77.919889288
 20
108.2392277261
 11
77.2127795628
 21
108.6474684806
  0
LINE
  5
348
100
AcDbEntity
  8
00_COMPONENTS_1
100
AcDbLine
 62
7
  6
CONTINUOUS
 10
60.2421461593
 20
118.4452465891
 11
59.5350364342
 21
118.8534873436
  0
LINE
  5
349
100
AcDbEntity
  8
00_COMPONENTS_1
100
AcDbLine
 62
7
  6
CONTINUOUS
 10
42.5644030306
 20
128.6512654521
 11
41.8572933055
 21
129.0595062066
  0
LINE
  5
34A
100
AcDbEntity
  8
00_COMPONENTS_1
100
AcDbLine
 62
7
  6
CONTINUOUS
 10
78.6269990131
 20
108.6474893887
 11
77.919889288
 21
109.0557301432
  0
LINE
  5
34B
100
AcDbEntity
  8
00_COMPONENTS_1
100
AcDbLine
 62
7
  6
CONTINUOUS
 10
77.2127795628
 20
109.4639708978
 11
76.5056698377
 21
109.8722116523
  0
LINE
  5
34C
100
AcDbEntity
  8
00_COMPONENTS_1
100
AcDbLine
 62
7
  6
CONTINUOUS
 10
60.9492558845
 20
118.8535082517
 11
60.2421461593
 21
119.2617490062
  0
LINE
  5
34D
100
AcDbEntity
  8
00_COMPONENTS_1
100
AcDbLine
 62
7
  6
CONTINUOUS
 10
59.5350364342
 20
119.6699897608
 11
58.827926709
 21
120.0782305153
  0
LINE
  5
34E
100
AcDbEntity
  8
00_COMPONENTS_1
100
AcDbLine
 62
7
  6
CONTINUOUS
 10
43.2715127558
 20
129.0595271147
 11
42.5644030306
 21
129.4677678693
  0
LINE
  5
34F
100
AcDbEntity
  8
00_COMPONENTS_1
100
AcDbLine
 62
7
  6
CONTINUOUS
 10
41.8572933055
 20
129.8760086238
 11
41.1501835803
 21
130.2842493783
  0
LINE
  5
350
100
AcDbEntity
  8
00_COMPONENTS_1
100
AcDbLine
 62
7
  6
CONTINUOUS
 10
97.2098247496
 20
58.2949675962
 11
97.3866021808
 21
57.832685753
  0
LINE
  5
351
100
AcDbEntity
  8
00_COMPONENTS_1
100
AcDbLine
 62
7
  6
CONTINUOUS
 10
85.8291385299
 20
31.284941592
 11
85.0758838329
 21
35.7828961237
  0
LINE
  5
352
100
AcDbEntity
  8
00_COMPONENTS_1
100
AcDbLine
 62
7
  6
CONTINUOUS
 10
78.6269990131
 20
109.4639918058
 11
78.6269990131
 21
108.6474893887
  0
LINE
  5
353
100
AcDbEntity
  8
00_COMPONENTS_1
100
AcDbLine
 62
7
  6
CONTINUOUS
 10
78.8603161949
 20
37.0932171953
 11
78.8603161949
 21
42.7802834852
  0
LINE
  5
354
100
AcDbEntity
  8
00_COMPONENTS_1
100
AcDbLine
 62
7
  6
CONTINUOUS
 10
78.8603161949
 20
134.2570048337
 11
78.8603161949
 21
138.8762696211
  0
LINE
  5
355
100
AcDbEntity
  8
00_COMPONENTS_1
100
AcDbLine
 62
7
  6
CONTINUOUS
 10
79.5674259201
 20
38.4812817585
 11
79.5674259201
 21
36.6849764408
  0
LINE
  5
356
100
AcDbEntity
  8
00_COMPONENTS_1
100
AcDbLine
 62
7
  6
CONTINUOUS
 10
79.5674259201
 20
137.7679756814
 11
79.5674259201
 21
138.7477926914
  0
LINE
  5
357
100
AcDbEntity
  8
00_COMPONENTS_1
100
AcDbLine
 62
7
  6
CONTINUOUS
 10
82.7490987909
 20
180.4293197935
 11
82.7490987909
 21
183.8586299454
  0
LINE
  5
358
100
AcDbEntity
  8
00_COMPONENTS_1
100
AcDbLine
 62
7
  6
CONTINUOUS
 10
82.8552871299
 20
165.059057536
 11
82.8552871299
 21
166.8553311077
  0
LINE
  5
359
100
AcDbEntity
  8
00_COMPONENTS_1
100
AcDbLine
 62
7
  6
CONTINUOUS
 10
83.9159428857
 20
165.6714237668
 11
83.9159428857
 21
167.4676973385
  0
LINE
  5
35A
100
AcDbEntity
  8
00_COMPONENTS_1
100
AcDbLine
 62
7
  6
CONTINUOUS
 10
85.0657199801
 20
130.4913084426
 11
85.9384903727
 21
136.7107165759
  0
LINE
  5
35B
100
AcDbEntity
  8
00_COMPONENTS
100
AcDbLine
 62
7
  6
CONTINUOUS
 10
55.9928431828
 20
75.6343822104
 11
49.1157740507
 21
68.4054490278
  0
LINE
  5
35C
100
AcDbEntity
  8
00_COMPONENTS_1
100
AcDbLine
 62
7
  6
CONTINUOUS
 10
79.5810033529
 20
107.8290475139
 11
78.8663286055
 21
107.4164323191
  0
LINE
  5
35D
100
AcDbEntity
  8
00_COMPONENTS_1
100
AcDbLine
 62
7
  6
CONTINUOUS
 10
94.8763820868
 20
116.1922166843
 11
96.5734349175
 21
117.1720047444
  0
LINE
  5
35E
100
AcDbEntity
  8
00_COMPONENTS_1
100
AcDbLine
 62
7
  6
CONTINUOUS
 10
97.3866021808
 20
117.6006626869
 11
96.6087879599
 21
117.1515941176
  0
LINE
  5
35F
100
AcDbEntity
  8
00_COMPONENTS_1
100
AcDbLine
 62
7
  6
CONTINUOUS
 10
41.1501835803
 20
131.1007517954
 11
43.2715127558
 21
129.8760295319
  0
LINE
  5
360
100
AcDbEntity
  8
00_COMPONENTS_1
100
AcDbLine
 62
7
  6
CONTINUOUS
 10
58.827926709
 20
120.8947329324
 11
60.9492558845
 21
119.6700106689
  0
LINE
  5
361
100
AcDbEntity
  8
00_COMPONENTS_1
100
AcDbLine
 62
7
  6
CONTINUOUS
 10
76.5056698377
 20
110.6887140694
 11
78.6269990131
 21
109.4639918058
  0
LINE
  5
362
100
AcDbEntity
  8
00_COMPONENTS_1
100
AcDbLine
 62
7
  6
CONTINUOUS
 10
41.8572933055
 20
131.509013458
 11
42.5644030306
 21
131.1007727035
  0
LINE
  5
363
100
AcDbEntity
  8
00_COMPONENTS_1
100
AcDbLine
 62
7
  6
CONTINUOUS
 10
59.5350364342
 20
121.302994595
 11
60.2421461593
 21
120.8947538405
  0
LINE
  5
364
100
AcDbEntity
  8
00_COMPONENTS_1
100
AcDbLine
 62
7
  6
CONTINUOUS
 10
77.2127795628
 20
111.096975732
 11
77.919889288
 21
110.6887349775
  0
LINE
  5
365
100
AcDbEntity
  8
00_COMPONENTS_1
100
AcDbLine
 62
7
  6
CONTINUOUS
 10
97.2098247496
 20
47.5651652441
 11
98.9775843426
 21
40.9677043657
  0
LINE
  5
366
100
AcDbEntity
  8
00_COMPONENTS_1
100
AcDbLine
 62
7
  6
CONTINUOUS
 10
99.1543617739
 20
40.865644177
 11
97.3866021808
 21
47.4631050554
  0
LINE
  5
367
100
AcDbEntity
  8
00_COMPONENTS_1
100
AcDbLine
 62
7
  6
CONTINUOUS
 10
91.5812933042
 20
32.0270811822
 11
92.3345480013
 21
27.5291266504
  0
LINE
  5
368
100
AcDbEntity
  8
00_COMPONENTS_1
100
AcDbLine
 62
7
  6
CONTINUOUS
 10
96.3059371334
 20
25.9366950155
 11
96.0316378671
 21
27.5746345233
  0
LINE
  5
369
100
AcDbEntity
  8
00_COMPONENTS_1
100
AcDbLine
 62
7
  6
CONTINUOUS
 10
97.1428941323
 20
24.7530895197
 11
97.0130468585
 21
25.528454261
  0
LINE
  5
36A
100
AcDbEntity
  8
00_COMPONENTS_1
100
AcDbLine
 62
7
  6
CONTINUOUS
 10
97.3397908587
 20
26.8193891274
 11
96.0431034182
 21
34.5623758915
  0
LINE
  5
36B
100
AcDbEntity
  8
00_COMPONENTS_1
100
AcDbLine
 62
7
  6
CONTINUOUS
 10
88.0881852495
 20
47.442780887
 11
88.0881852495
 21
77.6533703208
  0
LINE
  5
36C
100
AcDbEntity
  8
00_COMPONENTS_1
100
AcDbLine
 62
7
  6
CONTINUOUS
 10
88.2648619971
 20
132.3383229222
 11
88.2648619971
 21
138.0538398421
  0
LINE
  5
36D
100
AcDbEntity
  8
00_COMPONENTS_1
100
AcDbLine
 62
7
  6
CONTINUOUS
 10
89.6597340137
 20
148.5753756317
 11
89.6597340137
 21
149.7183506205
  0
LINE
  5
36E
100
AcDbEntity
  8
00_COMPONENTS_1
100
AcDbLine
 62
7
  6
CONTINUOUS
 10
89.6597340137
 20
150.8614540045
 11
89.6597340137
 21
152.6250992255
  0
LINE
  5
36F
100
AcDbEntity
  8
00_COMPONENTS_1
100
AcDbLine
 62
7
  6
CONTINUOUS
 10
90.5082656839
 20
152.1352103201
 11
90.5082656839
 21
150.3715650991
  0
LINE
  5
370
100
AcDbEntity
  8
00_COMPONENTS_1
100
AcDbLine
 62
7
  6
CONTINUOUS
 10
90.5082656839
 20
149.2284617151
 11
90.5082656839
 21
149.0652726956
  0
LINE
  5
371
100
AcDbEntity
  8
00_COMPONENTS_1
100
AcDbLine
 62
7
  6
CONTINUOUS
 10
91.1638175684
 20
157.4785630248
 11
91.1638175684
 21
163.3240547255
  0
LINE
  5
372
100
AcDbEntity
  8
00_COMPONENTS_1
100
AcDbLine
 62
7
  6
CONTINUOUS
 10
91.356783223
 20
149.7183506205
 11
91.356783223
 21
149.881684352
  0
LINE
  5
373
100
AcDbEntity
  8
00_COMPONENTS_1
100
AcDbLine
 62
7
  6
CONTINUOUS
 10
91.6941586942
 20
158.4050115674
 11
91.6941586942
 21
161.7523216762
  0
LINE
  5
374
100
AcDbEntity
  8
00_COMPONENTS_1
100
AcDbLine
 62
7
  6
CONTINUOUS
 10
92.443899844
 20
132.9549016343
 11
91.5711294514
 21
126.7354935011
  0
LINE
  5
375
100
AcDbEntity
  8
00_COMPONENTS_1
100
AcDbLine
 62
7
  6
CONTINUOUS
 10
111.7406505133
 20
159.7723948345
 11
111.2458975647
 21
158.6702624838
  0
LINE
  5
376
100
AcDbEntity
  8
00_COMPONENTS_1
100
AcDbLine
 62
7
  6
CONTINUOUS
 10
111.2458975647
 20
157.0372576495
 11
111.7406505133
 21
158.1393900003
  0
LINE
  5
377
100
AcDbEntity
  8
00_COMPONENTS_1
100
AcDbLine
 62
7
  6
CONTINUOUS
 10
66.1266491602
 20
61.6993467634
 11
66.0617173112
 21
61.5556995236
  0
LINE
  5
378
100
AcDbEntity
  8
00_COMPONENTS_1
100
AcDbLine
 62
7
  6
CONTINUOUS
 10
66.2556202579
 20
61.6594851607
 11
66.0952944357
 21
61.3301358556
  0
LINE
  5
379
100
AcDbEntity
  8
00_COMPONENTS_1
100
AcDbLine
 62
7
  6
CONTINUOUS
 10
68.9237333363
 20
59.6971728375
 11
69.0204853627
 21
59.8959256786
  0
LINE
  5
37A
100
AcDbEntity
  8
00_COMPONENTS
100
AcDbLine
 62
7
  6
CONTINUOUS
 10
66.309205715
 20
68.5965467858
 11
65.8074501691
 21
67.6377647513
  0
LINE
  5
37B
100
AcDbEntity
  8
00_COMPONENTS
100
AcDbLine
 62
7
  6
CONTINUOUS
 10
56.9541557094
 20
75.1569322713
 11
56.906534307
 21
75.1068743277
  0
LINE
  5
37C
100
AcDbEntity
  8
00_COMPONENTS
100
AcDbLine
 62
7
  6
CONTINUOUS
 10
59.744040817
 20
76.89454005
 11
58.4315417015
 21
75.6644381095
  0
LINE
  5
37D
100
AcDbEntity
  8
00_COMPONENTS_1
100
AcDbLine
 62
7
  6
CONTINUOUS
 10
28.4401461342
 20
65.7906643912
 11
27.8577157392
 21
65.4544000531
  0
LINE
  5
37E
100
AcDbEntity
  8
00_COMPONENTS_1
100
AcDbLine
 62
7
  6
CONTINUOUS
 10
34.7012783395
 20
67.9359007705
 11
32.0426544468
 21
66.4009527128
  0
LINE
  5
37F
100
AcDbEntity
  8
00_COMPONENTS_1
100
AcDbLine
 62
7
  6
CONTINUOUS
 10
90.2127198637
 20
124.3958388062
 11
88.9060421521
 21
124.1292650617
  0
LINE
  5
380
100
AcDbEntity
  8
00_COMPONENTS_1
100
AcDbLine
 62
7
  6
CONTINUOUS
 10
93.568154436
 20
167.2432765125
 11
93.568154436
 21
168.8762813468
  0
LINE
  5
381
100
AcDbEntity
  8
00_COMPONENTS_1
100
AcDbLine
 62
7
  6
CONTINUOUS
 10
94.0629073846
 20
168.3454088633
 11
94.0629073846
 21
169.9784136975
  0
LINE
  5
382
100
AcDbEntity
  8
00_COMPONENTS_1
100
AcDbLine
 62
7
  6
CONTINUOUS
 10
94.8763820868
 20
33.8887730376
 11
94.8763820868
 21
51.3619247642
  0
LINE
  5
383
100
AcDbEntity
  8
00_COMPONENTS_1
100
AcDbLine
 62
7
  6
CONTINUOUS
 10
94.8763820868
 20
81.572514198
 11
94.8763820868
 21
116.1922166843
  0
LINE
  5
384
100
AcDbEntity
  8
00_COMPONENTS_1
100
AcDbLine
 62
7
  6
CONTINUOUS
 10
96.6087879599
 20
117.1515941176
 11
96.6087879599
 21
119.5302896802
  0
LINE
  5
385
100
AcDbEntity
  8
00_COMPONENTS_1
100
AcDbLine
 62
7
  6
CONTINUOUS
 10
97.2098247496
 20
117.4986007986
 11
97.2098247496
 21
47.5651652441
  0
LINE
  5
386
100
AcDbEntity
  8
00_COMPONENTS_1
100
AcDbLine
 62
7
  6
CONTINUOUS
 10
97.3866021808
 20
47.4631050554
 11
97.3866021808
 21
57.832685753
  0
LINE
  5
387
100
AcDbEntity
  8
00_COMPONENTS_1
100
AcDbLine
 62
7
  6
CONTINUOUS
 10
97.3866021808
 20
73.3462316784
 11
97.3866021808
 21
117.6006626869
  0
LINE
  5
388
100
AcDbEntity
  8
00_COMPONENTS_1
100
AcDbLine
 62
7
  6
CONTINUOUS
 10
91.3550898938
 20
45.3355334273
 11
91.3493926962
 21
45.258148765
  0
LINE
  5
389
100
AcDbEntity
  8
00_COMPONENTS_1
100
AcDbLine
 62
7
  6
CONTINUOUS
 10
91.7322516265
 20
45.849570271
 11
91.7949725635
 21
46.6784430096
  0
LINE
  5
38A
100
AcDbEntity
  8
00_COMPONENTS_1
100
AcDbLine
 62
7
  6
CONTINUOUS
 10
96.0214740143
 20
126.8554603781
 11
96.2957732806
 21
128.8101315057
  0
LINE
  5
38B
100
AcDbEntity
  8
00_COMPONENTS_1
100
AcDbLine
 62
7
  6
CONTINUOUS
 10
97.0028830057
 20
128.4018907512
 11
97.252245975
 21
130.1788645035
  0
LINE
  5
38C
100
AcDbEntity
  8
00_COMPONENTS_1
100
AcDbLine
 62
7
  6
CONTINUOUS
 10
96.6190805193
 20
119.6750374676
 11
97.5064044371
 21
125.9981547936
  0
LINE
  5
38D
100
AcDbEntity
  8
00_COMPONENTS
100
AcDbLine
 62
7
  6
CONTINUOUS
 10
63.9776315585
 20
71.0244667825
 11
64.0252529609
 21
71.0745247261
  0
LINE
  5
38E
100
AcDbEntity
  8
00_COMPONENTS
100
AcDbLine
 62
7
  6
CONTINUOUS
 10
58.0142527391
 20
63.2680248641
 11
64.8913226827
 21
70.4969588998
  0
LINE
  5
38F
100
AcDbEntity
  8
00_COMPONENTS
100
AcDbLine
 62
7
  6
CONTINUOUS
 10
65.502638953
 20
71.5820305643
 11
66.309205715
 21
72.3379619988
  0
LINE
  5
390
100
AcDbEntity
  8
00_COMPONENTS_1
100
AcDbLine
 62
7
  6
CONTINUOUS
 10
38.0209457097
 20
64.1369832598
 11
33.6036882995
 21
61.5866937281
  0
LINE
  5
391
100
AcDbEntity
  8
00_COMPONENTS_1
100
AcDbLine
 62
7
  6
CONTINUOUS
 10
86.6546888521
 20
125.4290542707
 11
84.0636832357
 21
126.9237354815
  0
LINE
  5
392
100
AcDbEntity
  8
00_COMPONENTS_1
100
AcDbLine
 62
7
  6
CONTINUOUS
 10
68.9769457234
 20
135.6350731338
 11
62.7200999555
 21
139.2461802629
  0
LINE
  5
393
100
AcDbEntity
  8
00_COMPONENTS_1
100
AcDbLine
 62
7
  6
CONTINUOUS
 10
51.2992025947
 20
145.8410919968
 11
45.0423568269
 21
149.4521991259
  0
LINE
  5
394
100
AcDbEntity
  8
00_COMPONENTS_1
100
AcDbLine
 62
7
  6
CONTINUOUS
 10
94.8763820868
 20
116.1922166843
 11
24.5189644346
 21
156.8121717591
  0
LINE
  5
395
100
AcDbEntity
  8
00_COMPONENTS_1
100
AcDbLine
 62
7
  6
CONTINUOUS
 10
96.6087879599
 20
117.1515941176
 11
25.8978154452
 21
157.9756695696
  0
LINE
  5
396
100
AcDbEntity
  8
00_COMPONENTS_1
100
AcDbLine
 62
7
  6
CONTINUOUS
 10
96.6087879599
 20
119.5302896802
 11
88.4873080831
 21
124.2191221977
  0
LINE
  5
397
100
AcDbEntity
  8
00_COMPONENTS_1
100
AcDbLine
 62
7
  6
CONTINUOUS
 10
87.052524708
 20
125.0474760257
 11
84.0319097861
 21
126.7913894114
  0
LINE
  5
398
100
AcDbEntity
  8
00_COMPONENTS_1
100
AcDbLine
 62
7
  6
CONTINUOUS
 10
82.4569185232
 20
127.7006904699
 11
80.2399039062
 21
128.9806554991
  0
LINE
  5
399
100
AcDbEntity
  8
00_COMPONENTS_1
100
AcDbLine
 62
7
  6
CONTINUOUS
 10
77.6221857562
 20
130.4919615873
 11
70.8095649544
 21
134.4251410607
  0
LINE
  5
39A
100
AcDbEntity
  8
00_COMPONENTS_1
100
AcDbLine
 62
7
  6
CONTINUOUS
 10
69.3747815793
 20
135.2534948887
 11
62.5621607776
 21
139.1866743621
  0
LINE
  5
39B
100
AcDbEntity
  8
00_COMPONENTS_1
100
AcDbLine
 62
7
  6
CONTINUOUS
 10
59.9444426276
 20
140.6979804503
 11
57.7638861757
 21
141.9568968243
  0
LINE
  5
39C
100
AcDbEntity
  8
00_COMPONENTS_1
100
AcDbLine
 62
7
  6
CONTINUOUS
 10
56.1159785827
 20
142.9082951932
 11
53.1318218258
 21
144.6311599237
  0
LINE
  5
39D
100
AcDbEntity
  8
00_COMPONENTS_1
100
AcDbLine
 62
7
  6
CONTINUOUS
 10
51.6970384507
 20
145.4595137517
 11
44.8844176489
 21
149.3926932251
  0
LINE
  5
39E
100
AcDbEntity
  8
00_COMPONENTS_1
100
AcDbLine
 62
7
  6
CONTINUOUS
 10
42.2666994989
 20
150.9039993133
 11
40.0496848819
 21
152.1839643425
  0
LINE
  5
39F
100
AcDbEntity
  8
00_COMPONENTS_1
100
AcDbLine
 62
7
  6
CONTINUOUS
 10
38.474693619
 20
153.093265401
 11
35.4540786971
 21
154.8371787867
  0
LINE
  5
3A0
100
AcDbEntity
  8
00_COMPONENTS_1
100
AcDbLine
 62
7
  6
CONTINUOUS
 10
34.019295322
 20
155.6655326147
 11
25.8978154452
 21
160.3543651322
  0
LINE
  5
3A1
100
AcDbEntity
  8
00_COMPONENTS_1
100
AcDbLine
 62
7
  6
CONTINUOUS
 10
40.0814583316
 20
152.3163104127
 11
42.1293454397
 21
151.1339889873
  0
LINE
  5
3A2
100
AcDbEntity
  8
00_COMPONENTS_1
100
AcDbLine
 62
7
  6
CONTINUOUS
 10
57.7947327845
 20
142.0897779942
 11
59.8070885683
 21
140.9279701243
  0
LINE
  5
3A3
100
AcDbEntity
  8
00_COMPONENTS_1
100
AcDbLine
 62
7
  6
CONTINUOUS
 10
80.3978430842
 20
129.0401613999
 11
82.4457301923
 21
127.8578399744
  0
LINE
  5
3A4
100
AcDbEntity
  8
00_COMPONENTS_1
100
AcDbLine
 62
7
  6
CONTINUOUS
 10
33.621459466
 20
156.0471108598
 11
25.9081080046
 21
160.4991129196
  0
LINE
  5
3A5
100
AcDbEntity
  8
00_COMPONENTS_1
100
AcDbLine
 62
7
  6
CONTINUOUS
 10
77.484831697
 20
130.7219512612
 11
71.2282990234
 21
134.3352839248
  0
LINE
  5
3A6
100
AcDbEntity
  8
00_COMPONENTS_1
100
AcDbLine
 62
7
  6
CONTINUOUS
 10
96.6190805193
 20
119.6750374675
 11
88.9060421521
 21
124.1292650617
  0
LINE
  5
3A7
100
AcDbEntity
  8
00_COMPONENTS_1
100
AcDbLine
 62
7
  6
CONTINUOUS
 10
38.4635052881
 20
153.2504149056
 11
35.8728127661
 21
154.7473216508
  0
LINE
  5
3A8
100
AcDbEntity
  8
00_COMPONENTS_1
100
AcDbLine
 62
7
  6
CONTINUOUS
 10
56.1057170926
 20
143.0649095981
 11
53.5505558948
 21
144.5413027878
  0
LINE
  5
3A9
100
AcDbEntity
  8
00_COMPONENTS_1
100
AcDbLine
 62
7
  6
CONTINUOUS
 10
100.4268419195
 20
170.2233009304
 11
100.4268419195
 21
173.6526110824
  0
LINE
  5
3AA
100
AcDbEntity
  8
00_COMPONENTS_1
100
AcDbLine
 62
7
  6
CONTINUOUS
 10
100.5330302585
 20
154.853038673
 11
100.5330302585
 21
156.6493122446
  0
LINE
  5
3AB
100
AcDbEntity
  8
00_COMPONENTS_1
100
AcDbLine
 62
7
  6
CONTINUOUS
 10
101.5936860144
 20
155.4654049038
 11
101.5936860144
 21
157.2616784755
  0
LINE
  5
3AC
100
AcDbEntity
  8
00_COMPONENTS_1
100
AcDbLine
 62
7
  6
CONTINUOUS
 10
102.3009723775
 20
29.6837115151
 11
102.3009723775
 21
35.3644759821
  0
LINE
  5
3AD
100
AcDbEntity
  8
00_COMPONENTS_1
100
AcDbLine
 62
7
  6
CONTINUOUS
 10
102.4777498088
 20
35.2624157935
 11
102.4777498088
 21
29.5816513265
  0
LINE
  5
3AE
100
AcDbEntity
  8
00_COMPONENTS
100
AcDbLine
 62
7
  6
CONTINUOUS
 10
66.2032694612
 20
66.4024299092
 11
58.9384159826
 21
60.3774963787
  0
LINE
  5
3AF
100
AcDbEntity
  8
00_COMPONENTS_1
100
AcDbLine
 62
7
  6
CONTINUOUS
 10
43.4801664125
 20
63.2065324334
 11
41.6928276296
 21
62.1746180656
  0
LINE
  5
3B0
100
AcDbEntity
  8
00_COMPONENTS_1
100
AcDbLine
 62
7
  6
CONTINUOUS
 10
85.2597463489
 20
82.5523430074
 11
92.0479431862
 21
86.4714868846
  0
LINE
  5
3B1
100
AcDbEntity
  8
00_COMPONENTS_1
100
AcDbLine
 62
7
  6
CONTINUOUS
 10
43.5048299376
 20
57.5052549213
 11
42.5655980222
 21
56.962992359
  0
LINE
  5
3B2
100
AcDbEntity
  8
00_COMPONENTS_1
100
AcDbLine
 62
7
  6
CONTINUOUS
 10
45.7676079404
 20
57.9951743044
 11
44.2119396627
 21
57.0970141668
  0
LINE
  5
3B3
100
AcDbEntity
  8
00_COMPONENTS_1
100
AcDbLine
 62
7
  6
CONTINUOUS
 10
43.9798174725
 20
56.14651085
 11
46.4260251316
 21
57.5588210701
  0
LINE
  5
3B4
100
AcDbEntity
  8
00_COMPONENTS_1
100
AcDbLine
 62
7
  6
CONTINUOUS
 10
72.534976735
 20
134.6018576693
 11
71.2282990234
 21
134.3352839248
  0
LINE
  5
3B5
100
AcDbEntity
  8
00_COMPONENTS_1
100
AcDbLine
 62
7
  6
CONTINUOUS
 10
28.2803623452
 20
165.9649246612
 11
26.7954319224
 21
166.8222302457
  0
LINE
  5
3B6
100
AcDbEntity
  8
00_COMPONENTS_1
100
AcDbLine
 62
7
  6
CONTINUOUS
 10
96.0214740143
 20
126.8554603781
 11
97.5064044371
 21
125.9981547936
  0
LINE
  5
3B7
100
AcDbEntity
  8
00_COMPONENTS_1
100
AcDbLine
 62
7
  6
CONTINUOUS
 10
82.2041247369
 20
136.245711348
 11
79.5674259201
 21
137.7679756814
  0
LINE
  5
3B8
100
AcDbEntity
  8
00_COMPONENTS_1
100
AcDbLine
 62
7
  6
CONTINUOUS
 10
64.5263816082
 20
146.451730211
 11
61.8896827914
 21
147.9739945445
  0
LINE
  5
3B9
100
AcDbEntity
  8
00_COMPONENTS_1
100
AcDbLine
 62
7
  6
CONTINUOUS
 10
46.8486384795
 20
156.657749074
 11
44.2119396627
 21
158.1800134075
  0
LINE
  5
3BA
100
AcDbEntity
  8
00_COMPONENTS_1
100
AcDbLine
 62
7
  6
CONTINUOUS
 10
27.8475518863
 20
168.3278365433
 11
28.5546616115
 21
167.9195957887
  0
LINE
  5
3BB
100
AcDbEntity
  8
00_COMPONENTS_1
100
AcDbLine
 62
7
  6
CONTINUOUS
 10
42.5554341694
 20
159.8364288492
 11
43.9696536197
 21
159.0199473402
  0
LINE
  5
3BC
100
AcDbEntity
  8
00_COMPONENTS_1
100
AcDbLine
 62
7
  6
CONTINUOUS
 10
45.525295015
 20
158.1218176803
 11
46.9395144653
 21
157.3053361712
  0
LINE
  5
3BD
100
AcDbEntity
  8
00_COMPONENTS_1
100
AcDbLine
 62
7
  6
CONTINUOUS
 10
60.2331772981
 20
149.6304099862
 11
61.6473967484
 21
148.8139284772
  0
LINE
  5
3BE
100
AcDbEntity
  8
00_COMPONENTS_1
100
AcDbLine
 62
7
  6
CONTINUOUS
 10
63.2030381437
 20
147.9157988172
 11
64.617257594
 21
147.0993173082
  0
LINE
  5
3BF
100
AcDbEntity
  8
00_COMPONENTS_1
100
AcDbLine
 62
7
  6
CONTINUOUS
 10
77.9109204267
 20
139.4243911232
 11
79.325139877
 21
138.6079096142
  0
LINE
  5
3C0
100
AcDbEntity
  8
00_COMPONENTS_1
100
AcDbLine
 62
7
  6
CONTINUOUS
 10
80.8807812724
 20
137.7097799542
 11
82.2950007227
 21
136.8932984452
  0
LINE
  5
3C1
100
AcDbEntity
  8
00_COMPONENTS_1
100
AcDbLine
 62
7
  6
CONTINUOUS
 10
96.2957732806
 20
128.8101315057
 11
97.0028830057
 21
128.4018907512
  0
LINE
  5
3C2
100
AcDbEntity
  8
00_COMPONENTS_1
100
AcDbLine
 62
7
  6
CONTINUOUS
 10
107.3374771424
 20
138.3693567687
 11
107.3374771424
 21
139.5123317575
  0
LINE
  5
3C3
100
AcDbEntity
  8
00_COMPONENTS_1
100
AcDbLine
 62
7
  6
CONTINUOUS
 10
107.3374771424
 20
140.6554351415
 11
107.3374771424
 21
142.4190803625
  0
LINE
  5
3C4
100
AcDbEntity
  8
00_COMPONENTS_1
100
AcDbLine
 62
7
  6
CONTINUOUS
 10
108.1860088126
 20
141.9291914571
 11
108.1860088126
 21
140.1655462361
  0
LINE
  5
3C5
100
AcDbEntity
  8
00_COMPONENTS_1
100
AcDbLine
 62
7
  6
CONTINUOUS
 10
108.1860088126
 20
139.0224428521
 11
108.1860088126
 21
138.8592538326
  0
LINE
  5
3C6
100
AcDbEntity
  8
00_COMPONENTS_1
100
AcDbLine
 62
7
  6
CONTINUOUS
 10
108.8415606971
 20
147.513638953
 11
108.8415606971
 21
153.1180358625
  0
LINE
  5
3C7
100
AcDbEntity
  8
00_COMPONENTS_1
100
AcDbLine
 62
7
  6
CONTINUOUS
 10
109.0345263517
 20
139.5123317575
 11
109.0345263517
 21
139.675665489
  0
LINE
  5
3C8
100
AcDbEntity
  8
00_COMPONENTS_1
100
AcDbLine
 62
7
  6
CONTINUOUS
 10
109.3719018229
 20
148.1413685366
 11
109.3719018229
 21
151.5463028131
  0
LINE
  5
3C9
100
AcDbEntity
  8
00_COMPONENTS_1
100
AcDbLine
 62
7
  6
CONTINUOUS
 10
111.2458975647
 20
157.0372576495
 11
111.2458975647
 21
158.6702624838
  0
LINE
  5
3CA
100
AcDbEntity
  8
00_COMPONENTS_1
100
AcDbLine
 62
7
  6
CONTINUOUS
 10
111.7406505133
 20
158.1393900003
 11
111.7406505133
 21
159.7723948345
  0
LINE
  5
3CB
100
AcDbEntity
  8
00_COMPONENTS_1
100
AcDbLine
 62
7
  6
CONTINUOUS
 10
129.418393642
 20
149.5663759715
 11
128.8779121141
 21
148.4378423708
  0
LINE
  5
3CC
100
AcDbEntity
  8
00_COMPONENTS_1
100
AcDbLine
 62
7
  6
CONTINUOUS
 10
128.8779121141
 20
146.8048375366
 11
129.418393642
 21
147.9333711373
  0
LINE
  5
3CD
100
AcDbEntity
  8
00_COMPONENTS_1
100
AcDbLine
 62
7
  6
CONTINUOUS
 10
46.6753881009
 20
56.0697851539
 11
44.9174439019
 21
55.0548416558
  0
LINE
  5
3CE
100
AcDbEntity
  8
00_COMPONENTS_1
100
AcDbLine
 62
7
  6
CONTINUOUS
 10
46.7003196579
 20
55.9209098663
 11
45.5354588678
 21
55.2483811901
  0
LINE
  5
3CF
100
AcDbEntity
  8
00_COMPONENTS_1
100
AcDbLine
 62
7
  6
CONTINUOUS
 10
52.3790214682
 20
57.7298819075
 11
49.7203975755
 21
56.1949338498
  0
LINE
  5
3D0
100
AcDbEntity
  8
00_COMPONENTS_1
100
AcDbLine
 62
7
  6
CONTINUOUS
 10
94.8763820868
 20
81.572514198
 11
88.0881852495
 21
77.6533703208
  0
LINE
  5
3D1
100
AcDbEntity
  8
00_COMPONENTS_1
100
AcDbLine
 62
7
  6
CONTINUOUS
 10
66.2520853203
 20
61.6656078889
 11
66.0617173112
 21
61.5556995236
  0
LINE
  5
3D2
100
AcDbEntity
  8
00_COMPONENTS_1
100
AcDbLine
 62
7
  6
CONTINUOUS
 10
66.2556202579
 20
61.6594851607
 11
66.2809225479
 21
61.6740933574
  0
LINE
  5
3D3
100
AcDbEntity
  8
00_COMPONENTS_1
100
AcDbLine
 62
7
  6
CONTINUOUS
 10
97.252245975
 20
130.1788645035
 11
92.443899844
 21
132.9549016343
  0
LINE
  5
3D4
100
AcDbEntity
  8
00_COMPONENTS_1
100
AcDbLine
 62
7
  6
CONTINUOUS
 10
85.9384903727
 20
136.7107165759
 11
81.1301442417
 21
139.4867537066
  0
LINE
  5
3D5
100
AcDbEntity
  8
00_COMPONENTS_1
100
AcDbLine
 62
7
  6
CONTINUOUS
 10
79.5745028464
 20
140.3848833665
 11
74.7661567154
 21
143.1609204973
  0
LINE
  5
3D6
100
AcDbEntity
  8
00_COMPONENTS_1
100
AcDbLine
 62
7
  6
CONTINUOUS
 10
68.260747244
 20
146.9167354389
 11
63.452401113
 21
149.6927725696
  0
LINE
  5
3D7
100
AcDbEntity
  8
00_COMPONENTS_1
100
AcDbLine
 62
7
  6
CONTINUOUS
 10
61.8967597177
 20
150.5909022295
 11
57.0884135867
 21
153.3669393603
  0
LINE
  5
3D8
100
AcDbEntity
  8
00_COMPONENTS_1
100
AcDbLine
 62
7
  6
CONTINUOUS
 10
50.5830041153
 20
157.1227543019
 11
45.7746579843
 21
159.8987914326
  0
LINE
  5
3D9
100
AcDbEntity
  8
00_COMPONENTS_1
100
AcDbLine
 62
7
  6
CONTINUOUS
 10
44.219016589
 20
160.7969210926
 11
39.410670458
 21
163.5729582233
  0
LINE
  5
3DA
100
AcDbEntity
  8
00_COMPONENTS_1
100
AcDbLine
 62
7
  6
CONTINUOUS
 10
32.9052609867
 20
167.3287731649
 11
28.0969148557
 21
170.1048102956
  0
LINE
  5
3DB
100
AcDbEntity
  8
00_COMPONENTS_1
100
AcDbLine
 62
7
  6
CONTINUOUS
 10
97.5279993966
 20
132.7058859579
 11
94.7702714685
 21
134.2980249005
  0
LINE
  5
3DC
100
AcDbEntity
  8
00_COMPONENTS_1
100
AcDbLine
 62
7
  6
CONTINUOUS
 10
88.2648619971
 20
138.0538398421
 11
85.5071340691
 21
139.6459787847
  0
LINE
  5
3DD
100
AcDbEntity
  8
00_COMPONENTS_1
100
AcDbLine
 62
7
  6
CONTINUOUS
 10
79.8502562679
 20
142.9119048209
 11
77.0925283398
 21
144.5040437635
  0
LINE
  5
3DE
100
AcDbEntity
  8
00_COMPONENTS_1
100
AcDbLine
 62
7
  6
CONTINUOUS
 10
70.5871188685
 20
148.2598587051
 11
67.8293909404
 21
149.8519976477
  0
LINE
  5
3DF
100
AcDbEntity
  8
00_COMPONENTS_1
100
AcDbLine
 62
7
  6
CONTINUOUS
 10
62.1725131392
 20
153.1179236839
 11
59.4147852111
 21
154.7100626265
  0
LINE
  5
3E0
100
AcDbEntity
  8
00_COMPONENTS_1
100
AcDbLine
 62
7
  6
CONTINUOUS
 10
52.9093757398
 20
158.4658775681
 11
50.1516478117
 21
160.0580165107
  0
LINE
  5
3E1
100
AcDbEntity
  8
00_COMPONENTS_1
100
AcDbLine
 62
7
  6
CONTINUOUS
 10
44.4947700105
 20
163.3239425469
 11
41.7370420825
 21
164.9160814895
  0
LINE
  5
3E2
100
AcDbEntity
  8
00_COMPONENTS_1
100
AcDbLine
 62
7
  6
CONTINUOUS
 10
35.2316326111
 20
168.6718964311
 11
32.473904683
 21
170.2640353737
  0
LINE
  5
3E3
100
AcDbEntity
  8
00_COMPONENTS_1
100
AcDbLine
 62
7
  6
CONTINUOUS
 10
126.8728322167
 20
74.8564669793
 11
125.67074572
 21
77.9999835283
  0
LINE
  5
3E4
100
AcDbEntity
  8
00_COMPONENTS_1
100
AcDbLine
 62
7
  6
CONTINUOUS
 10
118.1045850482
 20
160.0172820674
 11
118.1045850482
 21
163.4465922194
  0
LINE
  5
3E5
100
AcDbEntity
  8
00_COMPONENTS_1
100
AcDbLine
 62
7
  6
CONTINUOUS
 10
118.2107733872
 20
144.64701981
 11
118.2107733872
 21
146.4432933816
  0
LINE
  5
3E6
100
AcDbEntity
  8
00_COMPONENTS_1
100
AcDbLine
 62
7
  6
CONTINUOUS
 10
119.271429143
 20
145.2593860408
 11
119.271429143
 21
147.0556596124
  0
LINE
  5
3E7
100
AcDbEntity
  8
00_COMPONENTS_1
100
AcDbLine
 62
7
  6
CONTINUOUS
 10
97.3866021808
 20
73.3462316784
 11
97.2098247496
 21
73.0880702125
  0
LINE
  5
3E8
100
AcDbEntity
  8
00_COMPONENTS_1
100
AcDbLine
 62
7
  6
CONTINUOUS
 10
66.0617173112
 20
60.2411306321
 11
66.3373229827
 21
60.4002506909
  0
LINE
  5
3E9
100
AcDbEntity
  8
00_COMPONENTS_1
100
AcDbLine
 62
7
  6
CONTINUOUS
 10
55.6986888384
 20
53.9309643968
 11
51.2814314282
 21
51.3806748651
  0
LINE
  5
3EA
100
AcDbEntity
  8
00_COMPONENTS_1
100
AcDbLine
 62
7
  6
CONTINUOUS
 10
66.7580574237
 20
60.1532631662
 11
66.2738502287
 21
59.8737076806
  0
LINE
  5
3EB
100
AcDbEntity
  8
00_COMPONENTS_1
100
AcDbLine
 62
7
  6
CONTINUOUS
 10
68.8194452392
 20
58.4040409643
 11
69.0315799896
 21
58.5265162885
  0
LINE
  5
3EC
100
AcDbEntity
  8
00_COMPONENTS_1
100
AcDbLine
 62
7
  6
CONTINUOUS
 10
61.1579095412
 20
53.0005135704
 11
59.3705707583
 21
51.9685992026
  0
LINE
  5
3ED
100
AcDbEntity
  8
00_COMPONENTS_1
100
AcDbLine
 62
7
  6
CONTINUOUS
 10
137.2672585997
 20
96.3712019568
 11
97.3866021808
 21
73.3462316784
  0
LINE
  5
3EE
100
AcDbEntity
  8
00_COMPONENTS_1
100
AcDbLine
 62
7
  6
CONTINUOUS
 10
136.065172067
 20
94.6157039881
 11
97.2098247496
 21
72.182692662
  0
LINE
  5
3EF
100
AcDbEntity
  8
00_COMPONENTS_1
100
AcDbLine
 62
7
  6
CONTINUOUS
 10
54.8572336063
 20
144.8078765323
 11
53.5505558948
 21
144.5413027878
  0
LINE
  5
3F0
100
AcDbEntity
  8
00_COMPONENTS_1
100
AcDbLine
 62
7
  6
CONTINUOUS
 10
107.3374771424
 20
139.5123317575
 11
104.2038917436
 21
141.3214672029
  0
LINE
  5
3F1
100
AcDbEntity
  8
00_COMPONENTS_1
100
AcDbLine
 62
7
  6
CONTINUOUS
 10
89.6597340137
 20
149.7183506205
 11
86.5261486149
 21
151.5274860659
  0
LINE
  5
3F2
100
AcDbEntity
  8
00_COMPONENTS_1
100
AcDbLine
 62
7
  6
CONTINUOUS
 10
72.9718504121
 20
159.3528867478
 11
72.8305225552
 21
159.4344805781
  0
LINE
  5
3F3
100
AcDbEntity
  8
00_COMPONENTS_1
100
AcDbLine
 62
7
  6
CONTINUOUS
 10
71.981990885
 20
159.9243694835
 11
68.8484054863
 21
161.7335049289
  0
LINE
  5
3F4
100
AcDbEntity
  8
00_COMPONENTS_1
100
AcDbLine
 62
7
  6
CONTINUOUS
 10
55.2941072834
 20
169.5589056108
 11
55.1527794265
 21
169.6404994411
  0
LINE
  5
3F5
100
AcDbEntity
  8
00_COMPONENTS_1
100
AcDbLine
 62
7
  6
CONTINUOUS
 10
54.3042477564
 20
170.1303883465
 11
51.1706623576
 21
171.9395237919
  0
LINE
  5
3F6
100
AcDbEntity
  8
00_COMPONENTS_1
100
AcDbLine
 62
7
  6
CONTINUOUS
 10
90.5082656839
 20
149.2284617151
 11
90.6495935408
 21
149.1468678848
  0
LINE
  5
3F7
100
AcDbEntity
  8
00_COMPONENTS_1
100
AcDbLine
 62
7
  6
CONTINUOUS
 10
108.1860088126
 20
139.0224428521
 11
108.3273366695
 21
138.9408490217
  0
LINE
  5
3F8
100
AcDbEntity
  8
00_COMPONENTS_1
100
AcDbLine
 62
7
  6
CONTINUOUS
 10
91.7949725635
 20
46.6784430096
 11
91.8494823288
 21
46.7509621407
  0
LINE
  5
3F9
100
AcDbEntity
  8
00_COMPONENTS_1
100
AcDbLine
 62
7
  6
CONTINUOUS
 10
91.6658316879
 20
46.7761777485
 11
91.6389563977
 21
46.7406663373
  0
LINE
  5
3FA
100
AcDbEntity
  8
00_COMPONENTS_1
100
AcDbLine
 62
7
  6
CONTINUOUS
 10
61.1825730662
 20
47.2992360583
 11
60.2433411509
 21
46.756973496
  0
LINE
  5
3FB
100
AcDbEntity
  8
00_COMPONENTS_1
100
AcDbLine
 62
7
  6
CONTINUOUS
 10
63.445351069
 20
47.7891554414
 11
61.8896827914
 21
46.8909953038
  0
LINE
  5
3FC
100
AcDbEntity
  8
00_COMPONENTS_1
100
AcDbLine
 62
7
  6
CONTINUOUS
 10
61.6575606012
 20
45.940491987
 11
64.1037682602
 21
47.3528022071
  0
LINE
  5
3FD
100
AcDbEntity
  8
00_COMPONENTS_1
100
AcDbLine
 62
7
  6
CONTINUOUS
 10
64.3531312296
 20
45.8637662909
 11
62.5951870306
 21
44.8488227928
  0
LINE
  5
3FE
100
AcDbEntity
  8
00_COMPONENTS_1
100
AcDbLine
 62
7
  6
CONTINUOUS
 10
64.3780627865
 20
45.7148910033
 11
63.2132019965
 21
45.0423623271
  0
LINE
  5
3FF
100
AcDbEntity
  8
00_COMPONENTS_1
100
AcDbLine
 62
7
  6
CONTINUOUS
 10
70.0567645969
 20
47.5238630444
 11
67.3981407042
 21
45.9889149867
  0
LINE
  5
400
100
AcDbEntity
  8
00_COMPONENTS_1
100
AcDbLine
 62
7
  6
CONTINUOUS
 10
112.8011111848
 20
157.7718858492
 11
114.7105113589
 21
158.0577836656
  0
LINE
  5
401
100
AcDbEntity
  8
00_COMPONENTS_1
100
AcDbLine
 62
7
  6
CONTINUOUS
 10
54.3042477564
 20
171.2734917305
 11
51.1706623576
 21
173.0826271759
  0
LINE
  5
402
100
AcDbEntity
  8
00_COMPONENTS_1
100
AcDbLine
 62
7
  6
CONTINUOUS
 10
55.1527794265
 20
170.7836028251
 11
56.2840780056
 21
170.130462062
  0
LINE
  5
403
100
AcDbEntity
  8
00_COMPONENTS_1
100
AcDbLine
 62
7
  6
CONTINUOUS
 10
68.8484054863
 20
162.8766083129
 11
71.981990885
 21
161.0674728675
  0
LINE
  5
404
100
AcDbEntity
  8
00_COMPONENTS_1
100
AcDbLine
 62
7
  6
CONTINUOUS
 10
72.8305225552
 20
160.5775839621
 11
73.9618211342
 21
159.9244431989
  0
LINE
  5
405
100
AcDbEntity
  8
00_COMPONENTS_1
100
AcDbLine
 62
7
  6
CONTINUOUS
 10
86.5261486149
 20
152.6705894499
 11
89.6597340137
 21
150.8614540045
  0
LINE
  5
406
100
AcDbEntity
  8
00_COMPONENTS_1
100
AcDbLine
 62
7
  6
CONTINUOUS
 10
90.5082656839
 20
150.3715650991
 11
91.6395642629
 21
149.7184243359
  0
LINE
  5
407
100
AcDbEntity
  8
00_COMPONENTS_1
100
AcDbLine
 62
7
  6
CONTINUOUS
 10
104.2038917436
 20
142.4645705869
 11
107.3374771424
 21
140.6554351415
  0
LINE
  5
408
100
AcDbEntity
  8
00_COMPONENTS_1
100
AcDbLine
 62
7
  6
CONTINUOUS
 10
108.1860088126
 20
140.1655462361
 11
109.3173073916
 21
139.5124054729
  0
LINE
  5
409
100
AcDbEntity
  8
00_COMPONENTS_1
100
AcDbLine
 62
7
  6
CONTINUOUS
 10
108.1860088126
 20
140.9819984738
 11
108.0445556296
 21
141.0636646596
  0
LINE
  5
40A
100
AcDbEntity
  8
00_COMPONENTS_1
100
AcDbLine
 62
7
  6
CONTINUOUS
 10
90.5082656839
 20
151.1880173368
 11
90.3668125009
 21
151.2696835226
  0
LINE
  5
40B
100
AcDbEntity
  8
00_COMPONENTS_1
100
AcDbLine
 62
7
  6
CONTINUOUS
 10
72.8305225552
 20
161.3940361999
 11
72.6890693722
 21
161.4757023856
  0
LINE
  5
40C
100
AcDbEntity
  8
00_COMPONENTS_1
100
AcDbLine
 62
7
  6
CONTINUOUS
 10
55.1527794265
 20
171.6000550629
 11
55.0113262435
 21
171.6817212486
  0
LINE
  5
40D
100
AcDbEntity
  8
00_COMPONENTS_1
100
AcDbLine
 62
7
  6
CONTINUOUS
 10
54.3042477564
 20
173.0371369515
 11
55.1527794265
 21
172.5472480461
  0
LINE
  5
40E
100
AcDbEntity
  8
00_COMPONENTS_1
100
AcDbLine
 62
7
  6
CONTINUOUS
 10
71.981990885
 20
162.8311180885
 11
72.8305225552
 21
162.3412291831
  0
LINE
  5
40F
100
AcDbEntity
  8
00_COMPONENTS_1
100
AcDbLine
 62
7
  6
CONTINUOUS
 10
89.6597340137
 20
152.6250992255
 11
90.5082656839
 21
152.1352103201
  0
LINE
  5
410
100
AcDbEntity
  8
00_COMPONENTS_1
100
AcDbLine
 62
7
  6
CONTINUOUS
 10
107.3374771424
 20
142.4190803625
 11
108.1860088126
 21
141.9291914571
  0
LINE
  5
411
100
AcDbEntity
  8
00_COMPONENTS_1
100
AcDbLine
 62
7
  6
CONTINUOUS
 10
128.2870398671
 20
74.0399504429
 11
128.2870398671
 21
44.4825629428
  0
LINE
  5
412
100
AcDbEntity
  8
00_COMPONENTS_1
100
AcDbLine
 62
7
  6
CONTINUOUS
 10
128.8779121141
 20
146.8048375366
 11
128.8779121141
 21
148.4378423708
  0
LINE
  5
413
100
AcDbEntity
  8
00_COMPONENTS_1
100
AcDbLine
 62
7
  6
CONTINUOUS
 10
128.8829712309
 20
42.295449009
 11
128.8829712309
 21
43.9284538432
  0
LINE
  5
414
100
AcDbEntity
  8
00_COMPONENTS_1
100
AcDbLine
 62
7
  6
CONTINUOUS
 10
129.206264846
 20
75.9586921875
 11
129.206264846
 21
46.4013046871
  0
LINE
  5
415
100
AcDbEntity
  8
00_COMPONENTS_1
100
AcDbLine
 62
7
  6
CONTINUOUS
 10
129.418393642
 20
147.9333711373
 11
129.418393642
 21
149.5663759715
  0
LINE
  5
416
100
AcDbEntity
  8
00_COMPONENTS_1
100
AcDbLine
 62
7
  6
CONTINUOUS
 10
129.4254646803
 20
45.0581490205
 11
129.4254646803
 21
43.4251441862
  0
LINE
  5
417
100
AcDbEntity
  8
00_COMPONENTS_1
100
AcDbLine
 62
7
  6
CONTINUOUS
 10
91.061263129
 20
46.0080755085
 11
91.439095986
 21
46.4765826671
  0
LINE
  5
418
100
AcDbEntity
  8
00_COMPONENTS_1
100
AcDbLine
 62
7
  6
CONTINUOUS
 10
97.2098247496
 20
61.5681612389
 11
125.67074572
 21
77.9999835283
  0
LINE
  5
419
100
AcDbEntity
  8
00_COMPONENTS_1
100
AcDbLine
 62
7
  6
CONTINUOUS
 10
97.3866021808
 20
57.832685753
 11
126.8728322065
 21
74.8564669749
  0
LINE
  5
41A
100
AcDbEntity
  8
00_COMPONENTS_1
100
AcDbLine
 62
7
  6
CONTINUOUS
 10
73.3764319671
 20
43.7249455338
 11
68.9591745569
 21
41.1746560021
  0
LINE
  5
41B
100
AcDbEntity
  8
00_COMPONENTS_1
100
AcDbLine
 62
7
  6
CONTINUOUS
 10
37.1794904776
 20
155.0138953953
 11
35.8728127661
 21
154.7473216508
  0
LINE
  5
41C
100
AcDbEntity
  8
00_COMPONENTS_1
100
AcDbLine
 62
7
  6
CONTINUOUS
 10
118.2107733872
 20
146.4432933816
 11
109.3719018229
 21
151.5463028131
  0
LINE
  5
41D
100
AcDbEntity
  8
00_COMPONENTS_1
100
AcDbLine
 62
7
  6
CONTINUOUS
 10
100.5330302585
 20
156.6493122446
 11
91.6941586942
 21
161.7523216762
  0
LINE
  5
41E
100
AcDbEntity
  8
00_COMPONENTS_1
100
AcDbLine
 62
7
  6
CONTINUOUS
 10
56.3386724368
 20
182.1643594022
 11
65.1775440012
 21
177.0613499707
  0
LINE
  5
41F
100
AcDbEntity
  8
00_COMPONENTS_1
100
AcDbLine
 62
7
  6
CONTINUOUS
 10
74.0164155655
 20
171.9583405392
 11
82.8552871299
 21
166.8553311077
  0
LINE
  5
420
100
AcDbEntity
  8
00_COMPONENTS_1
100
AcDbLine
 62
7
  6
CONTINUOUS
 10
57.3993281927
 20
182.776725633
 11
66.238199757
 21
177.6737162015
  0
LINE
  5
421
100
AcDbEntity
  8
00_COMPONENTS_1
100
AcDbLine
 62
7
  6
CONTINUOUS
 10
75.0770713213
 20
172.57070677
 11
83.9159428857
 21
167.4676973385
  0
LINE
  5
422
100
AcDbEntity
  8
00_COMPONENTS_1
100
AcDbLine
 62
7
  6
CONTINUOUS
 10
92.75481445
 20
162.364687907
 11
101.5936860144
 21
157.2616784755
  0
LINE
  5
423
100
AcDbEntity
  8
00_COMPONENTS_1
100
AcDbLine
 62
7
  6
CONTINUOUS
 10
110.4325575787
 20
152.158669044
 11
119.271429143
 21
147.0556596124
  0
LINE
  5
424
100
AcDbEntity
  8
00_COMPONENTS_1
100
AcDbLine
 62
7
  6
CONTINUOUS
 10
120.8624260246
 20
146.1779430356
 11
108.8415606971
 21
153.1180358625
  0
LINE
  5
425
100
AcDbEntity
  8
00_COMPONENTS_1
100
AcDbLine
 62
7
  6
CONTINUOUS
 10
103.1846828959
 20
156.3839618986
 11
91.1638175684
 21
163.3240547255
  0
LINE
  5
426
100
AcDbEntity
  8
00_COMPONENTS_1
100
AcDbLine
 62
7
  6
CONTINUOUS
 10
85.5069397673
 20
166.5899807616
 11
73.4860744398
 21
173.5300735885
  0
LINE
  5
427
100
AcDbEntity
  8
00_COMPONENTS_1
100
AcDbLine
 62
7
  6
CONTINUOUS
 10
67.8291966386
 20
176.7959996247
 11
55.8083313111
 21
183.7360924515
  0
LINE
  5
428
100
AcDbEntity
  8
00_COMPONENTS_1
100
AcDbLine
 62
7
  6
CONTINUOUS
 10
135.7823281769
 20
47.0952591295
 11
135.7823281769
 21
50.1979739584
  0
LINE
  5
429
100
AcDbEntity
  8
00_COMPONENTS_1
100
AcDbLine
 62
7
  6
CONTINUOUS
 10
135.7823281769
 20
149.8112632044
 11
135.7823281769
 21
153.2405733564
  0
LINE
  5
42A
100
AcDbEntity
  8
00_COMPONENTS_1
100
AcDbLine
 62
7
  6
CONTINUOUS
 10
136.065172067
 20
94.6157039881
 11
136.065172067
 21
56.8932923167
  0
LINE
  5
42B
100
AcDbEntity
  8
00_COMPONENTS_1
100
AcDbLine
 62
7
  6
CONTINUOUS
 10
136.2773032181
 20
50.4837462258
 11
136.2773032181
 21
57.0157655629
  0
LINE
  5
42C
100
AcDbEntity
  8
00_COMPONENTS_1
100
AcDbLine
 62
7
  6
CONTINUOUS
 10
137.2672585997
 20
142.4219382829
 11
137.2672585997
 21
96.3712019568
  0
LINE
  5
42D
100
AcDbEntity
  8
00_COMPONENTS_1
100
AcDbLine
 62
7
  6
CONTINUOUS
 10
137.4793897509
 20
142.5444115291
 11
137.4793897509
 21
149.0764308661
  0
LINE
  5
42E
100
AcDbEntity
  8
00_COMPONENTS_1
100
AcDbLine
 62
7
  6
CONTINUOUS
 10
129.206264846
 20
75.9586921875
 11
128.2870398671
 21
74.039950443
  0
LINE
  5
42F
100
AcDbEntity
  8
00_COMPONENTS_1
100
AcDbLine
 62
7
  6
CONTINUOUS
 10
136.065172067
 20
94.6157039881
 11
137.2672585997
 21
96.3712019568
  0
LINE
  5
430
100
AcDbEntity
  8
00_COMPONENTS_1
100
AcDbLine
 62
7
  6
CONTINUOUS
 10
91.7949725635
 20
46.6784430096
 11
91.4411501355
 21
46.4739610504
  0
LINE
  5
431
100
AcDbEntity
  8
00_COMPONENTS_1
100
AcDbLine
 62
7
  6
CONTINUOUS
 10
78.8356526698
 20
42.7944947074
 11
77.0483138869
 21
41.7625803396
  0
LINE
  5
432
100
AcDbEntity
  8
00_COMPONENTS_1
100
AcDbLine
 62
7
  6
CONTINUOUS
 10
88.0881852495
 20
47.442780887
 11
94.8763820868
 21
51.3619247642
  0
LINE
  5
433
100
AcDbEntity
  8
00_COMPONENTS_1
100
AcDbLine
 62
7
  6
CONTINUOUS
 10
94.0479342324
 20
49.5307809977
 11
87.2597373952
 21
45.6116371205
  0
LINE
  5
434
100
AcDbEntity
  8
00_COMPONENTS_1
100
AcDbLine
 62
7
  6
CONTINUOUS
 10
78.8603161949
 20
37.0932171953
 11
77.9210842796
 21
36.550954633
  0
LINE
  5
435
100
AcDbEntity
  8
00_COMPONENTS_1
100
AcDbLine
 62
7
  6
CONTINUOUS
 10
95.1233680562
 20
167.9779047122
 11
97.0327682302
 21
168.2638025286
  0
LINE
  5
436
100
AcDbEntity
  8
00_COMPONENTS_1
100
AcDbLine
 62
7
  6
CONTINUOUS
 10
81.1230941977
 20
37.5831365784
 11
79.5674259201
 21
36.6849764408
  0
LINE
  5
437
100
AcDbEntity
  8
00_COMPONENTS_1
100
AcDbLine
 62
7
  6
CONTINUOUS
 10
79.3353037299
 20
35.734473124
 11
81.7815113889
 21
37.1467833441
  0
LINE
  5
438
100
AcDbEntity
  8
00_COMPONENTS_1
100
AcDbLine
 62
7
  6
CONTINUOUS
 10
82.0308743582
 20
35.6577474279
 11
80.2729301592
 21
34.6428039298
  0
LINE
  5
439
100
AcDbEntity
  8
00_COMPONENTS_1
100
AcDbLine
 62
7
  6
CONTINUOUS
 10
82.0558059152
 20
35.5088721403
 11
80.8909451252
 21
34.8363434641
  0
LINE
  5
43A
100
AcDbEntity
  8
00_COMPONENTS_1
100
AcDbLine
 62
7
  6
CONTINUOUS
 10
87.7345077255
 20
37.3178441814
 11
85.0758838329
 21
35.7828961237
  0
LINE
  5
43B
100
AcDbEntity
  8
00_COMPONENTS_1
100
AcDbLine
 62
7
  6
CONTINUOUS
 10
77.4456249275
 20
178.1839235752
 11
79.3550251016
 21
178.4698213916
  0
LINE
  5
43C
100
AcDbEntity
  8
00_COMPONENTS_1
100
AcDbLine
 62
7
  6
CONTINUOUS
 10
137.4793897509
 20
149.0764308661
 11
135.9944593281
 21
149.9337364506
  0
LINE
  5
43D
100
AcDbEntity
  8
00_COMPONENTS_1
100
AcDbLine
 62
7
  6
CONTINUOUS
 10
118.3166648786
 20
160.139784943
 11
118.1045850482
 21
160.2622265202
  0
LINE
  5
43E
100
AcDbEntity
  8
00_COMPONENTS_1
100
AcDbLine
 62
7
  6
CONTINUOUS
 10
100.6389217499
 20
170.345803806
 11
100.4268419195
 21
170.4682453832
  0
LINE
  5
43F
100
AcDbEntity
  8
00_COMPONENTS_1
100
AcDbLine
 62
7
  6
CONTINUOUS
 10
82.9611786212
 20
180.551822669
 11
82.7490987909
 21
180.6742642462
  0
LINE
  5
440
100
AcDbEntity
  8
00_COMPONENTS_1
100
AcDbLine
 62
7
  6
CONTINUOUS
 10
135.7823281769
 20
153.2405733564
 11
121.0744458938
 21
161.7319810504
  0
LINE
  5
441
100
AcDbEntity
  8
00_COMPONENTS_1
100
AcDbLine
 62
7
  6
CONTINUOUS
 10
118.1045850482
 20
163.4465922194
 11
103.3967027652
 21
171.9379999134
  0
LINE
  5
442
100
AcDbEntity
  8
00_COMPONENTS_1
100
AcDbLine
 62
7
  6
CONTINUOUS
 10
100.4268419195
 20
173.6526110824
 11
85.7189596365
 21
182.1440187764
  0
LINE
  5
443
100
AcDbEntity
  8
00_COMPONENTS_1
100
AcDbLine
 62
7
  6
CONTINUOUS
 10
82.7490987909
 20
183.8586299454
 11
68.0412165078
 21
192.3500376394
  0
LINE
  5
444
100
AcDbEntity
  8
00_COMPONENTS_1
100
AcDbLine
 62
7
  6
CONTINUOUS
 10
128.2870398671
 20
44.4825629428
 11
129.206264846
 21
46.4013046871
  0
LINE
  5
445
100
AcDbEntity
  8
00_COMPONENTS_1
100
AcDbLine
 62
7
  6
CONTINUOUS
 10
129.4254646803
 20
45.0581490205
 11
128.8829712309
 21
43.9284538432
  0
LINE
  5
446
100
AcDbEntity
  8
00_COMPONENTS_1
100
AcDbLine
 62
7
  6
CONTINUOUS
 10
128.8829712309
 20
42.295449009
 11
129.4254646803
 21
43.4251441862
  0
LINE
  5
447
100
AcDbEntity
  8
00_COMPONENTS_1
100
AcDbLine
 62
7
  6
CONTINUOUS
 10
91.0541750958
 20
33.5189266708
 11
86.6369176856
 21
30.9686371391
  0
LINE
  5
448
100
AcDbEntity
  8
00_COMPONENTS_1
100
AcDbLine
 62
7
  6
CONTINUOUS
 10
96.0431034182
 20
34.5623758915
 11
94.8763820868
 21
33.8887730376
  0
LINE
  5
449
100
AcDbEntity
  8
00_COMPONENTS_1
100
AcDbLine
 62
7
  6
CONTINUOUS
 10
136.2773032181
 20
57.0157655629
 11
136.065172067
 21
56.8932923167
  0
LINE
  5
44A
100
AcDbEntity
  8
00_COMPONENTS_1
100
AcDbLine
 62
7
  6
CONTINUOUS
 10
136.2773032181
 20
50.4837462258
 11
129.206264846
 21
46.4013046871
  0
LINE
  5
44B
100
AcDbEntity
  8
00_COMPONENTS_1
100
AcDbLine
 62
7
  6
CONTINUOUS
 10
97.3397908587
 20
26.8193891274
 11
102.3009723775
 21
29.6837115151
  0
LINE
  5
44C
100
AcDbEntity
  8
00_COMPONENTS_1
100
AcDbLine
 62
7
  6
CONTINUOUS
 10
128.2870398671
 20
44.4825629428
 11
102.4777498088
 21
29.5816513265
  0
LINE
  5
44D
100
AcDbEntity
  8
00_COMPONENTS_1
100
AcDbLine
 62
7
  6
CONTINUOUS
 10
129.4254646803
 20
45.0581490205
 11
96.3059371334
 21
25.9366950155
  0
LINE
  5
44E
100
AcDbEntity
  8
00_COMPONENTS_1
100
AcDbLine
 62
7
  6
CONTINUOUS
 10
128.8829712309
 20
43.9284538432
 11
97.0130468585
 21
25.528454261
  0
LINE
  5
44F
100
AcDbEntity
  8
00_COMPONENTS_1
100
AcDbLine
 62
7
  6
CONTINUOUS
 10
129.4254646803
 20
43.4251441862
 11
135.7823281769
 21
47.0952591295
  0
LINE
  5
450
100
AcDbEntity
  8
00_COMPONENTS_1
100
AcDbLine
 62
7
  6
CONTINUOUS
 10
128.8829712309
 20
42.295449009
 11
97.9506732879
 21
24.4367850668
  0
LINE
  5
451
100
AcDbEntity
  8
00_COMPONENTS_1
100
AcDbLine
 62
7
  6
CONTINUOUS
 10
59.7234365348
 20
188.3642821062
 11
61.6772819729
 21
188.6758402546
  0
ARC
  5
452
100
AcDbEntity
  8
00_COMPONENTS_1
100
AcDbCircle
 62
7
  6
CONTINUOUS
 10
151.5522029293
 20
1.2568370745
 40
75.2224103432
100
AcDbArc
 50
142.7955846379
 51
143.0478919088
  0
ARC
  5
453
100
AcDbEntity
  8
00_COMPONENTS
100
AcDbCircle
 62
7
  6
CONTINUOUS
 10
87.5349860532
 20
80.5418435326
 40
28.8736778601
100
AcDbArc
 50
186.2029082196
 51
188.6698208573
  0
ARC
  5
454
100
AcDbEntity
  8
00_COMPONENTS_1
100
AcDbCircle
 62
7
  6
CONTINUOUS
 10
92.7433817417
 20
49.4907346965
 40
4.9289741612
100
AcDbArc
 50
217.2007982511
 51
218.1667029534
  0
ARC
  5
455
100
AcDbEntity
  8
00_COMPONENTS_1
100
AcDbCircle
 62
7
  6
CONTINUOUS
 10
92.5138320368
 20
49.3545472288
 40
4.9067712597
100
AcDbArc
 50
217.4409457207
 51
218.9455818011
  0
ARC
  5
456
100
AcDbEntity
  8
00_COMPONENTS_1
100
AcDbCircle
 62
7
  6
CONTINUOUS
 10
75.9704047612
 20
140.6004011385
 40
4.2607993107
100
AcDbArc
 50
240.1956898972
 51
240.6397399624
  0
ARC
  5
457
100
AcDbEntity
  8
00_COMPONENTS_1
100
AcDbCircle
 62
7
  6
CONTINUOUS
 10
93.6481478892
 20
130.3943822744
 40
4.2607993094
100
AcDbArc
 50
240.1956898972
 51
240.6397399624
  0
ARC
  5
458
100
AcDbEntity
  8
00_COMPONENTS_1
100
AcDbCircle
 62
7
  6
CONTINUOUS
 10
58.2926616309
 20
150.8064199988
 40
4.2607993076
100
AcDbArc
 50
240.1956898971
 51
240.6397399625
  0
ARC
  5
459
100
AcDbEntity
  8
00_COMPONENTS_1
100
AcDbCircle
 62
7
  6
CONTINUOUS
 10
40.6149185023
 20
161.0124388618
 40
4.2607993076
100
AcDbArc
 50
240.1956898971
 51
240.6397399625
  0
ARC
  5
45A
100
AcDbEntity
  8
00_COMPONENTS_1
100
AcDbCircle
 62
7
  6
CONTINUOUS
 10
94.5728377254
 20
155.9690610865
 40
3.8794296132
100
AcDbArc
 50
161.798532977
 51
165.3022115348
  0
ARC
  5
45B
100
AcDbEntity
  8
00_COMPONENTS_1
100
AcDbCircle
 62
7
  6
CONTINUOUS
 10
76.8950945967
 20
166.1750799495
 40
3.8794296132
100
AcDbArc
 50
161.798532977
 51
165.3022115348
  0
ARC
  5
45C
100
AcDbEntity
  8
00_COMPONENTS_1
100
AcDbCircle
 62
7
  6
CONTINUOUS
 10
59.2144073491
 20
176.3820391699
 40
3.8763418246
100
AcDbArc
 50
161.8005340859
 51
165.2534338183
  0
ARC
  5
45D
100
AcDbEntity
  8
00_COMPONENTS_1
100
AcDbCircle
 62
7
  6
CONTINUOUS
 10
112.1673682255
 20
145.7878713306
 40
3.7927069835
100
AcDbArc
 50
162.064114618
 51
164.3228490172
  0
ARC
  5
45E
100
AcDbEntity
  8
00_COMPONENTS_1
100
AcDbCircle
 62
7
  6
CONTINUOUS
 10
91.6618256798
 20
48.8431355905
 40
3.4497184104
100
AcDbArc
 50
220.4152927928
 51
221.3422237457
  0
ARC
  5
45F
100
AcDbEntity
  8
00_COMPONENTS_1
100
AcDbCircle
 62
7
  6
CONTINUOUS
 10
91.2843711427
 20
48.4726356239
 40
2.9205174824
100
AcDbArc
 50
226.7340739479
 51
229.2575230026
  0
ARC
  5
460
100
AcDbEntity
  8
00_COMPONENTS_1
100
AcDbCircle
 62
7
  6
CONTINUOUS
 10
88.9673519496
 20
46.5641700802
 40
2.9038139044
100
AcDbArc
 50
0.0149671861
 51
2.2765044679
  0
ARC
  5
461
100
AcDbEntity
  8
00_COMPONENTS_1
100
AcDbCircle
 62
7
  6
CONTINUOUS
 10
44.6997648793
 20
130.3069236896
 40
2.479219526
100
AcDbArc
 50
245.0328081121
 51
247.8307316357
  0
ARC
  5
462
100
AcDbEntity
  8
00_COMPONENTS_1
100
AcDbCircle
 62
7
  6
CONTINUOUS
 10
80.0552511366
 20
109.8948859636
 40
2.479219526
100
AcDbArc
 50
245.0328081121
 51
247.8307316357
  0
ARC
  5
463
100
AcDbEntity
  8
00_COMPONENTS_1
100
AcDbCircle
 62
7
  6
CONTINUOUS
 10
62.377508008
 20
120.1009048266
 40
2.4792195259
100
AcDbArc
 50
245.0328081121
 51
247.8307316357
  0
ARC
  5
464
100
AcDbEntity
  8
00_COMPONENTS_1
100
AcDbCircle
 62
7
  6
CONTINUOUS
 10
44.6397268693
 20
130.1611876753
 40
2.3216024105
100
AcDbArc
 50
247.8457110022
 51
249.4622000934
  0
ARC
  5
465
100
AcDbEntity
  8
00_COMPONENTS_1
100
AcDbCircle
 62
7
  6
CONTINUOUS
 10
79.9952131266
 20
109.7491499491
 40
2.3216024103
100
AcDbArc
 50
247.8457110021
 51
249.4622000935
  0
ARC
  5
466
100
AcDbEntity
  8
00_COMPONENTS_1
100
AcDbCircle
 62
7
  6
CONTINUOUS
 10
62.3174699979
 20
119.9551688121
 40
2.3216024102
100
AcDbArc
 50
247.8457110021
 51
249.4622000935
  0
ARC
  5
467
100
AcDbEntity
  8
00_COMPONENTS_1
100
AcDbCircle
 62
7
  6
CONTINUOUS
 10
90.4616336709
 20
46.9425733883
 40
1.1620333792
100
AcDbArc
 50
258.6450147874
 51
263.0165991196
  0
ARC
  5
468
100
AcDbEntity
  8
00_COMPONENTS_1
100
AcDbCircle
 62
7
  6
CONTINUOUS
 10
90.9232478159
 20
46.3141902723
 40
1.140065173
100
AcDbArc
 50
276.7546855035
 51
281.9163007962
  0
ARC
  5
469
100
AcDbEntity
  8
00_COMPONENTS_1
100
AcDbCircle
 62
7
  6
CONTINUOUS
 10
90.9377276085
 20
46.2457456062
 40
1.0701056462
100
AcDbArc
 50
281.9144200261
 51
288.6549607946
  0
ARC
  5
46A
100
AcDbEntity
  8
00_COMPONENTS_1
100
AcDbCircle
 62
7
  6
CONTINUOUS
 10
90.7439810047
 20
46.0684899003
 40
1.0122958352
100
AcDbArc
 50
288.6854409256
 51
299.9783910179
  0
ARC
  5
46B
100
AcDbEntity
  8
00_COMPONENTS_1
100
AcDbCircle
 62
7
  6
CONTINUOUS
 10
56.7505821439
 20
143.0285182542
 40
0.6458910623
100
AcDbArc
 50
176.7700819896
 51
190.7273241274
  0
ARC
  5
46C
100
AcDbEntity
  8
00_COMPONENTS_1
100
AcDbCircle
 62
7
  6
CONTINUOUS
 10
39.1003168217
 20
153.2167799627
 40
0.6376991757
100
AcDbArc
 50
176.9765761008
 51
191.1680797407
  0
ARC
  5
46D
100
AcDbEntity
  8
00_COMPONENTS_1
100
AcDbCircle
 62
7
  6
CONTINUOUS
 10
83.0825417259
 20
127.8242050315
 40
0.6376991758
100
AcDbArc
 50
176.9765760983
 51
191.16807974
  0
ARC
  5
46E
100
AcDbEntity
  8
00_COMPONENTS_1
100
AcDbCircle
 62
7
  6
CONTINUOUS
 10
66.15087374
 20
61.4727476988
 40
0.2464674205
100
AcDbArc
 50
60.0690222311
 51
64.3372927529
  0
SPLINE
  5
46F
100
AcDbEntity
  8
00_COMPONENTS
100
AcDbSpline
 62
7
  6
CONTINUOUS
 70
0
 71
3
 72
13
 73
9
 74
0
 42
0.0000001
 43
0.0000001
 44
0.0000000001
 40
0.0
 40
0.0
 40
0.0
 40
0.0
 40
0.2997764616
 40
0.4364961813
 40
0.5639173038
 40
0.792645558
 40
0.8978646161
 40
1.0
 40
1.0
 40
1.0
 40
1.0
 10
58.9384159826
 20
60.3774963787
 30
0.0
 10
58.8181811274
 20
60.2777824598
 30
0.0
 10
58.6300670584
 20
60.1464084912
 30
0.0
 10
58.3633671003
 20
60.0213463711
 30
0.0
 10
58.118603088
 20
59.9425721249
 30
0.0
 10
57.8736878419
 20
59.9187817701
 30
0.0
 10
57.6496720728
 20
59.9645563783
 30
0.0
 10
57.5498356548
 20
60.0084338669
 30
0.0
 10
57.5037463718
 20
60.0350430208
 30
0.0
  0
SPLINE
  5
470
100
AcDbEntity
  8
00_COMPONENTS
100
AcDbSpline
 62
7
  6
CONTINUOUS
 70
0
 71
3
 72
11
 73
7
 74
0
 42
0.0000001
 43
0.0000001
 44
0.0000000001
 40
0.0
 40
0.0
 40
0.0
 40
0.0
 40
0.2568421631
 40
0.5187836685
 40
0.7708833523
 40
1.0
 40
1.0
 40
1.0
 40
1.0
 10
49.1157740507
 20
68.4054490278
 30
0.0
 10
48.9697353512
 20
68.2519382269
 30
0.0
 10
48.7040828563
 20
67.9130364562
 30
0.0
 10
48.3995231268
 20
67.3515157603
 30
0.0
 10
48.2016623246
 20
66.7681451595
 30
0.0
 10
48.1486439048
 20
66.3707229349
 30
0.0
 10
48.1486439048
 20
66.1817154505
 30
0.0
  0
SPLINE
  5
471
100
AcDbEntity
  8
00_COMPONENTS
100
AcDbSpline
 62
7
  6
CONTINUOUS
 70
0
 71
3
 72
11
 73
7
 74
0
 42
0.0000001
 43
0.0000001
 44
0.0000000001
 40
0.0
 40
0.0
 40
0.0
 40
0.0
 40
0.2897760192
 40
0.5490665568
 40
0.782224561
 40
1.0
 40
1.0
 40
1.0
 40
1.0
 10
48.1486439048
 20
66.1817154505
 30
0.0
 10
48.1486439048
 20
66.0699801013
 30
0.0
 10
48.1655361302
 20
65.8575369719
 30
0.0
 10
48.2516359529
 20
65.5656693064
 30
0.0
 10
48.3964496576
 20
65.3288242004
 30
0.0
 10
48.5325442116
 20
65.214451975
 30
0.0
 10
48.6052668725
 20
65.1724663327
 30
0.0
  0
SPLINE
  5
472
100
AcDbEntity
  8
00_COMPONENTS
100
AcDbSpline
 62
7
  6
CONTINUOUS
 70
0
 71
3
 72
10
 73
6
 74
0
 42
0.0000001
 43
0.0000001
 44
0.0000000001
 40
0.0
 40
0.0
 40
0.0
 40
0.0
 40
0.2862539213
 40
0.5500400688
 40
1.0
 40
1.0
 40
1.0
 40
1.0
 10
58.4315417015
 20
75.6644381095
 30
0.0
 10
58.3903286233
 20
75.6258123407
 30
0.0
 10
58.3062948795
 20
75.5562548026
 30
0.0
 10
58.1380625328
 20
75.4534004117
 30
0.0
 10
57.9980181781
 20
75.4096329048
 30
0.0
 10
57.9092438092
 20
75.4081328791
 30
0.0
  0
SPLINE
  5
473
100
AcDbEntity
  8
00_COMPONENTS
100
AcDbSpline
 62
7
  6
CONTINUOUS
 70
0
 71
3
 72
10
 73
6
 74
0
 42
0.0000001
 43
0.0000001
 44
0.0000000001
 40
0.0
 40
0.0
 40
0.0
 40
0.0
 40
0.4509095738
 40
0.7143166998
 40
1.0
 40
1.0
 40
1.0
 40
1.0
 10
57.4627725526
 20
75.4005888285
 30
0.0
 10
57.3765858354
 20
75.3991325265
 30
0.0
 10
57.2407121456
 20
75.3578116704
 30
0.0
 10
57.0766181506
 20
75.2599496112
 30
0.0
 10
56.9945090482
 20
75.193731878
 30
0.0
 10
56.9541557094
 20
75.1569322713
 30
0.0
  0
SPLINE
  5
474
100
AcDbEntity
  8
00_COMPONENTS
100
AcDbSpline
 62
7
  6
CONTINUOUS
 70
0
 71
3
 72
11
 73
7
 74
0
 42
0.0000001
 43
0.0000001
 44
0.0000000001
 40
0.0
 40
0.0
 40
0.0
 40
0.0
 40
0.2177754527
 40
0.4509334721
 40
0.7102239862
 40
1.0
 40
1.0
 40
1.0
 40
1.0
 10
57.5037463718
 20
60.0350430208
 30
0.0
 10
57.4310237091
 20
60.0770286713
 30
0.0
 10
57.2949291339
 20
60.1914008897
 30
0.0
 10
57.1501154481
 20
60.4282460148
 30
0.0
 10
57.0640156186
 20
60.7201136711
 30
0.0
 10
57.0471234048
 20
60.9325567923
 30
0.0
 10
57.0471234048
 20
61.0442921399
 30
0.0
  0
SPLINE
  5
475
100
AcDbEntity
  8
00_COMPONENTS
100
AcDbSpline
 62
7
  6
CONTINUOUS
 70
0
 71
3
 72
11
 73
7
 74
0
 42
0.0000001
 43
0.0000001
 44
0.0000000001
 40
0.0
 40
0.0
 40
0.0
 40
0.0
 40
0.2291167162
 40
0.4812164174
 40
0.7431578953
 40
1.0
 40
1.0
 40
1.0
 40
1.0
 10
57.0471234048
 20
61.0442921399
 30
0.0
 10
57.0471234048
 20
61.2332995912
 30
0.0
 10
57.1001418033
 20
61.630721696
 30
0.0
 10
57.2980024706
 20
62.2140920891
 30
0.0
 10
57.6025619988
 20
62.7756124681
 30
0.0
 10
57.8682141421
 20
63.1145141709
 30
0.0
 10
58.0142527391
 20
63.2680248641
 30
0.0
  0
SPLINE
  5
476
100
AcDbEntity
  8
00_COMPONENTS
100
AcDbSpline
 62
7
  6
CONTINUOUS
 70
0
 71
3
 72
10
 73
6
 74
0
 42
0.0000001
 43
0.0000001
 44
0.0000000001
 40
0.0
 40
0.0
 40
0.0
 40
0.0
 40
0.2856833002
 40
0.5490904262
 40
1.0
 40
1.0
 40
1.0
 40
1.0
 10
64.0252529609
 20
71.0745247261
 30
0.0
 10
64.0656062997
 20
71.1113243328
 30
0.0
 10
64.1477154021
 20
71.177542066
 30
0.0
 10
64.311809397
 20
71.2754041252
 30
0.0
 10
64.4476830869
 20
71.3167249813
 30
0.0
 10
64.5338698041
 20
71.3181812833
 30
0.0
  0
SPLINE
  5
477
100
AcDbEntity
  8
00_COMPONENTS
100
AcDbSpline
 62
7
  6
CONTINUOUS
 70
0
 71
3
 72
10
 73
6
 74
0
 42
0.0000001
 43
0.0000001
 44
0.0000000001
 40
0.0
 40
0.0
 40
0.0
 40
0.0
 40
0.4499599312
 40
0.7137460787
 40
1.0
 40
1.0
 40
1.0
 40
1.0
 10
64.9803410607
 20
71.3257253339
 30
0.0
 10
65.0691154296
 20
71.3272253595
 30
0.0
 10
65.2091597843
 20
71.3709928665
 30
0.0
 10
65.377392131
 20
71.4738472574
 30
0.0
 10
65.4614258748
 20
71.5434047955
 30
0.0
 10
65.502638953
 20
71.5820305643
 30
0.0
  0
SPLINE
  5
478
100
AcDbEntity
  8
00_COMPONENTS_1
100
AcDbSpline
 62
7
  6
CONTINUOUS
 70
0
 71
3
 72
9
 73
5
 74
0
 42
0.0000001
 43
0.0000001
 44
0.0000000001
 40
0.0
 40
0.0
 40
0.0
 40
0.0
 40
0.2572521568
 40
1.0
 40
1.0
 40
1.0
 40
1.0
 10
25.9081080046
 20
160.4991129197
 30
0.0
 10
25.9064118211
 20
160.4867801228
 30
0.0
 10
25.9005720253
 20
160.4387415883
 30
0.0
 10
25.8978154452
 20
160.3903080293
 30
0.0
 10
25.8978154452
 20
160.3543651322
 30
0.0
  0
SPLINE
  5
479
100
AcDbEntity
  8
00_COMPONENTS_1
100
AcDbSpline
 62
7
  6
CONTINUOUS
 70
0
 71
3
 72
10
 73
6
 74
0
 42
0.0000001
 43
0.0000001
 44
0.0000000001
 40
0.0
 40
0.0
 40
0.0
 40
0.0
 40
0.514877611
 40
0.7649457579
 40
1.0
 40
1.0
 40
1.0
 40
1.0
 10
105.8199112837
 20
137.470541403
 30
0.0
 10
105.3827744073
 20
138.0472941841
 30
0.0
 10
104.8377831431
 20
138.9915208302
 30
0.0
 10
104.374651183
 20
140.321181883
 30
0.0
 10
104.2408747451
 20
140.9931598034
 30
0.0
 10
104.2038917436
 20
141.3214672029
 30
0.0
  0
SPLINE
  5
47A
100
AcDbEntity
  8
00_COMPONENTS_1
100
AcDbSpline
 62
7
  6
CONTINUOUS
 70
0
 71
3
 72
9
 73
5
 74
0
 42
0.0000001
 43
0.0000001
 44
0.0000000001
 40
0.0
 40
0.0
 40
0.0
 40
0.0
 40
0.4815937497
 40
1.0
 40
1.0
 40
1.0
 40
1.0
 10
90.8497822216
 20
45.8844784876
 30
0.0
 10
90.7739867226
 20
45.8407185036
 30
0.0
 10
90.5986668167
 20
45.778476529
 30
0.0
 10
90.4138705102
 20
45.7777638776
 30
0.0
 10
90.3203515744
 20
45.7891606505
 30
0.0
  0
SPLINE
  5
47B
100
AcDbEntity
  8
00_COMPONENTS_1
100
AcDbSpline
 62
7
  6
CONTINUOUS
 70
0
 71
3
 72
9
 73
5
 74
0
 42
0.0000001
 43
0.0000001
 44
0.0000000001
 40
0.0
 40
0.0
 40
0.0
 40
0.0
 40
0.2386612304
 40
1.0
 40
1.0
 40
1.0
 40
1.0
 10
90.2328442617
 20
45.8032854612
 30
0.0
 10
90.2056741378
 20
45.8087251021
 30
0.0
 10
90.0926150458
 20
45.835402422
 30
0.0
 10
89.9832091744
 20
45.8765737978
 30
0.0
 10
89.9029910712
 20
45.9137021368
 30
0.0
  0
SPLINE
  5
47C
100
AcDbEntity
  8
00_COMPONENTS_1
100
AcDbSpline
 62
7
  6
CONTINUOUS
 70
0
 71
3
 72
9
 73
5
 74
0
 42
0.0000001
 43
0.0000001
 44
0.0000000001
 40
0.0
 40
0.0
 40
0.0
 40
0.0
 40
0.2352943576
 40
1.0
 40
1.0
 40
1.0
 40
1.0
 10
89.9029910712
 20
45.9137021368
 30
0.0
 10
89.8581629061
 20
45.9344505121
 30
0.0
 10
89.6713310252
 20
46.0305745904
 30
0.0
 10
89.4999208502
 20
46.1551514197
 30
0.0
 10
89.3782653917
 20
46.2599035499
 30
0.0
  0
SPLINE
  5
47D
100
AcDbEntity
  8
00_COMPONENTS_1
100
AcDbSpline
 62
7
  6
CONTINUOUS
 70
0
 71
3
 72
9
 73
5
 74
0
 42
0.0000001
 43
0.0000001
 44
0.0000000001
 40
0.0
 40
0.0
 40
0.0
 40
0.0
 40
0.2462205937
 40
1.0
 40
1.0
 40
1.0
 40
1.0
 10
89.2826910317
 20
46.3459717816
 30
0.0
 10
89.2645399325
 20
46.3630490433
 30
0.0
 10
89.1916868862
 20
46.4333230414
 30
0.0
 10
89.1222532439
 20
46.5071265832
 30
0.0
 10
89.0718545583
 20
46.564406405
 30
0.0
  0
SPLINE
  5
47E
100
AcDbEntity
  8
00_COMPONENTS_1
100
AcDbSpline
 62
7
  6
CONTINUOUS
 70
0
 71
3
 72
9
 73
5
 74
0
 42
0.0000001
 43
0.0000001
 44
0.0000000001
 40
0.0
 40
0.0
 40
0.0
 40
0.0
 40
0.4915798254
 40
1.0
 40
1.0
 40
1.0
 40
1.0
 10
91.2497982506
 20
45.1916251607
 30
0.0
 10
91.317111777
 20
45.2305240723
 30
0.0
 10
91.4451409925
 20
45.3260840365
 30
0.0
 10
91.5482058014
 20
45.447846776
 30
0.0
 10
91.5937895147
 20
45.5140855624
 30
0.0
  0
SPLINE
  5
47F
100
AcDbEntity
  8
00_COMPONENTS_1
100
AcDbSpline
 62
7
  6
CONTINUOUS
 70
0
 71
3
 72
9
 73
5
 74
0
 42
0.0000001
 43
0.0000001
 44
0.0000000001
 40
0.0
 40
0.0
 40
0.0
 40
0.0
 40
0.2247354591
 40
1.0
 40
1.0
 40
1.0
 40
1.0
 10
91.5937895147
 20
45.5140855624
 30
0.0
 10
91.6403618735
 20
45.5817609733
 30
0.0
 10
91.8170519052
 20
45.9042168982
 30
0.0
 10
91.8711657549
 20
46.2815309538
 30
0.0
 10
91.8711657549
 20
46.5649286339
 30
0.0
  0
SPLINE
  5
480
100
AcDbEntity
  8
00_COMPONENTS_1
100
AcDbSpline
 62
7
  6
CONTINUOUS
 70
0
 71
3
 72
9
 73
5
 74
0
 42
0.0000001
 43
0.0000001
 44
0.0000000001
 40
0.0
 40
0.0
 40
0.0
 40
0.0
 40
0.4499616491
 40
1.0
 40
1.0
 40
1.0
 40
1.0
 10
68.9694584172
 20
58.3891597057
 30
0.0
 10
68.9897226581
 20
58.400859187
 30
0.0
 10
69.0244378012
 20
58.4447835479
 30
0.0
 10
69.0315781568
 20
58.4979161457
 30
0.0
 10
69.0315781568
 20
58.5265194631
 30
0.0
  0
SPLINE
  5
481
100
AcDbEntity
  8
00_COMPONENTS_1
100
AcDbSpline
 62
7
  6
CONTINUOUS
 70
0
 71
3
 72
11
 73
7
 74
0
 42
0.0000001
 43
0.0000001
 44
0.0000000001
 40
0.0
 40
0.0
 40
0.0
 40
0.0
 40
0.2177843137
 40
0.4509117637
 40
0.7102976701
 40
1.0
 40
1.0
 40
1.0
 40
1.0
 10
87.2597274155
 20
45.611654406
 30
0.0
 10
87.1277839599
 20
45.5354773294
 30
0.0
 10
86.8246233576
 20
45.425457864
 30
0.0
 10
86.3210787635
 20
45.4127082119
 30
0.0
 10
85.7844182373
 20
45.5423021619
 30
0.0
 10
85.4352616452
 20
45.7084027255
 30
0.0
 10
85.2597463489
 20
45.8097342366
 30
0.0
  0
SPLINE
  5
482
100
AcDbEntity
  8
00_COMPONENTS_1
100
AcDbSpline
 62
7
  6
CONTINUOUS
 70
0
 71
3
 72
17
 73
13
 74
0
 42
0.0000001
 43
0.0000001
 44
0.0000000001
 40
0.0
 40
0.0
 40
0.0
 40
0.0
 40
0.042857965
 40
0.0874854797
 40
0.1353180708
 40
0.1872814984
 40
0.3045423159
 40
0.4382097446
 40
0.5825520305
 40
0.7297107839
 40
0.8713099826
 40
1.0
 40
1.0
 40
1.0
 40
1.0
 10
43.510819026
 20
127.8285102739
 30
0.0
 10
43.4467374242
 20
127.7914786312
 30
0.0
 10
43.3054312008
 20
127.7327782616
 30
0.0
 10
43.0722091881
 20
127.6985718317
 30
0.0
 10
42.8217391224
 20
127.7170287512
 30
0.0
 10
42.4578040709
 20
127.8138009711
 30
0.0
 10
41.9925686157
 20
128.0681927595
 30
0.0
 10
41.4785600721
 20
128.5233957532
 30
0.0
 10
41.0241972181
 20
129.1049584954
 30
0.0
 10
40.6665951495
 20
129.7659028312
 30
0.0
 10
40.4345408823
 20
130.4520298507
 30
0.0
 10
40.3723628827
 20
130.919328516
 30
0.0
 10
40.3723628827
 20
131.1415654168
 30
0.0
  0
SPLINE
  5
483
100
AcDbEntity
  8
00_COMPONENTS_1
100
AcDbSpline
 62
7
  6
CONTINUOUS
 70
0
 71
3
 72
9
 73
5
 74
0
 42
0.0000001
 43
0.0000001
 44
0.0000000001
 40
0.0
 40
0.0
 40
0.0
 40
0.0
 40
0.246681873
 40
1.0
 40
1.0
 40
1.0
 40
1.0
 10
43.6198892479
 20
127.198686081
 30
0.0
 10
43.6503722921
 20
127.2163015188
 30
0.0
 10
43.7704095894
 20
127.2937496533
 30
0.0
 10
43.8744711519
 20
127.3952634491
 30
0.0
 10
43.9407592294
 20
127.4799115652
 30
0.0
  0
SPLINE
  5
484
100
AcDbEntity
  8
00_COMPONENTS_1
100
AcDbSpline
 62
7
  6
CONTINUOUS
 70
0
 71
3
 72
9
 73
5
 74
0
 42
0.0000001
 43
0.0000001
 44
0.0000000001
 40
0.0
 40
0.0
 40
0.0
 40
0.0
 40
0.4606806083
 40
1.0
 40
1.0
 40
1.0
 40
1.0
 10
43.9407592294
 20
127.4799115652
 30
0.0
 10
44.0589905195
 20
127.6308897855
 30
0.0
 10
44.2382169136
 20
128.01992144
 30
0.0
 10
44.2826812525
 20
128.4390458846
 30
0.0
 10
44.2826812525
 20
128.6635431191
 30
0.0
  0
SPLINE
  5
485
100
AcDbEntity
  8
00_COMPONENTS_1
100
AcDbSpline
 62
7
  6
CONTINUOUS
 70
0
 71
3
 72
17
 73
13
 74
0
 42
0.0000001
 43
0.0000001
 44
0.0000000001
 40
0.0
 40
0.0
 40
0.0
 40
0.0
 40
0.042857965
 40
0.0874854797
 40
0.1353180708
 40
0.1872814984
 40
0.3045423159
 40
0.4382097446
 40
0.5825520305
 40
0.7297107839
 40
0.8713099826
 40
1.0
 40
1.0
 40
1.0
 40
1.0
 10
78.8663052834
 20
107.4164725479
 30
0.0
 10
78.8022236815
 20
107.3794409052
 30
0.0
 10
78.6609174582
 20
107.3207405356
 30
0.0
 10
78.4276954455
 20
107.2865341056
 30
0.0
 10
78.1772253797
 20
107.3049910252
 30
0.0
 10
77.8132903282
 20
107.4017632451
 30
0.0
 10
77.348054873
 20
107.6561550334
 30
0.0
 10
76.8340463294
 20
108.1113580271
 30
0.0
 10
76.3796834754
 20
108.6929207694
 30
0.0
 10
76.0220814068
 20
109.3538651052
 30
0.0
 10
75.7900271396
 20
110.0399921247
 30
0.0
 10
75.72784914
 20
110.50729079
 30
0.0
 10
75.72784914
 20
110.7295276908
 30
0.0
  0
SPLINE
  5
486
100
AcDbEntity
  8
00_COMPONENTS_1
100
AcDbSpline
 62
7
  6
CONTINUOUS
 70
0
 71
3
 72
9
 73
5
 74
0
 42
0.0000001
 43
0.0000001
 44
0.0000000001
 40
0.0
 40
0.0
 40
0.0
 40
0.0
 40
0.246681873
 40
1.0
 40
1.0
 40
1.0
 40
1.0
 10
78.9753755052
 20
106.7866483549
 30
0.0
 10
79.0058585495
 20
106.8042637928
 30
0.0
 10
79.1258958468
 20
106.8817119273
 30
0.0
 10
79.2299574092
 20
106.9832257231
 30
0.0
 10
79.2962454867
 20
107.0678738392
 30
0.0
  0
SPLINE
  5
487
100
AcDbEntity
  8
00_COMPONENTS_1
100
AcDbSpline
 62
7
  6
CONTINUOUS
 70
0
 71
3
 72
9
 73
5
 74
0
 42
0.0000001
 43
0.0000001
 44
0.0000000001
 40
0.0
 40
0.0
 40
0.0
 40
0.0
 40
0.4606806083
 40
1.0
 40
1.0
 40
1.0
 40
1.0
 10
79.2962454867
 20
107.0678738392
 30
0.0
 10
79.4144767769
 20
107.2188520595
 30
0.0
 10
79.5937031709
 20
107.6078837139
 30
0.0
 10
79.6381675098
 20
108.0270081586
 30
0.0
 10
79.6381675098
 20
108.2515053931
 30
0.0
  0
SPLINE
  5
488
100
AcDbEntity
  8
00_COMPONENTS_1
100
AcDbSpline
 62
7
  6
CONTINUOUS
 70
0
 71
3
 72
17
 73
13
 74
0
 42
0.0000001
 43
0.0000001
 44
0.0000000001
 40
0.0
 40
0.0
 40
0.0
 40
0.0
 40
0.042857965
 40
0.0874854797
 40
0.1353180708
 40
0.1872814984
 40
0.3045423159
 40
0.4382097446
 40
0.5825520305
 40
0.7297107839
 40
0.8713099826
 40
1.0
 40
1.0
 40
1.0
 40
1.0
 10
61.1885621547
 20
117.6224914109
 30
0.0
 10
61.1244805529
 20
117.5854597682
 30
0.0
 10
60.9831743295
 20
117.5267593986
 30
0.0
 10
60.7499523168
 20
117.4925529687
 30
0.0
 10
60.4994822511
 20
117.5110098882
 30
0.0
 10
60.1355471996
 20
117.6077821081
 30
0.0
 10
59.6703117444
 20
117.8621738965
 30
0.0
 10
59.1563032007
 20
118.3173768902
 30
0.0
 10
58.7019403467
 20
118.8989396324
 30
0.0
 10
58.3443382781
 20
119.5598839682
 30
0.0
 10
58.112284011
 20
120.2460109877
 30
0.0
 10
58.0501060114
 20
120.713309653
 30
0.0
 10
58.0501060114
 20
120.9355465538
 30
0.0
  0
SPLINE
  5
489
100
AcDbEntity
  8
00_COMPONENTS_1
100
AcDbSpline
 62
7
  6
CONTINUOUS
 70
0
 71
3
 72
9
 73
5
 74
0
 42
0.0000001
 43
0.0000001
 44
0.0000000001
 40
0.0
 40
0.0
 40
0.0
 40
0.0
 40
0.246681873
 40
1.0
 40
1.0
 40
1.0
 40
1.0
 10
61.2976323766
 20
116.992667218
 30
0.0
 10
61.3281154208
 20
117.0102826558
 30
0.0
 10
61.4481527181
 20
117.0877307903
 30
0.0
 10
61.5522142805
 20
117.1892445861
 30
0.0
 10
61.6185023581
 20
117.2738927022
 30
0.0
  0
SPLINE
  5
48A
100
AcDbEntity
  8
00_COMPONENTS_1
100
AcDbSpline
 62
7
  6
CONTINUOUS
 70
0
 71
3
 72
9
 73
5
 74
0
 42
0.0000001
 43
0.0000001
 44
0.0000000001
 40
0.0
 40
0.0
 40
0.0
 40
0.0
 40
0.4606806083
 40
1.0
 40
1.0
 40
1.0
 40
1.0
 10
61.6185023581
 20
117.2738927022
 30
0.0
 10
61.7367336482
 20
117.4248709225
 30
0.0
 10
61.9159600422
 20
117.8139025769
 30
0.0
 10
61.9604243812
 20
118.2330270216
 30
0.0
 10
61.9604243812
 20
118.4575242561
 30
0.0
  0
SPLINE
  5
48B
100
AcDbEntity
  8
00_COMPONENTS_1
100
AcDbSpline
 62
7
  6
CONTINUOUS
 70
0
 71
3
 72
11
 73
7
 74
0
 42
0.0000001
 43
0.0000001
 44
0.0000000001
 40
0.0
 40
0.0
 40
0.0
 40
0.0
 40
0.2894156761
 40
0.5491593669
 40
0.7823473435
 40
1.0
 40
1.0
 40
1.0
 40
1.0
 10
44.9174439019
 20
55.0548416558
 30
0.0
 10
44.8665974606
 20
55.0254856245
 30
0.0
 10
44.765296
 20
54.9774181043
 30
0.0
 10
44.6096848883
 20
54.9396573859
 30
0.0
 10
44.4635972922
 20
54.9434366027
 30
0.0
 10
44.3757016279
 20
54.9753280398
 30
0.0
 10
44.3374685884
 20
54.9974147041
 30
0.0
  0
SPLINE
  5
48C
100
AcDbEntity
  8
00_COMPONENTS_1
100
AcDbSpline
 62
7
  6
CONTINUOUS
 70
0
 71
3
 72
13
 73
9
 74
0
 42
0.0000001
 43
0.0000001
 44
0.0000000001
 40
0.0
 40
0.0
 40
0.0
 40
0.0
 40
0.1141000983
 40
0.2372868639
 40
0.4997322157
 40
0.76231618
 40
0.8857249163
 40
1.0
 40
1.0
 40
1.0
 40
1.0
 10
91.5303634484
 20
126.6971671308
 30
0.0
 10
91.3070747611
 20
126.8250657196
 30
0.0
 10
90.8658252344
 20
127.1324934938
 30
0.0
 10
90.0394160761
 20
127.9028036704
 30
0.0
 10
89.1659240248
 20
129.0923441659
 30
0.0
 10
88.5691595459
 20
130.4426534103
 30
0.0
 10
88.3122672432
 20
131.5440313637
 30
0.0
 10
88.2648619971
 20
132.0806038081
 30
0.0
 10
88.2648619971
 20
132.3383229222
 30
0.0
  0
SPLINE
  5
48D
100
AcDbEntity
  8
00_COMPONENTS_1
100
AcDbSpline
 62
7
  6
CONTINUOUS
 70
0
 71
3
 72
11
 73
7
 74
0
 42
0.0000001
 43
0.0000001
 44
0.0000000001
 40
0.0
 40
0.0
 40
0.0
 40
0.0
 40
0.2894156761
 40
0.5491593669
 40
0.7823473435
 40
1.0
 40
1.0
 40
1.0
 40
1.0
 10
62.5951870306
 20
44.8488227928
 30
0.0
 10
62.5443405893
 20
44.8194667615
 30
0.0
 10
62.4430391287
 20
44.7713992413
 30
0.0
 10
62.287428017
 20
44.7336385229
 30
0.0
 10
62.1413404209
 20
44.7374177397
 30
0.0
 10
62.0534447566
 20
44.7693091768
 30
0.0
 10
62.0152117171
 20
44.7913958411
 30
0.0
  0
SPLINE
  5
48E
100
AcDbEntity
  8
00_COMPONENTS_1
100
AcDbSpline
 62
7
  6
CONTINUOUS
 70
0
 71
3
 72
13
 73
9
 74
0
 42
0.0000001
 43
0.0000001
 44
0.0000000001
 40
0.0
 40
0.0
 40
0.0
 40
0.0
 40
0.1141000983
 40
0.2372868639
 40
0.4997322157
 40
0.76231618
 40
0.8857249163
 40
1.0
 40
1.0
 40
1.0
 40
1.0
 10
56.1748771911
 20
147.1092048568
 30
0.0
 10
55.9515885037
 20
147.2371034456
 30
0.0
 10
55.5103389771
 20
147.5445312198
 30
0.0
 10
54.6839298187
 20
148.3148413964
 30
0.0
 10
53.8104377674
 20
149.5043818919
 30
0.0
 10
53.2136732886
 20
150.8546911363
 30
0.0
 10
52.9567809858
 20
151.9560690897
 30
0.0
 10
52.9093757398
 20
152.4926415341
 30
0.0
 10
52.9093757398
 20
152.7503606482
 30
0.0
  0
SPLINE
  5
48F
100
AcDbEntity
  8
00_COMPONENTS_1
100
AcDbSpline
 62
7
  6
CONTINUOUS
 70
0
 71
3
 72
13
 73
9
 74
0
 42
0.0000001
 43
0.0000001
 44
0.0000000001
 40
0.0
 40
0.0
 40
0.0
 40
0.0
 40
0.1141000983
 40
0.2372868639
 40
0.4997322157
 40
0.76231618
 40
0.8857249163
 40
1.0
 40
1.0
 40
1.0
 40
1.0
 10
73.8526203198
 20
136.9031859938
 30
0.0
 10
73.6293316324
 20
137.0310845826
 30
0.0
 10
73.1880821057
 20
137.3385123568
 30
0.0
 10
72.3616729474
 20
138.1088225334
 30
0.0
 10
71.4881808961
 20
139.2983630289
 30
0.0
 10
70.8914164172
 20
140.6486722733
 30
0.0
 10
70.6345241145
 20
141.7500502267
 30
0.0
 10
70.5871188685
 20
142.2866226711
 30
0.0
 10
70.5871188685
 20
142.5443417852
 30
0.0
  0
SPLINE
  5
490
100
AcDbEntity
  8
00_COMPONENTS_1
100
AcDbSpline
 62
7
  6
CONTINUOUS
 70
0
 71
3
 72
13
 73
9
 74
0
 42
0.0000001
 43
0.0000001
 44
0.0000000001
 40
0.0
 40
0.0
 40
0.0
 40
0.0
 40
0.1141000983
 40
0.2372868639
 40
0.4997322157
 40
0.76231618
 40
0.8857249163
 40
1.0
 40
1.0
 40
1.0
 40
1.0
 10
38.4971340624
 20
157.3152237198
 30
0.0
 10
38.2738453751
 20
157.4431223086
 30
0.0
 10
37.8325958484
 20
157.7505500828
 30
0.0
 10
37.0061866901
 20
158.5208602594
 30
0.0
 10
36.1326946387
 20
159.7104007549
 30
0.0
 10
35.5359301599
 20
161.0607099993
 30
0.0
 10
35.2790378572
 20
162.1620879527
 30
0.0
 10
35.2316326111
 20
162.6986603971
 30
0.0
 10
35.2316326111
 20
162.9563795112
 30
0.0
  0
SPLINE
  5
491
100
AcDbEntity
  8
00_COMPONENTS_1
100
AcDbSpline
 62
7
  6
CONTINUOUS
 70
0
 71
3
 72
10
 73
6
 74
0
 42
0.0000001
 43
0.0000001
 44
0.0000000001
 40
0.0
 40
0.0
 40
0.0
 40
0.0
 40
0.2349901082
 40
0.4744499507
 40
1.0
 40
1.0
 40
1.0
 40
1.0
 10
38.8134524821
 20
153.9414580164
 30
0.0
 10
38.8571478801
 20
153.9666619128
 30
0.0
 10
38.9533923568
 20
154.0050742066
 30
0.0
 10
39.1699294169
 20
154.0228746111
 30
0.0
 10
39.3327176214
 20
153.9652384253
 30
0.0
 10
39.4304190424
 20
153.9088317596
 30
0.0
  0
SPLINE
  5
492
100
AcDbEntity
  8
00_COMPONENTS_1
100
AcDbSpline
 62
7
  6
CONTINUOUS
 70
0
 71
3
 72
11
 73
7
 74
0
 42
0.0000001
 43
0.0000001
 44
0.0000000001
 40
0.0
 40
0.0
 40
0.0
 40
0.0
 40
0.2894156761
 40
0.5491593669
 40
0.7823473435
 40
1.0
 40
1.0
 40
1.0
 40
1.0
 10
68.9591745569
 20
41.1746560021
 30
0.0
 10
68.9083281156
 20
41.1452999708
 30
0.0
 10
68.807026655
 20
41.0972324506
 30
0.0
 10
68.6514155433
 20
41.0594717322
 30
0.0
 10
68.5053279472
 20
41.063250949
 30
0.0
 10
68.4174322829
 20
41.0951423861
 30
0.0
 10
68.3791992434
 20
41.1172290504
 30
0.0
  0
SPLINE
  5
493
100
AcDbEntity
  8
00_COMPONENTS_1
100
AcDbSpline
 62
7
  6
CONTINUOUS
 70
0
 71
3
 72
11
 73
7
 74
0
 42
0.0000001
 43
0.0000001
 44
0.0000000001
 40
0.0
 40
0.0
 40
0.0
 40
0.0
 40
0.2894156761
 40
0.5491593669
 40
0.7823473435
 40
1.0
 40
1.0
 40
1.0
 40
1.0
 10
51.2814314282
 20
51.3806748651
 30
0.0
 10
51.2305849869
 20
51.3513188338
 30
0.0
 10
51.1292835263
 20
51.3032513136
 30
0.0
 10
50.9736724147
 20
51.2654905952
 30
0.0
 10
50.8275848185
 20
51.269269812
 30
0.0
 10
50.7396891543
 20
51.3011612491
 30
0.0
 10
50.7014561148
 20
51.3232479134
 30
0.0
  0
SPLINE
  5
494
100
AcDbEntity
  8
00_COMPONENTS_1
100
AcDbSpline
 62
7
  6
CONTINUOUS
 70
0
 71
3
 72
11
 73
7
 74
0
 42
0.0000001
 43
0.0000001
 44
0.0000000001
 40
0.0
 40
0.0
 40
0.0
 40
0.0
 40
0.2894156761
 40
0.5491593669
 40
0.7823473435
 40
1.0
 40
1.0
 40
1.0
 40
1.0
 10
33.6036882995
 20
61.5866937281
 30
0.0
 10
33.5528418582
 20
61.5573376968
 30
0.0
 10
33.4515403976
 20
61.5092701766
 30
0.0
 10
33.295929286
 20
61.4715094583
 30
0.0
 10
33.1498416898
 20
61.4752886751
 30
0.0
 10
33.0619460256
 20
61.5071801121
 30
0.0
 10
33.0237129861
 20
61.5292667764
 30
0.0
  0
SPLINE
  5
495
100
AcDbEntity
  8
00_COMPONENTS_1
100
AcDbSpline
 62
7
  6
CONTINUOUS
 70
0
 71
3
 72
16
 73
12
 74
0
 42
0.0000001
 43
0.0000001
 44
0.0000000001
 40
0.0
 40
0.0
 40
0.0
 40
0.0
 40
0.1511493077
 40
0.3017708655
 40
0.4470731828
 40
0.5827948675
 40
0.7057949443
 40
0.8147553047
 40
0.911069282
 40
0.956055782
 40
1.0
 40
1.0
 40
1.0
 40
1.0
 10
114.8167267854
 20
142.6645471578
 30
0.0
 10
114.6564740346
 20
143.0347988561
 30
0.0
 10
114.287707585
 20
143.7538278203
 30
0.0
 10
113.6121899736
 20
144.7412561608
 30
0.0
 10
112.840733397
 20
145.6018748189
 30
0.0
 10
112.0091889126
 20
146.2953354615
 30
0.0
 10
111.1543119435
 20
146.7893353221
 30
0.0
 10
110.312553898
 20
147.0602496231
 30
0.0
 10
109.6322457347
 20
147.0816413
 30
0.0
 10
109.1493601227
 20
146.9642007157
 30
0.0
 10
108.9317234659
 20
146.8652047866
 30
0.0
 10
108.8301327411
 20
146.8065752977
 30
0.0
  0
SPLINE
  5
496
100
AcDbEntity
  8
00_COMPONENTS_1
100
AcDbSpline
 62
7
  6
CONTINUOUS
 70
0
 71
3
 72
11
 73
7
 74
0
 42
0.0000001
 43
0.0000001
 44
0.0000000001
 40
0.0
 40
0.0
 40
0.0
 40
0.0
 40
0.2811801513
 40
0.5378005033
 40
0.7744484185
 40
1.0
 40
1.0
 40
1.0
 40
1.0
 10
104.2038917436
 20
142.4645705869
 30
0.0
 10
104.2293508809
 20
142.6611807331
 30
0.0
 10
104.3072286756
 20
143.0345900675
 30
0.0
 10
104.5210575651
 20
143.5414435653
 30
0.0
 10
104.8239617727
 20
143.9542672197
 30
0.0
 10
105.0840746707
 20
144.1587638034
 30
0.0
 10
105.2217811111
 20
144.238308491
 30
0.0
  0
SPLINE
  5
497
100
AcDbEntity
  8
00_COMPONENTS_1
100
AcDbSpline
 62
7
  6
CONTINUOUS
 70
0
 71
3
 72
11
 73
7
 74
0
 42
0.0000001
 43
0.0000001
 44
0.0000000001
 40
0.0
 40
0.0
 40
0.0
 40
0.0
 40
0.278784135
 40
0.5369268535
 40
0.775597909
 40
1.0
 40
1.0
 40
1.0
 40
1.0
 10
38.5379000654
 20
157.3535500901
 30
0.0
 10
38.5018197759
 20
157.0964400323
 30
0.0
 10
38.3928104076
 20
156.6053873919
 30
0.0
 10
38.1040983009
 20
155.9377702222
 30
0.0
 10
37.7030323773
 20
155.3911301305
 30
0.0
 10
37.3606183999
 20
155.1180751991
 30
0.0
 10
37.1796400399
 20
155.0135714004
 30
0.0
  0
SPLINE
  5
498
100
AcDbEntity
  8
00_COMPONENTS_1
100
AcDbSpline
 62
7
  6
CONTINUOUS
 70
0
 71
3
 72
10
 73
6
 74
0
 42
0.0000001
 43
0.0000001
 44
0.0000000001
 40
0.0
 40
0.0
 40
0.0
 40
0.0
 40
0.5226341926
 40
0.7645184563
 40
1.0
 40
1.0
 40
1.0
 40
1.0
 10
55.531979668
 20
177.5927217519
 30
0.0
 10
55.635636165
 20
177.9072692966
 30
0.0
 10
55.8534970715
 20
178.3536109395
 30
0.0
 10
56.2835049485
 20
178.8235423368
 30
0.0
 10
56.530405073
 20
179.0027689532
 30
0.0
 10
56.6596183856
 20
179.0774085634
 30
0.0
  0
SPLINE
  5
499
100
AcDbEntity
  8
00_COMPONENTS_1
100
AcDbSpline
 62
7
  6
CONTINUOUS
 70
0
 71
3
 72
9
 73
5
 74
0
 42
0.0000001
 43
0.0000001
 44
0.0000000001
 40
0.0
 40
0.0
 40
0.0
 40
0.0
 40
0.5144977031
 40
1.0
 40
1.0
 40
1.0
 40
1.0
 10
106.9081247335
 20
145.2924161875
 30
0.0
 10
107.0000698782
 20
145.4729594489
 30
0.0
 10
107.2221717972
 20
145.8047110848
 30
0.0
 10
107.533173289
 20
146.0578223559
 30
0.0
 10
107.698764071
 20
146.1533890179
 30
0.0
  0
SPLINE
  5
49A
100
AcDbEntity
  8
00_COMPONENTS_1
100
AcDbSpline
 62
7
  6
CONTINUOUS
 70
0
 71
3
 72
9
 73
5
 74
0
 42
0.0000001
 43
0.0000001
 44
0.0000000001
 40
0.0
 40
0.0
 40
0.0
 40
0.0
 40
0.5144977031
 40
1.0
 40
1.0
 40
1.0
 40
1.0
 10
53.8748953475
 20
175.9104727766
 30
0.0
 10
53.9668404921
 20
176.0910160379
 30
0.0
 10
54.1889424112
 20
176.4227676738
 30
0.0
 10
54.499943903
 20
176.6758789449
 30
0.0
 10
54.6655346849
 20
176.7714456069
 30
0.0
  0
SPLINE
  5
49B
100
AcDbEntity
  8
00_COMPONENTS_1
100
AcDbSpline
 62
7
  6
CONTINUOUS
 70
0
 71
3
 72
10
 73
6
 74
0
 42
0.0000001
 43
0.0000001
 44
0.0000000001
 40
0.0
 40
0.0
 40
0.0
 40
0.0
 40
0.5148810367
 40
0.7649465162
 40
1.0
 40
1.0
 40
1.0
 40
1.0
 10
52.7865356905
 20
168.0888098852
 30
0.0
 10
52.3494448414
 20
168.6655479245
 30
0.0
 10
51.8044974282
 20
169.6097206493
 30
0.0
 10
51.3414080373
 20
170.9393055644
 30
0.0
 10
51.2076429726
 20
171.6112375779
 30
0.0
 10
51.1706623576
 20
171.9395237919
 30
0.0
  0
SPLINE
  5
49C
100
AcDbEntity
  8
00_COMPONENTS_1
100
AcDbSpline
 62
7
  6
CONTINUOUS
 70
0
 71
3
 72
9
 73
5
 74
0
 42
0.0000001
 43
0.0000001
 44
0.0000000001
 40
0.0
 40
0.0
 40
0.0
 40
0.0
 40
0.2612864053
 40
1.0
 40
1.0
 40
1.0
 40
1.0
 10
108.5589802997
 20
146.9558451488
 30
0.0
 10
108.5830282956
 20
147.0300938174
 30
0.0
 10
108.6839703707
 20
147.3111924194
 30
0.0
 10
108.8228119062
 20
147.5794909955
 30
0.0
 10
108.9480069187
 20
147.76118832
 30
0.0
  0
SPLINE
  5
49D
100
AcDbEntity
  8
00_COMPONENTS_1
100
AcDbSpline
 62
7
  6
CONTINUOUS
 70
0
 71
3
 72
9
 73
5
 74
0
 42
0.0000001
 43
0.0000001
 44
0.0000000001
 40
0.0
 40
0.0
 40
0.0
 40
0.0
 40
0.5084739929
 40
1.0
 40
1.0
 40
1.0
 40
1.0
 10
108.9480069187
 20
147.76118832
 30
0.0
 10
109.0467988585
 20
147.9045664849
 30
0.0
 10
109.2698919119
 20
148.1682218427
 30
0.0
 10
109.5470671645
 20
148.375221935
 30
0.0
 10
109.6928465908
 20
148.4593538511
 30
0.0
  0
SPLINE
  5
49E
100
AcDbEntity
  8
00_COMPONENTS_1
100
AcDbSpline
 62
7
  6
CONTINUOUS
 70
0
 71
3
 72
11
 73
7
 74
0
 42
0.0000001
 43
0.0000001
 44
0.0000000001
 40
0.0
 40
0.0
 40
0.0
 40
0.0
 40
0.2811820416
 40
0.5378016443
 40
0.7744491382
 40
1.0
 40
1.0
 40
1.0
 40
1.0
 10
51.1706623576
 20
173.0826271759
 30
0.0
 10
51.1961216268
 20
173.2792383403
 30
0.0
 10
51.2739989178
 20
173.6526481711
 30
0.0
 10
51.4878348171
 20
174.1594991907
 30
0.0
 10
51.7907407255
 20
174.5723164027
 30
0.0
 10
52.0508449757
 20
174.7768224038
 30
0.0
 10
52.1885512792
 20
174.856365823
 30
0.0
  0
SPLINE
  5
49F
100
AcDbEntity
  8
00_COMPONENTS_1
100
AcDbSpline
 62
7
  6
CONTINUOUS
 70
0
 71
3
 72
16
 73
12
 74
0
 42
0.0000001
 43
0.0000001
 44
0.0000000001
 40
0.0
 40
0.0
 40
0.0
 40
0.0
 40
0.1511493077
 40
0.3017708655
 40
0.4470731828
 40
0.5827948675
 40
0.7057949443
 40
0.8147553047
 40
0.911069282
 40
0.956055782
 40
1.0
 40
1.0
 40
1.0
 40
1.0
 10
61.7834973994
 20
173.2826037468
 30
0.0
 10
61.6232446486
 20
173.6528554452
 30
0.0
 10
61.254478199
 20
174.3718844093
 30
0.0
 10
60.5789605876
 20
175.3593127499
 30
0.0
 10
59.8075040109
 20
176.219931408
 30
0.0
 10
58.9759595266
 20
176.9133920505
 30
0.0
 10
58.1210825574
 20
177.4073919112
 30
0.0
 10
57.279324512
 20
177.6783062122
 30
0.0
 10
56.5990163487
 20
177.699697889
 30
0.0
 10
56.1161307367
 20
177.5822573047
 30
0.0
 10
55.8984940799
 20
177.4832613756
 30
0.0
 10
55.796903355
 20
177.4246318867
 30
0.0
  0
SPLINE
  5
4A0
100
AcDbEntity
  8
00_COMPONENTS_1
100
AcDbSpline
 62
7
  6
CONTINUOUS
 70
0
 71
3
 72
13
 73
9
 74
0
 42
0.0000001
 43
0.0000001
 44
0.0000000001
 40
0.0
 40
0.0
 40
0.0
 40
0.0
 40
0.3072193116
 40
0.5818151502
 40
0.7019533314
 40
0.8099867789
 40
0.9079316859
 40
1.0
 40
1.0
 40
1.0
 40
1.0
 10
81.8719749925
 20
133.6426369265
 30
0.0
 10
81.7548145721
 20
133.8242226481
 30
0.0
 10
81.4968558189
 20
134.1462502325
 30
0.0
 10
81.1012554403
 20
134.4537349343
 30
0.0
 10
80.7748182768
 20
134.5946662813
 30
0.0
 10
80.5481591156
 20
134.6412597441
 30
0.0
 10
80.3361337169
 20
134.6305473916
 30
0.0
 10
80.2084863967
 20
134.5826170355
 30
0.0
 10
80.1523995834
 20
134.550238371
 30
0.0
  0
SPLINE
  5
4A1
100
AcDbEntity
  8
00_COMPONENTS_1
100
AcDbSpline
 62
7
  6
CONTINUOUS
 70
0
 71
3
 72
10
 73
6
 74
0
 42
0.0000001
 43
0.0000001
 44
0.0000000001
 40
0.0
 40
0.0
 40
0.0
 40
0.0
 40
0.5226347371
 40
0.7645181585
 40
1.0
 40
1.0
 40
1.0
 40
1.0
 10
90.8875190426
 20
157.1808367793
 30
0.0
 10
90.9911837779
 20
157.4953524648
 30
0.0
 10
91.2090404724
 20
157.9416462793
 30
0.0
 10
91.6390191602
 20
158.4115320294
 30
0.0
 10
91.8859029892
 20
158.5907359186
 30
0.0
 10
92.0151055534
 20
158.665369269
 30
0.0
  0
SPLINE
  5
4A2
100
AcDbEntity
  8
00_COMPONENTS_1
100
AcDbSpline
 62
7
  6
CONTINUOUS
 70
0
 71
3
 72
9
 73
5
 74
0
 42
0.0000001
 43
0.0000001
 44
0.0000000001
 40
0.0
 40
0.0
 40
0.0
 40
0.0
 40
0.5144977031
 40
1.0
 40
1.0
 40
1.0
 40
1.0
 10
89.2303816048
 20
155.4984350506
 30
0.0
 10
89.3223267495
 20
155.6789783119
 30
0.0
 10
89.5444286685
 20
156.0107299478
 30
0.0
 10
89.8554301603
 20
156.2638412189
 30
0.0
 10
90.0210209423
 20
156.3594078809
 30
0.0
  0
SPLINE
  5
4A3
100
AcDbEntity
  8
00_COMPONENTS_1
100
AcDbSpline
 62
7
  6
CONTINUOUS
 70
0
 71
3
 72
11
 73
7
 74
0
 42
0.0000001
 43
0.0000001
 44
0.0000000001
 40
0.0
 40
0.0
 40
0.0
 40
0.0
 40
0.2811820416
 40
0.5378016443
 40
0.7744491382
 40
1.0
 40
1.0
 40
1.0
 40
1.0
 10
86.5261486149
 20
152.6705894499
 30
0.0
 10
86.5516078841
 20
152.8672006143
 30
0.0
 10
86.6294851752
 20
153.2406104451
 30
0.0
 10
86.8433210744
 20
153.7474614647
 30
0.0
 10
87.1462269829
 20
154.1602786767
 30
0.0
 10
87.4063312331
 20
154.3647846778
 30
0.0
 10
87.5440375366
 20
154.444328097
 30
0.0
  0
SPLINE
  5
4A4
100
AcDbEntity
  8
00_COMPONENTS_1
100
AcDbSpline
 62
7
  6
CONTINUOUS
 70
0
 71
3
 72
11
 73
7
 74
0
 42
0.0000001
 43
0.0000001
 44
0.0000000001
 40
0.0
 40
0.0
 40
0.0
 40
0.0
 40
0.2896413964
 40
0.5491107671
 40
0.7822355978
 40
1.0
 40
1.0
 40
1.0
 40
1.0
 10
40.3723628827
 20
131.1415654168
 30
0.0
 10
40.3723628827
 20
131.2732741782
 30
0.0
 10
40.3923826631
 20
131.5238154175
 30
0.0
 10
40.4937862372
 20
131.8680510279
 30
0.0
 10
40.6646001802
 20
132.1474471789
 30
0.0
 10
40.8251396906
 20
132.2822223578
 30
0.0
 10
40.9108773101
 20
132.3317686363
 30
0.0
  0
SPLINE
  5
4A5
100
AcDbEntity
  8
00_COMPONENTS_1
100
AcDbSpline
 62
7
  6
CONTINUOUS
 70
0
 71
3
 72
10
 73
6
 74
0
 42
0.0000001
 43
0.0000001
 44
0.0000000001
 40
0.0
 40
0.0
 40
0.0
 40
0.0
 40
0.5148810367
 40
0.7649465162
 40
1.0
 40
1.0
 40
1.0
 40
1.0
 10
88.1420219478
 20
147.6767721592
 30
0.0
 10
87.7049310988
 20
148.2535101985
 30
0.0
 10
87.1599836856
 20
149.1976829233
 30
0.0
 10
86.6968942946
 20
150.5272678384
 30
0.0
 10
86.56312923
 20
151.1991998519
 30
0.0
 10
86.5261486149
 20
151.5274860659
 30
0.0
  0
SPLINE
  5
4A6
100
AcDbEntity
  8
00_COMPONENTS_1
100
AcDbSpline
 62
7
  6
CONTINUOUS
 70
0
 71
3
 72
16
 73
12
 74
0
 42
0.0000001
 43
0.0000001
 44
0.0000000001
 40
0.0
 40
0.0
 40
0.0
 40
0.0
 40
0.1511493077
 40
0.3017708655
 40
0.4470731828
 40
0.5827948675
 40
0.7057949443
 40
0.8147553047
 40
0.911069282
 40
0.956055782
 40
1.0
 40
1.0
 40
1.0
 40
1.0
 10
97.1389836567
 20
152.8705660208
 30
0.0
 10
96.9787309059
 20
153.2408177191
 30
0.0
 10
96.6099644564
 20
153.9598466833
 30
0.0
 10
95.934446845
 20
154.9472750239
 30
0.0
 10
95.1629902683
 20
155.8078936819
 30
0.0
 10
94.3314457839
 20
156.5013543245
 30
0.0
 10
93.4765688148
 20
156.9953541852
 30
0.0
 10
92.6348107693
 20
157.2662684862
 30
0.0
 10
91.954502606
 20
157.287660163
 30
0.0
 10
91.471616994
 20
157.1702195787
 30
0.0
 10
91.2539803372
 20
157.0712236496
 30
0.0
 10
91.1523896124
 20
157.0125941607
 30
0.0
  0
SPLINE
  5
4A7
100
AcDbEntity
  8
00_COMPONENTS_1
100
AcDbSpline
 62
7
  6
CONTINUOUS
 70
0
 71
3
 72
11
 73
7
 74
0
 42
0.0000001
 43
0.0000001
 44
0.0000000001
 40
0.0
 40
0.0
 40
0.0
 40
0.0
 40
0.278784135
 40
0.5369268535
 40
0.775597909
 40
1.0
 40
1.0
 40
1.0
 40
1.0
 10
73.8933863227
 20
136.9415123641
 30
0.0
 10
73.8573060332
 20
136.6844023062
 30
0.0
 10
73.7482966649
 20
136.1933496659
 30
0.0
 10
73.4595845583
 20
135.5257324962
 30
0.0
 10
73.0585186347
 20
134.9790924045
 30
0.0
 10
72.7161046573
 20
134.7060374731
 30
0.0
 10
72.5351262973
 20
134.6015336744
 30
0.0
  0
SPLINE
  5
4A8
100
AcDbEntity
  8
00_COMPONENTS_1
100
AcDbSpline
 62
7
  6
CONTINUOUS
 70
0
 71
3
 72
9
 73
5
 74
0
 42
0.0000001
 43
0.0000001
 44
0.0000000001
 40
0.0
 40
0.0
 40
0.0
 40
0.0
 40
0.233393866
 40
1.0
 40
1.0
 40
1.0
 40
1.0
 10
57.7638861757
 20
141.9568968243
 30
0.0
 10
57.7663921079
 20
141.9672095743
 30
0.0
 10
57.7769575301
 20
142.0114372965
 30
0.0
 10
57.7870612955
 20
142.055773626
 30
0.0
 10
57.7947327845
 20
142.0897779942
 30
0.0
  0
SPLINE
  5
4A9
100
AcDbEntity
  8
00_COMPONENTS_1
100
AcDbSpline
 62
7
  6
CONTINUOUS
 70
0
 71
3
 72
11
 73
7
 74
0
 42
0.0000001
 43
0.0000001
 44
0.0000000001
 40
0.0
 40
0.0
 40
0.0
 40
0.0
 40
0.278784135
 40
0.5369268535
 40
0.775597909
 40
1.0
 40
1.0
 40
1.0
 40
1.0
 10
56.2156431941
 20
147.1475312271
 30
0.0
 10
56.1795629045
 20
146.8904211693
 30
0.0
 10
56.0705535362
 20
146.3993685289
 30
0.0
 10
55.7818414296
 20
145.7317513592
 30
0.0
 10
55.380775506
 20
145.1851112675
 30
0.0
 10
55.0383615286
 20
144.9120563361
 30
0.0
 10
54.8573831686
 20
144.8075525374
 30
0.0
  0
SPLINE
  5
4AA
100
AcDbEntity
  8
00_COMPONENTS_1
100
AcDbSpline
 62
7
  6
CONTINUOUS
 70
0
 71
3
 72
11
 73
7
 74
0
 42
0.0000001
 43
0.0000001
 44
0.0000000001
 40
0.0
 40
0.0
 40
0.0
 40
0.0
 40
0.2896413964
 40
0.5491107671
 40
0.7822355978
 40
1.0
 40
1.0
 40
1.0
 40
1.0
 10
75.72784914
 20
110.7295276908
 30
0.0
 10
75.72784914
 20
110.8612364522
 30
0.0
 10
75.7478689205
 20
111.1117776915
 30
0.0
 10
75.8492724946
 20
111.4560133019
 30
0.0
 10
76.0200864376
 20
111.7354094529
 30
0.0
 10
76.1806259479
 20
111.8701846318
 30
0.0
 10
76.2663635675
 20
111.9197309103
 30
0.0
  0
SPLINE
  5
4AB
100
AcDbEntity
  8
00_COMPONENTS_1
100
AcDbSpline
 62
7
  6
CONTINUOUS
 70
0
 71
3
 72
10
 73
6
 74
0
 42
0.0000001
 43
0.0000001
 44
0.0000000001
 40
0.0
 40
0.0
 40
0.0
 40
0.0
 40
0.5226347371
 40
0.7645181585
 40
1.0
 40
1.0
 40
1.0
 40
1.0
 10
73.2097759139
 20
167.3868556423
 30
0.0
 10
73.3134406492
 20
167.7013713278
 30
0.0
 10
73.5312973437
 20
168.1476651423
 30
0.0
 10
73.9612760315
 20
168.6175508924
 30
0.0
 10
74.2081598605
 20
168.7967547816
 30
0.0
 10
74.3373624247
 20
168.871388132
 30
0.0
  0
SPLINE
  5
4AC
100
AcDbEntity
  8
00_COMPONENTS_1
100
AcDbSpline
 62
7
  6
CONTINUOUS
 70
0
 71
3
 72
9
 73
5
 74
0
 42
0.0000001
 43
0.0000001
 44
0.0000000001
 40
0.0
 40
0.0
 40
0.0
 40
0.0
 40
0.5144977031
 40
1.0
 40
1.0
 40
1.0
 40
1.0
 10
71.5526384761
 20
165.7044539136
 30
0.0
 10
71.6445836208
 20
165.8849971749
 30
0.0
 10
71.8666855398
 20
166.2167488108
 30
0.0
 10
72.1776870316
 20
166.4698600819
 30
0.0
 10
72.3432778136
 20
166.5654267439
 30
0.0
  0
SPLINE
  5
4AD
100
AcDbEntity
  8
00_COMPONENTS_1
100
AcDbSpline
 62
7
  6
CONTINUOUS
 70
0
 71
3
 72
10
 73
6
 74
0
 42
0.0000001
 43
0.0000001
 44
0.0000000001
 40
0.0
 40
0.0
 40
0.0
 40
0.0
 40
0.5148810367
 40
0.7649465162
 40
1.0
 40
1.0
 40
1.0
 40
1.0
 10
70.4642788191
 20
157.8827910222
 30
0.0
 10
70.0271879701
 20
158.4595290615
 30
0.0
 10
69.4822405569
 20
159.4037017863
 30
0.0
 10
69.0191511659
 20
160.7332867014
 30
0.0
 10
68.8853861013
 20
161.4052187149
 30
0.0
 10
68.8484054863
 20
161.7335049289
 30
0.0
  0
SPLINE
  5
4AE
100
AcDbEntity
  8
00_COMPONENTS_1
100
AcDbSpline
 62
7
  6
CONTINUOUS
 70
0
 71
3
 72
11
 73
7
 74
0
 42
0.0000001
 43
0.0000001
 44
0.0000000001
 40
0.0
 40
0.0
 40
0.0
 40
0.0
 40
0.2811820416
 40
0.5378016443
 40
0.7744491382
 40
1.0
 40
1.0
 40
1.0
 40
1.0
 10
68.8484054863
 20
162.8766083129
 30
0.0
 10
68.8738647554
 20
163.0732194773
 30
0.0
 10
68.9517420465
 20
163.4466293081
 30
0.0
 10
69.1655779458
 20
163.9534803277
 30
0.0
 10
69.4684838542
 20
164.3662975397
 30
0.0
 10
69.7285881044
 20
164.5708035408
 30
0.0
 10
69.8662944079
 20
164.65034696
 30
0.0
  0
SPLINE
  5
4AF
100
AcDbEntity
  8
00_COMPONENTS_1
100
AcDbSpline
 62
7
  6
CONTINUOUS
 70
0
 71
3
 72
11
 73
7
 74
0
 42
0.0000001
 43
0.0000001
 44
0.0000000001
 40
0.0
 40
0.0
 40
0.0
 40
0.0
 40
0.2896413964
 40
0.5491107671
 40
0.7822355978
 40
1.0
 40
1.0
 40
1.0
 40
1.0
 10
58.0501060114
 20
120.9355465538
 30
0.0
 10
58.0501060114
 20
121.0672553152
 30
0.0
 10
58.0701257918
 20
121.3177965545
 30
0.0
 10
58.1715293659
 20
121.6620321649
 30
0.0
 10
58.3423433089
 20
121.9414283159
 30
0.0
 10
58.5028828193
 20
122.0762034948
 30
0.0
 10
58.5886204388
 20
122.1257497733
 30
0.0
  0
SPLINE
  5
4B0
100
AcDbEntity
  8
00_COMPONENTS_1
100
AcDbSpline
 62
7
  6
CONTINUOUS
 70
0
 71
3
 72
16
 73
12
 74
0
 42
0.0000001
 43
0.0000001
 44
0.0000000001
 40
0.0
 40
0.0
 40
0.0
 40
0.0
 40
0.1511493077
 40
0.3017708655
 40
0.4470731828
 40
0.5827948675
 40
0.7057949443
 40
0.8147553047
 40
0.911069282
 40
0.956055782
 40
1.0
 40
1.0
 40
1.0
 40
1.0
 10
79.461240528
 20
163.0765848838
 30
0.0
 10
79.3009877772
 20
163.4468365822
 30
0.0
 10
78.9322213277
 20
164.1658655463
 30
0.0
 10
78.2567037163
 20
165.1532938869
 30
0.0
 10
77.4852471396
 20
166.0139125449
 30
0.0
 10
76.6537026553
 20
166.7073731875
 30
0.0
 10
75.7988256861
 20
167.2013730482
 30
0.0
 10
74.9570676406
 20
167.4722873492
 30
0.0
 10
74.2767594773
 20
167.493679026
 30
0.0
 10
73.7938738654
 20
167.3762384417
 30
0.0
 10
73.5762372086
 20
167.2772425126
 30
0.0
 10
73.4746464837
 20
167.2186130237
 30
0.0
  0
SPLINE
  5
4B1
100
AcDbEntity
  8
00_COMPONENTS_1
100
AcDbSpline
 62
7
  6
CONTINUOUS
 70
0
 71
3
 72
15
 73
11
 74
0
 42
0.0000001
 43
0.0000001
 44
0.0000000001
 40
0.0
 40
0.0
 40
0.0
 40
0.0
 40
0.123393975
 40
0.2584929795
 40
0.3998798845
 40
0.5413104824
 40
0.6764863635
 40
0.7400619288
 40
0.8001911586
 40
1.0
 40
1.0
 40
1.0
 40
1.0
 10
44.2826812525
 20
128.6635431191
 30
0.0
 10
44.2826812525
 20
128.9046876188
 30
0.0
 10
44.2230611994
 20
129.410418002
 30
0.0
 10
43.9956596679
 20
130.1613171113
 30
0.0
 10
43.639940161
 20
130.9000302995
 30
0.0
 10
43.1791197944
 20
131.5781605779
 30
0.0
 10
42.7233780453
 20
132.0662636613
 30
0.0
 10
42.329753888
 20
132.3865747733
 30
0.0
 10
41.8053472015
 20
132.7338012652
 30
0.0
 10
41.2852697239
 20
132.9189803918
 30
0.0
 10
40.8961473152
 20
132.886455035
 30
0.0
  0
SPLINE
  5
4B2
100
AcDbEntity
  8
00_COMPONENTS_1
100
AcDbSpline
 62
7
  6
CONTINUOUS
 70
0
 71
3
 72
9
 73
5
 74
0
 42
0.0000001
 43
0.0000001
 44
0.0000000001
 40
0.0
 40
0.0
 40
0.0
 40
0.0
 40
0.5083354596
 40
1.0
 40
1.0
 40
1.0
 40
1.0
 10
40.8961473152
 20
132.886455035
 30
0.0
 10
40.8115610706
 20
132.879384772
 30
0.0
 10
40.6459271965
 20
132.8490155652
 30
0.0
 10
40.4910533572
 20
132.7822178075
 30
0.0
 10
40.4199710161
 20
132.7411409861
 30
0.0
  0
SPLINE
  5
4B3
100
AcDbEntity
  8
00_COMPONENTS_1
100
AcDbSpline
 62
7
  6
CONTINUOUS
 70
0
 71
3
 72
15
 73
11
 74
0
 42
0.0000001
 43
0.0000001
 44
0.0000000001
 40
0.0
 40
0.0
 40
0.0
 40
0.0
 40
0.123393975
 40
0.2584929795
 40
0.3998798845
 40
0.5413104824
 40
0.6764863635
 40
0.7400619288
 40
0.8001911586
 40
1.0
 40
1.0
 40
1.0
 40
1.0
 10
79.6381675098
 20
108.2515053931
 30
0.0
 10
79.6381675098
 20
108.4926498928
 30
0.0
 10
79.5785474567
 20
108.998380276
 30
0.0
 10
79.3511459252
 20
109.7492793853
 30
0.0
 10
78.9954264184
 20
110.4879925735
 30
0.0
 10
78.5346060517
 20
111.1661228519
 30
0.0
 10
78.0788643027
 20
111.6542259353
 30
0.0
 10
77.6852401454
 20
111.9745370473
 30
0.0
 10
77.1608334588
 20
112.3217635392
 30
0.0
 10
76.6407559813
 20
112.5069426657
 30
0.0
 10
76.2516335726
 20
112.474417309
 30
0.0
  0
SPLINE
  5
4B4
100
AcDbEntity
  8
00_COMPONENTS_1
100
AcDbSpline
 62
7
  6
CONTINUOUS
 70
0
 71
3
 72
9
 73
5
 74
0
 42
0.0000001
 43
0.0000001
 44
0.0000000001
 40
0.0
 40
0.0
 40
0.0
 40
0.0
 40
0.5083354596
 40
1.0
 40
1.0
 40
1.0
 40
1.0
 10
76.2516335726
 20
112.474417309
 30
0.0
 10
76.1670473279
 20
112.4673470459
 30
0.0
 10
76.0014134538
 20
112.4369778392
 30
0.0
 10
75.8465396145
 20
112.3701800815
 30
0.0
 10
75.7754572735
 20
112.3291032601
 30
0.0
  0
SPLINE
  5
4B5
100
AcDbEntity
  8
00_COMPONENTS_1
100
AcDbSpline
 62
7
  6
CONTINUOUS
 70
0
 71
3
 72
15
 73
11
 74
0
 42
0.0000001
 43
0.0000001
 44
0.0000000001
 40
0.0
 40
0.0
 40
0.0
 40
0.0
 40
0.123393975
 40
0.2584929795
 40
0.3998798845
 40
0.5413104824
 40
0.6764863635
 40
0.7400619288
 40
0.8001911586
 40
1.0
 40
1.0
 40
1.0
 40
1.0
 10
61.9604243812
 20
118.4575242561
 30
0.0
 10
61.9604243812
 20
118.6986687558
 30
0.0
 10
61.9008043281
 20
119.204399139
 30
0.0
 10
61.6734027966
 20
119.9552982483
 30
0.0
 10
61.3176832897
 20
120.6940114365
 30
0.0
 10
60.8568629231
 20
121.3721417149
 30
0.0
 10
60.401121174
 20
121.8602447983
 30
0.0
 10
60.0074970167
 20
122.1805559103
 30
0.0
 10
59.4830903301
 20
122.5277824022
 30
0.0
 10
58.9630128526
 20
122.7129615287
 30
0.0
 10
58.5738904439
 20
122.680436172
 30
0.0
  0
SPLINE
  5
4B6
100
AcDbEntity
  8
00_COMPONENTS_1
100
AcDbSpline
 62
7
  6
CONTINUOUS
 70
0
 71
3
 72
9
 73
5
 74
0
 42
0.0000001
 43
0.0000001
 44
0.0000000001
 40
0.0
 40
0.0
 40
0.0
 40
0.0
 40
0.5083354596
 40
1.0
 40
1.0
 40
1.0
 40
1.0
 10
58.5738904439
 20
122.680436172
 30
0.0
 10
58.4893041992
 20
122.673365909
 30
0.0
 10
58.3236703251
 20
122.6429967022
 30
0.0
 10
58.1687964858
 20
122.5761989445
 30
0.0
 10
58.0977141448
 20
122.5351221231
 30
0.0
  0
SPLINE
  5
4B7
100
AcDbEntity
  8
00_COMPONENTS_1
100
AcDbSpline
 62
7
  6
CONTINUOUS
 70
0
 71
3
 72
13
 73
9
 74
0
 42
0.0000001
 43
0.0000001
 44
0.0000000001
 40
0.0
 40
0.0
 40
0.0
 40
0.0
 40
0.3072193116
 40
0.5818151502
 40
0.7019533314
 40
0.8099867789
 40
0.9079316859
 40
1.0
 40
1.0
 40
1.0
 40
1.0
 10
46.5164887351
 20
154.0546746525
 30
0.0
 10
46.3993283148
 20
154.2362603742
 30
0.0
 10
46.1413695616
 20
154.5582879585
 30
0.0
 10
45.7457691829
 20
154.8657726603
 30
0.0
 10
45.4193320194
 20
155.0067040073
 30
0.0
 10
45.1926728582
 20
155.0532974701
 30
0.0
 10
44.9806474595
 20
155.0425851176
 30
0.0
 10
44.8530001394
 20
154.9946547615
 30
0.0
 10
44.7969133261
 20
154.962276097
 30
0.0
  0
SPLINE
  5
4B8
100
AcDbEntity
  8
00_COMPONENTS_1
100
AcDbSpline
 62
7
  6
CONTINUOUS
 70
0
 71
3
 72
9
 73
5
 74
0
 42
0.0000001
 43
0.0000001
 44
0.0000000001
 40
0.0
 40
0.0
 40
0.0
 40
0.0
 40
0.5435251863
 40
1.0
 40
1.0
 40
1.0
 40
1.0
 10
66.2576120017
 20
61.6949033489
 30
0.0
 10
66.2355414241
 20
61.7054910405
 30
0.0
 10
66.1911940558
 20
61.7196052491
 30
0.0
 10
66.1444527785
 20
61.7096265286
 30
0.0
 10
66.1266487692
 20
61.6993474406
 30
0.0
  0
SPLINE
  5
4B9
100
AcDbEntity
  8
00_COMPONENTS_1
100
AcDbSpline
 62
7
  6
CONTINUOUS
 70
0
 71
3
 72
10
 73
6
 74
0
 42
0.0000001
 43
0.0000001
 44
0.0000000001
 40
0.0
 40
0.0
 40
0.0
 40
0.0
 40
0.4966339367
 40
0.7608711657
 40
1.0
 40
1.0
 40
1.0
 40
1.0
 10
69.0315781568
 20
59.8410883547
 30
0.0
 10
69.0316154342
 20
59.9147640604
 30
0.0
 10
68.9932226246
 20
60.0277373314
 30
0.0
 10
68.9076362578
 20
60.148923429
 30
0.0
 10
68.8501093303
 20
60.1988388777
 30
0.0
 10
68.8194452392
 20
60.2166763303
 30
0.0
  0
SPLINE
  5
4BA
100
AcDbEntity
  8
00_COMPONENTS_1
100
AcDbSpline
 62
7
  6
CONTINUOUS
 70
0
 71
3
 72
11
 73
7
 74
0
 42
0.0000001
 43
0.0000001
 44
0.0000000001
 40
0.0
 40
0.0
 40
0.0
 40
0.0
 40
0.2897033281
 40
0.5490895198
 40
0.7822165953
 40
1.0
 40
1.0
 40
1.0
 40
1.0
 10
17.7307675974
 20
118.2733253956
 30
0.0
 10
17.7307675974
 20
118.4759979732
 30
0.0
 10
17.761495742
 20
118.8614382612
 30
0.0
 10
17.9175944343
 20
119.3910130185
 30
0.0
 10
18.1804127897
 20
119.8207329857
 30
0.0
 10
18.4272789989
 20
120.0282730814
 30
0.0
 10
18.5592254314
 20
120.1044518766
 30
0.0
  0
SPLINE
  5
4BB
100
AcDbEntity
  8
00_COMPONENTS_1
100
AcDbSpline
 62
7
  6
CONTINUOUS
 70
0
 71
3
 72
13
 73
9
 74
0
 42
0.0000001
 43
0.0000001
 44
0.0000000001
 40
0.0
 40
0.0
 40
0.0
 40
0.0
 40
0.1142250362
 40
0.2375584228
 40
0.4999988469
 40
0.762439898
 40
0.8857740437
 40
1.0
 40
1.0
 40
1.0
 40
1.0
 10
20.559206498
 20
83.1637632752
 30
0.0
 10
20.3656312712
 20
83.2755214562
 30
0.0
 10
19.9831482621
 20
83.543695605
 30
0.0
 10
19.2670251201
 20
84.2138162704
 30
0.0
 10
18.5106777246
 20
85.2470221263
 30
0.0
 10
17.9940629048
 20
86.4186399448
 30
0.0
 10
17.7717758939
 20
87.3738840525
 30
0.0
 10
17.7307675974
 20
87.8392140069
 30
0.0
 10
17.7307675974
 20
88.0627359618
 30
0.0
  0
SPLINE
  5
4BC
100
AcDbEntity
  8
00_COMPONENTS_1
100
AcDbSpline
 62
7
  6
CONTINUOUS
 70
0
 71
3
 72
9
 73
5
 74
0
 42
0.0000001
 43
0.0000001
 44
0.0000000001
 40
0.0
 40
0.0
 40
0.0
 40
0.0
 40
0.4796260373
 40
1.0
 40
1.0
 40
1.0
 40
1.0
 10
91.8688740715
 20
46.6795155072
 30
0.0
 10
91.8599231184
 20
46.906146961
 30
0.0
 10
91.789271913
 20
47.3770826188
 30
0.0
 10
91.6403115478
 20
47.8281061768
 30
0.0
 10
91.5461786272
 20
48.0554671321
 30
0.0
  0
SPLINE
  5
4BD
100
AcDbEntity
  8
00_COMPONENTS_1
100
AcDbSpline
 62
7
  6
CONTINUOUS
 70
0
 71
3
 72
9
 73
5
 74
0
 42
0.0000001
 43
0.0000001
 44
0.0000000001
 40
0.0
 40
0.0
 40
0.0
 40
0.0
 40
0.2329619709
 40
1.0
 40
1.0
 40
1.0
 40
1.0
 10
40.0496848819
 20
152.1839643425
 30
0.0
 10
40.0523052084
 20
152.1942037771
 30
0.0
 10
40.0633210215
 20
152.238216431
 30
0.0
 10
40.0736688386
 20
152.2823931701
 30
0.0
 10
40.0814583316
 20
152.3163104127
 30
0.0
  0
SPLINE
  5
4BE
100
AcDbEntity
  8
00_COMPONENTS_1
100
AcDbSpline
 62
7
  6
CONTINUOUS
 70
0
 71
3
 72
11
 73
7
 74
0
 42
0.0000001
 43
0.0000001
 44
0.0000000001
 40
0.0
 40
0.0
 40
0.0
 40
0.0
 40
0.232301532
 40
0.4899044372
 40
0.7527898995
 40
1.0
 40
1.0
 40
1.0
 40
1.0
 10
39.4304190424
 20
153.9088317596
 30
0.0
 10
39.5454399065
 20
153.8424259351
 30
0.0
 10
39.758619548
 20
153.6505929406
 30
0.0
 10
39.9837880713
 20
153.2783514447
 30
0.0
 10
40.1110096084
 20
152.8537485811
 30
0.0
 10
40.1203268081
 20
152.5572820104
 30
0.0
 10
40.1006847118
 20
152.4173159366
 30
0.0
  0
SPLINE
  5
4BF
100
AcDbEntity
  8
00_COMPONENTS_1
100
AcDbSpline
 62
7
  6
CONTINUOUS
 70
0
 71
3
 72
8
 73
4
 74
0
 42
0.0000001
 43
0.0000001
 44
0.0000000001
 40
0.0
 40
0.0
 40
0.0
 40
0.0
 40
1.0
 40
1.0
 40
1.0
 40
1.0
 10
40.1006847118
 20
152.4173159366
 30
0.0
 10
40.095921688
 20
152.3833754789
 30
0.0
 10
40.0892174373
 20
152.3496936022
 30
0.0
 10
40.0814583316
 20
152.3163104127
 30
0.0
  0
SPLINE
  5
4C0
100
AcDbEntity
  8
00_COMPONENTS_1
100
AcDbSpline
 62
7
  6
CONTINUOUS
 70
0
 71
3
 72
13
 73
9
 74
0
 42
0.0000001
 43
0.0000001
 44
0.0000000001
 40
0.0
 40
0.0
 40
0.0
 40
0.0
 40
0.3072193116
 40
0.5818151502
 40
0.7019533314
 40
0.8099867789
 40
0.9079316859
 40
1.0
 40
1.0
 40
1.0
 40
1.0
 10
64.1942318638
 20
143.8486557895
 30
0.0
 10
64.0770714435
 20
144.0302415112
 30
0.0
 10
63.8191126902
 20
144.3522690955
 30
0.0
 10
63.4235123116
 20
144.6597537973
 30
0.0
 10
63.0970751481
 20
144.8006851443
 30
0.0
 10
62.8704159869
 20
144.8472786071
 30
0.0
 10
62.6583905882
 20
144.8365662546
 30
0.0
 10
62.5307432681
 20
144.7886358985
 30
0.0
 10
62.4746564548
 20
144.756257234
 30
0.0
  0
SPLINE
  5
4C1
100
AcDbEntity
  8
00_COMPONENTS_1
100
AcDbSpline
 62
7
  6
CONTINUOUS
 70
0
 71
3
 72
9
 73
5
 74
0
 42
0.0000001
 43
0.0000001
 44
0.0000000001
 40
0.0
 40
0.0
 40
0.0
 40
0.0
 40
0.2329619709
 40
1.0
 40
1.0
 40
1.0
 40
1.0
 10
84.0319097861
 20
126.7913894114
 30
0.0
 10
84.0345301126
 20
126.8016288459
 30
0.0
 10
84.0455459257
 20
126.8456414998
 30
0.0
 10
84.0558937427
 20
126.8898182389
 30
0.0
 10
84.0636832357
 20
126.9237354815
 30
0.0
  0
SPLINE
  5
4C2
100
AcDbEntity
  8
00_COMPONENTS_1
100
AcDbSpline
 62
7
  6
CONTINUOUS
 70
0
 71
3
 72
11
 73
7
 74
0
 42
0.0000001
 43
0.0000001
 44
0.0000000001
 40
0.0
 40
0.0
 40
0.0
 40
0.0
 40
0.278784135
 40
0.5369268535
 40
0.775597909
 40
1.0
 40
1.0
 40
1.0
 40
1.0
 10
91.5711294514
 20
126.7354935011
 30
0.0
 10
91.5350491619
 20
126.4783834432
 30
0.0
 10
91.4260397936
 20
125.9873308029
 30
0.0
 10
91.137327687
 20
125.3197136332
 30
0.0
 10
90.7362617634
 20
124.7730735415
 30
0.0
 10
90.3938477859
 20
124.5000186101
 30
0.0
 10
90.2128694259
 20
124.3955148114
 30
0.0
  0
SPLINE
  5
4C3
100
AcDbEntity
  8
00_COMPONENTS_1
100
AcDbSpline
 62
7
  6
CONTINUOUS
 70
0
 71
3
 72
11
 73
7
 74
0
 42
0.0000001
 43
0.0000001
 44
0.0000000001
 40
0.0
 40
0.0
 40
0.0
 40
0.0
 40
0.2894156761
 40
0.5491593669
 40
0.7823473435
 40
1.0
 40
1.0
 40
1.0
 40
1.0
 10
80.2729301592
 20
34.6428039298
 30
0.0
 10
80.2220837179
 20
34.6134478985
 30
0.0
 10
80.1207822573
 20
34.5653803783
 30
0.0
 10
79.9651711457
 20
34.5276196599
 30
0.0
 10
79.8190835495
 20
34.5313988767
 30
0.0
 10
79.7311878853
 20
34.5632903138
 30
0.0
 10
79.6929548458
 20
34.585376978
 30
0.0
  0
SPLINE
  5
4C4
100
AcDbEntity
  8
00_COMPONENTS_1
100
AcDbSpline
 62
7
  6
CONTINUOUS
 70
0
 71
3
 72
11
 73
7
 74
0
 42
0.0000001
 43
0.0000001
 44
0.0000000001
 40
0.0
 40
0.0
 40
0.0
 40
0.0
 40
0.2894156761
 40
0.5491593669
 40
0.7823473435
 40
1.0
 40
1.0
 40
1.0
 40
1.0
 10
97.9506732879
 20
24.4367850668
 30
0.0
 10
97.8998268466
 20
24.4074290354
 30
0.0
 10
97.798525386
 20
24.3593615152
 30
0.0
 10
97.6429142744
 20
24.3216007969
 30
0.0
 10
97.4968266782
 20
24.3253800137
 30
0.0
 10
97.408931014
 20
24.3572714508
 30
0.0
 10
97.3706979745
 20
24.379358115
 30
0.0
  0
SPLINE
  5
4C5
100
AcDbEntity
  8
00_COMPONENTS_1
100
AcDbSpline
 62
7
  6
CONTINUOUS
 70
0
 71
3
 72
11
 73
7
 74
0
 42
0.0000001
 43
0.0000001
 44
0.0000000001
 40
0.0
 40
0.0
 40
0.0
 40
0.0
 40
0.2894156761
 40
0.5491593669
 40
0.7823473435
 40
1.0
 40
1.0
 40
1.0
 40
1.0
 10
86.6369176856
 20
30.9686371391
 30
0.0
 10
86.5860712443
 20
30.9392811078
 30
0.0
 10
86.4847697837
 20
30.8912135876
 30
0.0
 10
86.329158672
 20
30.8534528692
 30
0.0
 10
86.1830710758
 20
30.857232086
 30
0.0
 10
86.0951754116
 20
30.8891235231
 30
0.0
 10
86.0569423721
 20
30.9112101874
 30
0.0
  0
SPLINE
  5
4C6
100
AcDbEntity
  8
00_COMPONENTS_1
100
AcDbSpline
 62
7
  6
CONTINUOUS
 70
0
 71
3
 72
11
 73
7
 74
0
 42
0.0000001
 43
0.0000001
 44
0.0000000001
 40
0.0
 40
0.0
 40
0.0
 40
0.0
 40
0.2510280179
 40
0.5135183228
 40
0.7688410676
 40
1.0
 40
1.0
 40
1.0
 40
1.0
 10
38.474693619
 20
153.093265401
 30
0.0
 10
38.4979977392
 20
152.9752913549
 30
0.0
 10
38.5742324596
 20
152.7391899185
 30
0.0
 10
38.7524740279
 20
152.4145877556
 30
0.0
 10
38.9816581007
 20
152.1359005136
 30
0.0
 10
39.1662889215
 20
151.9891160925
 30
0.0
 10
39.2621892505
 20
151.9337492643
 30
0.0
  0
SPLINE
  5
4C7
100
AcDbEntity
  8
00_COMPONENTS_1
100
AcDbSpline
 62
7
  6
CONTINUOUS
 70
0
 71
3
 72
11
 73
7
 74
0
 42
0.0000001
 43
0.0000001
 44
0.0000000001
 40
0.0
 40
0.0
 40
0.0
 40
0.0
 40
0.2895039426
 40
0.5491656245
 40
0.7823280567
 40
1.0
 40
1.0
 40
1.0
 40
1.0
 10
39.2621892505
 20
151.9337492643
 30
0.0
 10
39.3126141369
 20
151.9046371012
 30
0.0
 10
39.4130356576
 20
151.8569503777
 30
0.0
 10
39.5673163021
 20
151.8195775315
 30
0.0
 10
39.7121327031
 20
151.8232818897
 30
0.0
 10
39.79926049
 20
151.854929515
 30
0.0
 10
39.8371730431
 20
151.876819832
 30
0.0
  0
SPLINE
  5
4C8
100
AcDbEntity
  8
00_COMPONENTS_1
100
AcDbSpline
 62
7
  6
CONTINUOUS
 70
0
 71
3
 72
13
 73
9
 74
0
 42
0.0000001
 43
0.0000001
 44
0.0000000001
 40
0.0
 40
0.0
 40
0.0
 40
0.0
 40
0.3000001027
 40
0.5717687462
 40
0.6933570095
 40
0.8044959775
 40
0.9060550085
 40
1.0
 40
1.0
 40
1.0
 40
1.0
 10
42.2666994989
 20
150.9039993133
 30
0.0
 10
42.449005792
 20
150.6420537692
 30
0.0
 10
42.8421050283
 20
150.1727215129
 30
0.0
 10
43.4275451014
 20
149.711363558
 30
0.0
 10
43.9105021183
 20
149.4730330149
 30
0.0
 10
44.2526233059
 20
149.3690610451
 30
0.0
 10
44.57958684
 20
149.3368010591
 30
0.0
 10
44.7882343445
 20
149.3655533061
 30
0.0
 10
44.8844176489
 20
149.3926932251
 30
0.0
  0
SPLINE
  5
4C9
100
AcDbEntity
  8
00_COMPONENTS_1
100
AcDbSpline
 62
7
  6
CONTINUOUS
 70
0
 71
3
 72
9
 73
5
 74
0
 42
0.0000001
 43
0.0000001
 44
0.0000000001
 40
0.0
 40
0.0
 40
0.0
 40
0.0
 40
0.5276540675
 40
1.0
 40
1.0
 40
1.0
 40
1.0
 10
51.6970384507
 20
145.4595137517
 30
0.0
 10
51.9213768451
 20
145.2714195808
 30
0.0
 10
52.3739862325
 20
144.9457939435
 30
0.0
 10
52.8819472118
 20
144.7101790017
 30
0.0
 10
53.1318218258
 20
144.6311599237
 30
0.0
  0
SPLINE
  5
4CA
100
AcDbEntity
  8
00_COMPONENTS_1
100
AcDbSpline
 62
7
  6
CONTINUOUS
 70
0
 71
3
 72
14
 73
10
 74
0
 42
0.0000001
 43
0.0000001
 44
0.0000000001
 40
0.0
 40
0.0
 40
0.0
 40
0.0
 40
0.2857580891
 40
0.4329684065
 40
0.5739079824
 40
0.7027512299
 40
0.8158371969
 40
0.9131431585
 40
1.0
 40
1.0
 40
1.0
 40
1.0
 10
56.1159785827
 20
142.9082951932
 30
0.0
 10
56.1539513023
 20
142.7081786139
 30
0.0
 10
56.2692577257
 20
142.4141870004
 30
0.0
 10
56.4971443059
 20
142.073590266
 30
0.0
 10
56.6997419957
 20
141.854061523
 30
0.0
 10
56.9186726113
 20
141.6882999839
 30
0.0
 10
57.1410668337
 20
141.5870316639
 30
0.0
 10
57.3552529043
 20
141.5586352236
 30
0.0
 10
57.4863087468
 20
141.5965273469
 30
0.0
 10
57.5399244633
 20
141.6274847513
 30
0.0
  0
SPLINE
  5
4CB
100
AcDbEntity
  8
00_COMPONENTS_1
100
AcDbSpline
 62
7
  6
CONTINUOUS
 70
0
 71
3
 72
13
 73
9
 74
0
 42
0.0000001
 43
0.0000001
 44
0.0000000001
 40
0.0
 40
0.0
 40
0.0
 40
0.0
 40
0.3000001027
 40
0.5717687462
 40
0.6933570095
 40
0.8044959775
 40
0.9060550085
 40
1.0
 40
1.0
 40
1.0
 40
1.0
 10
59.9444426276
 20
140.6979804503
 30
0.0
 10
60.1267489206
 20
140.4360349062
 30
0.0
 10
60.519848157
 20
139.9667026499
 30
0.0
 10
61.10528823
 20
139.505344695
 30
0.0
 10
61.588245247
 20
139.2670141519
 30
0.0
 10
61.9303664345
 20
139.1630421821
 30
0.0
 10
62.2573299687
 20
139.1307821961
 30
0.0
 10
62.4659774732
 20
139.1595344431
 30
0.0
 10
62.5621607776
 20
139.1866743621
 30
0.0
  0
SPLINE
  5
4CC
100
AcDbEntity
  8
00_COMPONENTS_1
100
AcDbSpline
 62
7
  6
CONTINUOUS
 70
0
 71
3
 72
9
 73
5
 74
0
 42
0.0000001
 43
0.0000001
 44
0.0000000001
 40
0.0
 40
0.0
 40
0.0
 40
0.0
 40
0.5276540675
 40
1.0
 40
1.0
 40
1.0
 40
1.0
 10
69.3747815793
 20
135.2534948887
 30
0.0
 10
69.5991199738
 20
135.0654007178
 30
0.0
 10
70.0517293611
 20
134.7397750805
 30
0.0
 10
70.5596903404
 20
134.5041601387
 30
0.0
 10
70.8095649544
 20
134.4251410607
 30
0.0
  0
SPLINE
  5
4CD
100
AcDbEntity
  8
00_COMPONENTS_1
100
AcDbSpline
 62
7
  6
CONTINUOUS
 70
0
 71
3
 72
13
 73
9
 74
0
 42
0.0000001
 43
0.0000001
 44
0.0000000001
 40
0.0
 40
0.0
 40
0.0
 40
0.0
 40
0.3000001027
 40
0.5717687462
 40
0.6933570095
 40
0.8044959775
 40
0.9060550085
 40
1.0
 40
1.0
 40
1.0
 40
1.0
 10
77.6221857562
 20
130.4919615873
 30
0.0
 10
77.8044920493
 20
130.2300160431
 30
0.0
 10
78.1975912856
 20
129.7606837869
 30
0.0
 10
78.7830313587
 20
129.299325832
 30
0.0
 10
79.2659883757
 20
129.0609952889
 30
0.0
 10
79.6081095632
 20
128.957023319
 30
0.0
 10
79.9350730974
 20
128.9247633331
 30
0.0
 10
80.1437206019
 20
128.9535155801
 30
0.0
 10
80.2399039062
 20
128.9806554991
 30
0.0
  0
SPLINE
  5
4CE
100
AcDbEntity
  8
00_COMPONENTS_1
100
AcDbSpline
 62
7
  6
CONTINUOUS
 70
0
 71
3
 72
14
 73
10
 74
0
 42
0.0000001
 43
0.0000001
 44
0.0000000001
 40
0.0
 40
0.0
 40
0.0
 40
0.0
 40
0.2864119999
 40
0.4335787959
 40
0.5743461839
 40
0.7029730702
 40
0.8158936354
 40
0.9131385569
 40
1.0
 40
1.0
 40
1.0
 40
1.0
 10
82.4569185232
 20
127.7006904699
 30
0.0
 10
82.4946282741
 20
127.5097898105
 30
0.0
 10
82.6060738288
 20
127.2298557021
 30
0.0
 10
82.824775528
 20
126.905841455
 30
0.0
 10
83.0185206888
 20
126.6976018766
 30
0.0
 10
83.2274606205
 20
126.5405889428
 30
0.0
 10
83.4394689019
 20
126.4449185883
 30
0.0
 10
83.6435363482
 20
126.4183818161
 30
0.0
 10
83.7682925899
 20
126.4547350569
 30
0.0
 10
83.819406371
 20
126.4842314587
 30
0.0
  0
SPLINE
  5
4CF
100
AcDbEntity
  8
00_COMPONENTS_1
100
AcDbSpline
 62
7
  6
CONTINUOUS
 70
0
 71
3
 72
9
 73
5
 74
0
 42
0.0000001
 43
0.0000001
 44
0.0000000001
 40
0.0
 40
0.0
 40
0.0
 40
0.0
 40
0.5276540675
 40
1.0
 40
1.0
 40
1.0
 40
1.0
 10
87.052524708
 20
125.0474760257
 30
0.0
 10
87.2768631025
 20
124.8593818548
 30
0.0
 10
87.7294724898
 20
124.5337562175
 30
0.0
 10
88.2374334691
 20
124.2981412757
 30
0.0
 10
88.4873080831
 20
124.2191221977
 30
0.0
  0
SPLINE
  5
4D0
100
AcDbEntity
  8
00_COMPONENTS_1
100
AcDbSpline
 62
7
  6
CONTINUOUS
 70
0
 71
3
 72
9
 73
5
 74
0
 42
0.0000001
 43
0.0000001
 44
0.0000000001
 40
0.0
 40
0.0
 40
0.0
 40
0.0
 40
0.5276540675
 40
1.0
 40
1.0
 40
1.0
 40
1.0
 10
34.019295322
 20
155.6655326147
 30
0.0
 10
34.2436337164
 20
155.4774384438
 30
0.0
 10
34.6962431038
 20
155.1518128065
 30
0.0
 10
35.2042040831
 20
154.9161978647
 30
0.0
 10
35.4540786971
 20
154.8371787867
 30
0.0
  0
SPLINE
  5
4D1
100
AcDbEntity
  8
00_COMPONENTS_1
100
AcDbSpline
 62
7
  6
CONTINUOUS
 70
0
 71
3
 72
8
 73
4
 74
0
 42
0.0000001
 43
0.0000001
 44
0.0000000001
 40
0.0
 40
0.0
 40
0.0
 40
0.0
 40
1.0
 40
1.0
 40
1.0
 40
1.0
 10
38.4635052881
 20
153.2504149056
 30
0.0
 10
38.4655139988
 20
153.285978112
 30
0.0
 10
38.4684344746
 20
153.321542659
 30
0.0
 10
38.473384438
 20
153.3568169334
 30
0.0
  0
SPLINE
  5
4D2
100
AcDbEntity
  8
00_COMPONENTS_1
100
AcDbSpline
 62
7
  6
CONTINUOUS
 70
0
 71
3
 72
10
 73
6
 74
0
 42
0.0000001
 43
0.0000001
 44
0.0000000001
 40
0.0
 40
0.0
 40
0.0
 40
0.0
 40
0.5356589927
 40
0.7749561394
 40
1.0
 40
1.0
 40
1.0
 40
1.0
 10
38.473384438
 20
153.3568169334
 30
0.0
 10
38.4906690937
 20
153.4799903076
 30
0.0
 10
38.5442319302
 20
153.6582041905
 30
0.0
 10
38.6824549652
 20
153.8471441866
 30
0.0
 10
38.7681874846
 20
153.915348761
 30
0.0
 10
38.8134524821
 20
153.9414580164
 30
0.0
  0
SPLINE
  5
4D3
100
AcDbEntity
  8
00_COMPONENTS_1
100
AcDbSpline
 62
7
  6
CONTINUOUS
 70
0
 71
3
 72
9
 73
5
 74
0
 42
0.0000001
 43
0.0000001
 44
0.0000000001
 40
0.0
 40
0.0
 40
0.0
 40
0.0
 40
0.2528490728
 40
1.0
 40
1.0
 40
1.0
 40
1.0
 10
35.4540786971
 20
154.8371787868
 30
0.0
 10
35.4885257298
 20
154.8262854322
 30
0.0
 10
35.625589658
 20
154.785924146
 30
0.0
 10
35.7666642996
 20
154.7587276744
 30
0.0
 10
35.8728100275
 20
154.747320484
 30
0.0
  0
SPLINE
  5
4D4
100
AcDbEntity
  8
00_COMPONENTS_1
100
AcDbSpline
 62
7
  6
CONTINUOUS
 70
0
 71
3
 72
11
 73
7
 74
0
 42
0.0000001
 43
0.0000001
 44
0.0000000001
 40
0.0
 40
0.0
 40
0.0
 40
0.0
 40
0.2484284642
 40
0.5063382418
 40
0.7607755585
 40
1.0
 40
1.0
 40
1.0
 40
1.0
 10
33.621459466
 20
156.0471108598
 30
0.0
 10
33.319723911
 20
156.3830213829
 30
0.0
 10
32.7879053635
 20
157.1451764219
 30
0.0
 10
32.2432528489
 20
158.4256852741
 30
0.0
 10
31.9643855873
 20
159.7718998133
 30
0.0
 10
31.9720667888
 20
160.6787817889
 30
0.0
 10
32.032490594
 20
161.1093650317
 30
0.0
  0
SPLINE
  5
4D5
100
AcDbEntity
  8
00_COMPONENTS_1
100
AcDbSpline
 62
7
  6
CONTINUOUS
 70
0
 71
3
 72
13
 73
9
 74
0
 42
0.0000001
 43
0.0000001
 44
0.0000000001
 40
0.0
 40
0.0
 40
0.0
 40
0.0
 40
0.1002623126
 40
0.2039879387
 40
0.3140839223
 40
0.4325872886
 40
0.697775354
 40
1.0
 40
1.0
 40
1.0
 40
1.0
 10
72.3432778136
 20
166.5654267439
 30
0.0
 10
72.4667006372
 20
166.6366572021
 30
0.0
 10
72.7358878248
 20
166.752370494
 30
0.0
 10
73.1784912243
 20
166.8321198643
 30
0.0
 10
73.653598675
 20
166.8198413167
 30
0.0
 10
74.343835849
 20
166.6769429398
 30
0.0
 10
75.238460317
 20
166.2591013342
 30
0.0
 10
75.8803551875
 20
165.7620881648
 30
0.0
 10
76.1966547062
 20
165.4714532027
 30
0.0
  0
SPLINE
  5
4D6
100
AcDbEntity
  8
00_COMPONENTS_1
100
AcDbSpline
 62
7
  6
CONTINUOUS
 70
0
 71
3
 72
9
 73
5
 74
0
 42
0.0000001
 43
0.0000001
 44
0.0000000001
 40
0.0
 40
0.0
 40
0.0
 40
0.0
 40
0.4912981892
 40
1.0
 40
1.0
 40
1.0
 40
1.0
 10
76.1966547062
 20
165.4714532027
 30
0.0
 10
76.6476505357
 20
165.0570511943
 30
0.0
 10
77.4648814545
 20
164.1012112037
 30
0.0
 10
78.0779155616
 20
163.0054928374
 30
0.0
 10
78.3298264176
 20
162.4235008602
 30
0.0
  0
SPLINE
  5
4D7
100
AcDbEntity
  8
00_COMPONENTS_1
100
AcDbSpline
 62
7
  6
CONTINUOUS
 70
0
 71
3
 72
9
 73
5
 74
0
 42
0.0000001
 43
0.0000001
 44
0.0000000001
 40
0.0
 40
0.0
 40
0.0
 40
0.0
 40
0.265656954
 40
1.0
 40
1.0
 40
1.0
 40
1.0
 10
91.131538707
 20
47.8172789984
 30
0.0
 10
91.1595842264
 20
47.7384953985
 30
0.0
 10
91.2542980235
 20
47.4384428407
 30
0.0
 10
91.3054779748
 20
47.1226862977
 30
0.0
 10
91.3054779748
 20
46.8915212375
 30
0.0
  0
SPLINE
  5
4D8
100
AcDbEntity
  8
00_COMPONENTS_1
100
AcDbSpline
 62
7
  6
CONTINUOUS
 70
0
 71
3
 72
16
 73
12
 74
0
 42
0.0000001
 43
0.0000001
 44
0.0000000001
 40
0.0
 40
0.0
 40
0.0
 40
0.0
 40
0.151879662
 40
0.3026845989
 40
0.4477605007
 40
0.5830675701
 40
0.7056700266
 40
0.8144197087
 40
0.9107982729
 40
0.9559053971
 40
1.0
 40
1.0
 40
1.0
 40
1.0
 10
64.5034857466
 20
174.8520348798
 30
0.0
 10
64.3093857285
 20
175.2791712962
 30
0.0
 10
63.8676893777
 20
176.1065670774
 30
0.0
 10
63.0684682711
 20
177.2397146226
 30
0.0
 10
62.163594763
 20
178.2227850334
 30
0.0
 10
61.1938789367
 20
179.0112753642
 30
0.0
 10
60.2006022791
 20
179.5696292005
 30
0.0
 10
59.2247035423
 20
179.8717856357
 30
0.0
 10
58.4375904669
 20
179.8896378505
 30
0.0
 10
57.8785193838
 20
179.7506644724
 30
0.0
 10
57.6261228992
 20
179.6353784219
 30
0.0
 10
57.508142007
 20
179.5673029999
 30
0.0
  0
SPLINE
  5
4D9
100
AcDbEntity
  8
00_COMPONENTS_1
100
AcDbSpline
 62
7
  6
CONTINUOUS
 70
0
 71
3
 72
13
 73
9
 74
0
 42
0.0000001
 43
0.0000001
 44
0.0000000001
 40
0.0
 40
0.0
 40
0.0
 40
0.0
 40
0.1002623126
 40
0.2039879387
 40
0.3140839223
 40
0.4325872886
 40
0.697775354
 40
1.0
 40
1.0
 40
1.0
 40
1.0
 10
107.698764071
 20
146.1533890179
 30
0.0
 10
107.8221868946
 20
146.2246194761
 30
0.0
 10
108.0913740821
 20
146.340332768
 30
0.0
 10
108.5339774816
 20
146.4200821383
 30
0.0
 10
109.0090849324
 20
146.4078035907
 30
0.0
 10
109.6993221063
 20
146.2649052137
 30
0.0
 10
110.5939465744
 20
145.8470636082
 30
0.0
 10
111.2358414449
 20
145.3500504388
 30
0.0
 10
111.5521409636
 20
145.0594154767
 30
0.0
  0
SPLINE
  5
4DA
100
AcDbEntity
  8
00_COMPONENTS_1
100
AcDbSpline
 62
7
  6
CONTINUOUS
 70
0
 71
3
 72
9
 73
5
 74
0
 42
0.0000001
 43
0.0000001
 44
0.0000000001
 40
0.0
 40
0.0
 40
0.0
 40
0.0
 40
0.4912981892
 40
1.0
 40
1.0
 40
1.0
 40
1.0
 10
111.5521409636
 20
145.0594154767
 30
0.0
 10
112.0031367931
 20
144.6450134683
 30
0.0
 10
112.8203677119
 20
143.6891734776
 30
0.0
 10
113.433401819
 20
142.5934551114
 30
0.0
 10
113.6853126749
 20
142.0114631342
 30
0.0
  0
SPLINE
  5
4DB
100
AcDbEntity
  8
00_COMPONENTS_1
100
AcDbSpline
 62
7
  6
CONTINUOUS
 70
0
 71
3
 72
11
 73
7
 74
0
 42
0.0000001
 43
0.0000001
 44
0.0000000001
 40
0.0
 40
0.0
 40
0.0
 40
0.0
 40
0.2177842682
 40
0.4509274252
 40
0.7102502432
 40
1.0
 40
1.0
 40
1.0
 40
1.0
 10
69.8662944079
 20
164.65034696
 30
0.0
 10
70.0338422934
 20
164.7471277998
 30
0.0
 10
70.4188873083
 20
164.8868490667
 30
0.0
 10
71.0583371396
 20
164.9030178125
 30
0.0
 10
71.7399220165
 20
164.7385269336
 30
0.0
 10
72.1833152978
 20
164.5275213801
 30
0.0
 10
72.4062567201
 20
164.3988090018
 30
0.0
  0
SPLINE
  5
4DC
100
AcDbEntity
  8
00_COMPONENTS_1
100
AcDbSpline
 62
7
  6
CONTINUOUS
 70
0
 71
3
 72
9
 73
5
 74
0
 42
0.0000001
 43
0.0000001
 44
0.0000000001
 40
0.0
 40
0.0
 40
0.0
 40
0.0
 40
0.5096634193
 40
1.0
 40
1.0
 40
1.0
 40
1.0
 10
113.4697030278
 20
141.8901897522
 30
0.0
 10
113.2275609325
 20
142.4645180397
 30
0.0
 10
112.6284629102
 20
143.5419201721
 30
0.0
 10
111.8167545751
 20
144.4731031286
 30
0.0
 10
111.3671826037
 20
144.8699230902
 30
0.0
  0
SPLINE
  5
4DD
100
AcDbEntity
  8
00_COMPONENTS_1
100
AcDbSpline
 62
7
  6
CONTINUOUS
 70
0
 71
3
 72
12
 73
8
 74
0
 42
0.0000001
 43
0.0000001
 44
0.0000000001
 40
0.0
 40
0.0
 40
0.0
 40
0.0
 40
0.3015269908
 40
0.5662850136
 40
0.7945348415
 40
0.8989224455
 40
1.0
 40
1.0
 40
1.0
 40
1.0
 10
111.3671826037
 20
144.8699230902
 30
0.0
 10
111.080846947
 20
145.1226606083
 30
0.0
 10
110.5006223579
 20
145.5535736048
 30
0.0
 10
109.5730097744
 20
145.9677382088
 30
0.0
 10
108.8042980357
 20
146.0614712538
 30
0.0
 10
108.260815797
 20
145.9582322287
 30
0.0
 10
108.0196516212
 20
145.8536480339
 30
0.0
 10
107.908765002
 20
145.7896543762
 30
0.0
  0
SPLINE
  5
4DE
100
AcDbEntity
  8
00_COMPONENTS_1
100
AcDbSpline
 62
7
  6
CONTINUOUS
 70
0
 71
3
 72
11
 73
7
 74
0
 42
0.0000001
 43
0.0000001
 44
0.0000000001
 40
0.0
 40
0.0
 40
0.0
 40
0.0
 40
0.289775222
 40
0.5490688033
 40
0.782225076
 40
1.0
 40
1.0
 40
1.0
 40
1.0
 10
57.4155081729
 20
176.1561556495
 30
0.0
 10
57.1925460685
 20
176.2848799684
 30
0.0
 10
56.7491616285
 20
176.4959127593
 30
0.0
 10
56.0675614274
 20
176.6603591153
 30
0.0
 10
55.4281179209
 20
176.644231504
 30
0.0
 10
55.0431003417
 20
176.5044481152
 30
0.0
 10
54.8755382151
 20
176.4077066478
 30
0.0
  0
SPLINE
  5
4DF
100
AcDbEntity
  8
00_COMPONENTS_1
100
AcDbSpline
 62
7
  6
CONTINUOUS
 70
0
 71
3
 72
11
 73
7
 74
0
 42
0.0000001
 43
0.0000001
 44
0.0000000001
 40
0.0
 40
0.0
 40
0.0
 40
0.0
 40
0.2624770031
 40
0.5234019432
 40
0.7722021024
 40
1.0
 40
1.0
 40
1.0
 40
1.0
 10
60.4375514028
 20
172.5056910034
 30
0.0
 10
60.2741604684
 20
172.8936701905
 30
0.0
 10
59.8902383665
 20
173.6440615207
 30
0.0
 10
59.1731989756
 20
174.6590724704
 30
0.0
 10
58.3515775428
 20
175.5162564243
 30
0.0
 10
57.7319204715
 20
175.9734790564
 30
0.0
 10
57.4155081729
 20
176.1561556495
 30
0.0
  0
SPLINE
  5
4E0
100
AcDbEntity
  8
00_COMPONENTS_1
100
AcDbSpline
 62
7
  6
CONTINUOUS
 70
0
 71
3
 72
16
 73
12
 74
0
 42
0.0000001
 43
0.0000001
 44
0.0000000001
 40
0.0
 40
0.0
 40
0.0
 40
0.0
 40
0.044090364
 40
0.0891935565
 40
0.1855688822
 40
0.2943220164
 40
0.416932391
 40
0.552247184
 40
0.6973277285
 40
0.8481200027
 40
1.0
 40
1.0
 40
1.0
 40
1.0
 10
74.3373624247
 20
168.871388132
 30
0.0
 10
74.4553624883
 20
168.9395504023
 30
0.0
 10
74.7078922128
 20
169.0548770873
 30
0.0
 10
75.2672718551
 20
169.1937279744
 30
0.0
 10
76.0547873551
 20
169.1757435824
 30
0.0
 10
77.0311589918
 20
168.873132922
 30
0.0
 10
78.0248540184
 20
168.3141616019
 30
0.0
 10
78.9949086891
 20
167.5249192472
 30
0.0
 10
79.8999298527
 20
166.541011271
 30
0.0
 10
80.6992144202
 20
165.4070259205
 30
0.0
 10
81.1407694613
 20
164.5790172724
 30
0.0
 10
81.334744173
 20
164.1515461826
 30
0.0
  0
SPLINE
  5
4E1
100
AcDbEntity
  8
00_COMPONENTS_1
100
AcDbSpline
 62
7
  6
CONTINUOUS
 70
0
 71
3
 72
17
 73
13
 74
0
 42
0.0000001
 43
0.0000001
 44
0.0000000001
 40
0.0
 40
0.0
 40
0.0
 40
0.0
 40
0.042857965
 40
0.0874854797
 40
0.1353180708
 40
0.1872814984
 40
0.3045423159
 40
0.4382097446
 40
0.5825520305
 40
0.7297107839
 40
0.8713099826
 40
1.0
 40
1.0
 40
1.0
 40
1.0
 10
40.9108773101
 20
132.3317686363
 30
0.0
 10
40.9749589119
 20
132.3688002789
 30
0.0
 10
41.1162651353
 20
132.4275006485
 30
0.0
 10
41.349487148
 20
132.4617070785
 30
0.0
 10
41.5999572137
 20
132.4432501589
 30
0.0
 10
41.9638922652
 20
132.346477939
 30
0.0
 10
42.4291277204
 20
132.0920861507
 30
0.0
 10
42.9431362641
 20
131.636883157
 30
0.0
 10
43.3974991181
 20
131.0553204148
 30
0.0
 10
43.7551011867
 20
130.3943760789
 30
0.0
 10
43.9871554538
 20
129.7082490594
 30
0.0
 10
44.0493334534
 20
129.2409503941
 30
0.0
 10
44.0493334534
 20
129.0187134933
 30
0.0
  0
SPLINE
  5
4E2
100
AcDbEntity
  8
00_COMPONENTS_1
100
AcDbSpline
 62
7
  6
CONTINUOUS
 70
0
 71
3
 72
11
 73
7
 74
0
 42
0.0000001
 43
0.0000001
 44
0.0000000001
 40
0.0
 40
0.0
 40
0.0
 40
0.0
 40
0.2277880642
 40
0.4765676858
 40
0.7374849145
 40
1.0
 40
1.0
 40
1.0
 40
1.0
 10
54.7285135914
 20
174.6048278648
 30
0.0
 10
55.0442815341
 20
174.4225232824
 30
0.0
 10
55.6627414585
 20
173.9663814898
 30
0.0
 10
56.483103541
 20
173.1113690587
 30
0.0
 10
57.199389071
 20
172.0988570355
 30
0.0
 10
57.583312227
 20
171.3503169343
 30
0.0
 10
57.7468435646
 20
170.9632415761
 30
0.0
  0
SPLINE
  5
4E3
100
AcDbEntity
  8
00_COMPONENTS_1
100
AcDbSpline
 62
7
  6
CONTINUOUS
 70
0
 71
3
 72
9
 73
5
 74
0
 42
0.0000001
 43
0.0000001
 44
0.0000000001
 40
0.0
 40
0.0
 40
0.0
 40
0.0
 40
0.2404924584
 40
1.0
 40
1.0
 40
1.0
 40
1.0
 10
44.2211340178
 20
127.8824106589
 30
0.0
 10
44.1886316471
 20
127.8872608912
 30
0.0
 10
44.0540857851
 20
127.9114115343
 30
0.0
 10
43.9224408868
 20
127.9507441126
 30
0.0
 10
43.8252501038
 20
127.9871441268
 30
0.0
  0
SPLINE
  5
4E4
100
AcDbEntity
  8
00_COMPONENTS_1
100
AcDbSpline
 62
7
  6
CONTINUOUS
 70
0
 71
3
 72
9
 73
5
 74
0
 42
0.0000001
 43
0.0000001
 44
0.0000000001
 40
0.0
 40
0.0
 40
0.0
 40
0.0
 40
0.2528490728
 40
1.0
 40
1.0
 40
1.0
 40
1.0
 10
88.4873080831
 20
124.2191221977
 30
0.0
 10
88.5217551158
 20
124.2082288432
 30
0.0
 10
88.658819044
 20
124.167867557
 30
0.0
 10
88.7998936856
 20
124.1406710853
 30
0.0
 10
88.9060394136
 20
124.1292638949
 30
0.0
  0
SPLINE
  5
4E5
100
AcDbEntity
  8
00_COMPONENTS_1
100
AcDbSpline
 62
7
  6
CONTINUOUS
 70
0
 71
3
 72
12
 73
8
 74
0
 42
0.0000001
 43
0.0000001
 44
0.0000000001
 40
0.0
 40
0.0
 40
0.0
 40
0.0
 40
0.2312112278
 40
0.4936156531
 40
0.759332592
 40
0.884471489
 40
1.0
 40
1.0
 40
1.0
 40
1.0
 10
63.5733394421
 20
140.5620472359
 30
0.0
 10
63.2410094205
 20
140.7190505402
 30
0.0
 10
62.6015381127
 20
141.2019615866
 30
0.0
 10
61.8532137035
 20
142.1602615349
 30
0.0
 10
61.4103911122
 20
143.112600499
 30
0.0
 10
61.218357508
 20
143.8963735098
 30
0.0
 10
61.1825730662
 20
144.2793710759
 30
0.0
 10
61.1825730662
 20
144.4630236968
 30
0.0
  0
SPLINE
  5
4E6
100
AcDbEntity
  8
00_COMPONENTS_1
100
AcDbSpline
 62
7
  6
CONTINUOUS
 70
0
 71
3
 72
15
 73
11
 74
0
 42
0.0000001
 43
0.0000001
 44
0.0000000001
 40
0.0
 40
0.0
 40
0.0
 40
0.0
 40
0.1447692425
 40
0.274556806
 40
0.3911250336
 40
0.4999971904
 40
0.6088698913
 40
0.7254394959
 40
0.8552288085
 40
1.0
 40
1.0
 40
1.0
 40
1.0
 10
126.8728322065
 20
74.8564669749
 30
0.0
 10
126.9605388551
 20
74.9071041281
 30
0.0
 10
127.1351747976
 20
74.9900578845
 30
0.0
 10
127.4034096954
 20
75.0550283059
 30
0.0
 10
127.6554439693
 20
75.0486018935
 30
0.0
 10
127.8795261175
 20
74.967115042
 30
0.0
 10
128.0621335158
 20
74.8137922534
 30
0.0
 10
128.193713126
 20
74.5987327658
 30
0.0
 10
128.2715627508
 20
74.3339452233
 30
0.0
 10
128.2870398671
 20
74.1412265687
 30
0.0
 10
128.2870398671
 20
74.0399504429
 30
0.0
  0
SPLINE
  5
4E7
100
AcDbEntity
  8
00_COMPONENTS_1
100
AcDbSpline
 62
7
  6
CONTINUOUS
 70
0
 71
3
 72
9
 73
5
 74
0
 42
0.0000001
 43
0.0000001
 44
0.0000000001
 40
0.0
 40
0.0
 40
0.0
 40
0.0
 40
0.5371430575
 40
1.0
 40
1.0
 40
1.0
 40
1.0
 10
102.4777498088
 20
35.2624157935
 30
0.0
 10
102.4777498088
 20
35.5275911063
 30
0.0
 10
102.4275686088
 20
36.0241329464
 30
0.0
 10
102.230214968
 20
36.4897022742
 30
0.0
 10
102.0988140045
 20
36.6766432451
 30
0.0
  0
SPLINE
  5
4E8
100
AcDbEntity
  8
00_COMPONENTS_1
100
AcDbSpline
 62
7
  6
CONTINUOUS
 70
0
 71
3
 72
11
 73
7
 74
0
 42
0.0000001
 43
0.0000001
 44
0.0000000001
 40
0.0
 40
0.0
 40
0.0
 40
0.0
 40
0.2895403107
 40
0.5491269238
 40
0.7822649846
 40
1.0
 40
1.0
 40
1.0
 40
1.0
 10
91.3054779748
 20
46.8915212375
 30
0.0
 10
91.3054779748
 20
46.7801156598
 30
0.0
 10
91.2884652497
 20
46.5681276552
 30
0.0
 10
91.2027730638
 20
46.2768141352
 30
0.0
 10
91.058205629
 20
46.0403662872
 30
0.0
 10
90.9223356962
 20
45.9263667123
 30
0.0
 10
90.8497822216
 20
45.8844784876
 30
0.0
  0
SPLINE
  5
4E9
100
AcDbEntity
  8
00_COMPONENTS_1
100
AcDbSpline
 62
7
  6
CONTINUOUS
 70
0
 71
3
 72
11
 73
7
 74
0
 42
0.0000001
 43
0.0000001
 44
0.0000000001
 40
0.0
 40
0.0
 40
0.0
 40
0.0
 40
0.2177660095
 40
0.4508968553
 40
0.7103699668
 40
1.0
 40
1.0
 40
1.0
 40
1.0
 10
40.4199710161
 20
132.7411409861
 30
0.0
 10
40.3144468892
 20
132.6801610627
 30
0.0
 10
40.116847408
 20
132.5142918967
 30
0.0
 10
39.9066210658
 20
132.1704064262
 30
0.0
 10
39.7818187813
 20
131.746734407
 30
0.0
 10
39.7571790115
 20
131.4383804483
 30
0.0
 10
39.7571790115
 20
131.276283948
 30
0.0
  0
SPLINE
  5
4EA
100
AcDbEntity
  8
00_COMPONENTS_1
100
AcDbSpline
 62
7
  6
CONTINUOUS
 70
0
 71
3
 72
13
 73
9
 74
0
 42
0.0000001
 43
0.0000001
 44
0.0000000001
 40
0.0
 40
0.0
 40
0.0
 40
0.0
 40
0.1002623126
 40
0.2039879387
 40
0.3140839223
 40
0.4325872886
 40
0.697775354
 40
1.0
 40
1.0
 40
1.0
 40
1.0
 10
90.0210209423
 20
156.3594078809
 30
0.0
 10
90.1444437659
 20
156.4306383391
 30
0.0
 10
90.4136309534
 20
156.546351631
 30
0.0
 10
90.856234353
 20
156.6261010013
 30
0.0
 10
91.3313418037
 20
156.6138224537
 30
0.0
 10
92.0215789776
 20
156.4709240767
 30
0.0
 10
92.9162034457
 20
156.0530824712
 30
0.0
 10
93.5580983162
 20
155.5560693018
 30
0.0
 10
93.8743978349
 20
155.2654343397
 30
0.0
  0
SPLINE
  5
4EB
100
AcDbEntity
  8
00_COMPONENTS_1
100
AcDbSpline
 62
7
  6
CONTINUOUS
 70
0
 71
3
 72
9
 73
5
 74
0
 42
0.0000001
 43
0.0000001
 44
0.0000000001
 40
0.0
 40
0.0
 40
0.0
 40
0.0
 40
0.4912981892
 40
1.0
 40
1.0
 40
1.0
 40
1.0
 10
93.8743978349
 20
155.2654343397
 30
0.0
 10
94.3253936644
 20
154.8510323313
 30
0.0
 10
95.1426245832
 20
153.8951923407
 30
0.0
 10
95.7556586903
 20
152.7994739744
 30
0.0
 10
96.0075695463
 20
152.2174819972
 30
0.0
  0
SPLINE
  5
4EC
100
AcDbEntity
  8
00_COMPONENTS_1
100
AcDbSpline
 62
7
  6
CONTINUOUS
 70
0
 71
3
 72
9
 73
5
 74
0
 42
0.0000001
 43
0.0000001
 44
0.0000000001
 40
0.0
 40
0.0
 40
0.0
 40
0.0
 40
0.2329562939
 40
1.0
 40
1.0
 40
1.0
 40
1.0
 10
91.5176091259
 20
47.0139944837
 30
0.0
 10
91.5176091259
 20
47.0887409024
 30
0.0
 10
91.5003382373
 20
47.4095659659
 30
0.0
 10
91.4211036623
 20
47.7253412542
 30
0.0
 10
91.3369800398
 20
47.9566316403
 30
0.0
  0
SPLINE
  5
4ED
100
AcDbEntity
  8
00_COMPONENTS_1
100
AcDbSpline
 62
7
  6
CONTINUOUS
 70
0
 71
3
 72
9
 73
5
 74
0
 42
0.0000001
 43
0.0000001
 44
0.0000000001
 40
0.0
 40
0.0
 40
0.0
 40
0.0
 40
0.479547388
 40
1.0
 40
1.0
 40
1.0
 40
1.0
 10
91.439095986
 20
46.4765826671
 30
0.0
 10
91.4683540606
 20
46.5585758354
 30
0.0
 10
91.5024977191
 20
46.7383518261
 30
0.0
 10
91.5176091259
 20
46.9195115938
 30
0.0
 10
91.5176091259
 20
47.0139944837
 30
0.0
  0
LINE
  5
4EE
100
AcDbEntity
  8
00_COMPONENTS_1
100
AcDbLine
 62
7
  6
CONTINUOUS
 10
91.8225642688
 20
46.9829151844
 11
91.6657184023
 21
46.776322865
  0
SPLINE
  5
4EF
100
AcDbEntity
  8
00_COMPONENTS_1
100
AcDbSpline
 62
7
  6
CONTINUOUS
 70
0
 71
3
 72
11
 73
7
 74
0
 42
0.0000001
 43
0.0000001
 44
0.0000000001
 40
0.0
 40
0.0
 40
0.0
 40
0.0
 40
0.2177842682
 40
0.4509274252
 40
0.7102502432
 40
1.0
 40
1.0
 40
1.0
 40
1.0
 10
87.5440375366
 20
154.444328097
 30
0.0
 10
87.7115854221
 20
154.5411089368
 30
0.0
 10
88.096630437
 20
154.6808302037
 30
0.0
 10
88.7360802683
 20
154.6969989495
 30
0.0
 10
89.4176651452
 20
154.5325080706
 30
0.0
 10
89.8610584265
 20
154.3215025171
 30
0.0
 10
90.0839998488
 20
154.1927901388
 30
0.0
  0
SPLINE
  5
4F0
100
AcDbEntity
  8
00_COMPONENTS_1
100
AcDbSpline
 62
7
  6
CONTINUOUS
 70
0
 71
3
 72
8
 73
4
 74
0
 42
0.0000001
 43
0.0000001
 44
0.0000000001
 40
0.0
 40
0.0
 40
0.0
 40
0.0
 40
1.0
 40
1.0
 40
1.0
 40
1.0
 10
91.439095986
 20
46.4765826671
 30
0.0
 10
91.4103173795
 20
46.0962662437
 30
0.0
 10
91.3837151259
 20
45.7157876857
 30
0.0
 10
91.3552132024
 20
45.3354504268
 30
0.0
  0
SPLINE
  5
4F1
100
AcDbEntity
  8
00_COMPONENTS_1
100
AcDbSpline
 62
7
  6
CONTINUOUS
 70
0
 71
3
 72
17
 73
13
 74
0
 42
0.0000001
 43
0.0000001
 44
0.0000000001
 40
0.0
 40
0.0
 40
0.0
 40
0.0
 40
0.042857965
 40
0.0874854797
 40
0.1353180708
 40
0.1872814984
 40
0.3045423159
 40
0.4382097446
 40
0.5825520305
 40
0.7297107839
 40
0.8713099826
 40
1.0
 40
1.0
 40
1.0
 40
1.0
 10
76.2663635675
 20
111.9197309103
 30
0.0
 10
76.3304451693
 20
111.9567625529
 30
0.0
 10
76.4717513927
 20
112.0154629225
 30
0.0
 10
76.7049734054
 20
112.0496693525
 30
0.0
 10
76.9554434711
 20
112.0312124329
 30
0.0
 10
77.3193785226
 20
111.934440213
 30
0.0
 10
77.7846139778
 20
111.6800484247
 30
0.0
 10
78.2986225214
 20
111.224845431
 30
0.0
 10
78.7529853754
 20
110.6432826888
 30
0.0
 10
79.110587444
 20
109.9823383529
 30
0.0
 10
79.3426417112
 20
109.2962113334
 30
0.0
 10
79.4048197108
 20
108.8289126681
 30
0.0
 10
79.4048197108
 20
108.6066757673
 30
0.0
  0
SPLINE
  5
4F2
100
AcDbEntity
  8
00_COMPONENTS_1
100
AcDbSpline
 62
7
  6
CONTINUOUS
 70
0
 71
3
 72
16
 73
12
 74
0
 42
0.0000001
 43
0.0000001
 44
0.0000000001
 40
0.0
 40
0.0
 40
0.0
 40
0.0
 40
0.044090364
 40
0.0891935565
 40
0.1855688822
 40
0.2943220164
 40
0.416932391
 40
0.552247184
 40
0.6973277285
 40
0.8481200027
 40
1.0
 40
1.0
 40
1.0
 40
1.0
 10
92.0151055534
 20
158.665369269
 30
0.0
 10
92.133105617
 20
158.7335315393
 30
0.0
 10
92.3856353415
 20
158.8488582243
 30
0.0
 10
92.9450149837
 20
158.9877091114
 30
0.0
 10
93.7325304838
 20
158.9697247194
 30
0.0
 10
94.7089021205
 20
158.667114059
 30
0.0
 10
95.702597147
 20
158.1081427389
 30
0.0
 10
96.6726518178
 20
157.3189003842
 30
0.0
 10
97.5776729813
 20
156.334992408
 30
0.0
 10
98.3769575489
 20
155.2010070575
 30
0.0
 10
98.81851259
 20
154.3729984094
 30
0.0
 10
99.0124873017
 20
153.9455273196
 30
0.0
  0
SPLINE
  5
4F3
100
AcDbEntity
  8
00_COMPONENTS_1
100
AcDbSpline
 62
7
  6
CONTINUOUS
 70
0
 71
3
 72
9
 73
5
 74
0
 42
0.0000001
 43
0.0000001
 44
0.0000000001
 40
0.0
 40
0.0
 40
0.0
 40
0.0
 40
0.2404924584
 40
1.0
 40
1.0
 40
1.0
 40
1.0
 10
79.5766202752
 20
107.4703729329
 30
0.0
 10
79.5441179045
 20
107.4752231652
 30
0.0
 10
79.4095720424
 20
107.4993738083
 30
0.0
 10
79.2779271442
 20
107.5387063866
 30
0.0
 10
79.1807363611
 20
107.5751064008
 30
0.0
  0
SPLINE
  5
4F4
100
AcDbEntity
  8
00_COMPONENTS_1
100
AcDbSpline
 62
7
  6
CONTINUOUS
 70
0
 71
3
 72
11
 73
7
 74
0
 42
0.0000001
 43
0.0000001
 44
0.0000000001
 40
0.0
 40
0.0
 40
0.0
 40
0.0
 40
0.2177660095
 40
0.4508968553
 40
0.7103699668
 40
1.0
 40
1.0
 40
1.0
 40
1.0
 10
75.7754572735
 20
112.3291032601
 30
0.0
 10
75.6699331465
 20
112.2681233366
 30
0.0
 10
75.4723336653
 20
112.1022541706
 30
0.0
 10
75.2621073232
 20
111.7583687002
 30
0.0
 10
75.1373050387
 20
111.334696681
 30
0.0
 10
75.1126652689
 20
111.0263427223
 30
0.0
 10
75.1126652689
 20
110.864246222
 30
0.0
  0
SPLINE
  5
4F5
100
AcDbEntity
  8
00_COMPONENTS_1
100
AcDbSpline
 62
7
  6
CONTINUOUS
 70
0
 71
3
 72
14
 73
10
 74
0
 42
0.0000001
 43
0.0000001
 44
0.0000000001
 40
0.0
 40
0.0
 40
0.0
 40
0.0
 40
0.1204109864
 40
0.2519013026
 40
0.5281839699
 40
0.66300864
 40
0.7886395207
 40
0.9014371103
 40
1.0
 40
1.0
 40
1.0
 40
1.0
 10
79.7795588376
 20
133.7262918529
 30
0.0
 10
79.7795588376
 20
133.5999579062
 30
0.0
 10
79.8087240833
 20
133.3353094628
 30
0.0
 10
79.9609017454
 20
132.8008653713
 30
0.0
 10
80.2361151851
 20
132.2918378826
 30
0.0
 10
80.6018186982
 20
131.8617033227
 30
0.0
 10
80.900696431
 20
131.6054616129
 30
0.0
 10
81.2089876714
 20
131.4278851155
 30
0.0
 10
81.4253830254
 20
131.3651190313
 30
0.0
 10
81.528155678
 20
131.3536452221
 30
0.0
  0
SPLINE
  5
4F6
100
AcDbEntity
  8
00_COMPONENTS_1
100
AcDbSpline
 62
7
  6
CONTINUOUS
 70
0
 71
3
 72
16
 73
12
 74
0
 42
0.0000001
 43
0.0000001
 44
0.0000000001
 40
0.0
 40
0.0
 40
0.0
 40
0.0
 40
0.151879662
 40
0.3026845989
 40
0.4477605007
 40
0.5830675701
 40
0.7056700266
 40
0.8144197087
 40
0.9107982729
 40
0.9559053971
 40
1.0
 40
1.0
 40
1.0
 40
1.0
 10
99.858972004
 20
154.4399971538
 30
0.0
 10
99.6648719858
 20
154.8671335702
 30
0.0
 10
99.223175635
 20
155.6945293514
 30
0.0
 10
98.4239545285
 20
156.8276768966
 30
0.0
 10
97.5190810204
 20
157.8107473074
 30
0.0
 10
96.5493651941
 20
158.5992376381
 30
0.0
 10
95.5560885365
 20
159.1575914745
 30
0.0
 10
94.5801897997
 20
159.4597479097
 30
0.0
 10
93.7930767243
 20
159.4776001245
 30
0.0
 10
93.2340056412
 20
159.3386267464
 30
0.0
 10
92.9816091566
 20
159.2233406959
 30
0.0
 10
92.8636282644
 20
159.1552652739
 30
0.0
  0
SPLINE
  5
4F7
100
AcDbEntity
  8
00_COMPONENTS_1
100
AcDbSpline
 62
7
  6
CONTINUOUS
 70
0
 71
3
 72
11
 73
7
 74
0
 42
0.0000001
 43
0.0000001
 44
0.0000000001
 40
0.0
 40
0.0
 40
0.0
 40
0.0
 40
0.2624770031
 40
0.5234019432
 40
0.7722021024
 40
1.0
 40
1.0
 40
1.0
 40
1.0
 10
95.7930376602
 20
152.0936532774
 30
0.0
 10
95.6296467258
 20
152.4816324644
 30
0.0
 10
95.2457246239
 20
153.2320237947
 30
0.0
 10
94.5286852329
 20
154.2470347443
 30
0.0
 10
93.7070638001
 20
155.1042186983
 30
0.0
 10
93.0874067289
 20
155.5614413304
 30
0.0
 10
92.7709944302
 20
155.7441179235
 30
0.0
  0
SPLINE
  5
4F8
100
AcDbEntity
  8
00_COMPONENTS_1
100
AcDbSpline
 62
7
  6
CONTINUOUS
 70
0
 71
3
 72
11
 73
7
 74
0
 42
0.0000001
 43
0.0000001
 44
0.0000000001
 40
0.0
 40
0.0
 40
0.0
 40
0.0
 40
0.289775222
 40
0.5490688033
 40
0.782225076
 40
1.0
 40
1.0
 40
1.0
 40
1.0
 10
92.7709944302
 20
155.7441179235
 30
0.0
 10
92.5480323258
 20
155.8728422423
 30
0.0
 10
92.1046478859
 20
156.0838750332
 30
0.0
 10
91.4230476847
 20
156.2483213893
 30
0.0
 10
90.7836041782
 20
156.232193778
 30
0.0
 10
90.398586599
 20
156.0924103891
 30
0.0
 10
90.2310244724
 20
155.9956689218
 30
0.0
  0
SPLINE
  5
4F9
100
AcDbEntity
  8
00_COMPONENTS_1
100
AcDbSpline
 62
7
  6
CONTINUOUS
 70
0
 71
3
 72
11
 73
7
 74
0
 42
0.0000001
 43
0.0000001
 44
0.0000000001
 40
0.0
 40
0.0
 40
0.0
 40
0.0
 40
0.2896413964
 40
0.5491107671
 40
0.7822355978
 40
1.0
 40
1.0
 40
1.0
 40
1.0
 10
44.0493334534
 20
129.0187134933
 30
0.0
 10
44.0493334534
 20
128.887004732
 30
0.0
 10
44.029313673
 20
128.6364634927
 30
0.0
 10
43.9279100989
 20
128.2922278822
 30
0.0
 10
43.7570961559
 20
128.0128317313
 30
0.0
 10
43.5965566455
 20
127.8780565523
 30
0.0
 10
43.510819026
 20
127.8285102739
 30
0.0
  0
SPLINE
  5
4FA
100
AcDbEntity
  8
00_COMPONENTS_1
100
AcDbSpline
 62
7
  6
CONTINUOUS
 70
0
 71
3
 72
17
 73
13
 74
0
 42
0.0000001
 43
0.0000001
 44
0.0000000001
 40
0.0
 40
0.0
 40
0.0
 40
0.0
 40
0.042857965
 40
0.0874854797
 40
0.1353180708
 40
0.1872814984
 40
0.3045423159
 40
0.4382097446
 40
0.5825520305
 40
0.7297107839
 40
0.8713099826
 40
1.0
 40
1.0
 40
1.0
 40
1.0
 10
58.5886204388
 20
122.1257497733
 30
0.0
 10
58.6527020406
 20
122.1627814159
 30
0.0
 10
58.794008264
 20
122.2214817855
 30
0.0
 10
59.0272302767
 20
122.2556882155
 30
0.0
 10
59.2777003424
 20
122.2372312959
 30
0.0
 10
59.6416353939
 20
122.140459076
 30
0.0
 10
60.1068708491
 20
121.8860672877
 30
0.0
 10
60.6208793927
 20
121.430864294
 30
0.0
 10
61.0752422467
 20
120.8493015518
 30
0.0
 10
61.4328443153
 20
120.1883572159
 30
0.0
 10
61.6648985825
 20
119.5022301964
 30
0.0
 10
61.7270765821
 20
119.0349315311
 30
0.0
 10
61.7270765821
 20
118.8126946303
 30
0.0
  0
SPLINE
  5
4FB
100
AcDbEntity
  8
00_COMPONENTS_1
100
AcDbSpline
 62
7
  6
CONTINUOUS
 70
0
 71
3
 72
11
 73
7
 74
0
 42
0.0000001
 43
0.0000001
 44
0.0000000001
 40
0.0
 40
0.0
 40
0.0
 40
0.0
 40
0.2277880642
 40
0.4765676858
 40
0.7374849145
 40
1.0
 40
1.0
 40
1.0
 40
1.0
 10
90.0839998488
 20
154.1927901388
 30
0.0
 10
90.3997677914
 20
154.0104855564
 30
0.0
 10
91.0182277159
 20
153.5543437638
 30
0.0
 10
91.8385897984
 20
152.6993313326
 30
0.0
 10
92.5548753283
 20
151.6868193094
 30
0.0
 10
92.9387984843
 20
150.9382792083
 30
0.0
 10
93.102329822
 20
150.5512038501
 30
0.0
  0
SPLINE
  5
4FC
100
AcDbEntity
  8
00_COMPONENTS_1
100
AcDbSpline
 62
7
  6
CONTINUOUS
 70
0
 71
3
 72
9
 73
5
 74
0
 42
0.0000001
 43
0.0000001
 44
0.0000000001
 40
0.0
 40
0.0
 40
0.0
 40
0.0
 40
0.2585414731
 40
1.0
 40
1.0
 40
1.0
 40
1.0
 10
41.171386686
 20
132.0927722557
 30
0.0
 10
41.171386686
 20
132.1307649383
 30
0.0
 10
41.1742017981
 20
132.2776879072
 30
0.0
 10
41.1885169624
 20
132.424495632
 30
0.0
 10
41.2067512672
 20
132.5319163851
 30
0.0
  0
SPLINE
  5
4FD
100
AcDbEntity
  8
00_COMPONENTS_1
100
AcDbSpline
 62
7
  6
CONTINUOUS
 70
0
 71
3
 72
11
 73
7
 74
0
 42
0.0000001
 43
0.0000001
 44
0.0000000001
 40
0.0
 40
0.0
 40
0.0
 40
0.0
 40
0.2484284642
 40
0.5063382418
 40
0.7607755585
 40
1.0
 40
1.0
 40
1.0
 40
1.0
 10
68.9769457234
 20
135.6350731338
 30
0.0
 10
68.6752101683
 20
135.9709836569
 30
0.0
 10
68.1433916208
 20
136.7331386959
 30
0.0
 10
67.5987391062
 20
138.0136475481
 30
0.0
 10
67.3198718447
 20
139.3598620873
 30
0.0
 10
67.3275530461
 20
140.2667440629
 30
0.0
 10
67.3879768514
 20
140.6973273056
 30
0.0
  0
SPLINE
  5
4FE
100
AcDbEntity
  8
00_COMPONENTS_1
100
AcDbSpline
 62
7
  6
CONTINUOUS
 70
0
 71
3
 72
9
 73
5
 74
0
 42
0.0000001
 43
0.0000001
 44
0.0000000001
 40
0.0
 40
0.0
 40
0.0
 40
0.0
 40
0.2404924584
 40
1.0
 40
1.0
 40
1.0
 40
1.0
 10
61.8988771465
 20
117.6763917959
 30
0.0
 10
61.8663747758
 20
117.6812420282
 30
0.0
 10
61.7318289137
 20
117.7053926713
 30
0.0
 10
61.6001840155
 20
117.7447252496
 30
0.0
 10
61.5029932325
 20
117.7811252638
 30
0.0
  0
SPLINE
  5
4FF
100
AcDbEntity
  8
00_COMPONENTS_1
100
AcDbSpline
 62
7
  6
CONTINUOUS
 70
0
 71
3
 72
11
 73
7
 74
0
 42
0.0000001
 43
0.0000001
 44
0.0000000001
 40
0.0
 40
0.0
 40
0.0
 40
0.0
 40
0.2177660095
 40
0.4508968553
 40
0.7103699668
 40
1.0
 40
1.0
 40
1.0
 40
1.0
 10
58.0977141448
 20
122.5351221231
 30
0.0
 10
57.9921900179
 20
122.4741421996
 30
0.0
 10
57.7945905367
 20
122.3082730337
 30
0.0
 10
57.5843641945
 20
121.9643875632
 30
0.0
 10
57.45956191
 20
121.540715544
 30
0.0
 10
57.4349221402
 20
121.2323615853
 30
0.0
 10
57.4349221402
 20
121.070265085
 30
0.0
  0
SPLINE
  5
500
100
AcDbEntity
  8
00_COMPONENTS_1
100
AcDbSpline
 62
7
  6
CONTINUOUS
 70
0
 71
3
 72
13
 73
9
 74
0
 42
0.0000001
 43
0.0000001
 44
0.0000000001
 40
0.0
 40
0.0
 40
0.0
 40
0.0
 40
0.1002623126
 40
0.2039879387
 40
0.3140839223
 40
0.4325872886
 40
0.697775354
 40
1.0
 40
1.0
 40
1.0
 40
1.0
 10
54.6655346849
 20
176.7714456069
 30
0.0
 10
54.7889575086
 20
176.8426760651
 30
0.0
 10
55.0581446961
 20
176.9583893571
 30
0.0
 10
55.5007480956
 20
177.0381387273
 30
0.0
 10
55.9758555464
 20
177.0258601797
 30
0.0
 10
56.6660927203
 20
176.8829618028
 30
0.0
 10
57.5607171884
 20
176.4651201972
 30
0.0
 10
58.2026120589
 20
175.9681070278
 30
0.0
 10
58.5189115775
 20
175.6774720657
 30
0.0
  0
SPLINE
  5
501
100
AcDbEntity
  8
00_COMPONENTS_1
100
AcDbSpline
 62
7
  6
CONTINUOUS
 70
0
 71
3
 72
9
 73
5
 74
0
 42
0.0000001
 43
0.0000001
 44
0.0000000001
 40
0.0
 40
0.0
 40
0.0
 40
0.0
 40
0.4912981892
 40
1.0
 40
1.0
 40
1.0
 40
1.0
 10
58.5189115775
 20
175.6774720657
 30
0.0
 10
58.9699074071
 20
175.2630700573
 30
0.0
 10
59.7871383259
 20
174.3072300667
 30
0.0
 10
60.400172433
 20
173.2115117004
 30
0.0
 10
60.6520832889
 20
172.6295197232
 30
0.0
  0
SPLINE
  5
502
100
AcDbEntity
  8
00_COMPONENTS_1
100
AcDbSpline
 62
7
  6
CONTINUOUS
 70
0
 71
3
 72
11
 73
7
 74
0
 42
0.0000001
 43
0.0000001
 44
0.0000000001
 40
0.0
 40
0.0
 40
0.0
 40
0.0
 40
0.2177843137
 40
0.4509117637
 40
0.7102976701
 40
1.0
 40
1.0
 40
1.0
 40
1.0
 10
18.5592254314
 20
120.1044518766
 30
0.0
 10
18.691168887
 20
120.1806289533
 30
0.0
 10
18.9943294892
 20
120.2906484187
 30
0.0
 10
19.4978740833
 20
120.3033980707
 30
0.0
 10
20.0345346096
 20
120.1738041208
 30
0.0
 10
20.3836912017
 20
120.0077035572
 30
0.0
 10
20.559206498
 20
119.906372046
 30
0.0
  0
SPLINE
  5
503
100
AcDbEntity
  8
00_COMPONENTS_1
100
AcDbSpline
 62
7
  6
CONTINUOUS
 70
0
 71
3
 72
8
 73
4
 74
0
 42
0.0000001
 43
0.0000001
 44
0.0000000001
 40
0.0
 40
0.0
 40
0.0
 40
0.0
 40
1.0
 40
1.0
 40
1.0
 40
1.0
 10
59.8070885683
 20
140.9279701243
 30
0.0
 10
59.8470355536
 20
140.8481094588
 30
0.0
 10
59.8934340681
 20
140.7712717484
 30
0.0
 10
59.9444426276
 20
140.6979804503
 30
0.0
  0
SPLINE
  5
504
100
AcDbEntity
  8
00_COMPONENTS_1
100
AcDbSpline
 62
7
  6
CONTINUOUS
 70
0
 71
3
 72
9
 73
5
 74
0
 42
0.0000001
 43
0.0000001
 44
0.0000000001
 40
0.0
 40
0.0
 40
0.0
 40
0.0
 40
0.2528490728
 40
1.0
 40
1.0
 40
1.0
 40
1.0
 10
53.1318218257
 20
144.6311599237
 30
0.0
 10
53.1662688585
 20
144.6202665692
 30
0.0
 10
53.3033327866
 20
144.579905283
 30
0.0
 10
53.4444074283
 20
144.5527088113
 30
0.0
 10
53.5505531562
 20
144.541301621
 30
0.0
  0
SPLINE
  5
505
100
AcDbEntity
  8
00_COMPONENTS_1
100
AcDbSpline
 62
7
  6
CONTINUOUS
 70
0
 71
3
 72
11
 73
7
 74
0
 42
0.0000001
 43
0.0000001
 44
0.0000000001
 40
0.0
 40
0.0
 40
0.0
 40
0.0
 40
0.2484284642
 40
0.5063382418
 40
0.7607755585
 40
1.0
 40
1.0
 40
1.0
 40
1.0
 10
51.2992025947
 20
145.8410919968
 30
0.0
 10
50.9974670397
 20
146.1770025199
 30
0.0
 10
50.4656484922
 20
146.9391575589
 30
0.0
 10
49.9209959776
 20
148.2196664111
 30
0.0
 10
49.642128716
 20
149.5658809503
 30
0.0
 10
49.6498099174
 20
150.4727629259
 30
0.0
 10
49.7102337227
 20
150.9033461687
 30
0.0
  0
SPLINE
  5
506
100
AcDbEntity
  8
00_COMPONENTS_1
100
AcDbSpline
 62
7
  6
CONTINUOUS
 70
0
 71
3
 72
11
 73
7
 74
0
 42
0.0000001
 43
0.0000001
 44
0.0000000001
 40
0.0
 40
0.0
 40
0.0
 40
0.0
 40
0.2896413964
 40
0.5491107671
 40
0.7822355978
 40
1.0
 40
1.0
 40
1.0
 40
1.0
 10
79.4048197108
 20
108.6066757673
 30
0.0
 10
79.4048197108
 20
108.474967006
 30
0.0
 10
79.3847999304
 20
108.2244257667
 30
0.0
 10
79.2833963562
 20
107.8801901562
 30
0.0
 10
79.1125824133
 20
107.6007940052
 30
0.0
 10
78.9520429029
 20
107.4660188263
 30
0.0
 10
78.8663052834
 20
107.4164725479
 30
0.0
  0
SPLINE
  5
507
100
AcDbEntity
  8
00_COMPONENTS_1
100
AcDbSpline
 62
7
  6
CONTINUOUS
 70
0
 71
3
 72
11
 73
7
 74
0
 42
0.0000001
 43
0.0000001
 44
0.0000000001
 40
0.0
 40
0.0
 40
0.0
 40
0.0
 40
0.2177842682
 40
0.4509274252
 40
0.7102502432
 40
1.0
 40
1.0
 40
1.0
 40
1.0
 10
52.1885512792
 20
174.856365823
 30
0.0
 10
52.3560991647
 20
174.9531466628
 30
0.0
 10
52.7411441796
 20
175.0928679297
 30
0.0
 10
53.380594011
 20
175.1090366755
 30
0.0
 10
54.0621788879
 20
174.9445457966
 30
0.0
 10
54.5055721692
 20
174.7335402431
 30
0.0
 10
54.7285135914
 20
174.6048278648
 30
0.0
  0
SPLINE
  5
508
100
AcDbEntity
  8
00_COMPONENTS_1
100
AcDbSpline
 62
7
  6
CONTINUOUS
 70
0
 71
3
 72
9
 73
5
 74
0
 42
0.0000001
 43
0.0000001
 44
0.0000000001
 40
0.0
 40
0.0
 40
0.0
 40
0.0
 40
0.2585414731
 40
1.0
 40
1.0
 40
1.0
 40
1.0
 10
76.5268729433
 20
111.6807345297
 30
0.0
 10
76.5268729433
 20
111.7187272123
 30
0.0
 10
76.5296880554
 20
111.8656501812
 30
0.0
 10
76.5440032197
 20
112.012457906
 30
0.0
 10
76.5622375245
 20
112.1198786591
 30
0.0
  0
SPLINE
  5
509
100
AcDbEntity
  8
00_COMPONENTS_1
100
AcDbSpline
 62
7
  6
CONTINUOUS
 70
0
 71
3
 72
16
 73
12
 74
0
 42
0.0000001
 43
0.0000001
 44
0.0000000001
 40
0.0
 40
0.0
 40
0.0
 40
0.0
 40
0.151879662
 40
0.3026845989
 40
0.4477605007
 40
0.5830675701
 40
0.7056700266
 40
0.8144197087
 40
0.9107982729
 40
0.9559053971
 40
1.0
 40
1.0
 40
1.0
 40
1.0
 10
82.1812288753
 20
164.6460160168
 30
0.0
 10
81.9871288572
 20
165.0731524332
 30
0.0
 10
81.5454325064
 20
165.9005482144
 30
0.0
 10
80.7462113998
 20
167.0336957596
 30
0.0
 10
79.8413378917
 20
168.0167661704
 30
0.0
 10
78.8716220654
 20
168.8052565011
 30
0.0
 10
77.8783454078
 20
169.3636103375
 30
0.0
 10
76.902446671
 20
169.6657667727
 30
0.0
 10
76.1153335956
 20
169.6836189875
 30
0.0
 10
75.5562625125
 20
169.5446456094
 30
0.0
 10
75.3038660279
 20
169.4293595589
 30
0.0
 10
75.1858851357
 20
169.3612841369
 30
0.0
  0
SPLINE
  5
50A
100
AcDbEntity
  8
00_COMPONENTS_1
100
AcDbSpline
 62
7
  6
CONTINUOUS
 70
0
 71
3
 72
16
 73
12
 74
0
 42
0.0000001
 43
0.0000001
 44
0.0000000001
 40
0.0
 40
0.0
 40
0.0
 40
0.0
 40
0.0440903459
 40
0.0891934721
 40
0.185568846
 40
0.2943220313
 40
0.4169324419
 40
0.5522472484
 40
0.6973277932
 40
0.8481200281
 40
1.0
 40
1.0
 40
1.0
 40
1.0
 10
56.6596183856
 20
179.0774085634
 30
0.0
 10
56.7776184127
 20
179.1455708592
 30
0.0
 10
57.0301501355
 20
179.2608923912
 30
0.0
 10
57.5895275401
 20
179.3997505229
 30
0.0
 10
58.3770446139
 20
179.3817620991
 30
0.0
 10
59.3534163113
 20
179.0791521694
 30
0.0
 10
60.3471118221
 20
178.52017976
 30
0.0
 10
61.3171666198
 20
177.7309369629
 30
0.0
 10
62.2221876425
 20
176.7470284468
 30
0.0
 10
63.0214723518
 20
175.6130429638
 30
0.0
 10
63.4630268126
 20
174.7850339588
 30
0.0
 10
63.657001642
 20
174.3575628692
 30
0.0
  0
SPLINE
  5
50B
100
AcDbEntity
  8
00_COMPONENTS_1
100
AcDbSpline
 62
7
  6
CONTINUOUS
 70
0
 71
3
 72
11
 73
7
 74
0
 42
0.0000001
 43
0.0000001
 44
0.0000000001
 40
0.0
 40
0.0
 40
0.0
 40
0.0
 40
0.289775222
 40
0.5490688033
 40
0.782225076
 40
1.0
 40
1.0
 40
1.0
 40
1.0
 10
75.0932513015
 20
165.9501367865
 30
0.0
 10
74.8702891972
 20
166.0788611054
 30
0.0
 10
74.4269047572
 20
166.2898938963
 30
0.0
 10
73.7453045561
 20
166.4543402523
 30
0.0
 10
73.1058610496
 20
166.438212641
 30
0.0
 10
72.7208434704
 20
166.2984292521
 30
0.0
 10
72.5532813437
 20
166.2016877848
 30
0.0
  0
SPLINE
  5
50C
100
AcDbEntity
  8
00_COMPONENTS_1
100
AcDbSpline
 62
7
  6
CONTINUOUS
 70
0
 71
3
 72
11
 73
7
 74
0
 42
0.0000001
 43
0.0000001
 44
0.0000000001
 40
0.0
 40
0.0
 40
0.0
 40
0.0
 40
0.2624770031
 40
0.5234019432
 40
0.7722021024
 40
1.0
 40
1.0
 40
1.0
 40
1.0
 10
78.1152945315
 20
162.2996721404
 30
0.0
 10
77.9519035971
 20
162.6876513275
 30
0.0
 10
77.5679814952
 20
163.4380426577
 30
0.0
 10
76.8509421042
 20
164.4530536073
 30
0.0
 10
76.0293206714
 20
165.3102375613
 30
0.0
 10
75.4096636002
 20
165.7674601934
 30
0.0
 10
75.0932513015
 20
165.9501367865
 30
0.0
  0
SPLINE
  5
50D
100
AcDbEntity
  8
00_COMPONENTS_1
100
AcDbSpline
 62
7
  6
CONTINUOUS
 70
0
 71
3
 72
11
 73
7
 74
0
 42
0.0000001
 43
0.0000001
 44
0.0000000001
 40
0.0
 40
0.0
 40
0.0
 40
0.0
 40
0.2277880642
 40
0.4765676858
 40
0.7374849145
 40
1.0
 40
1.0
 40
1.0
 40
1.0
 10
72.4062567201
 20
164.3988090018
 30
0.0
 10
72.7220246627
 20
164.2165044194
 30
0.0
 10
73.3404845872
 20
163.7603626268
 30
0.0
 10
74.1608466697
 20
162.9053501956
 30
0.0
 10
74.8771321997
 20
161.8928381724
 30
0.0
 10
75.2610553556
 20
161.1442980713
 30
0.0
 10
75.4245866933
 20
160.7572227131
 30
0.0
  0
SPLINE
  5
50E
100
AcDbEntity
  8
00_COMPONENTS_1
100
AcDbSpline
 62
7
  6
CONTINUOUS
 70
0
 71
3
 72
11
 73
7
 74
0
 42
0.0000001
 43
0.0000001
 44
0.0000000001
 40
0.0
 40
0.0
 40
0.0
 40
0.0
 40
0.2520646702
 40
0.5170802143
 40
0.7729687161
 40
1.0
 40
1.0
 40
1.0
 40
1.0
 10
44.4533409671
 20
62.3601557449
 30
0.0
 10
44.4874430915
 20
62.1595084328
 30
0.0
 10
44.6120921447
 20
61.7564939847
 30
0.0
 10
44.9164735163
 20
61.2070640779
 30
0.0
 10
45.3116693415
 20
60.7451730943
 30
0.0
 10
45.6322443153
 20
60.512347127
 30
0.0
 10
45.7971290637
 20
60.4322453283
 30
0.0
  0
SPLINE
  5
50F
100
AcDbEntity
  8
00_COMPONENTS_1
100
AcDbSpline
 62
7
  6
CONTINUOUS
 70
0
 71
3
 72
12
 73
8
 74
0
 42
0.0000001
 43
0.0000001
 44
0.0000000001
 40
0.0
 40
0.0
 40
0.0
 40
0.0
 40
0.2312112278
 40
0.4936156531
 40
0.759332592
 40
0.884471489
 40
1.0
 40
1.0
 40
1.0
 40
1.0
 10
81.2510825708
 20
130.3560283729
 30
0.0
 10
80.9187525492
 20
130.5130316772
 30
0.0
 10
80.2792812413
 20
130.9959427236
 30
0.0
 10
79.5309568322
 20
131.9542426719
 30
0.0
 10
79.0881342409
 20
132.906581636
 30
0.0
 10
78.8961006366
 20
133.6903546468
 30
0.0
 10
78.8603161949
 20
134.0733522128
 30
0.0
 10
78.8603161949
 20
134.2570048337
 30
0.0
  0
SPLINE
  5
510
100
AcDbEntity
  8
00_COMPONENTS_1
100
AcDbSpline
 62
7
  6
CONTINUOUS
 70
0
 71
3
 72
11
 73
7
 74
0
 42
0.0000001
 43
0.0000001
 44
0.0000000001
 40
0.0
 40
0.0
 40
0.0
 40
0.0
 40
0.2896413964
 40
0.5491107671
 40
0.7822355978
 40
1.0
 40
1.0
 40
1.0
 40
1.0
 10
61.7270765821
 20
118.8126946303
 30
0.0
 10
61.7270765821
 20
118.680985869
 30
0.0
 10
61.7070568017
 20
118.4304446297
 30
0.0
 10
61.6056532276
 20
118.0862090192
 30
0.0
 10
61.4348392846
 20
117.8068128683
 30
0.0
 10
61.2742997742
 20
117.6720376893
 30
0.0
 10
61.1885621547
 20
117.6224914109
 30
0.0
  0
SPLINE
  5
511
100
AcDbEntity
  8
00_COMPONENTS_1
100
AcDbSpline
 62
7
  6
CONTINUOUS
 70
0
 71
3
 72
9
 73
5
 74
0
 42
0.0000001
 43
0.0000001
 44
0.0000000001
 40
0.0
 40
0.0
 40
0.0
 40
0.0
 40
0.2585414731
 40
1.0
 40
1.0
 40
1.0
 40
1.0
 10
58.8491298146
 20
121.8867533927
 30
0.0
 10
58.8491298146
 20
121.9247460753
 30
0.0
 10
58.8519449268
 20
122.0716690442
 30
0.0
 10
58.8662600911
 20
122.218476769
 30
0.0
 10
58.8844943958
 20
122.3258975221
 30
0.0
  0
SPLINE
  5
512
100
AcDbEntity
  8
00_COMPONENTS_1
100
AcDbSpline
 62
7
  6
CONTINUOUS
 70
0
 71
3
 72
17
 73
13
 74
0
 42
0.0000001
 43
0.0000001
 44
0.0000000001
 40
0.0
 40
0.0
 40
0.0
 40
0.0
 40
0.128688864
 40
0.2702797703
 40
0.4174318348
 40
0.5617733576
 40
0.6954455149
 40
0.8127096012
 40
0.8646749146
 40
0.9125085807
 40
0.9571389861
 40
1.0
 40
1.0
 40
1.0
 40
1.0
 10
39.7571790115
 20
131.276283948
 30
0.0
 10
39.7571790115
 20
131.0027642348
 30
0.0
 10
39.8337006142
 20
130.4276474851
 30
0.0
 10
40.1192908695
 20
129.5832160923
 30
0.0
 10
40.5593850974
 20
128.7697679727
 30
0.0
 10
41.118586121
 20
128.0539966421
 30
0.0
 10
41.7512092727
 20
127.4937166962
 30
0.0
 10
42.3238211183
 20
127.1806123049
 30
0.0
 10
42.7717463244
 20
127.0614676301
 30
0.0
 10
43.0800293094
 20
127.0387673747
 30
0.0
 10
43.3670917578
 20
127.0808387416
 30
0.0
 10
43.5410138185
 20
127.1531058162
 30
0.0
 10
43.6198892479
 20
127.198686081
 30
0.0
  0
SPLINE
  5
513
100
AcDbEntity
  8
00_COMPONENTS_1
100
AcDbSpline
 62
7
  6
CONTINUOUS
 70
0
 71
3
 72
11
 73
7
 74
0
 42
0.0000001
 43
0.0000001
 44
0.0000000001
 40
0.0
 40
0.0
 40
0.0
 40
0.0
 40
0.2177239861
 40
0.4508730345
 40
0.7104683317
 40
1.0
 40
1.0
 40
1.0
 40
1.0
 10
62.4746564548
 20
144.756257234
 30
0.0
 10
62.4152964
 20
144.7219889419
 30
0.0
 10
62.3041378336
 20
144.6287072143
 30
0.0
 10
62.1858480929
 20
144.4352536948
 30
0.0
 10
62.1157351022
 20
144.1969020273
 30
0.0
 10
62.1018157089
 20
144.023457879
 30
0.0
 10
62.1018157089
 20
143.9323107159
 30
0.0
  0
SPLINE
  5
514
100
AcDbEntity
  8
00_COMPONENTS_1
100
AcDbSpline
 62
7
  6
CONTINUOUS
 70
0
 71
3
 72
17
 73
13
 74
0
 42
0.0000001
 43
0.0000001
 44
0.0000000001
 40
0.0
 40
0.0
 40
0.0
 40
0.0
 40
0.128688864
 40
0.2702797703
 40
0.4174318348
 40
0.5617733576
 40
0.6954455149
 40
0.8127096012
 40
0.8646749146
 40
0.9125085807
 40
0.9571389861
 40
1.0
 40
1.0
 40
1.0
 40
1.0
 10
75.1126652689
 20
110.864246222
 30
0.0
 10
75.1126652689
 20
110.5907265088
 30
0.0
 10
75.1891868715
 20
110.0156097591
 30
0.0
 10
75.4747771268
 20
109.1711783663
 30
0.0
 10
75.9148713548
 20
108.3577302467
 30
0.0
 10
76.4740723783
 20
107.6419589161
 30
0.0
 10
77.10669553
 20
107.0816789702
 30
0.0
 10
77.6793073756
 20
106.7685745788
 30
0.0
 10
78.1272325818
 20
106.649429904
 30
0.0
 10
78.4355155668
 20
106.6267296486
 30
0.0
 10
78.7225780152
 20
106.6688010156
 30
0.0
 10
78.8965000759
 20
106.7410680902
 30
0.0
 10
78.9753755052
 20
106.7866483549
 30
0.0
  0
SPLINE
  5
515
100
AcDbEntity
  8
00_COMPONENTS_1
100
AcDbSpline
 62
7
  6
CONTINUOUS
 70
0
 71
3
 72
17
 73
13
 74
0
 42
0.0000001
 43
0.0000001
 44
0.0000000001
 40
0.0
 40
0.0
 40
0.0
 40
0.0
 40
0.128688864
 40
0.2702797703
 40
0.4174318348
 40
0.5617733576
 40
0.6954455149
 40
0.8127096012
 40
0.8646749146
 40
0.9125085807
 40
0.9571389861
 40
1.0
 40
1.0
 40
1.0
 40
1.0
 10
57.4349221402
 20
121.070265085
 30
0.0
 10
57.4349221402
 20
120.7967453718
 30
0.0
 10
57.5114437429
 20
120.2216286221
 30
0.0
 10
57.7970339981
 20
119.3771972293
 30
0.0
 10
58.2371282261
 20
118.5637491097
 30
0.0
 10
58.7963292497
 20
117.8479777791
 30
0.0
 10
59.4289524014
 20
117.2876978332
 30
0.0
 10
60.0015642469
 20
116.9745934418
 30
0.0
 10
60.4494894531
 20
116.8554487671
 30
0.0
 10
60.7577724381
 20
116.8327485116
 30
0.0
 10
61.0448348865
 20
116.8748198786
 30
0.0
 10
61.2187569472
 20
116.9470869532
 30
0.0
 10
61.2976323766
 20
116.992667218
 30
0.0
  0
SPLINE
  5
516
100
AcDbEntity
  8
00_COMPONENTS_1
100
AcDbSpline
 62
7
  6
CONTINUOUS
 70
0
 71
3
 72
11
 73
7
 74
0
 42
0.0000001
 43
0.0000001
 44
0.0000000001
 40
0.0
 40
0.0
 40
0.0
 40
0.0
 40
0.289702329
 40
0.5490881649
 40
0.7822156415
 40
1.0
 40
1.0
 40
1.0
 40
1.0
 10
27.3474033352
 20
123.8255159232
 30
0.0
 10
27.1718880389
 20
123.9268474343
 30
0.0
 10
26.8227315187
 20
124.0929480361
 30
0.0
 10
26.2860709996
 20
124.2225419363
 30
0.0
 10
25.7825264321
 20
124.2097922792
 30
0.0
 10
25.4793657164
 20
124.0997729078
 30
0.0
 10
25.3474222687
 20
124.0235957538
 30
0.0
  0
SPLINE
  5
517
100
AcDbEntity
  8
00_COMPONENTS_1
100
AcDbSpline
 62
7
  6
CONTINUOUS
 70
0
 71
3
 72
14
 73
10
 74
0
 42
0.0000001
 43
0.0000001
 44
0.0000000001
 40
0.0
 40
0.0
 40
0.0
 40
0.0
 40
0.1204109864
 40
0.2519013026
 40
0.5281839699
 40
0.66300864
 40
0.7886395207
 40
0.9014371103
 40
1.0
 40
1.0
 40
1.0
 40
1.0
 10
44.4240725803
 20
154.1383295789
 30
0.0
 10
44.4240725803
 20
154.0119956322
 30
0.0
 10
44.4532378259
 20
153.7473471888
 30
0.0
 10
44.6054154881
 20
153.2129030973
 30
0.0
 10
44.8806289278
 20
152.7038756086
 30
0.0
 10
45.2463324408
 20
152.2737410488
 30
0.0
 10
45.5452101737
 20
152.0174993389
 30
0.0
 10
45.8535014141
 20
151.8399228415
 30
0.0
 10
46.0698967681
 20
151.7771567573
 30
0.0
 10
46.1726694207
 20
151.7656829481
 30
0.0
  0
SPLINE
  5
518
100
AcDbEntity
  8
00_COMPONENTS_1
100
AcDbSpline
 62
7
  6
CONTINUOUS
 70
0
 71
3
 72
11
 73
7
 74
0
 42
0.0000001
 43
0.0000001
 44
0.0000000001
 40
0.0
 40
0.0
 40
0.0
 40
0.0
 40
0.2520646702
 40
0.5170802143
 40
0.7729687161
 40
1.0
 40
1.0
 40
1.0
 40
1.0
 10
79.8088272244
 20
41.9481180189
 30
0.0
 10
79.8429293488
 20
41.7474707068
 30
0.0
 10
79.9675784021
 20
41.3444562587
 30
0.0
 10
80.2719597737
 20
40.7950263519
 30
0.0
 10
80.6671555989
 20
40.3331353683
 30
0.0
 10
80.9877305727
 20
40.100309401
 30
0.0
 10
81.152615321
 20
40.0202076023
 30
0.0
  0
SPLINE
  5
519
100
AcDbEntity
  8
00_COMPONENTS_1
100
AcDbSpline
 62
7
  6
CONTINUOUS
 70
0
 71
3
 72
13
 73
9
 74
0
 42
0.0000001
 43
0.0000001
 44
0.0000000001
 40
0.0
 40
0.0
 40
0.0
 40
0.0
 40
0.1142259181
 40
0.2375599982
 40
0.5000010158
 40
0.7624414734
 40
0.8857749255
 40
1.0
 40
1.0
 40
1.0
 40
1.0
 10
94.8763820868
 20
81.572514198
 30
0.0
 10
94.8763820868
 20
81.796036078
 30
0.0
 10
94.8353738774
 20
82.2613658346
 30
0.0
 10
94.6130869197
 20
83.216609681
 30
0.0
 10
94.0964723075
 20
84.3882274308
 30
0.0
 10
93.3401249563
 20
85.4214335009
 30
0.0
 10
92.6240016146
 20
86.0915543429
 30
0.0
 10
92.2415184778
 20
86.3597286662
 30
0.0
 10
92.0479431862
 20
86.4714868846
 30
0.0
  0
SPLINE
  5
51A
100
AcDbEntity
  8
00_COMPONENTS_1
100
AcDbSpline
 62
7
  6
CONTINUOUS
 70
0
 71
3
 72
16
 73
12
 74
0
 42
0.0000001
 43
0.0000001
 44
0.0000000001
 40
0.0
 40
0.0
 40
0.0
 40
0.0
 40
0.0438766872
 40
0.088812662
 40
0.1851042523
 40
0.2941744075
 40
0.4173715882
 40
0.5532927259
 40
0.6986976001
 40
0.8492354246
 40
1.0
 40
1.0
 40
1.0
 40
1.0
 10
105.2217811111
 20
144.238308491
 30
0.0
 10
105.3163766599
 20
144.2929506222
 30
0.0
 10
105.5192180292
 20
144.3850288667
 30
0.0
 10
105.9696150757
 20
144.4933760492
 30
0.0
 10
106.6043256579
 20
144.4707274269
 30
0.0
 10
107.3888692012
 20
144.2136343038
 30
0.0
 10
108.1847881205
 20
143.7477015307
 30
0.0
 10
108.957576158
 20
143.095468829
 30
0.0
 10
109.6725486176
 20
142.2877988868
 30
0.0
 10
110.2957832327
 20
141.3631338703
 30
0.0
 10
110.6340732567
 20
140.6907959641
 30
0.0
 10
110.7801499757
 20
140.3450149821
 30
0.0
  0
SPLINE
  5
51B
100
AcDbEntity
  8
00_COMPONENTS_1
100
AcDbSpline
 62
7
  6
CONTINUOUS
 70
0
 71
3
 72
9
 73
5
 74
0
 42
0.0000001
 43
0.0000001
 44
0.0000000001
 40
0.0
 40
0.0
 40
0.0
 40
0.0
 40
0.5500375009
 40
1.0
 40
1.0
 40
1.0
 40
1.0
 10
68.8194452392
 20
58.4040409643
 30
0.0
 10
68.8442159088
 20
58.3897399351
 30
0.0
 10
68.8937991371
 20
58.3693579122
 30
0.0
 10
68.9491946547
 20
58.3774605005
 30
0.0
 10
68.9694584172
 20
58.3891597057
 30
0.0
  0
SPLINE
  5
51C
100
AcDbEntity
  8
00_COMPONENTS_1
100
AcDbSpline
 62
7
  6
CONTINUOUS
 70
0
 71
3
 72
9
 73
5
 74
0
 42
0.0000001
 43
0.0000001
 44
0.0000000001
 40
0.0
 40
0.0
 40
0.0
 40
0.0
 40
0.4772506071
 40
1.0
 40
1.0
 40
1.0
 40
1.0
 10
66.0617173112
 20
60.2411306321
 30
0.0
 10
66.0617173112
 20
60.1939710149
 30
0.0
 10
66.085015526
 20
60.0953455796
 30
0.0
 10
66.1350431851
 20
60.0085020822
 30
0.0
 10
66.1674079748
 20
59.96824267
 30
0.0
  0
SPLINE
  5
51D
100
AcDbEntity
  8
00_COMPONENTS_1
100
AcDbSpline
 62
7
  6
CONTINUOUS
 70
0
 71
3
 72
9
 73
5
 74
0
 42
0.0000001
 43
0.0000001
 44
0.0000000001
 40
0.0
 40
0.0
 40
0.0
 40
0.0
 40
0.2669302308
 40
1.0
 40
1.0
 40
1.0
 40
1.0
 10
66.1674079748
 20
59.96824267
 30
0.0
 10
66.1753676401
 20
59.9583414332
 30
0.0
 10
66.2066512345
 20
59.9225181596
 30
0.0
 10
66.2436354112
 20
59.8911518189
 30
0.0
 10
66.2738502287
 20
59.8737076806
 30
0.0
  0
SPLINE
  5
51E
100
AcDbEntity
  8
00_COMPONENTS_1
100
AcDbSpline
 62
7
  6
CONTINUOUS
 70
0
 71
3
 72
11
 73
7
 74
0
 42
0.0000001
 43
0.0000001
 44
0.0000000001
 40
0.0
 40
0.0
 40
0.0
 40
0.0
 40
0.2897033281
 40
0.5490895198
 40
0.7822165953
 40
1.0
 40
1.0
 40
1.0
 40
1.0
 10
88.0881852495
 20
47.442780887
 30
0.0
 10
88.0881852495
 20
47.2401083095
 30
0.0
 10
88.0574571049
 20
46.8546680214
 30
0.0
 10
87.9013584126
 20
46.3250932642
 30
0.0
 10
87.6385400572
 20
45.8953732969
 30
0.0
 10
87.3916738479
 20
45.6878332013
 30
0.0
 10
87.2597274155
 20
45.611654406
 30
0.0
  0
SPLINE
  5
51F
100
AcDbEntity
  8
00_COMPONENTS_1
100
AcDbSpline
 62
7
  6
CONTINUOUS
 70
0
 71
3
 72
13
 73
9
 74
0
 42
0.0000001
 43
0.0000001
 44
0.0000000001
 40
0.0
 40
0.0
 40
0.0
 40
0.0
 40
0.1142250362
 40
0.2375584228
 40
0.4999988469
 40
0.762439898
 40
0.8857740437
 40
1.0
 40
1.0
 40
1.0
 40
1.0
 10
85.2597463489
 20
82.5523430074
 30
0.0
 10
85.4533215757
 20
82.4405848265
 30
0.0
 10
85.8358045848
 20
82.1724106776
 30
0.0
 10
86.5519277267
 20
81.5022900123
 30
0.0
 10
87.3082751223
 20
80.4690841563
 30
0.0
 10
87.8248899421
 20
79.2974663378
 30
0.0
 10
88.0471769529
 20
78.3422222301
 30
0.0
 10
88.0881852495
 20
77.8768922757
 30
0.0
 10
88.0881852495
 20
77.6533703208
 30
0.0
  0
SPLINE
  5
520
100
AcDbEntity
  8
00_COMPONENTS_1
100
AcDbSpline
 62
7
  6
CONTINUOUS
 70
0
 71
3
 72
13
 73
9
 74
0
 42
0.0000001
 43
0.0000001
 44
0.0000000001
 40
0.0
 40
0.0
 40
0.0
 40
0.0
 40
0.3012865945
 40
0.5711109635
 40
0.6916824848
 40
0.8024189831
 40
0.9044219579
 40
1.0
 40
1.0
 40
1.0
 40
1.0
 10
88.6976234436
 20
46.2702391753
 30
0.0
 10
88.8735115085
 20
46.0526355961
 30
0.0
 10
89.2430445645
 20
45.667638568
 30
0.0
 10
89.7785881975
 20
45.3006423904
 30
0.0
 10
90.2106951389
 20
45.1233730839
 30
0.0
 10
90.5140189809
 20
45.0537118178
 30
0.0
 10
90.8022060403
 20
45.0446904945
 30
0.0
 10
90.9842175705
 20
45.081089188
 30
0.0
 10
91.0682925401
 20
45.1095504414
 30
0.0
  0
SPLINE
  5
521
100
AcDbEntity
  8
00_COMPONENTS_1
100
AcDbSpline
 62
7
  6
CONTINUOUS
 70
0
 71
3
 72
9
 73
5
 74
0
 42
0.0000001
 43
0.0000001
 44
0.0000000001
 40
0.0
 40
0.0
 40
0.0
 40
0.0
 40
0.4628569425
 40
1.0
 40
1.0
 40
1.0
 40
1.0
 10
101.9220365732
 20
36.7787034337
 30
0.0
 10
102.0534375367
 20
36.5917624629
 30
0.0
 10
102.2507911775
 20
36.126193135
 30
0.0
 10
102.3009723775
 20
35.6296512949
 30
0.0
 10
102.3009723775
 20
35.3644759821
 30
0.0
  0
SPLINE
  5
522
100
AcDbEntity
  8
00_COMPONENTS_1
100
AcDbSpline
 62
7
  6
CONTINUOUS
 70
0
 71
3
 72
9
 73
5
 74
0
 42
0.0000001
 43
0.0000001
 44
0.0000000001
 40
0.0
 40
0.0
 40
0.0
 40
0.0
 40
0.238677929
 40
1.0
 40
1.0
 40
1.0
 40
1.0
 10
44.8844176489
 20
149.3926932251
 30
0.0
 10
44.8973489461
 20
149.3963420326
 30
0.0
 10
44.9511828582
 20
149.4128473194
 30
0.0
 10
45.0035145765
 20
149.4340855476
 30
0.0
 10
45.0423568269
 20
149.4521991259
 30
0.0
  0
SPLINE
  5
523
100
AcDbEntity
  8
00_COMPONENTS_1
100
AcDbSpline
 62
7
  6
CONTINUOUS
 70
0
 71
3
 72
9
 73
5
 74
0
 42
0.0000001
 43
0.0000001
 44
0.0000000001
 40
0.0
 40
0.0
 40
0.0
 40
0.0
 40
0.2526695551
 40
1.0
 40
1.0
 40
1.0
 40
1.0
 10
51.2991998577
 20
145.8410908306
 30
0.0
 10
51.3302664755
 20
145.8065574539
 30
0.0
 10
51.4559283209
 20
145.6723215626
 30
0.0
 10
51.5917576225
 20
145.5477853564
 30
0.0
 10
51.6970384507
 20
145.4595137517
 30
0.0
  0
SPLINE
  5
524
100
AcDbEntity
  8
00_COMPONENTS_1
100
AcDbSpline
 62
7
  6
CONTINUOUS
 70
0
 71
3
 72
8
 73
4
 74
0
 42
0.0000001
 43
0.0000001
 44
0.0000000001
 40
0.0
 40
0.0
 40
0.0
 40
0.0
 40
1.0
 40
1.0
 40
1.0
 40
1.0
 10
42.1293454396
 20
151.1339889873
 30
0.0
 10
42.169292425
 20
151.0541283218
 30
0.0
 10
42.2156909394
 20
150.9772906115
 30
0.0
 10
42.2666994989
 20
150.9039993133
 30
0.0
  0
SPLINE
  5
525
100
AcDbEntity
  8
00_COMPONENTS_1
100
AcDbSpline
 62
7
  6
CONTINUOUS
 70
0
 71
3
 72
14
 73
10
 74
0
 42
0.0000001
 43
0.0000001
 44
0.0000000001
 40
0.0
 40
0.0
 40
0.0
 40
0.0
 40
0.1204109864
 40
0.2519013026
 40
0.5281839699
 40
0.66300864
 40
0.7886395207
 40
0.9014371103
 40
1.0
 40
1.0
 40
1.0
 40
1.0
 10
62.1018157089
 20
143.9323107159
 30
0.0
 10
62.1018157089
 20
143.8059767692
 30
0.0
 10
62.1309809546
 20
143.5413283258
 30
0.0
 10
62.2831586168
 20
143.0068842343
 30
0.0
 10
62.5583720565
 20
142.4978567456
 30
0.0
 10
62.9240755695
 20
142.0677221858
 30
0.0
 10
63.2229533024
 20
141.8114804759
 30
0.0
 10
63.5312445427
 20
141.6339039785
 30
0.0
 10
63.7476398967
 20
141.5711378943
 30
0.0
 10
63.8504125493
 20
141.5596640851
 30
0.0
  0
SPLINE
  5
526
100
AcDbEntity
  8
00_COMPONENTS_1
100
AcDbSpline
 62
7
  6
CONTINUOUS
 70
0
 71
3
 72
9
 73
5
 74
0
 42
0.0000001
 43
0.0000001
 44
0.0000000001
 40
0.0
 40
0.0
 40
0.0
 40
0.0
 40
0.2526695551
 40
1.0
 40
1.0
 40
1.0
 40
1.0
 10
33.621456729
 20
156.0471096936
 30
0.0
 10
33.6525233468
 20
156.0125763169
 30
0.0
 10
33.7781851923
 20
155.8783404256
 30
0.0
 10
33.9140144939
 20
155.7538042195
 30
0.0
 10
34.019295322
 20
155.6655326147
 30
0.0
  0
SPLINE
  5
527
100
AcDbEntity
  8
00_COMPONENTS_1
100
AcDbSpline
 62
7
  6
CONTINUOUS
 70
0
 71
3
 72
11
 73
7
 74
0
 42
0.0000001
 43
0.0000001
 44
0.0000000001
 40
0.0
 40
0.0
 40
0.0
 40
0.0
 40
0.2520646702
 40
0.5170802143
 40
0.7729687161
 40
1.0
 40
1.0
 40
1.0
 40
1.0
 10
62.1310840957
 20
52.1541368819
 30
0.0
 10
62.1651862202
 20
51.9534895698
 30
0.0
 10
62.2898352734
 20
51.5504751217
 30
0.0
 10
62.594216645
 20
51.0010452149
 30
0.0
 10
62.9894124702
 20
50.5391542313
 30
0.0
 10
63.309987444
 20
50.306328264
 30
0.0
 10
63.4748721924
 20
50.2262264653
 30
0.0
  0
SPLINE
  5
528
100
AcDbEntity
  8
00_COMPONENTS_1
100
AcDbSpline
 62
7
  6
CONTINUOUS
 70
0
 71
3
 72
9
 73
5
 74
0
 42
0.0000001
 43
0.0000001
 44
0.0000000001
 40
0.0
 40
0.0
 40
0.0
 40
0.0
 40
0.238677929
 40
1.0
 40
1.0
 40
1.0
 40
1.0
 10
62.5621607775
 20
139.1866743621
 30
0.0
 10
62.5750920748
 20
139.1903231696
 30
0.0
 10
62.6289259869
 20
139.2068284564
 30
0.0
 10
62.6812577052
 20
139.2280666846
 30
0.0
 10
62.7200999555
 20
139.2461802629
 30
0.0
  0
SPLINE
  5
529
100
AcDbEntity
  8
00_COMPONENTS_1
100
AcDbSpline
 62
7
  6
CONTINUOUS
 70
0
 71
3
 72
9
 73
5
 74
0
 42
0.0000001
 43
0.0000001
 44
0.0000000001
 40
0.0
 40
0.0
 40
0.0
 40
0.0
 40
0.2526695551
 40
1.0
 40
1.0
 40
1.0
 40
1.0
 10
68.9769429863
 20
135.6350719676
 30
0.0
 10
69.0080096041
 20
135.6005385909
 30
0.0
 10
69.1336714496
 20
135.4663026996
 30
0.0
 10
69.2695007512
 20
135.3417664934
 30
0.0
 10
69.3747815794
 20
135.2534948887
 30
0.0
  0
SPLINE
  5
52A
100
AcDbEntity
  8
00_COMPONENTS_1
100
AcDbSpline
 62
7
  6
CONTINUOUS
 70
0
 71
3
 72
9
 73
5
 74
0
 42
0.0000001
 43
0.0000001
 44
0.0000000001
 40
0.0
 40
0.0
 40
0.0
 40
0.0
 40
0.2526695551
 40
1.0
 40
1.0
 40
1.0
 40
1.0
 10
86.654686115
 20
125.4290531045
 30
0.0
 10
86.6857527328
 20
125.3945197279
 30
0.0
 10
86.8114145783
 20
125.2602838366
 30
0.0
 10
86.9472438799
 20
125.1357476304
 30
0.0
 10
87.0525247081
 20
125.0474760257
 30
0.0
  0
SPLINE
  5
52B
100
AcDbEntity
  8
00_COMPONENTS_1
100
AcDbSpline
 62
7
  6
CONTINUOUS
 70
0
 71
3
 72
11
 73
7
 74
0
 42
0.0000001
 43
0.0000001
 44
0.0000000001
 40
0.0
 40
0.0
 40
0.0
 40
0.0
 40
0.2484284642
 40
0.5063382418
 40
0.7607755585
 40
1.0
 40
1.0
 40
1.0
 40
1.0
 10
86.6546888521
 20
125.4290542707
 30
0.0
 10
86.352953297
 20
125.7649647939
 30
0.0
 10
85.8211347495
 20
126.5271198329
 30
0.0
 10
85.2764822349
 20
127.8076286851
 30
0.0
 10
84.9976149734
 20
129.1538432243
 30
0.0
 10
85.0052961748
 20
130.0607251999
 30
0.0
 10
85.0657199801
 20
130.4913084426
 30
0.0
  0
SPLINE
  5
52C
100
AcDbEntity
  8
00_COMPONENTS_1
100
AcDbSpline
 62
7
  6
CONTINUOUS
 70
0
 71
3
 72
9
 73
5
 74
0
 42
0.0000001
 43
0.0000001
 44
0.0000000001
 40
0.0
 40
0.0
 40
0.0
 40
0.0
 40
0.2528490728
 40
1.0
 40
1.0
 40
1.0
 40
1.0
 10
70.8095649544
 20
134.4251410607
 30
0.0
 10
70.8440119871
 20
134.4142477062
 30
0.0
 10
70.9810759153
 20
134.37388642
 30
0.0
 10
71.122150557
 20
134.3466899483
 30
0.0
 10
71.2282962849
 20
134.335282758
 30
0.0
  0
SPLINE
  5
52D
100
AcDbEntity
  8
00_COMPONENTS_1
100
AcDbSpline
 62
7
  6
CONTINUOUS
 70
0
 71
3
 72
16
 73
12
 74
0
 42
0.0000001
 43
0.0000001
 44
0.0000000001
 40
0.0
 40
0.0
 40
0.0
 40
0.0
 40
0.151879662
 40
0.3026845989
 40
0.4477605007
 40
0.5830675701
 40
0.7056700266
 40
0.8144197087
 40
0.9107982729
 40
0.9559053971
 40
1.0
 40
1.0
 40
1.0
 40
1.0
 10
117.5367151327
 20
144.2339782908
 30
0.0
 10
117.3426151145
 20
144.6611147072
 30
0.0
 10
116.9009187637
 20
145.4885104884
 30
0.0
 10
116.1016976572
 20
146.6216580336
 30
0.0
 10
115.1968241491
 20
147.6047284444
 30
0.0
 10
114.2271083228
 20
148.3932187751
 30
0.0
 10
113.2338316652
 20
148.9515726114
 30
0.0
 10
112.2579329283
 20
149.2537290467
 30
0.0
 10
111.4708198529
 20
149.2715812615
 30
0.0
 10
110.9117487699
 20
149.1326078834
 30
0.0
 10
110.6593522852
 20
149.0173218329
 30
0.0
 10
110.5413713931
 20
148.9492464109
 30
0.0
  0
SPLINE
  5
52E
100
AcDbEntity
  8
00_COMPONENTS_1
100
AcDbSpline
 62
7
  6
CONTINUOUS
 70
0
 71
3
 72
8
 73
4
 74
0
 42
0.0000001
 43
0.0000001
 44
0.0000000001
 40
0.0
 40
0.0
 40
0.0
 40
0.0
 40
1.0
 40
1.0
 40
1.0
 40
1.0
 10
77.484831697
 20
130.7219512612
 30
0.0
 10
77.5247786823
 20
130.6420905958
 30
0.0
 10
77.5711771968
 20
130.5652528854
 30
0.0
 10
77.6221857563
 20
130.4919615873
 30
0.0
  0
SPLINE
  5
52F
100
AcDbEntity
  8
00_COMPONENTS_1
100
AcDbSpline
 62
7
  6
CONTINUOUS
 70
0
 71
3
 72
9
 73
5
 74
0
 42
0.0000001
 43
0.0000001
 44
0.0000000001
 40
0.0
 40
0.0
 40
0.0
 40
0.0
 40
0.238677929
 40
1.0
 40
1.0
 40
1.0
 40
1.0
 10
80.2399039062
 20
128.9806554991
 30
0.0
 10
80.2528352035
 20
128.9843043066
 30
0.0
 10
80.3066691156
 20
129.0008095934
 30
0.0
 10
80.3590008339
 20
129.0220478216
 30
0.0
 10
80.3978430842
 20
129.0401613999
 30
0.0
  0
SPLINE
  5
530
100
AcDbEntity
  8
00_COMPONENTS_1
100
AcDbSpline
 62
7
  6
CONTINUOUS
 70
0
 71
3
 72
11
 73
7
 74
0
 42
0.0000001
 43
0.0000001
 44
0.0000000001
 40
0.0
 40
0.0
 40
0.0
 40
0.0
 40
0.2177239861
 40
0.4508730345
 40
0.7104683317
 40
1.0
 40
1.0
 40
1.0
 40
1.0
 10
80.1523995834
 20
134.550238371
 30
0.0
 10
80.0930395287
 20
134.5159700789
 30
0.0
 10
79.9818809623
 20
134.4226883513
 30
0.0
 10
79.8635912215
 20
134.2292348318
 30
0.0
 10
79.7934782309
 20
133.9908831643
 30
0.0
 10
79.7795588376
 20
133.817439016
 30
0.0
 10
79.7795588376
 20
133.7262918529
 30
0.0
  0
SPLINE
  5
531
100
AcDbEntity
  8
00_COMPONENTS_1
100
AcDbSpline
 62
7
  6
CONTINUOUS
 70
0
 71
3
 72
11
 73
7
 74
0
 42
0.0000001
 43
0.0000001
 44
0.0000000001
 40
0.0
 40
0.0
 40
0.0
 40
0.0
 40
0.2177833598
 40
0.4509104088
 40
0.7102966711
 40
1.0
 40
1.0
 40
1.0
 40
1.0
 10
94.0479242527
 20
49.5307982831
 30
0.0
 10
94.1798706221
 20
49.6069771239
 30
0.0
 10
94.426736856
 20
49.8145170743
 30
0.0
 10
94.6895552204
 20
50.2442370671
 30
0.0
 10
94.8456538731
 20
50.7738118554
 30
0.0
 10
94.8763820868
 20
51.1592521867
 30
0.0
 10
94.8763820868
 20
51.3619247642
 30
0.0
  0
SPLINE
  5
532
100
AcDbEntity
  8
00_COMPONENTS_1
100
AcDbSpline
 62
7
  6
CONTINUOUS
 70
0
 71
3
 72
9
 73
5
 74
0
 42
0.0000001
 43
0.0000001
 44
0.0000000001
 40
0.0
 40
0.0
 40
0.0
 40
0.0
 40
0.2427216093
 40
1.0
 40
1.0
 40
1.0
 40
1.0
 10
96.6087879599
 20
119.5302896802
 30
0.0
 10
96.6087879599
 20
119.542035612
 30
0.0
 10
96.6096926178
 20
119.5904263204
 30
0.0
 10
96.614087345
 20
119.6387325489
 30
0.0
 10
96.6190805193
 20
119.6750374676
 30
0.0
  0
SPLINE
  5
533
100
AcDbEntity
  8
00_COMPONENTS_1
100
AcDbSpline
 62
7
  6
CONTINUOUS
 70
0
 71
3
 72
15
 73
11
 74
0
 42
0.0000001
 43
0.0000001
 44
0.0000000001
 40
0.0
 40
0.0
 40
0.0
 40
0.0
 40
0.144889229
 40
0.2745371646
 40
0.3911157627
 40
0.5000029432
 40
0.6088895893
 40
0.7254667666
 40
0.8551127889
 40
1.0
 40
1.0
 40
1.0
 40
1.0
 10
129.206264846
 20
75.9586921873
 30
0.0
 10
129.206264846
 20
76.2120956973
 30
0.0
 10
129.1679167733
 20
76.6939139791
 30
0.0
 10
128.9727941395
 20
77.3557664563
 30
0.0
 10
128.6439463163
 20
77.8931363679
 30
0.0
 10
128.1877004736
 20
78.2769861589
 30
0.0
 10
127.6271612227
 20
78.4801953161
 30
0.0
 10
126.9973679786
 20
78.4963125767
 30
0.0
 10
126.3266326746
 20
78.3343768388
 30
0.0
 10
125.8901969153
 20
78.1266829782
 30
0.0
 10
125.6707457654
 20
77.999983558
 30
0.0
  0
SPLINE
  5
534
100
AcDbEntity
  8
00_COMPONENTS_1
100
AcDbSpline
 62
7
  6
CONTINUOUS
 70
0
 71
3
 72
11
 73
7
 74
0
 42
0.0000001
 43
0.0000001
 44
0.0000000001
 40
0.0
 40
0.0
 40
0.0
 40
0.0
 40
0.2177239861
 40
0.4508730345
 40
0.7104683317
 40
1.0
 40
1.0
 40
1.0
 40
1.0
 10
44.7969133261
 20
154.962276097
 30
0.0
 10
44.7375532713
 20
154.928007805
 30
0.0
 10
44.626394705
 20
154.8347260773
 30
0.0
 10
44.5081049642
 20
154.6412725578
 30
0.0
 10
44.4379919735
 20
154.4029208904
 30
0.0
 10
44.4240725803
 20
154.229476742
 30
0.0
 10
44.4240725803
 20
154.1383295789
 30
0.0
  0
SPLINE
  5
535
100
AcDbEntity
  8
00_COMPONENTS_1
100
AcDbSpline
 62
7
  6
CONTINUOUS
 70
0
 71
3
 72
16
 73
12
 74
0
 42
0.0000001
 43
0.0000001
 44
0.0000000001
 40
0.0
 40
0.0
 40
0.0
 40
0.0
 40
0.0440891226
 40
0.0891904584
 40
0.1855657946
 40
0.2943184393
 40
0.4169272297
 40
0.5522404097
 40
0.6973209346
 40
0.8481131794
 40
1.0
 40
1.0
 40
1.0
 40
1.0
 10
109.6928465908
 20
148.4593538511
 30
0.0
 10
109.8108634198
 20
148.5274634753
 30
0.0
 10
110.0633407354
 20
148.6428224141
 30
0.0
 10
110.6226814062
 20
148.7816796779
 30
0.0
 10
111.4101397922
 20
148.763762661
 30
0.0
 10
112.3864630496
 20
148.4612003695
 30
0.0
 10
113.3801081367
 20
147.9023039608
 30
0.0
 10
114.350125656
 20
147.1131455005
 30
0.0
 10
115.2551174117
 20
146.1293262188
 30
0.0
 10
116.0544322339
 20
144.9954329715
 30
0.0
 10
116.4959707074
 20
144.1674558734
 30
0.0
 10
116.6899812733
 20
143.7400080413
 30
0.0
  0
SPLINE
  5
536
100
AcDbEntity
  8
00_COMPONENTS_1
100
AcDbSpline
 62
7
  6
CONTINUOUS
 70
0
 71
3
 72
12
 73
8
 74
0
 42
0.0000001
 43
0.0000001
 44
0.0000000001
 40
0.0
 40
0.0
 40
0.0
 40
0.0
 40
0.2312112278
 40
0.4936156531
 40
0.759332592
 40
0.884471489
 40
1.0
 40
1.0
 40
1.0
 40
1.0
 10
45.8955963135
 20
150.768066099
 30
0.0
 10
45.5632662919
 20
150.9250694032
 30
0.0
 10
44.923794984
 20
151.4079804496
 30
0.0
 10
44.1754705748
 20
152.3662803979
 30
0.0
 10
43.7326479836
 20
153.318619362
 30
0.0
 10
43.5406143793
 20
154.1023923728
 30
0.0
 10
43.5048299376
 20
154.4853899389
 30
0.0
 10
43.5048299376
 20
154.6690425598
 30
0.0
  0
ELLIPSE
  5
537
100
AcDbEntity
  8
00_COMPONENTS_1
100
AcDbEllipse
 62
7
  6
CONTINUOUS
 10
61.5524470534
 20
142.145455514
 30
0.0
 11
-1.0426504883
 21
2.9503985463
 31
0.0
 40
0.666536471
 41
-3.0182474261
 42
-2.2328372216
  0
ELLIPSE
  5
538
100
AcDbEntity
  8
00_COMPONENTS_1
100
AcDbEllipse
 62
7
  6
CONTINUOUS
 10
43.8747039247
 20
152.351474377
 30
0.0
 11
-1.0426504883
 21
2.9503985463
 31
0.0
 40
0.666536471
 41
-3.0182474261
 42
-2.2328372216
  0
ELLIPSE
  5
539
100
AcDbEntity
  8
00_COMPONENTS_1
100
AcDbEllipse
 62
7
  6
CONTINUOUS
 10
79.2301901821
 20
131.939436651
 30
0.0
 11
-1.0426504883
 21
2.9503985463
 31
0.0
 40
0.666536471
 41
-3.0182474261
 42
-2.2328372216
  0
ELLIPSE
  5
53A
100
AcDbEntity
  8
00_COMPONENTS_1
100
AcDbEllipse
 62
7
  6
CONTINUOUS
 10
52.9731023112
 20
54.317026379
 30
0.0
 11
-2.8167342934
 21
3.6753650912
 31
0.0
 40
0.4692948502
 41
3.8655757708
 42
7.0071684244
  0
ELLIPSE
  5
53B
100
AcDbEntity
  8
00_COMPONENTS_1
100
AcDbEllipse
 62
7
  6
CONTINUOUS
 10
35.2953591825
 20
64.523045242
 30
0.0
 11
-2.8167342934
 21
3.6753650912
 31
0.0
 40
0.4692948502
 41
3.8655757708
 42
7.0071684244
  0
ELLIPSE
  5
53C
100
AcDbEntity
  8
00_COMPONENTS_1
100
AcDbEllipse
 62
7
  6
CONTINUOUS
 10
70.6508454399
 20
44.111007516
 30
0.0
 11
-2.8167342934
 21
3.6753650912
 31
0.0
 40
0.4692948502
 41
3.8655757708
 42
7.0071684244
  0
ELLIPSE
  5
53D
100
AcDbEntity
  8
00_COMPONENTS_1
100
AcDbEllipse
 62
7
  6
CONTINUOUS
 10
88.3285885685
 20
33.9049886529
 30
0.0
 11
-2.8167342934
 21
3.6753650912
 31
0.0
 40
0.4692948502
 41
3.8655757708
 42
7.0071684244
  0
ELLIPSE
  5
53E
100
AcDbEntity
  8
00_COMPONENTS_1
100
AcDbEllipse
 62
7
  6
CONTINUOUS
 10
43.8848677775
 20
60.9090717266
 30
0.0
 11
-1.8982339803
 21
2.4768764745
 31
0.0
 40
0.4692948502
 41
3.8655757708
 42
7.0071684244
  0
ELLIPSE
  5
53F
100
AcDbEntity
  8
00_COMPONENTS_1
100
AcDbEllipse
 62
7
  6
CONTINUOUS
 10
61.5524470534
 20
142.145455514
 30
0.0
 11
-1.0426504883
 21
2.9503985463
 31
0.0
 40
0.666536471
 41
0.908755432
 42
1.7527913139
  0
ELLIPSE
  5
540
100
AcDbEntity
  8
00_COMPONENTS_1
100
AcDbEllipse
 62
7
  6
CONTINUOUS
 10
56.9647784637
 20
142.681052989
 30
0.0
 11
-0.4036066406
 21
1.1420897599
 31
0.0
 40
0.666536471
 41
3.9529226758
 42
7.2893661491
  0
ELLIPSE
  5
541
100
AcDbEntity
  8
00_COMPONENTS_1
100
AcDbEllipse
 62
7
  6
CONTINUOUS
 10
43.8747039247
 20
152.351474377
 30
0.0
 11
-1.0426504883
 21
2.9503985463
 31
0.0
 40
0.666536471
 41
0.908755432
 42
1.7527913139
  0
ELLIPSE
  5
542
100
AcDbEntity
  8
00_COMPONENTS_1
100
AcDbEllipse
 62
7
  6
CONTINUOUS
 10
65.6016809633
 20
49.8507237688
 30
0.0
 11
-0.7041835734
 21
0.9188412728
 31
0.0
 40
0.4692948502
 41
0.0
 42
6.2831853072
  0
ELLIPSE
  5
543
100
AcDbEntity
  8
00_COMPONENTS_1
100
AcDbEllipse
 62
7
  6
CONTINUOUS
 10
83.279424092
 20
39.6447049058
 30
0.0
 11
-0.7041835734
 21
0.9188412728
 31
0.0
 40
0.4692948502
 41
0.0
 42
6.2831853072
  0
ELLIPSE
  5
544
100
AcDbEntity
  8
00_COMPONENTS_1
100
AcDbEllipse
 62
7
  6
CONTINUOUS
 10
39.2971991879
 20
65.037279837
 30
0.0
 11
-0.7041835734
 21
0.9188412728
 31
0.0
 40
0.4692948502
 41
0.0
 42
6.2831853072
  0
ELLIPSE
  5
545
100
AcDbEntity
  8
00_COMPONENTS_1
100
AcDbEllipse
 62
7
  6
CONTINUOUS
 10
79.2301901821
 20
131.939436651
 30
0.0
 11
-1.0426504883
 21
2.9503985463
 31
0.0
 40
0.666536471
 41
0.908755432
 42
1.7527913139
  0
ELLIPSE
  5
546
100
AcDbEntity
  8
00_COMPONENTS_1
100
AcDbEllipse
 62
7
  6
CONTINUOUS
 10
83.2692602392
 20
127.4944969208
 30
0.0
 11
-0.3867896973
 21
1.0945026865
 31
0.0
 40
0.666536471
 41
3.9486724398
 42
7.293616385
  0
ELLIPSE
  5
547
100
AcDbEntity
  8
00_COMPONENTS_1
100
AcDbEllipse
 62
7
  6
CONTINUOUS
 10
61.5626109062
 20
50.7030528636
 30
0.0
 11
-1.8982339803
 21
2.4768764745
 31
0.0
 40
0.4692948502
 41
3.8655757708
 42
7.0071684244
  0
ELLIPSE
  5
548
100
AcDbEntity
  8
00_COMPONENTS_1
100
AcDbEllipse
 62
7
  6
CONTINUOUS
 10
79.2403540349
 20
40.4970340006
 30
0.0
 11
-1.8982339803
 21
2.4768764745
 31
0.0
 40
0.4692948502
 41
3.8655757708
 42
7.0071684244
  0
ENDSEC
  0
SECTION
  2
OBJECTS
  0
DICTIONARY
  5
C
100
AcDbDictionary
280
0
281
1
  3
ACAD_GROUP
350
D
  3
ACAD_MLINESTYLE
350
17
  3
ACAD_LAYOUT
350
1A
  3
ACAD_PLOTSETTINGS
350
19
  3
ACAD_PLOTSTYLENAME
350
E
  0
DICTIONARY
  5
D
102
{ACAD_REACTORS
330
C
102
}
100
AcDbDictionary
280
0
281
1
  0
ACDBDICTIONARYWDFLT
  5
E
102
{ACAD_REACTORS
330
C
102
}
100
AcDbDictionary
281
1
  3
Normal
350
F
100
AcDbDictionaryWithDefault
340
F
  0
DICTIONARY
  5
17
102
{ACAD_REACTORS
330
C
102
}
100
AcDbDictionary
280
0
281
1
  3
Standard
350
18
  0
DICTIONARY
  5
19
102
{ACAD_REACTORS
330
C
102
}
100
AcDbDictionary
281
1
  0
DICTIONARY
  5
1A
102
{ACAD_REACTORS
330
C
102
}
100
AcDbDictionary
281
1
  3
Model
350
549
  3
Layout1
350
54A
  0
ACDBPLACEHOLDER
  5
F
102
{ACAD_REACTORS
330
E
102
}
  0
MLINESTYLE
  5
18
102
{ACAD_REACTORS
330
17
102
}
100
AcDbMlineStyle
  2
STANDARD
 70
0
  3

 62
256
 51
90.0
 52
90.0
 71
2
 49
0.5
 62
256
  6
BYLAYER
 49
-0.5
 62
256
  6
BYLAYER
  0
LAYOUT
  5
549
102
{ACAD_REACTORS
330
1A
102
}
100
AcDbPlotSettings
  1

  2
none_device
  4

  6

 40
0.0
 41
0.0
 42
0.0
 43
0.0
 44
210.0
 45
297.0
 46
0.0
 47
0.0
 48
0.0
 49
0.0
140
0.0
141
0.0
142
1.0
143
1.0
 70
1024
 72
1
 73
0
 74
0
  7

 75
0
147
1.0
148
0.0
149
0.0
100
AcDbLayout
  1
Model
 70
0
 71
0
 10
0.0
 20
0.0
 11
210.0
 21
297.0
 12
0.0
 22
0.0
 32
0.0
 14
0.0
 24
0.0
 34
0.0
 15
0.0
 25
0.0
 35
0.0
146
0.0
 13
0.0
 23
0.0
 33
0.0
 16
1.0
 26
0.0
 36
0.0
 17
0.0
 27
1.0
 37
0.0
 76
0
330
212
345
0
346
0
  0
LAYOUT
  5
54A
102
{ACAD_REACTORS
330
1A
102
}
100
AcDbPlotSettings
  1

  2
none_device
  4

  6

 40
0.0
 41
0.0
 42
0.0
 43
0.0
 44
210.0
 45
297.0
 46
0.0
 47
0.0
 48
0.0
 49
0.0
140
0.0
141
0.0
142
1.0
143
1.0
 70
0
 72
1
 73
0
 74
0
  7

 75
0
147
1.0
148
0.0
149
0.0
100
AcDbLayout
  1
Layout1
 70
0
 71
1
 10
0.0
 20
0.0
 11
210.0
 21
297.0
 12
0.0
 22
0.0
 32
0.0
 14
0.0
 24
0.0
 34
0.0
 15
0.0
 25
0.0
 35
0.0
146
0.0
 13
0.0
 23
0.0
 33
0.0
 16
1.0
 26
0.0
 36
0.0
 17
0.0
 27
1.0
 37
0.0
 76
0
330
213
345
0
346
0
  0
ENDSEC
  0
EOF
