999
DXF file: C:\Users\SESA621925\Desktop\Projects\Drawing_creation_tool\Gen2D (3) (1)\CAD\G20B3A100_3D-CAD\drw0001_1.dxf
999
Pro/ENGINEER 2019471 by Parametric Technology Corporation
  0
SECTION
  2
HEADER
  9
$ACADVER
  1
AC1024
  9
$DWGCODEPAGE
  3
ANSI_1252
  9
$EXTMAX
 10
134.4795909282
 20
190.1925643127
 30
0.0
  9
$EXTMIN
 10
0.0
 20
0.0
 30
0.0
  9
$LIMMIN
 10
0.0
 20
0.0
  9
$LIMMAX
 10
134.4795909282
 20
190.1925643127
  9
$VIEWCTR
 10
67.2397954641
 20
95.0962821563
  9
$VIEWSIZE
 40
190.1925643127
  9
$CLAYER
  8
0
  9
$LTSCALE
 40
12.3977375256
  9
$CELTYPE
  6
BYLAYER
  9
$DIMSCALE
 40
1.0
  9
$DIMASZ
 40
1.600947511
  9
$DIMEXO
 40
1.0
  9
$DIMDLI
 40
8.5657095631
  9
$DIMEXE
 40
1.0
  9
$DIMCEN
 40
2.028720686
  9
$DIMLFAC
 40
1.0
  9
$DIMBLK
  1
_FILLED
  9
$DIMALT
 70
0
  9
$DIMALTF
 40
0.0393700787
  9
$DIMTXT
 40
2.2413265155
  9
$DIMTOL
 70
1
  9
$DIMLIM
 70
0
  9
$DIMTFAC
 40
1.0
  9
$DIMTP
 40
0.01
  9
$DIMTM
 40
0.01
  9
$DIMGAP
 40
0.625
  9
$DIMDSEP
 70
46
  9
$AUNITS
 70
0
  9
$PDMODE
 70
3
  9
$PDSIZE
 40
0.3125
  9
$HANDSEED
  5
502
  9
$TILEMODE
 70
1
  9
$MEASUREMENT
 70
1
  9
$INSUNITS
 70
4
  0
ENDSEC
  0
SECTION
  2
CLASSES
  0
CLASS
  1
ACDBDICTIONARYWDFLT
  2
AcDbDictionaryWithDefault
  3
AutoCAD 2000
 90
0
 91
1
280
0
281
0
  0
CLASS
  1
ACDBPLACEHOLDER
  2
AcDbPlaceHolder
  3
AutoCAD 2000
 90
0
 91
1
280
0
281
0
  0
CLASS
  1
LAYOUT
  2
AcDbLayout
  3
AutoCAD 2000
 90
0
 91
0
280
0
281
0
  0
ENDSEC
  0
SECTION
  2
TABLES
  0
TABLE
  2
VPORT
  5
8
100
AcDbSymbolTable
 70
2
  0
VPORT
  5
1F4
100
AcDbSymbolTableRecord
100
AcDbViewportTableRecord
  2
*ACTIVE
 70
0
 10
0.0
 20
0.0
 11
1.0
 21
1.0
 12
67.2397954641
 22
95.0962821563
 13
0.0
 23
0.0
 14
1.0
 24
1.0
 15
0.0
 25
0.0
 16
0.0
 26
0.0
 36
1.0
 17
0.0
 27
0.0
 37
0.0
 40
190.1925643127
 41
0.7070707071
 42
50.0
 43
0.0
 44
0.0
 50
0.0
 51
0.0
 71
0
 72
100
 73
1
 74
1
 75
0
 76
0
 77
0
 78
0
  0
ENDTAB
  0
TABLE
  2
LTYPE
  5
5
100
AcDbSymbolTable
 70
6
  0
LTYPE
  5
14
100
AcDbSymbolTableRecord
100
AcDbLinetypeTableRecord
  2
BYBLOCK
 70
0
  3

 72
65
 73
0
 40
0.0
  0
LTYPE
  5
15
100
AcDbSymbolTableRecord
100
AcDbLinetypeTableRecord
  2
BYLAYER
 70
0
  3

 72
65
 73
0
 40
0.0
  0
LTYPE
  5
16
100
AcDbSymbolTableRecord
100
AcDbLinetypeTableRecord
  2
CONTINUOUS
 70
64
  3
Solid line
 72
65
 73
0
 40
0.0
  0
LTYPE
  5
1F5
100
AcDbSymbolTableRecord
100
AcDbLinetypeTableRecord
  2
CENTER
 70
64
  3
____ _ ____ _ ____ _ ____ _ ____ _ ____ _ ____
 72
65
 73
4
 40
0.6
 49
0.375
 74
0
 49
-0.075
 74
0
 49
0.075
 74
0
 49
-0.075
 74
0
  0
LTYPE
  5
1F6
100
AcDbSymbolTableRecord
100
AcDbLinetypeTableRecord
  2
HIDDEN
 70
64
  3
- - - - - - - - - - - - - - - - - - - -
 72
65
 73
2
 40
0.2
 49
0.1
 74
0
 49
-0.1
 74
0
  0
LTYPE
  5
1F7
100
AcDbSymbolTableRecord
100
AcDbLinetypeTableRecord
  2
PHANTOM
 70
64
  3
_____ _ _ _____ _ _ _____ _ _ _____
 72
65
 73
6
 40
0.8
 49
0.45
 74
0
 49
-0.05
 74
0
 49
0.1
 74
0
 49
-0.05
 74
0
 49
0.1
 74
0
 49
-0.05
 74
0
  0
LTYPE
  5
1F8
100
AcDbSymbolTableRecord
100
AcDbLinetypeTableRecord
  2
DOT
 70
64
  3
. . . . . . . . . . . . . . . . . . . .
 72
65
 73
2
 40
0.2
 49
0.1
 74
0
 49
-0.1
 74
0
  0
LTYPE
  5
1F9
100
AcDbSymbolTableRecord
100
AcDbLinetypeTableRecord
  2
DASHED
 70
64
  3
- - - - - - - - - - - - - - - - - - - -
 72
65
 73
2
 40
0.2
 49
0.1
 74
0
 49
-0.1
 74
0
  0
ENDTAB
  0
TABLE
  2
LAYER
  5
2
100
AcDbSymbolTable
 70
36
  0
LAYER
  5
10
100
AcDbSymbolTableRecord
100
AcDbLayerTableRecord
  2
0
 70
0
 62
7
  6
CONTINUOUS
370
-3
390
F
  0
LAYER
  5
1FA
100
AcDbSymbolTableRecord
100
AcDbLayerTableRecord
  2
DEFAULT_1
 70
0
 62
7
  6
CENTER
370
-3
390
F
  0
LAYER
  5
1FB
100
AcDbSymbolTableRecord
100
AcDbLayerTableRecord
  2
DEFAULT_2
 70
0
 62
8
  6
HIDDEN
370
-3
390
F
  0
LAYER
  5
1FC
100
AcDbSymbolTableRecord
100
AcDbLayerTableRecord
  2
DEFAULT_3
 70
0
 62
7
  6
PHANTOM
370
-3
390
F
  0
LAYER
  5
1FD
100
AcDbSymbolTableRecord
100
AcDbLayerTableRecord
  2
00_COMPONENTS
 70
0
 62
7
  6
CONTINUOUS
370
-3
390
F
  0
LAYER
  5
1FE
100
AcDbSymbolTableRecord
100
AcDbLayerTableRecord
  2
01_1_DEFAULT_DATUMS
 70
0
 62
7
  6
CONTINUOUS
370
-3
390
F
  0
LAYER
  5
1FF
100
AcDbSymbolTableRecord
100
AcDbLayerTableRecord
  2
01_PLANES
 70
0
 62
7
  6
CONTINUOUS
370
-3
390
F
  0
LAYER
  5
200
100
AcDbSymbolTableRecord
100
AcDbLayerTableRecord
  2
02_COORD_SYS
 70
0
 62
7
  6
CONTINUOUS
370
-3
390
F
  0
LAYER
  5
201
100
AcDbSymbolTableRecord
100
AcDbLayerTableRecord
  2
03_AXES
 70
0
 62
7
  6
CONTINUOUS
370
-3
390
F
  0
LAYER
  5
202
100
AcDbSymbolTableRecord
100
AcDbLayerTableRecord
  2
04_POINTS
 70
0
 62
7
  6
CONTINUOUS
370
-3
390
F
  0
LAYER
  5
203
100
AcDbSymbolTableRecord
100
AcDbLayerTableRecord
  2
05_CURVES
 70
0
 62
7
  6
CONTINUOUS
370
-3
390
F
  0
LAYER
  5
204
100
AcDbSymbolTableRecord
100
AcDbLayerTableRecord
  2
06_SURFS
 70
0
 62
7
  6
CONTINUOUS
370
-3
390
F
  0
LAYER
  5
205
100
AcDbSymbolTableRecord
100
AcDbLayerTableRecord
  2
07_COSMETICS
 70
0
 62
7
  6
CONTINUOUS
370
-3
390
F
  0
LAYER
  5
206
100
AcDbSymbolTableRecord
100
AcDbLayerTableRecord
  2
10_NOTES
 70
0
 62
7
  6
CONTINUOUS
370
-3
390
F
  0
LAYER
  5
207
100
AcDbSymbolTableRecord
100
AcDbLayerTableRecord
  2
11_NOTES_PUB
 70
0
 62
7
  6
CONTINUOUS
370
-3
390
F
  0
LAYER
  5
208
100
AcDbSymbolTableRecord
100
AcDbLayerTableRecord
  2
13_REF_GTOL
 70
0
 62
7
  6
CONTINUOUS
370
-3
390
F
  0
LAYER
  5
209
100
AcDbSymbolTableRecord
100
AcDbLayerTableRecord
  2
16_MISC
 70
0
 62
7
  6
CONTINUOUS
370
-3
390
F
  0
LAYER
  5
20A
100
AcDbSymbolTableRecord
100
AcDbLayerTableRecord
  2
17_NO_PRINT
 70
0
 62
7
  6
CONTINUOUS
370
-3
390
F
  0
LAYER
  5
20B
100
AcDbSymbolTableRecord
100
AcDbLayerTableRecord
  2
18_DATUM_CAMS_JOINTS
 70
0
 62
7
  6
CONTINUOUS
370
-3
390
F
  0
LAYER
  5
20C
100
AcDbSymbolTableRecord
100
AcDbLayerTableRecord
  2
19_DATUM_FUNCTIONAL
 70
0
 62
7
  6
CONTINUOUS
370
-3
390
F
  0
LAYER
  5
20D
100
AcDbSymbolTableRecord
100
AcDbLayerTableRecord
  2
20_DATUM_KINEMATIC_SCHEME
 70
0
 62
7
  6
CONTINUOUS
370
-3
390
F
  0
LAYER
  5
20E
100
AcDbSymbolTableRecord
100
AcDbLayerTableRecord
  2
INTFCLR_1
 70
0
 62
7
  6
CONTINUOUS
370
-3
390
F
  0
LAYER
  5
20F
100
AcDbSymbolTableRecord
100
AcDbLayerTableRecord
  2
INTFCLR_30443
 70
0
 62
7
  6
CONTINUOUS
370
-3
390
F
  0
LAYER
  5
210
100
AcDbSymbolTableRecord
100
AcDbLayerTableRecord
  2
INTFCLR_35506
 70
0
 62
7
  6
CONTINUOUS
370
-3
390
F
  0
LAYER
  5
211
100
AcDbSymbolTableRecord
100
AcDbLayerTableRecord
  2
INTFCLR_65
 70
0
 62
7
  6
CONTINUOUS
370
-3
390
F
  0
LAYER
  5
212
100
AcDbSymbolTableRecord
100
AcDbLayerTableRecord
  2
INTFCLR_74
 70
0
 62
7
  6
CONTINUOUS
370
-3
390
F
  0
ENDTAB
  0
TABLE
  2
STYLE
  5
3
100
AcDbSymbolTable
 70
1
  0
STYLE
  5
11
100
AcDbSymbolTableRecord
100
AcDbTextStyleTableRecord
  2
STANDARD
 70
0
 40
0.0
 41
0.8
 50
0.0
 71
0
 42
0.2
  3
txt
  4

  0
STYLE
  5
213
100
AcDbSymbolTableRecord
100
AcDbTextStyleTableRecord
  2
TEXTSTYLE_1
 70
0
 40
0.0
 41
0.8
 50
0.0
 71
0
 42
0.2
  3
gdt
  4

  0
ENDTAB
  0
TABLE
  2
VIEW
  5
6
100
AcDbSymbolTable
 70
0
  0
ENDTAB
  0
TABLE
  2
UCS
  5
7
100
AcDbSymbolTable
 70
0
  0
ENDTAB
  0
TABLE
  2
APPID
  5
9
100
AcDbSymbolTable
 70
1
  0
APPID
  5
214
100
AcDbSymbolTableRecord
100
AcDbRegAppTableRecord
  2
ACAD
 70
0
  0
ENDTAB
  0
TABLE
  2
BLOCK_RECORD
  5
1
100
AcDbSymbolTable
 70
0
  0
BLOCK_RECORD
  5
215
100
AcDbSymbolTableRecord
100
AcDbBlockTableRecord
  2
*Model_Space
  0
BLOCK_RECORD
  5
216
100
AcDbSymbolTableRecord
100
AcDbBlockTableRecord
  2
*Paper_Space
  0
BLOCK_RECORD
  5
217
100
AcDbSymbolTableRecord
100
AcDbBlockTableRecord
  2
_FILLED
  0
ENDTAB
  0
TABLE
  2
DIMSTYLE
  5
A
100
AcDbSymbolTable
 70
1
100
AcDbDimStyleTable
 71
0
  0
DIMSTYLE
105
218
100
AcDbSymbolTableRecord
100
AcDbDimStyleTableRecord
  2
STANDARD
 70
0
  3

  4

 40
1.0
 41
1.600947511
 42
1.0
 43
0.38
 44
1.0
 45
0.0
 46
0.0
 47
0.01
 48
0.01
140
2.2413265155
141
0.09
142
0.0
143
25.4
144
1.0
145
0.0
146
1.0
147
0.625
 71
1
 72
0
 73
0
 74
0
 75
0
 76
0
 77
1
 78
8
 79
2
170
0
171
1
172
0
173
0
174
0
175
0
176
0
177
0
178
0
270
2
179
2
271
2
272
2
273
2
274
2
275
0
280
0
281
0
282
0
283
1
284
8
285
0
286
0
287
3
288
0
340
11
278
46
341
217
342
217
343
217
344
217
  0
ENDTAB
  0
ENDSEC
  0
SECTION
  2
BLOCKS
  0
BLOCK
  5
20
100
AcDbEntity
  8
0
100
AcDbBlockBegin
  2
*Model_Space
 70
0
 10
0.0
 20
0.0
 30
0.0
  3
*Model_Space
  1

  0
ENDBLK
  5
21
100
AcDbEntity
  8
0
100
AcDbBlockEnd
  0
BLOCK
  5
1C
100
AcDbEntity
  8
0
100
AcDbBlockBegin
  2
*Paper_Space
 70
0
 10
0.0
 20
0.0
 30
0.0
  3
*Paper_Space
  1

  0
ENDBLK
  5
1D
100
AcDbEntity
  8
0
100
AcDbBlockEnd
  0
BLOCK
  5
219
100
AcDbEntity
  8
0
100
AcDbBlockBegin
  2
_FILLED
 70
64
 10
0.0
 20
0.0
  3
_FILLED
  1

  0
SOLID
  5
21A
100
AcDbEntity
  8
0
  6
BYBLOCK
 62
0
100
AcDbTrace
 10
0.0
 20
0.0
 11
-1.0
 21
0.25
 12
-1.0
 22
-0.25
 13
-1.0
 23
-0.25
  0
ENDBLK
  5
21B
100
AcDbEntity
  8
0
  6
BYBLOCK
 62
0
100
AcDbBlockEnd
  0
ENDSEC
  0
SECTION
  2
ENTITIES
  0
LINE
  5
21C
100
AcDbEntity
  8
0
100
AcDbLine
 62
7
  6
CONTINUOUS
 10
26.2855252291
 20
151.0136617842
 11
68.711755462
 21
175.5083110165
  0
LINE
  5
21D
100
AcDbEntity
  8
0
100
AcDbLine
 62
7
  6
CONTINUOUS
 10
68.0824448227
 20
173.5120039027
 11
67.3753409855
 21
173.1037597489
  0
LINE
  5
21E
100
AcDbEntity
  8
0
100
AcDbLine
 62
7
  6
CONTINUOUS
 10
65.2540294739
 20
171.8790272873
 11
64.8297671715
 21
171.6340807949
  0
LINE
  5
21F
100
AcDbEntity
  8
0
100
AcDbLine
 62
7
  6
CONTINUOUS
 10
63.7691114157
 20
171.0217145641
 11
63.3448491134
 21
170.7767680718
  0
LINE
  5
220
100
AcDbEntity
  8
0
100
AcDbLine
 62
7
  6
CONTINUOUS
 10
43.8217121679
 20
159.5051469834
 11
59.5901277378
 21
168.6089916147
  0
LINE
  5
221
100
AcDbEntity
  8
0
100
AcDbLine
 62
7
  6
CONTINUOUS
 10
68.0824448227
 20
173.0221024525
 11
67.7996141521
 21
172.8588110634
  0
LINE
  5
222
100
AcDbEntity
  8
0
100
AcDbLine
 62
7
  6
CONTINUOUS
 10
33.1444483475
 20
152.7691208241
 11
42.5489293825
 21
158.1987680706
  0
LINE
  5
223
100
AcDbEntity
  8
0
100
AcDbLine
 62
7
  6
CONTINUOUS
 10
25.5077045315
 20
148.0334164622
 11
26.9926349543
 21
148.890736324
  0
LINE
  5
224
100
AcDbEntity
  8
0
100
AcDbLine
 62
7
  6
CONTINUOUS
 10
35.1243555779
 20
151.6260467114
 11
33.0030440663
 21
150.4013142498
  0
LINE
  5
225
100
AcDbEntity
  8
0
100
AcDbLine
 62
7
  6
CONTINUOUS
 10
70.8401786387
 20
171.1033800517
 11
70.5573371038
 21
170.9400823902
  0
LINE
  5
226
100
AcDbEntity
  8
0
100
AcDbLine
 62
7
  6
CONTINUOUS
 10
36.3971530832
 20
150.8912133533
 11
34.2758415716
 21
149.6664808917
  0
LINE
  5
227
100
AcDbEntity
  8
0
100
AcDbLine
 62
7
  6
CONTINUOUS
 10
61.7091617215
 20
164.9871212029
 11
60.577795582
 21
164.3339305567
  0
LINE
  5
228
100
AcDbEntity
  8
0
100
AcDbLine
 62
7
  6
CONTINUOUS
 10
60.2949540471
 20
164.1706328951
 11
58.7393256052
 21
163.2724957566
  0
LINE
  5
229
100
AcDbEntity
  8
0
100
AcDbLine
 62
7
  6
CONTINUOUS
 10
63.8850883972
 20
166.1293510189
 11
67.7741595018
 21
168.3746938651
  0
LINE
  5
22A
100
AcDbEntity
  8
0
100
AcDbLine
 62
7
  6
CONTINUOUS
 10
77.7631132198
 20
15.1484206283
 11
61.6410114865
 21
24.4563098313
  0
LINE
  5
22B
100
AcDbEntity
  8
0
100
AcDbLine
 62
7
  6
CONTINUOUS
 10
60.0853700912
 20
25.3544394913
 11
43.9632683578
 21
34.6623286943
  0
LINE
  5
22C
100
AcDbEntity
  8
0
100
AcDbLine
 62
7
  6
CONTINUOUS
 10
42.4076269625
 20
35.5604583543
 11
26.2855252291
 21
44.8683475573
  0
LINE
  5
22D
100
AcDbEntity
  8
0
100
AcDbLine
 62
7
  6
CONTINUOUS
 10
77.7631132198
 20
16.7814254625
 11
77.0560034947
 21
17.189666217
  0
LINE
  5
22E
100
AcDbEntity
  8
0
100
AcDbLine
 62
7
  6
CONTINUOUS
 10
26.9926349543
 20
46.0931116371
 11
26.2855252291
 21
46.5013523916
  0
LINE
  5
22F
100
AcDbEntity
  8
0
100
AcDbLine
 62
7
  6
CONTINUOUS
 10
41.7005172373
 20
37.6017039431
 11
42.4076269625
 21
37.1934631885
  0
LINE
  5
230
100
AcDbEntity
  8
0
100
AcDbLine
 62
7
  6
CONTINUOUS
 10
43.9632683578
 20
36.2953335286
 11
44.670378083
 21
35.8870927741
  0
LINE
  5
231
100
AcDbEntity
  8
0
100
AcDbLine
 62
7
  6
CONTINUOUS
 10
59.378260366
 20
27.3956850801
 11
60.0853700912
 21
26.9874443255
  0
LINE
  5
232
100
AcDbEntity
  8
0
100
AcDbLine
 62
7
  6
CONTINUOUS
 10
61.6410114865
 20
26.0893146656
 11
62.3481212116
 21
25.6810739111
  0
LINE
  5
233
100
AcDbEntity
  8
0
100
AcDbLine
 62
7
  6
CONTINUOUS
 10
25.5077045315
 20
143.1344019594
 11
27.0633593677
 21
144.0325543367
  0
LINE
  5
234
100
AcDbEntity
  8
0
100
AcDbLine
 62
7
  6
CONTINUOUS
 10
59.9893193428
 20
161.1074301703
 11
56.5952209242
 21
159.1478582317
  0
LINE
  5
235
100
AcDbEntity
  8
0
100
AcDbLine
 62
7
  6
CONTINUOUS
 10
25.5077045315
 20
139.6234415658
 11
25.7198411148
 21
139.7459179482
  0
LINE
  5
236
100
AcDbEntity
  8
0
100
AcDbLine
 62
7
  6
CONTINUOUS
 10
72.4779010158
 20
165.659048872
 11
68.5888299111
 21
163.4137060257
  0
LINE
  5
237
100
AcDbEntity
  8
0
100
AcDbLine
 62
7
  6
CONTINUOUS
 10
42.1954528294
 20
147.5436391662
 11
40.0741413178
 21
146.3189067046
  0
LINE
  5
238
100
AcDbEntity
  8
0
100
AcDbLine
 62
7
  6
CONTINUOUS
 10
57.0539604475
 20
155.9962131445
 11
58.8217653085
 21
157.0168496645
  0
LINE
  5
239
100
AcDbEntity
  8
0
100
AcDbLine
 62
7
  6
CONTINUOUS
 10
76.9213246302
 20
167.2659155995
 11
77.204166165
 21
167.429213261
  0
LINE
  5
23A
100
AcDbEntity
  8
0
100
AcDbLine
 62
7
  6
CONTINUOUS
 10
47.3653938054
 20
149.7117952698
 11
50.3691931958
 21
151.4460293045
  0
LINE
  5
23B
100
AcDbEntity
  8
0
100
AcDbLine
 62
7
  6
CONTINUOUS
 10
54.0749803615
 20
153.5855537509
 11
56.0437999057
 21
154.7222454596
  0
LINE
  5
23C
100
AcDbEntity
  8
0
100
AcDbLine
 62
7
  6
CONTINUOUS
 10
40.922687651
 20
145.8290093336
 11
42.1954528294
 21
146.5638362657
  0
LINE
  5
23D
100
AcDbEntity
  8
0
100
AcDbLine
 62
7
  6
CONTINUOUS
 10
43.4682503347
 20
146.8088058081
 11
41.346938823
 21
145.5840733465
  0
LINE
  5
23E
100
AcDbEntity
  8
0
100
AcDbLine
 62
7
  6
CONTINUOUS
 10
62.3481212116
 20
27.4773792288
 11
59.378260366
 21
29.1919903977
  0
LINE
  5
23F
100
AcDbEntity
  8
0
100
AcDbLine
 62
7
  6
CONTINUOUS
 10
44.670378083
 20
37.6833980918
 11
41.7005172373
 21
39.3980092607
  0
LINE
  5
240
100
AcDbEntity
  8
0
100
AcDbLine
 62
7
  6
CONTINUOUS
 10
26.9926349543
 20
47.8894169548
 11
25.5077045315
 21
48.7467225393
  0
LINE
  5
241
100
AcDbEntity
  8
0
100
AcDbLine
 62
7
  6
CONTINUOUS
 10
77.0560034947
 20
18.9859715347
 11
78.5409339175
 21
18.1286659502
  0
LINE
  5
242
100
AcDbEntity
  8
0
100
AcDbLine
 62
7
  6
CONTINUOUS
 10
77.4802693298
 20
24.3706192275
 11
71.9802665489
 21
27.5459754775
  0
LINE
  5
243
100
AcDbEntity
  8
0
100
AcDbLine
 62
7
  6
CONTINUOUS
 10
67.4238581574
 20
30.1765595771
 11
54.3025234202
 21
37.7519943405
  0
LINE
  5
244
100
AcDbEntity
  8
0
100
AcDbLine
 62
7
  6
CONTINUOUS
 10
49.7461150287
 20
40.3825784401
 11
36.6247802916
 21
47.9580132035
  0
LINE
  5
245
100
AcDbEntity
  8
0
100
AcDbLine
 62
7
  6
CONTINUOUS
 10
32.0683719001
 20
50.5885973031
 11
26.5683691192
 21
53.763953553
  0
LINE
  5
246
100
AcDbEntity
  8
0
100
AcDbLine
 62
7
  6
CONTINUOUS
 10
15.6011797721
 20
113.8996317504
 11
15.6011797721
 21
83.6890423166
  0
LINE
  5
247
100
AcDbEntity
  8
0
100
AcDbLine
 62
7
  6
CONTINUOUS
 10
36.5911375566
 20
141.5317167309
 11
36.9470397928
 21
141.7371957563
  0
LINE
  5
248
100
AcDbEntity
  8
0
100
AcDbLine
 62
7
  6
CONTINUOUS
 10
58.0745854229
 20
153.3657123279
 11
60.6628030201
 21
154.8600115346
  0
LINE
  5
249
100
AcDbEntity
  8
0
100
AcDbLine
 62
7
  6
CONTINUOUS
 10
54.8526386
 20
151.0953789419
 11
45.4481575651
 21
145.6657316954
  0
LINE
  5
24A
100
AcDbEntity
  8
0
100
AcDbLine
 62
7
  6
CONTINUOUS
 10
72.8837905705
 20
160.9340654298
 11
57.1153750007
 21
151.8302207984
  0
LINE
  5
24B
100
AcDbEntity
  8
0
100
AcDbLine
 62
7
  6
CONTINUOUS
 10
76.6385119461
 20
163.1018418868
 11
77.0627742485
 21
163.3467883791
  0
LINE
  5
24C
100
AcDbEntity
  8
0
100
AcDbLine
 62
7
  6
CONTINUOUS
 10
78.1234300043
 20
163.95915461
 11
78.5476923066
 21
164.2041011023
  0
LINE
  5
24D
100
AcDbEntity
  8
0
100
AcDbLine
 62
7
  6
CONTINUOUS
 10
80.6690038183
 20
165.4288335639
 11
81.3761076555
 21
165.8370777178
  0
LINE
  5
24E
100
AcDbEntity
  8
0
100
AcDbLine
 62
7
  6
CONTINUOUS
 10
37.7159599456
 20
139.6903398668
 11
36.8921381339
 21
139.2147089612
  0
LINE
  5
24F
100
AcDbEntity
  8
0
100
AcDbLine
 62
7
  6
CONTINUOUS
 10
42.4076269625
 20
141.7057725811
 11
84.8338571953
 21
166.2004218134
  0
LINE
  5
250
100
AcDbEntity
  8
0
100
AcDbLine
 62
7
  6
CONTINUOUS
 10
27.4392442686
 20
131.4793360343
 11
26.9361496997
 21
131.1888759833
  0
LINE
  5
251
100
AcDbEntity
  8
0
100
AcDbLine
 62
7
  6
CONTINUOUS
 10
84.8338571953
 20
164.5674169791
 11
42.4076269625
 21
140.0727677469
  0
LINE
  5
252
100
AcDbEntity
  8
0
100
AcDbLine
 62
7
  6
CONTINUOUS
 10
43.9632683578
 20
140.8076429212
 11
86.3894985906
 21
165.3022921535
  0
LINE
  5
253
100
AcDbEntity
  8
0
100
AcDbLine
 62
7
  6
CONTINUOUS
 10
43.9632683578
 20
139.9910953541
 11
43.5389872141
 21
139.7461379838
  0
LINE
  5
254
100
AcDbEntity
  8
0
100
AcDbLine
 62
7
  6
CONTINUOUS
 10
77.4802693298
 20
26.0852303966
 11
73.4651846071
 21
28.4032882006
  0
LINE
  5
255
100
AcDbEntity
  8
0
100
AcDbLine
 62
7
  6
CONTINUOUS
 10
68.9087762156
 20
31.0338723002
 11
55.7874414784
 21
38.6093070636
  0
LINE
  5
256
100
AcDbEntity
  8
0
100
AcDbLine
 62
7
  6
CONTINUOUS
 10
51.2310330869
 20
41.2398911632
 11
38.1096983497
 21
48.8153259266
  0
LINE
  5
257
100
AcDbEntity
  8
0
100
AcDbLine
 62
7
  6
CONTINUOUS
 10
33.5532899582
 20
51.4459100262
 11
28.0532871773
 21
54.6212662761
  0
LINE
  5
258
100
AcDbEntity
  8
0
100
AcDbLine
 62
7
  6
CONTINUOUS
 10
77.9045351649
 20
27.6409097012
 11
77.4802693298
 21
27.8858541539
  0
LINE
  5
259
100
AcDbEntity
  8
0
100
AcDbLine
 62
7
  6
CONTINUOUS
 10
26.5683691192
 20
57.2791884793
 11
26.1441032841
 21
57.524132932
  0
LINE
  5
25A
100
AcDbEntity
  8
0
100
AcDbLine
 62
7
  6
CONTINUOUS
 10
77.1691421694
 20
28.4002494035
 11
26.6107968214
 21
57.5894633517
  0
LINE
  5
25B
100
AcDbEntity
  8
0
100
AcDbLine
 62
7
  6
CONTINUOUS
 10
26.1441032841
 20
58.5039358326
 11
26.5683691192
 21
58.2589913799
  0
LINE
  5
25C
100
AcDbEntity
  8
0
100
AcDbLine
 62
7
  6
CONTINUOUS
 10
77.4802693298
 20
28.8656570544
 11
77.9045351649
 21
28.6207126017
  0
LINE
  5
25D
100
AcDbEntity
  8
0
100
AcDbLine
 62
7
  6
CONTINUOUS
 10
27.9825885695
 20
130.3970008414
 11
27.8361413504
 21
129.630025436
  0
LINE
  5
25E
100
AcDbEntity
  8
0
100
AcDbLine
 62
7
  6
CONTINUOUS
 10
28.6896982946
 20
127.1310016269
 11
28.8361455138
 21
127.8979770322
  0
LINE
  5
25F
100
AcDbEntity
  8
0
100
AcDbLine
 62
7
  6
CONTINUOUS
 10
58.0745854229
 20
157.4482244136
 11
57.0539604475
 21
155.9962131445
  0
LINE
  5
260
100
AcDbEntity
  8
0
100
AcDbLine
 62
7
  6
CONTINUOUS
 10
85.7601879514
 20
163.3059850397
 11
85.0530841142
 21
162.8977408859
  0
LINE
  5
261
100
AcDbEntity
  8
0
100
AcDbLine
 62
7
  6
CONTINUOUS
 10
82.9317726025
 20
161.6730084242
 11
82.5075103002
 21
161.4280619319
  0
LINE
  5
262
100
AcDbEntity
  8
0
100
AcDbLine
 62
7
  6
CONTINUOUS
 10
81.4468545444
 20
160.8156957011
 11
81.0225922421
 21
160.5707492088
  0
LINE
  5
263
100
AcDbEntity
  8
0
100
AcDbLine
 62
7
  6
CONTINUOUS
 10
61.4994552966
 20
149.2991281204
 11
77.2678708664
 21
158.4029727517
  0
LINE
  5
264
100
AcDbEntity
  8
0
100
AcDbLine
 62
7
  6
CONTINUOUS
 10
28.573594031
 20
130.0557913982
 11
27.8361413504
 21
129.630025436
  0
LINE
  5
265
100
AcDbEntity
  8
0
100
AcDbLine
 62
7
  6
CONTINUOUS
 10
28.0179364014
 20
129.600888746
 11
27.0987014131
 21
129.070171346
  0
LINE
  5
266
100
AcDbEntity
  8
0
100
AcDbLine
 62
7
  6
CONTINUOUS
 10
85.7601879514
 20
162.8160835895
 11
85.4773572808
 21
162.6527922004
  0
LINE
  5
267
100
AcDbEntity
  8
0
100
AcDbLine
 62
7
  6
CONTINUOUS
 10
50.8221914762
 20
142.5631019611
 11
60.2266725111
 21
147.9927492076
  0
LINE
  5
268
100
AcDbEntity
  8
0
100
AcDbLine
 62
7
  6
CONTINUOUS
 10
40.3923642458
 20
136.3372393945
 11
42.2308342226
 21
137.3986741945
  0
LINE
  5
269
100
AcDbEntity
  8
INTFCLR_74
100
AcDbLine
 62
7
420
3604575
  6
CONTINUOUS
 10
28.8361498338
 20
129.0526783416
 11
28.3361434321
 21
128.7640012341
  0
LINE
  5
26A
100
AcDbEntity
  8
0
100
AcDbLine
 62
7
  6
CONTINUOUS
 10
28.7553763387
 20
129.006034044
 11
27.8361413504
 21
128.475316644
  0
LINE
  5
26B
100
AcDbEntity
  8
0
100
AcDbLine
 62
7
  6
CONTINUOUS
 10
28.9018235579
 20
128.0699597814
 11
27.9825885695
 21
127.5392423814
  0
LINE
  5
26C
100
AcDbEntity
  8
0
100
AcDbLine
 62
7
  6
CONTINUOUS
 10
29.5735854511
 20
128.3237356371
 11
28.8361455138
 21
127.8979770322
  0
LINE
  5
26D
100
AcDbEntity
  8
0
100
AcDbLine
 62
7
  6
CONTINUOUS
 10
52.8020987066
 20
141.4200278484
 11
50.680787195
 21
140.1952953868
  0
LINE
  5
26E
100
AcDbEntity
  8
0
100
AcDbLine
 62
7
  6
CONTINUOUS
 10
88.5179217674
 20
160.8973611887
 11
88.2350802325
 21
160.7340635272
  0
LINE
  5
26F
100
AcDbEntity
  8
0
100
AcDbLine
 62
7
  6
CONTINUOUS
 10
54.0748962119
 20
140.6851944903
 11
51.9535847002
 21
139.4604620287
  0
LINE
  5
270
100
AcDbEntity
  8
0
100
AcDbLine
 62
7
  6
CONTINUOUS
 10
30.3923529143
 20
126.7179905633
 11
29.7361371644
 21
126.3391264849
  0
LINE
  5
271
100
AcDbEntity
  8
0
100
AcDbLine
 62
7
  6
CONTINUOUS
 10
79.3869048502
 20
154.7811023399
 11
78.2555387107
 21
154.1279116937
  0
LINE
  5
272
100
AcDbEntity
  8
0
100
AcDbLine
 62
7
  6
CONTINUOUS
 10
77.9726971758
 20
153.9646140321
 11
76.4170687339
 21
153.0664768936
  0
LINE
  5
273
100
AcDbEntity
  8
0
100
AcDbLine
 62
7
  6
CONTINUOUS
 10
81.5628315258
 20
155.9233321558
 11
85.4519026305
 21
158.1686750021
  0
LINE
  5
274
100
AcDbEntity
  8
0
100
AcDbLine
 62
7
  6
CONTINUOUS
 10
28.2686362285
 20
63.0841931982
 11
37.4610626554
 21
57.7770633894
  0
LINE
  5
275
100
AcDbEntity
  8
0
100
AcDbLine
 62
7
  6
CONTINUOUS
 10
28.4341036045
 20
64.9922138506
 11
37.6265300314
 21
59.6850840418
  0
LINE
  5
276
100
AcDbEntity
  8
0
100
AcDbLine
 62
7
  6
CONTINUOUS
 10
26.6107968214
 20
68.612245983
 11
27.5653949504
 21
68.0611209644
  0
LINE
  5
277
100
AcDbEntity
  8
0
100
AcDbLine
 62
7
  6
CONTINUOUS
 10
76.2145440405
 20
39.9741570534
 11
77.1691421694
 21
39.4230320348
  0
LINE
  5
278
100
AcDbEntity
  8
0
100
AcDbLine
 62
7
  6
CONTINUOUS
 10
25.5077045315
 20
48.7467225393
 11
25.5077045315
 21
50.1347766484
  0
LINE
  5
279
100
AcDbEntity
  8
0
100
AcDbLine
 62
7
  6
CONTINUOUS
 10
25.5077045315
 20
53.5640868003
 11
25.5077045315
 21
74.7036273017
  0
LINE
  5
27A
100
AcDbEntity
  8
0
100
AcDbLine
 62
7
  6
CONTINUOUS
 10
25.5077045315
 20
120.971974376
 11
25.5077045315
 21
139.6234415658
  0
LINE
  5
27B
100
AcDbEntity
  8
0
100
AcDbLine
 62
7
  6
CONTINUOUS
 10
25.5077045315
 20
139.8683922909
 11
25.5077045315
 21
143.1344019594
  0
LINE
  5
27C
100
AcDbEntity
  8
0
100
AcDbLine
 62
7
  6
CONTINUOUS
 10
25.5077045315
 20
146.7270125948
 11
25.5077045315
 21
148.0334164622
  0
LINE
  5
27D
100
AcDbEntity
  8
0
100
AcDbLine
 62
7
  6
CONTINUOUS
 10
26.1441032841
 20
57.524132932
 11
26.1441032841
 21
58.5039358326
  0
LINE
  5
27E
100
AcDbEntity
  8
0
100
AcDbLine
 62
7
  6
CONTINUOUS
 10
26.1441032841
 20
73.5275803078
 11
26.1441032841
 21
74.3362106227
  0
LINE
  5
27F
100
AcDbEntity
  8
0
100
AcDbLine
 62
7
  6
CONTINUOUS
 10
26.2855252291
 20
46.5013523916
 11
26.2855252291
 21
44.8683475573
  0
LINE
  5
280
100
AcDbEntity
  8
0
100
AcDbLine
 62
7
  6
CONTINUOUS
 10
26.2855252291
 20
149.3806569499
 11
26.2855252291
 21
151.0136617842
  0
LINE
  5
281
100
AcDbEntity
  8
0
100
AcDbLine
 62
7
  6
CONTINUOUS
 10
26.5683691192
 20
53.763953553
 11
26.5683691192
 21
57.2791884793
  0
LINE
  5
282
100
AcDbEntity
  8
0
100
AcDbLine
 62
7
  6
CONTINUOUS
 10
26.5683691192
 20
58.2589913799
 11
26.5683691192
 21
73.2826358551
  0
LINE
  5
283
100
AcDbEntity
  8
0
100
AcDbLine
 62
7
  6
CONTINUOUS
 10
26.6107968214
 20
57.5894633517
 11
26.6107968214
 21
68.612245983
  0
LINE
  5
284
100
AcDbEntity
  8
0
100
AcDbLine
 62
7
  6
CONTINUOUS
 10
26.6107968214
 20
72.6947580686
 11
26.6107968214
 21
74.0667710788
  0
LINE
  5
285
100
AcDbEntity
  8
0
100
AcDbLine
 62
7
  6
CONTINUOUS
 10
26.9926349543
 20
148.9724161954
 11
26.9926349543
 21
147.1761108777
  0
LINE
  5
286
100
AcDbEntity
  8
0
100
AcDbLine
 62
7
  6
CONTINUOUS
 10
26.9926349543
 20
47.8894169548
 11
26.9926349543
 21
46.0931116371
  0
LINE
  5
287
100
AcDbEntity
  8
0
100
AcDbLine
 62
7
  6
CONTINUOUS
 10
27.0987014131
 20
129.8866737631
 11
27.0987014131
 21
129.070171346
  0
LINE
  5
288
100
AcDbEntity
  8
0
100
AcDbLine
 62
7
  6
CONTINUOUS
 10
27.5653949504
 20
68.0611209644
 11
27.5653949504
 21
72.14363305
  0
LINE
  5
289
100
AcDbEntity
  8
0
100
AcDbLine
 62
7
  6
CONTINUOUS
 10
28.0179364014
 20
129.7349842312
 11
28.0179364014
 21
129.600888746
  0
LINE
  5
28A
100
AcDbEntity
  8
0
100
AcDbLine
 62
7
  6
CONTINUOUS
 10
28.0532871773
 20
54.6212662761
 11
28.0532871773
 21
56.756659997
  0
LINE
  5
28B
100
AcDbEntity
  8
0
100
AcDbLine
 62
7
  6
CONTINUOUS
 10
29.5735854511
 20
127.6413287052
 11
29.5735854511
 21
128.4578311223
  0
LINE
  5
28C
100
AcDbEntity
  8
0
100
AcDbLine
 62
7
  6
CONTINUOUS
 10
26.3361523858
 20
121.4502761126
 11
16.4296276265
 21
115.7307755169
  0
LINE
  5
28D
100
AcDbEntity
  8
0
100
AcDbLine
 62
7
  6
CONTINUOUS
 10
77.6670624715
 20
150.9014113073
 11
74.2729640529
 21
148.9418393687
  0
LINE
  5
28E
100
AcDbEntity
  8
0
100
AcDbLine
 62
7
  6
CONTINUOUS
 10
28.3361434321
 20
121.2521789965
 11
18.4296186727
 21
115.5326784008
  0
LINE
  5
28F
100
AcDbEntity
  8
0
100
AcDbLine
 62
7
  6
CONTINUOUS
 10
90.1556441445
 20
155.4530300089
 11
86.2665730398
 21
153.2076871626
  0
LINE
  5
290
100
AcDbEntity
  8
0
100
AcDbLine
 62
7
  6
CONTINUOUS
 10
59.8731959581
 20
137.3376203032
 11
57.7518844464
 21
136.1128878416
  0
LINE
  5
291
100
AcDbEntity
  8
0
100
AcDbLine
 62
7
  6
CONTINUOUS
 10
74.7317035762
 20
145.7901942815
 11
76.4995084371
 21
146.8108308015
  0
LINE
  5
292
100
AcDbEntity
  8
0
100
AcDbLine
 62
7
  6
CONTINUOUS
 10
94.5990677588
 20
157.0598967365
 11
94.8819092937
 21
157.223194398
  0
LINE
  5
293
100
AcDbEntity
  8
0
100
AcDbLine
 62
7
  6
CONTINUOUS
 10
65.043136934
 20
139.5057764068
 11
68.0469363245
 21
141.2400104415
  0
LINE
  5
294
100
AcDbEntity
  8
0
100
AcDbLine
 62
7
  6
CONTINUOUS
 10
71.7527234902
 20
143.3795348879
 11
73.7215430344
 21
144.5162265966
  0
LINE
  5
295
100
AcDbEntity
  8
0
100
AcDbLine
 62
7
  6
CONTINUOUS
 10
58.6004307797
 20
135.6229904706
 11
59.8731959581
 21
136.3578174027
  0
LINE
  5
296
100
AcDbEntity
  8
0
100
AcDbLine
 62
7
  6
CONTINUOUS
 10
61.1459934634
 20
136.6027869451
 11
59.0246819517
 21
135.3780544835
  0
LINE
  5
297
100
AcDbEntity
  8
0
100
AcDbLine
 62
7
  6
CONTINUOUS
 10
54.2688806853
 20
131.3256978679
 11
54.6247829215
 21
131.5311768933
  0
LINE
  5
298
100
AcDbEntity
  8
0
100
AcDbLine
 62
7
  6
CONTINUOUS
 10
75.7523285516
 20
143.1596934649
 11
78.3405461487
 21
144.6539926716
  0
LINE
  5
299
100
AcDbEntity
  8
0
100
AcDbLine
 62
7
  6
CONTINUOUS
 10
76.2124970986
 20
48.3713420248
 11
76.9499370359
 21
48.1146936977
  0
LINE
  5
29A
100
AcDbEntity
  8
0
100
AcDbLine
 62
7
  6
CONTINUOUS
 10
75.2124929352
 20
50.1033904286
 11
74.4750529979
 21
50.3600387557
  0
LINE
  5
29B
100
AcDbEntity
  8
0
100
AcDbLine
 62
7
  6
CONTINUOUS
 10
77.1691421694
 20
43.5055441204
 11
76.2145440405
 21
44.056669139
  0
LINE
  5
29C
100
AcDbEntity
  8
0
100
AcDbLine
 62
7
  6
CONTINUOUS
 10
27.5653949504
 20
72.14363305
 11
26.6107968214
 21
72.6947580686
  0
LINE
  5
29D
100
AcDbEntity
  8
0
100
AcDbLine
 62
7
  6
CONTINUOUS
 10
77.9045351649
 20
43.6443570769
 11
77.4802693298
 21
43.8893015296
  0
LINE
  5
29E
100
AcDbEntity
  8
0
100
AcDbLine
 62
7
  6
CONTINUOUS
 10
26.5683691192
 20
73.2826358551
 11
26.1441032841
 21
73.5275803078
  0
LINE
  5
29F
100
AcDbEntity
  8
0
100
AcDbLine
 62
7
  6
CONTINUOUS
 10
65.8059702575
 20
51.4379390771
 11
44.1977142529
 21
63.9131892702
  0
LINE
  5
2A0
100
AcDbEntity
  8
0
100
AcDbLine
 62
7
  6
CONTINUOUS
 10
32.6483304082
 20
70.5810782942
 11
18.4296186727
 21
78.79006963
  0
LINE
  5
2A1
100
AcDbEntity
  8
0
100
AcDbLine
 62
7
  6
CONTINUOUS
 10
33.2004947553
 20
71.3133529986
 11
42.3929211823
 21
66.0062231898
  0
LINE
  5
2A2
100
AcDbEntity
  8
0
100
AcDbLine
 62
7
  6
CONTINUOUS
 10
67.9106844204
 20
51.3003035197
 11
77.1691421694
 21
45.9550513718
  0
LINE
  5
2A3
100
AcDbEntity
  8
0
100
AcDbLine
 62
7
  6
CONTINUOUS
 10
68.0450341495
 20
51.377869909
 11
77.9045351649
 21
45.6856131197
  0
LINE
  5
2A4
100
AcDbEntity
  8
0
100
AcDbLine
 62
7
  6
CONTINUOUS
 10
35.1243555779
 20
150.1563677574
 11
35.1243555779
 21
151.6260467114
  0
LINE
  5
2A5
100
AcDbEntity
  8
0
100
AcDbLine
 62
7
  6
CONTINUOUS
 10
35.9659398563
 20
104.2647646077
 11
35.9659398563
 21
74.1385201747
  0
LINE
  5
2A6
100
AcDbEntity
  8
0
100
AcDbLine
 62
7
  6
CONTINUOUS
 10
72.5303817287
 20
140.8893600789
 11
63.1259006938
 21
135.4597128324
  0
LINE
  5
2A7
100
AcDbEntity
  8
0
100
AcDbLine
 62
7
  6
CONTINUOUS
 10
90.5615336992
 20
150.7280465668
 11
74.7931181293
 21
141.6242019354
  0
LINE
  5
2A8
100
AcDbEntity
  8
0
100
AcDbLine
 62
7
  6
CONTINUOUS
 10
94.3162550748
 20
152.8958230238
 11
94.7405173771
 21
153.1407695161
  0
LINE
  5
2A9
100
AcDbEntity
  8
0
100
AcDbLine
 62
7
  6
CONTINUOUS
 10
95.801173133
 20
153.7531357469
 11
96.2254354353
 21
153.9980822393
  0
LINE
  5
2AA
100
AcDbEntity
  8
0
100
AcDbLine
 62
7
  6
CONTINUOUS
 10
98.3467469469
 20
155.2228147009
 11
99.0538507842
 21
155.6310588548
  0
LINE
  5
2AB
100
AcDbEntity
  8
0
100
AcDbLine
 62
7
  6
CONTINUOUS
 10
55.3937030743
 20
129.4843210038
 11
54.5698812626
 21
129.0086900982
  0
LINE
  5
2AC
100
AcDbEntity
  8
0
100
AcDbLine
 62
7
  6
CONTINUOUS
 10
60.0853700912
 20
131.4997537181
 11
102.511600324
 21
155.9944029504
  0
LINE
  5
2AD
100
AcDbEntity
  8
0
100
AcDbLine
 62
7
  6
CONTINUOUS
 10
102.511600324
 20
154.3613981161
 11
60.0853700912
 21
129.8667488839
  0
LINE
  5
2AE
100
AcDbEntity
  8
0
100
AcDbLine
 62
7
  6
CONTINUOUS
 10
61.6410114865
 20
130.6016240582
 11
104.0672417193
 21
155.0962732905
  0
LINE
  5
2AF
100
AcDbEntity
  8
0
100
AcDbLine
 62
7
  6
CONTINUOUS
 10
61.6410114865
 20
129.7850764911
 11
61.2167303428
 21
129.5401191208
  0
LINE
  5
2B0
100
AcDbEntity
  8
0
100
AcDbLine
 62
7
  6
CONTINUOUS
 10
103.4379310801
 20
153.0999661767
 11
102.7308272428
 21
152.6917220229
  0
LINE
  5
2B1
100
AcDbEntity
  8
0
100
AcDbLine
 62
7
  6
CONTINUOUS
 10
100.6095157312
 20
151.4669895612
 11
100.1852534289
 21
151.2220430689
  0
LINE
  5
2B2
100
AcDbEntity
  8
0
100
AcDbLine
 62
7
  6
CONTINUOUS
 10
99.1245976731
 20
150.6096768381
 11
98.7003353707
 21
150.3647303458
  0
LINE
  5
2B3
100
AcDbEntity
  8
0
100
AcDbLine
 62
7
  6
CONTINUOUS
 10
79.1771984253
 20
139.0931092574
 11
94.9456139951
 21
148.1969538887
  0
LINE
  5
2B4
100
AcDbEntity
  8
0
100
AcDbLine
 62
7
  6
CONTINUOUS
 10
103.4379310801
 20
152.6100647264
 11
103.1551004095
 21
152.4467733374
  0
LINE
  5
2B5
100
AcDbEntity
  8
0
100
AcDbLine
 62
7
  6
CONTINUOUS
 10
68.4999346049
 20
132.3570830981
 11
77.9044156398
 21
137.7867303446
  0
LINE
  5
2B6
100
AcDbEntity
  8
0
100
AcDbLine
 62
7
  6
CONTINUOUS
 10
58.0701073745
 20
126.1312205315
 11
59.9085773512
 21
127.1926553315
  0
LINE
  5
2B7
100
AcDbEntity
  8
0
100
AcDbLine
 62
7
  6
CONTINUOUS
 10
75.3589401543
 20
48.012607374
 11
76.0660498795
 21
47.6043666195
  0
LINE
  5
2B8
100
AcDbEntity
  8
0
100
AcDbLine
 62
7
  6
CONTINUOUS
 10
76.2781751427
 20
48.543324774
 11
76.3942794063
 21
48.4762934626
  0
LINE
  5
2B9
100
AcDbEntity
  8
0
100
AcDbLine
 62
7
  6
CONTINUOUS
 10
46.6048133531
 20
66.3722716672
 11
48.2696490739
 21
65.4111000602
  0
LINE
  5
2BA
100
AcDbEntity
  8
0
100
AcDbLine
 62
7
  6
CONTINUOUS
 10
76.0660498795
 20
50.4621250794
 11
75.3589401543
 21
50.8703658339
  0
LINE
  5
2BB
100
AcDbEntity
  8
0
100
AcDbLine
 62
7
  6
CONTINUOUS
 10
74.4750529979
 20
49.5435363385
 11
75.2124929352
 21
48.9486816366
  0
LINE
  5
2BC
100
AcDbEntity
  8
0
100
AcDbLine
 62
7
  6
CONTINUOUS
 10
27.8361413504
 20
128.475316644
 11
27.9825885695
 21
127.5392423814
  0
LINE
  5
2BD
100
AcDbEntity
  8
0
100
AcDbLine
 62
7
  6
CONTINUOUS
 10
28.9018235579
 20
128.0699597814
 11
28.7553763387
 21
129.006034044
  0
LINE
  5
2BE
100
AcDbEntity
  8
0
100
AcDbLine
 62
7
  6
CONTINUOUS
 10
28.8361455138
 20
129.0526858243
 11
28.6896982946
 21
129.9887600868
  0
LINE
  5
2BF
100
AcDbEntity
  8
0
100
AcDbLine
 62
7
  6
CONTINUOUS
 10
37.882083506
 20
138.8182157598
 11
37.882083506
 21
138.3862220125
  0
LINE
  5
2C0
100
AcDbEntity
  8
0
100
AcDbLine
 62
7
  6
CONTINUOUS
 10
40.3923642458
 20
136.3372393945
 11
40.3923642458
 21
141.2362538972
  0
LINE
  5
2C1
100
AcDbEntity
  8
0
100
AcDbLine
 62
7
  6
CONTINUOUS
 10
41.7005172373
 20
39.3980092607
 11
41.7005172373
 21
37.6017039431
  0
LINE
  5
2C2
100
AcDbEntity
  8
0
100
AcDbLine
 62
7
  6
CONTINUOUS
 10
42.1954528294
 20
146.5638362657
 11
42.1954528294
 21
147.5436391662
  0
LINE
  5
2C3
100
AcDbEntity
  8
0
100
AcDbLine
 62
7
  6
CONTINUOUS
 10
42.2308342226
 20
137.3986741945
 11
42.2308342226
 21
140.1748367737
  0
LINE
  5
2C4
100
AcDbEntity
  8
0
100
AcDbLine
 62
7
  6
CONTINUOUS
 10
42.4076269625
 20
37.1934631885
 11
42.4076269625
 21
35.5604583543
  0
LINE
  5
2C5
100
AcDbEntity
  8
0
100
AcDbLine
 62
7
  6
CONTINUOUS
 10
42.4076269625
 20
140.0727677469
 11
42.4076269625
 21
141.7057725811
  0
LINE
  5
2C6
100
AcDbEntity
  8
0
100
AcDbLine
 62
7
  6
CONTINUOUS
 10
42.5489293825
 20
146.2780387771
 11
42.5489293825
 21
158.1987680706
  0
LINE
  5
2C7
100
AcDbEntity
  8
0
100
AcDbLine
 62
7
  6
CONTINUOUS
 10
43.5389872141
 20
139.7461379838
 11
43.5389872141
 21
140.7259549937
  0
LINE
  5
2C8
100
AcDbEntity
  8
0
100
AcDbLine
 62
7
  6
CONTINUOUS
 10
70.4798418353
 20
131.2140089854
 11
68.3585303236
 21
129.9892765238
  0
LINE
  5
2C9
100
AcDbEntity
  8
0
100
AcDbLine
 62
7
  6
CONTINUOUS
 10
106.1956648961
 20
150.6913423257
 11
105.9128233612
 21
150.5280446642
  0
LINE
  5
2CA
100
AcDbEntity
  8
0
100
AcDbLine
 62
7
  6
CONTINUOUS
 10
71.7526393406
 20
130.4791756273
 11
69.6313278289
 21
129.2544431657
  0
LINE
  5
2CB
100
AcDbEntity
  8
0
100
AcDbLine
 62
7
  6
CONTINUOUS
 10
97.0646479789
 20
144.5750834769
 11
95.9332818393
 21
143.9218928307
  0
LINE
  5
2CC
100
AcDbEntity
  8
0
100
AcDbLine
 62
7
  6
CONTINUOUS
 10
95.6504403044
 20
143.7585951691
 11
94.0948118626
 21
142.8604580306
  0
LINE
  5
2CD
100
AcDbEntity
  8
0
100
AcDbLine
 62
7
  6
CONTINUOUS
 10
99.2405746545
 20
145.7173132928
 11
103.1296457592
 21
147.9626561391
  0
LINE
  5
2CE
100
AcDbEntity
  8
0
100
AcDbLine
 62
7
  6
CONTINUOUS
 10
95.3448056002
 20
140.6953924443
 11
91.9507071816
 21
138.7358205057
  0
LINE
  5
2CF
100
AcDbEntity
  8
0
100
AcDbLine
 62
7
  6
CONTINUOUS
 10
39.3380080974
 20
77.5834110194
 11
48.2696490739
 21
72.4268423545
  0
LINE
  5
2D0
100
AcDbEntity
  8
0
100
AcDbLine
 62
7
  6
CONTINUOUS
 10
48.2696490739
 20
77.0627741659
 11
42.4288990165
 21
80.4348564972
  0
LINE
  5
2D1
100
AcDbEntity
  8
0
100
AcDbLine
 62
7
  6
CONTINUOUS
 10
76.1317279236
 20
49.4793990366
 11
75.3942879863
 21
50.0742537386
  0
LINE
  5
2D2
100
AcDbEntity
  8
0
100
AcDbLine
 62
7
  6
CONTINUOUS
 10
76.9499370359
 20
48.9311961149
 11
76.2124970986
 21
49.5260508168
  0
LINE
  5
2D3
100
AcDbEntity
  8
0
100
AcDbLine
 62
7
  6
CONTINUOUS
 10
43.9632683578
 20
36.2953335286
 11
43.9632683578
 21
34.6623286943
  0
LINE
  5
2D4
100
AcDbEntity
  8
0
100
AcDbLine
 62
7
  6
CONTINUOUS
 10
43.9632683578
 20
139.1746380869
 11
43.9632683578
 21
140.8076429212
  0
LINE
  5
2D5
100
AcDbEntity
  8
0
100
AcDbLine
 62
7
  6
CONTINUOUS
 10
44.670378083
 20
35.8870927741
 11
44.670378083
 21
37.6833980918
  0
LINE
  5
2D6
100
AcDbEntity
  8
0
100
AcDbLine
 62
7
  6
CONTINUOUS
 10
45.8724646157
 20
98.5453592614
 11
45.8724646157
 21
95.5708607668
  0
LINE
  5
2D7
100
AcDbEntity
  8
0
100
AcDbLine
 62
7
  6
CONTINUOUS
 10
45.9785310745
 20
138.0111519365
 11
45.9785310745
 21
133.1121374338
  0
LINE
  5
2D8
100
AcDbEntity
  8
0
100
AcDbLine
 62
7
  6
CONTINUOUS
 10
48.2696490739
 20
65.4111000602
 11
48.2696490739
 21
97.1613754791
  0
LINE
  5
2D9
100
AcDbEntity
  8
0
100
AcDbLine
 62
7
  6
CONTINUOUS
 10
75.7523285516
 20
147.2422055505
 11
74.7317035762
 21
145.7901942815
  0
LINE
  5
2DA
100
AcDbEntity
  8
0
100
AcDbLine
 62
7
  6
CONTINUOUS
 10
42.2553759196
 20
97.659140656
 11
41.8586113993
 21
97.1860464893
  0
LINE
  5
2DB
100
AcDbEntity
  8
0
100
AcDbLine
 62
7
  6
CONTINUOUS
 10
107.8333872732
 20
145.2470111459
 11
103.9443161685
 21
143.0016682996
  0
LINE
  5
2DC
100
AcDbEntity
  8
0
100
AcDbLine
 62
7
  6
CONTINUOUS
 10
77.5509390868
 20
127.1316014402
 11
75.4296275751
 21
125.9068689786
  0
LINE
  5
2DD
100
AcDbEntity
  8
0
100
AcDbLine
 62
7
  6
CONTINUOUS
 10
92.4094467048
 20
135.5841754185
 11
94.1772515658
 21
136.6048119385
  0
LINE
  5
2DE
100
AcDbEntity
  8
0
100
AcDbLine
 62
7
  6
CONTINUOUS
 10
112.2768108875
 20
146.8538778735
 11
112.5596524224
 21
147.017175535
  0
LINE
  5
2DF
100
AcDbEntity
  8
0
100
AcDbLine
 62
7
  6
CONTINUOUS
 10
82.7208800627
 20
129.2997575438
 11
85.7246794532
 21
131.0339915784
  0
LINE
  5
2E0
100
AcDbEntity
  8
0
100
AcDbLine
 62
7
  6
CONTINUOUS
 10
89.4304666188
 20
133.1735160249
 11
91.399286163
 21
134.3102077336
  0
LINE
  5
2E1
100
AcDbEntity
  8
0
100
AcDbLine
 62
7
  6
CONTINUOUS
 10
76.2781739084
 20
125.4169716076
 11
77.5509390868
 21
126.1517985396
  0
LINE
  5
2E2
100
AcDbEntity
  8
0
100
AcDbLine
 62
7
  6
CONTINUOUS
 10
78.823736592
 20
126.3967680821
 11
76.7024250804
 21
125.1720356205
  0
LINE
  5
2E3
100
AcDbEntity
  8
0
100
AcDbLine
 62
7
  6
CONTINUOUS
 10
71.9466238139
 20
121.1196790049
 11
72.3025260501
 21
121.3251580302
  0
LINE
  5
2E4
100
AcDbEntity
  8
0
100
AcDbLine
 62
7
  6
CONTINUOUS
 10
93.4300716802
 20
132.9536746019
 11
96.0182892774
 21
134.4479738086
  0
LINE
  5
2E5
100
AcDbEntity
  8
0
100
AcDbLine
 62
7
  6
CONTINUOUS
 10
90.2081248574
 20
130.6833412159
 11
80.8036438224
 21
125.2536939694
  0
LINE
  5
2E6
100
AcDbEntity
  8
0
100
AcDbLine
 62
7
  6
CONTINUOUS
 10
108.2392768279
 20
140.5220277037
 11
92.470861258
 21
131.4181830724
  0
LINE
  5
2E7
100
AcDbEntity
  8
0
100
AcDbLine
 62
7
  6
CONTINUOUS
 10
111.9939982035
 20
142.6898041608
 11
112.4182605058
 21
142.9347506531
  0
LINE
  5
2E8
100
AcDbEntity
  8
0
100
AcDbLine
 62
7
  6
CONTINUOUS
 10
113.4789162616
 20
143.5471168839
 11
113.903178564
 21
143.7920633763
  0
LINE
  5
2E9
100
AcDbEntity
  8
0
100
AcDbLine
 62
7
  6
CONTINUOUS
 10
116.0244900756
 20
145.0167958379
 11
116.7315939128
 21
145.4250399917
  0
LINE
  5
2EA
100
AcDbEntity
  8
0
100
AcDbLine
 62
7
  6
CONTINUOUS
 10
73.071446203
 20
119.2783021408
 11
72.2476243913
 21
118.8026712352
  0
LINE
  5
2EB
100
AcDbEntity
  8
0
100
AcDbLine
 62
7
  6
CONTINUOUS
 10
120.1893434527
 20
41.2760746948
 11
119.4822337275
 21
41.6843154493
  0
LINE
  5
2EC
100
AcDbEntity
  8
0
100
AcDbLine
 62
7
  6
CONTINUOUS
 10
52.8020987066
 20
139.9503488944
 11
52.8020987066
 21
141.4200278484
  0
LINE
  5
2ED
100
AcDbEntity
  8
0
100
AcDbLine
 62
7
  6
CONTINUOUS
 10
55.5598266347
 20
128.6121968968
 11
55.5598266347
 21
128.1802031495
  0
LINE
  5
2EE
100
AcDbEntity
  8
0
100
AcDbLine
 62
7
  6
CONTINUOUS
 10
33.2004947554
 20
71.3133529986
 11
28.4341036045
 21
64.9922138506
  0
LINE
  5
2EF
100
AcDbEntity
  8
0
100
AcDbLine
 62
7
  6
CONTINUOUS
 10
77.7631132198
 20
121.2937348551
 11
120.1893434527
 21
145.7883840874
  0
LINE
  5
2F0
100
AcDbEntity
  8
0
100
AcDbLine
 62
7
  6
CONTINUOUS
 10
120.1893434527
 20
144.1553792531
 11
77.7631132198
 21
119.6607300208
  0
LINE
  5
2F1
100
AcDbEntity
  8
0
100
AcDbLine
 62
7
  6
CONTINUOUS
 10
119.4822337275
 20
142.76731469
 11
77.0560034947
 21
118.2726654577
  0
LINE
  5
2F2
100
AcDbEntity
  8
0
100
AcDbLine
 62
7
  6
CONTINUOUS
 10
78.5409339175
 20
117.4153598732
 11
120.9671641503
 21
141.9100091055
  0
LINE
  5
2F3
100
AcDbEntity
  8
0
100
AcDbLine
 62
7
  6
CONTINUOUS
 10
78.5409339175
 20
116.1089560058
 11
120.9671641503
 21
140.6036052381
  0
LINE
  5
2F4
100
AcDbEntity
  8
0
100
AcDbLine
 62
7
  6
CONTINUOUS
 10
58.0701073745
 20
126.1312205315
 11
58.0701073745
 21
131.0302350342
  0
LINE
  5
2F5
100
AcDbEntity
  8
0
100
AcDbLine
 62
7
  6
CONTINUOUS
 10
59.378260366
 20
29.1919903977
 11
59.378260366
 21
27.3956850801
  0
LINE
  5
2F6
100
AcDbEntity
  8
0
100
AcDbLine
 62
7
  6
CONTINUOUS
 10
59.5901277378
 20
163.7637036647
 11
59.5901277378
 21
168.6089916147
  0
LINE
  5
2F7
100
AcDbEntity
  8
0
100
AcDbLine
 62
7
  6
CONTINUOUS
 10
59.8731959581
 20
136.3578174027
 11
59.8731959581
 21
137.3376203032
  0
LINE
  5
2F8
100
AcDbEntity
  8
0
100
AcDbLine
 62
7
  6
CONTINUOUS
 10
59.9085773512
 20
127.1926553315
 11
59.9085773512
 21
129.9688179107
  0
LINE
  5
2F9
100
AcDbEntity
  8
0
100
AcDbLine
 62
7
  6
CONTINUOUS
 10
60.0853700912
 20
26.9874443255
 11
60.0853700912
 21
25.3544394913
  0
LINE
  5
2FA
100
AcDbEntity
  8
0
100
AcDbLine
 62
7
  6
CONTINUOUS
 10
60.0853700912
 20
129.8667488839
 11
60.0853700912
 21
131.4997537181
  0
LINE
  5
2FB
100
AcDbEntity
  8
0
100
AcDbLine
 62
7
  6
CONTINUOUS
 10
60.2266725111
 20
136.0720199141
 11
60.2266725111
 21
147.9927492076
  0
LINE
  5
2FC
100
AcDbEntity
  8
0
100
AcDbLine
 62
7
  6
CONTINUOUS
 10
61.2167303428
 20
129.5401191208
 11
61.2167303428
 21
130.5199361307
  0
LINE
  5
2FD
100
AcDbEntity
  8
0
100
AcDbLine
 62
7
  6
CONTINUOUS
 10
61.6410114865
 20
26.0893146656
 11
61.6410114865
 21
24.4563098313
  0
LINE
  5
2FE
100
AcDbEntity
  8
0
100
AcDbLine
 62
7
  6
CONTINUOUS
 10
61.6410114865
 20
128.9686192239
 11
61.6410114865
 21
130.6016240582
  0
LINE
  5
2FF
100
AcDbEntity
  8
0
100
AcDbLine
 62
7
  6
CONTINUOUS
 10
62.3481212116
 20
25.6810739111
 11
62.3481212116
 21
27.4773792288
  0
LINE
  5
300
100
AcDbEntity
  8
0
100
AcDbLine
 62
7
  6
CONTINUOUS
 10
39.3380080974
 20
77.5834110194
 11
33.2004947554
 21
71.3133529986
  0
LINE
  5
301
100
AcDbEntity
  8
0
100
AcDbLine
 62
7
  6
CONTINUOUS
 10
42.4288990165
 20
80.4348564972
 11
39.5295081673
 21
77.4728509037
  0
LINE
  5
302
100
AcDbEntity
  8
0
100
AcDbLine
 62
7
  6
CONTINUOUS
 10
120.9671641503
 20
137.0109946027
 11
78.5409339175
 21
112.5163453704
  0
LINE
  5
303
100
AcDbEntity
  8
0
100
AcDbLine
 62
7
  6
CONTINUOUS
 10
78.5409339175
 20
109.2503357019
 11
80.0258519756
 21
110.107648425
  0
LINE
  5
304
100
AcDbEntity
  8
0
100
AcDbLine
 62
7
  6
CONTINUOUS
 10
78.5409339175
 20
109.0053849768
 11
80.0258519756
 21
109.8626976999
  0
LINE
  5
305
100
AcDbEntity
  8
0
100
AcDbLine
 62
7
  6
CONTINUOUS
 10
41.8586113993
 20
97.1860464893
 11
48.2696490739
 21
93.4847158973
  0
LINE
  5
306
100
AcDbEntity
  8
0
100
AcDbLine
 62
7
  6
CONTINUOUS
 10
42.2553759196
 20
97.659140656
 11
48.2696490739
 21
94.1868769845
  0
LINE
  5
307
100
AcDbEntity
  8
0
100
AcDbLine
 62
7
  6
CONTINUOUS
 10
48.2696490739
 20
97.1613754791
 11
35.9659398563
 21
104.2647646077
  0
LINE
  5
308
100
AcDbEntity
  8
0
100
AcDbLine
 62
7
  6
CONTINUOUS
 10
18.4296186727
 20
115.5326784008
 11
65.8059702575
 21
88.1805478479
  0
LINE
  5
309
100
AcDbEntity
  8
0
100
AcDbLine
 62
7
  6
CONTINUOUS
 10
63.6562742032
 20
127.8051330735
 11
63.6562742032
 21
122.9061185707
  0
LINE
  5
30A
100
AcDbEntity
  8
0
100
AcDbLine
 62
7
  6
CONTINUOUS
 10
63.7691114157
 20
170.5318131138
 11
63.7691114157
 21
171.0217145641
  0
LINE
  5
30B
100
AcDbEntity
  8
0
100
AcDbLine
 62
7
  6
CONTINUOUS
 10
65.2540294739
 20
171.389125837
 11
65.2540294739
 21
171.8790272873
  0
LINE
  5
30C
100
AcDbEntity
  8
0
100
AcDbLine
 62
7
  6
CONTINUOUS
 10
68.0824448227
 20
173.0221024525
 11
68.0824448227
 21
173.5120039027
  0
LINE
  5
30D
100
AcDbEntity
  8
0
100
AcDbLine
 62
7
  6
CONTINUOUS
 10
68.6344091581
 20
83.2815751613
 11
68.6344091581
 21
53.0709857276
  0
LINE
  5
30E
100
AcDbEntity
  8
0
100
AcDbLine
 62
7
  6
CONTINUOUS
 10
93.4300716802
 20
137.0361866875
 11
92.4094467048
 21
135.5841754185
  0
LINE
  5
30F
100
AcDbEntity
  8
0
100
AcDbLine
 62
7
  6
CONTINUOUS
 10
37.6265300314
 20
59.6850840418
 11
42.3929211823
 21
66.0062231898
  0
LINE
  5
310
100
AcDbEntity
  8
0
100
AcDbLine
 62
7
  6
CONTINUOUS
 10
74.8155958534
 20
104.1272054814
 11
74.3125012845
 21
103.8367454305
  0
LINE
  5
311
100
AcDbEntity
  8
0
100
AcDbLine
 62
7
  6
CONTINUOUS
 10
75.9499456159
 20
102.7036608454
 11
75.2124929352
 21
102.2778948832
  0
LINE
  5
312
100
AcDbEntity
  8
0
100
AcDbLine
 62
7
  6
CONTINUOUS
 10
75.3942879863
 20
102.2487581931
 11
74.4750529979
 21
101.7180407931
  0
LINE
  5
313
100
AcDbEntity
  8
0
100
AcDbLine
 62
7
  6
CONTINUOUS
 10
26.6107968214
 20
73.7970243388
 11
26.1441032841
 21
73.5275803078
  0
LINE
  5
314
100
AcDbEntity
  8
0
100
AcDbLine
 62
7
  6
CONTINUOUS
 10
26.6107968214
 20
73.3071313541
 11
26.5683691192
 21
73.2826358551
  0
LINE
  5
315
100
AcDbEntity
  8
INTFCLR_74
100
AcDbLine
 62
7
420
3604575
  6
CONTINUOUS
 10
76.2125014187
 20
101.7005477888
 11
75.7124950169
 21
101.4118706813
  0
LINE
  5
316
100
AcDbEntity
  8
0
100
AcDbLine
 62
7
  6
CONTINUOUS
 10
76.1317279236
 20
101.6539034912
 11
75.2124929352
 21
101.1231860911
  0
LINE
  5
317
100
AcDbEntity
  8
0
100
AcDbLine
 62
7
  6
CONTINUOUS
 10
76.2781751427
 20
100.7178292286
 11
75.3589401543
 21
100.1871118286
  0
LINE
  5
318
100
AcDbEntity
  8
0
100
AcDbLine
 62
7
  6
CONTINUOUS
 10
99.4004971153
 20
114.0266667286
 11
102.5824643828
 21
115.8637654211
  0
LINE
  5
319
100
AcDbEntity
  8
0
100
AcDbLine
 62
7
  6
CONTINUOUS
 10
76.9499370359
 20
100.9716050843
 11
76.2124970986
 21
100.5458464794
  0
LINE
  5
31A
100
AcDbEntity
  8
0
100
AcDbLine
 62
7
  6
CONTINUOUS
 10
101.6632217401
 20
113.6183701837
 11
99.4004971153
 21
112.3119933105
  0
LINE
  5
31B
100
AcDbEntity
  8
0
100
AcDbLine
 62
7
  6
CONTINUOUS
 10
101.6632217401
 20
70.9969440095
 11
102.5824643828
 21
70.4662310287
  0
LINE
  5
31C
100
AcDbEntity
  8
0
100
AcDbLine
 62
7
  6
CONTINUOUS
 10
27.0987014131
 20
129.070171346
 11
27.8361413504
 21
128.475316644
  0
LINE
  5
31D
100
AcDbEntity
  8
0
100
AcDbLine
 62
7
  6
CONTINUOUS
 10
75.2124929352
 20
48.9486816366
 11
75.3589401543
 21
48.012607374
  0
LINE
  5
31E
100
AcDbEntity
  8
0
100
AcDbLine
 62
7
  6
CONTINUOUS
 10
76.2781751427
 20
48.543324774
 11
76.1317279236
 21
49.4793990366
  0
LINE
  5
31F
100
AcDbEntity
  8
0
100
AcDbLine
 62
7
  6
CONTINUOUS
 10
76.2124970986
 20
49.5260508168
 11
76.0660498795
 21
50.4621250794
  0
LINE
  5
320
100
AcDbEntity
  8
0
100
AcDbLine
 62
7
  6
CONTINUOUS
 10
70.4798418353
 20
129.7443300314
 11
70.4798418353
 21
131.2140089854
  0
LINE
  5
321
100
AcDbEntity
  8
0
100
AcDbLine
 62
7
  6
CONTINUOUS
 10
70.8401786387
 20
170.7767874481
 11
70.8401786387
 21
171.1033800517
  0
LINE
  5
322
100
AcDbEntity
  8
0
100
AcDbLine
 62
7
  6
CONTINUOUS
 10
73.2375697634
 20
118.4061780338
 11
73.2375697634
 21
117.9741842865
  0
LINE
  5
323
100
AcDbEntity
  8
0
100
AcDbLine
 62
7
  6
CONTINUOUS
 10
74.4750529979
 20
102.5345432102
 11
74.4750529979
 21
101.7180407931
  0
LINE
  5
324
100
AcDbEntity
  8
0
100
AcDbLine
 62
7
  6
CONTINUOUS
 10
74.4750529979
 20
50.3600387557
 11
74.4750529979
 21
49.5435363385
  0
LINE
  5
325
100
AcDbEntity
  8
0
100
AcDbLine
 62
7
  6
CONTINUOUS
 10
75.3942879863
 20
102.3828536783
 11
75.3942879863
 21
102.2487581931
  0
LINE
  5
326
100
AcDbEntity
  8
0
100
AcDbLine
 62
7
  6
CONTINUOUS
 10
75.3942879863
 20
50.2083492237
 11
75.3942879863
 21
50.0742537386
  0
LINE
  5
327
100
AcDbEntity
  8
0
100
AcDbLine
 62
7
  6
CONTINUOUS
 10
75.3589401543
 20
103.0448702885
 11
75.2124929352
 21
102.2778948832
  0
LINE
  5
328
100
AcDbEntity
  8
0
100
AcDbLine
 62
7
  6
CONTINUOUS
 10
76.0660498795
 20
99.778871074
 11
76.2124970986
 21
100.5458464794
  0
LINE
  5
329
100
AcDbEntity
  8
0
100
AcDbLine
 62
7
  6
CONTINUOUS
 10
42.3929211823
 20
66.0062231898
 11
48.2696490739
 21
72.0098638827
  0
LINE
  5
32A
100
AcDbEntity
  8
0
100
AcDbLine
 62
7
  6
CONTINUOUS
 10
48.2696490739
 20
68.0730608928
 11
38.5434437885
 21
58.1368101568
  0
LINE
  5
32B
100
AcDbEntity
  8
0
100
AcDbLine
 62
7
  6
CONTINUOUS
 10
77.7687044992
 20
99.3658600104
 11
77.1124887493
 21
98.9869959321
  0
LINE
  5
32C
100
AcDbEntity
  8
0
100
AcDbLine
 62
7
  6
CONTINUOUS
 10
102.5824643828
 20
113.0876572028
 11
99.4004971153
 21
111.2505585104
  0
LINE
  5
32D
100
AcDbEntity
  8
0
100
AcDbLine
 62
7
  6
CONTINUOUS
 10
27.5653949504
 20
69.1633801799
 11
26.6107968214
 21
68.612245983
  0
LINE
  5
32E
100
AcDbEntity
  8
0
100
AcDbLine
 62
7
  6
CONTINUOUS
 10
65.8059702575
 20
88.1805478479
 11
75.7124950169
 21
93.9000484437
  0
LINE
  5
32F
100
AcDbEntity
  8
0
100
AcDbLine
 62
7
  6
CONTINUOUS
 10
28.3361434321
 20
121.2521789965
 11
75.7124950169
 21
93.9000484437
  0
LINE
  5
330
100
AcDbEntity
  8
0
100
AcDbLine
 62
7
  6
CONTINUOUS
 10
28.7553763387
 20
129.006034044
 11
28.0179364014
 21
129.600888746
  0
LINE
  5
331
100
AcDbEntity
  8
0
100
AcDbLine
 62
7
  6
CONTINUOUS
 10
29.5735854511
 20
128.4578311223
 11
28.8361455138
 21
129.0526858243
  0
LINE
  5
332
100
AcDbEntity
  8
0
100
AcDbLine
 62
7
  6
CONTINUOUS
 10
76.2145440405
 20
44.056669139
 11
76.2145440405
 21
39.9741570534
  0
LINE
  5
333
100
AcDbEntity
  8
0
100
AcDbLine
 62
7
  6
CONTINUOUS
 10
76.9499370359
 20
48.1146936977
 11
76.9499370359
 21
48.9311961149
  0
LINE
  5
334
100
AcDbEntity
  8
0
100
AcDbLine
 62
7
  6
CONTINUOUS
 10
76.9499370359
 20
100.2891981523
 11
76.9499370359
 21
101.1057005694
  0
LINE
  5
335
100
AcDbEntity
  8
0
100
AcDbLine
 62
7
  6
CONTINUOUS
 10
77.0560034947
 20
17.189666217
 11
77.0560034947
 21
18.9859715347
  0
LINE
  5
336
100
AcDbEntity
  8
0
100
AcDbLine
 62
7
  6
CONTINUOUS
 10
77.0560034947
 20
118.2726654577
 11
77.0560034947
 21
120.0689707754
  0
LINE
  5
337
100
AcDbEntity
  8
0
100
AcDbLine
 62
7
  6
CONTINUOUS
 10
77.1691421694
 20
45.9550513718
 11
77.1691421694
 21
43.5055441204
  0
LINE
  5
338
100
AcDbEntity
  8
0
100
AcDbLine
 62
7
  6
CONTINUOUS
 10
77.1691421694
 20
39.4230320348
 11
77.1691421694
 21
28.4002494035
  0
LINE
  5
339
100
AcDbEntity
  8
0
100
AcDbLine
 62
7
  6
CONTINUOUS
 10
77.2678708664
 20
153.5576848017
 11
77.2678708664
 21
158.4029727517
  0
LINE
  5
33A
100
AcDbEntity
  8
0
100
AcDbLine
 62
7
  6
CONTINUOUS
 10
77.4802693298
 20
43.8893015296
 11
77.4802693298
 21
28.8656570544
  0
LINE
  5
33B
100
AcDbEntity
  8
0
100
AcDbLine
 62
7
  6
CONTINUOUS
 10
77.4802693298
 20
27.8858541539
 11
77.4802693298
 21
24.3706192275
  0
LINE
  5
33C
100
AcDbEntity
  8
0
100
AcDbLine
 62
7
  6
CONTINUOUS
 10
77.5509390868
 20
126.1517985396
 11
77.5509390868
 21
127.1316014402
  0
LINE
  5
33D
100
AcDbEntity
  8
0
100
AcDbLine
 62
7
  6
CONTINUOUS
 10
77.7631132198
 20
16.7814254625
 11
77.7631132198
 21
15.1484206283
  0
LINE
  5
33E
100
AcDbEntity
  8
0
100
AcDbLine
 62
7
  6
CONTINUOUS
 10
77.7631132198
 20
119.6607300208
 11
77.7631132198
 21
121.2937348551
  0
LINE
  5
33F
100
AcDbEntity
  8
0
100
AcDbLine
 62
7
  6
CONTINUOUS
 10
77.9044156398
 20
125.8660010511
 11
77.9044156398
 21
137.7867303446
  0
LINE
  5
340
100
AcDbEntity
  8
0
100
AcDbLine
 62
7
  6
CONTINUOUS
 10
77.9045351649
 20
45.6856131197
 11
77.9045351649
 21
43.6443570769
  0
LINE
  5
341
100
AcDbEntity
  8
0
100
AcDbLine
 62
7
  6
CONTINUOUS
 10
77.9045351649
 20
28.6207126017
 11
77.9045351649
 21
27.6409097012
  0
LINE
  5
342
100
AcDbEntity
  8
0
100
AcDbLine
 62
7
  6
CONTINUOUS
 10
78.5409339175
 20
18.1286659502
 11
78.5409339175
 21
19.5167200594
  0
LINE
  5
343
100
AcDbEntity
  8
0
100
AcDbLine
 62
7
  6
CONTINUOUS
 10
78.5409339175
 20
22.9460302113
 11
78.5409339175
 21
58.7904863233
  0
LINE
  5
344
100
AcDbEntity
  8
0
100
AcDbLine
 62
7
  6
CONTINUOUS
 10
78.5409339175
 20
89.0010757571
 11
78.5409339175
 21
109.0053849768
  0
LINE
  5
345
100
AcDbEntity
  8
0
100
AcDbLine
 62
7
  6
CONTINUOUS
 10
78.5409339175
 20
109.2503357019
 11
78.5409339175
 21
112.5163453704
  0
LINE
  5
346
100
AcDbEntity
  8
0
100
AcDbLine
 62
7
  6
CONTINUOUS
 10
78.5409339175
 20
116.1089560058
 11
78.5409339175
 21
117.4153598732
  0
LINE
  5
347
100
AcDbEntity
  8
0
100
AcDbLine
 62
7
  6
CONTINUOUS
 10
80.0258519756
 20
110.107648425
 11
80.0258519756
 21
109.8626976999
  0
LINE
  5
348
100
AcDbEntity
  8
0
100
AcDbLine
 62
7
  6
CONTINUOUS
 10
81.4468545444
 20
160.3257942508
 11
81.4468545444
 21
160.8156957011
  0
LINE
  5
349
100
AcDbEntity
  8
0
100
AcDbLine
 62
7
  6
CONTINUOUS
 10
78.5409339175
 20
89.0010757571
 11
68.6344091581
 21
83.2815751613
  0
LINE
  5
34A
100
AcDbEntity
  8
0
100
AcDbLine
 62
7
  6
CONTINUOUS
 10
26.6107968214
 20
58.283486879
 11
26.5683691192
 21
58.2589913799
  0
LINE
  5
34B
100
AcDbEntity
  8
0
100
AcDbLine
 62
7
  6
CONTINUOUS
 10
26.6107968214
 20
57.7935769631
 11
26.1441032841
 21
57.524132932
  0
LINE
  5
34C
100
AcDbEntity
  8
0
100
AcDbLine
 62
7
  6
CONTINUOUS
 10
26.8582925568
 20
57.4465748549
 11
26.5683691192
 21
57.2791884793
  0
LINE
  5
34D
100
AcDbEntity
  8
0
100
AcDbLine
 62
7
  6
CONTINUOUS
 10
76.2124970986
 20
100.5458464794
 11
76.9499370359
 21
100.2891981523
  0
LINE
  5
34E
100
AcDbEntity
  8
0
100
AcDbLine
 62
7
  6
CONTINUOUS
 10
75.2124929352
 20
102.2778948832
 11
74.4750529979
 21
102.5345432102
  0
LINE
  5
34F
100
AcDbEntity
  8
0
100
AcDbLine
 62
7
  6
CONTINUOUS
 10
27.9825885695
 20
127.5392423814
 11
28.6896982946
 21
127.1310016269
  0
LINE
  5
350
100
AcDbEntity
  8
0
100
AcDbLine
 62
7
  6
CONTINUOUS
 10
75.3589401543
 20
100.1871118286
 11
76.0660498795
 21
99.778871074
  0
LINE
  5
351
100
AcDbEntity
  8
0
100
AcDbLine
 62
7
  6
CONTINUOUS
 10
28.9018235579
 20
128.0699597814
 11
29.0179278215
 21
128.0029284701
  0
LINE
  5
352
100
AcDbEntity
  8
0
100
AcDbLine
 62
7
  6
CONTINUOUS
 10
76.2781751427
 20
100.7178292286
 11
76.3942794063
 21
100.6507979172
  0
LINE
  5
353
100
AcDbEntity
  8
0
100
AcDbLine
 62
7
  6
CONTINUOUS
 10
76.0660498795
 20
102.636629534
 11
75.3589401543
 21
103.0448702885
  0
LINE
  5
354
100
AcDbEntity
  8
0
100
AcDbLine
 62
7
  6
CONTINUOUS
 10
28.6896982946
 20
129.9887600868
 11
27.9825885695
 21
130.3970008414
  0
LINE
  5
355
100
AcDbEntity
  8
0
100
AcDbLine
 62
7
  6
CONTINUOUS
 10
74.4750529979
 20
101.7180407931
 11
75.2124929352
 21
101.1231860911
  0
LINE
  5
356
100
AcDbEntity
  8
0
100
AcDbLine
 62
7
  6
CONTINUOUS
 10
76.1317279236
 20
101.6539034912
 11
75.3942879863
 21
102.2487581931
  0
LINE
  5
357
100
AcDbEntity
  8
0
100
AcDbLine
 62
7
  6
CONTINUOUS
 10
76.9499370359
 20
101.1057005694
 11
76.2124970986
 21
101.7005552714
  0
LINE
  5
358
100
AcDbEntity
  8
0
100
AcDbLine
 62
7
  6
CONTINUOUS
 10
57.0539604475
 20
155.9962131445
 11
58.0745854229
 21
153.3657123279
  0
LINE
  5
359
100
AcDbEntity
  8
0
100
AcDbLine
 62
7
  6
CONTINUOUS
 10
75.2124929352
 20
101.1231860911
 11
75.3589401543
 21
100.1871118286
  0
LINE
  5
35A
100
AcDbEntity
  8
0
100
AcDbLine
 62
7
  6
CONTINUOUS
 10
76.2781751427
 20
100.7178292286
 11
76.1317279236
 21
101.6539034912
  0
LINE
  5
35B
100
AcDbEntity
  8
0
100
AcDbLine
 62
7
  6
CONTINUOUS
 10
76.2124970986
 20
101.7005552714
 11
76.0660498795
 21
102.636629534
  0
LINE
  5
35C
100
AcDbEntity
  8
0
100
AcDbLine
 62
7
  6
CONTINUOUS
 10
82.9317726025
 20
161.183106974
 11
82.9317726025
 21
161.6730084242
  0
LINE
  5
35D
100
AcDbEntity
  8
0
100
AcDbLine
 62
7
  6
CONTINUOUS
 10
84.1267474702
 20
163.9958999831
 11
84.1267474702
 21
164.1591694259
  0
LINE
  5
35E
100
AcDbEntity
  8
0
100
AcDbLine
 62
7
  6
CONTINUOUS
 10
84.8338571953
 20
164.5674169791
 11
84.8338571953
 21
166.2004218134
  0
LINE
  5
35F
100
AcDbEntity
  8
0
100
AcDbLine
 62
7
  6
CONTINUOUS
 10
85.7601879514
 20
162.8160835895
 11
85.7601879514
 21
163.3059850397
  0
LINE
  5
360
100
AcDbEntity
  8
0
100
AcDbLine
 62
7
  6
CONTINUOUS
 10
75.3589401543
 20
50.8703658339
 11
75.2124929352
 21
50.1033904286
  0
LINE
  5
361
100
AcDbEntity
  8
0
100
AcDbLine
 62
7
  6
CONTINUOUS
 10
76.0660498795
 20
47.6043666195
 11
76.2124970986
 21
48.3713420248
  0
LINE
  5
362
100
AcDbEntity
  8
0
100
AcDbLine
 62
7
  6
CONTINUOUS
 10
28.0532871773
 20
54.6212662761
 11
26.5683691192
 21
53.763953553
  0
LINE
  5
363
100
AcDbEntity
  8
0
100
AcDbLine
 62
7
  6
CONTINUOUS
 10
25.5077045315
 20
50.1347766484
 11
26.9926477843
 21
50.9921039176
  0
LINE
  5
364
100
AcDbEntity
  8
0
100
AcDbLine
 62
7
  6
CONTINUOUS
 10
28.8361455138
 20
127.8979770322
 11
29.5735854511
 21
127.6413287052
  0
LINE
  5
365
100
AcDbEntity
  8
0
100
AcDbLine
 62
7
  6
CONTINUOUS
 10
27.8361413504
 20
129.630025436
 11
27.0987014131
 21
129.8866737631
  0
LINE
  5
366
100
AcDbEntity
  8
0
100
AcDbLine
 62
7
  6
CONTINUOUS
 10
78.5409339175
 20
109.0053849768
 11
25.5077045315
 21
139.6234415658
  0
LINE
  5
367
100
AcDbEntity
  8
0
100
AcDbLine
 62
7
  6
CONTINUOUS
 10
78.5409339175
 20
109.2503357019
 11
25.5077045315
 21
139.8683922909
  0
LINE
  5
368
100
AcDbEntity
  8
0
100
AcDbLine
 62
7
  6
CONTINUOUS
 10
80.0258519756
 20
109.8626976999
 11
79.8137153923
 21
109.9851720426
  0
LINE
  5
369
100
AcDbEntity
  8
0
100
AcDbLine
 62
7
  6
CONTINUOUS
 10
60.9739887276
 20
154.0579791745
 11
60.1158353737
 21
156.269734866
  0
LINE
  5
36A
100
AcDbEntity
  8
0
100
AcDbLine
 62
7
  6
CONTINUOUS
 10
88.5179217674
 20
160.5707685851
 11
88.5179217674
 21
160.8973611887
  0
LINE
  5
36B
100
AcDbEntity
  8
0
100
AcDbLine
 62
7
  6
CONTINUOUS
 10
32.0683719001
 20
50.5885973031
 11
33.5532899582
 21
51.4459100262
  0
LINE
  5
36C
100
AcDbEntity
  8
0
100
AcDbLine
 62
7
  6
CONTINUOUS
 10
26.9926349543
 20
46.9095999449
 11
26.2855252291
 21
46.5013523916
  0
LINE
  5
36D
100
AcDbEntity
  8
0
100
AcDbLine
 62
7
  6
CONTINUOUS
 10
38.1096983497
 20
48.8153259266
 11
36.6247802916
 21
47.9580132035
  0
LINE
  5
36E
100
AcDbEntity
  8
0
100
AcDbLine
 62
7
  6
CONTINUOUS
 10
32.0683719001
 20
50.5885973031
 11
31.7967453486
 21
50.4617775987
  0
LINE
  5
36F
100
AcDbEntity
  8
0
100
AcDbLine
 62
7
  6
CONTINUOUS
 10
26.9926349543
 20
147.1761108777
 11
25.5077045315
 21
148.0334164622
  0
LINE
  5
370
100
AcDbEntity
  8
0
100
AcDbLine
 62
7
  6
CONTINUOUS
 10
77.0560034947
 20
118.2726654577
 11
78.5409339175
 21
117.4153598732
  0
LINE
  5
371
100
AcDbEntity
  8
0
100
AcDbLine
 62
7
  6
CONTINUOUS
 10
63.6562742032
 20
127.8051330735
 11
61.6410114865
 21
128.9686192239
  0
LINE
  5
372
100
AcDbEntity
  8
0
100
AcDbLine
 62
7
  6
CONTINUOUS
 10
60.0853700912
 20
129.8667488839
 11
58.0701073745
 21
131.0302350342
  0
LINE
  5
373
100
AcDbEntity
  8
0
100
AcDbLine
 62
7
  6
CONTINUOUS
 10
26.2855252291
 20
149.3806569499
 11
26.9926349543
 21
148.9724161954
  0
LINE
  5
374
100
AcDbEntity
  8
0
100
AcDbLine
 62
7
  6
CONTINUOUS
 10
45.9785310745
 20
138.0111519365
 11
43.9632683578
 21
139.1746380869
  0
LINE
  5
375
100
AcDbEntity
  8
0
100
AcDbLine
 62
7
  6
CONTINUOUS
 10
42.4076269625
 20
140.0727677469
 11
40.3923642458
 21
141.2362538972
  0
LINE
  5
376
100
AcDbEntity
  8
0
100
AcDbLine
 62
7
  6
CONTINUOUS
 10
77.0560034947
 20
120.0689707754
 11
77.7631132198
 21
119.6607300208
  0
LINE
  5
377
100
AcDbEntity
  8
0
100
AcDbLine
 62
7
  6
CONTINUOUS
 10
61.6410114865
 20
129.2951658298
 11
61.2167303428
 21
129.5401191208
  0
LINE
  5
378
100
AcDbEntity
  8
0
100
AcDbLine
 62
7
  6
CONTINUOUS
 10
43.9632683578
 20
139.5011846928
 11
43.5389872141
 21
139.7461379838
  0
LINE
  5
379
100
AcDbEntity
  8
0
100
AcDbLine
 62
7
  6
CONTINUOUS
 10
74.7317035762
 20
145.7901942815
 11
75.7523285516
 21
143.1596934649
  0
LINE
  5
37A
100
AcDbEntity
  8
0
100
AcDbLine
 62
7
  6
CONTINUOUS
 10
94.9456139951
 20
143.3516659387
 11
94.9456139951
 21
148.1969538887
  0
LINE
  5
37B
100
AcDbEntity
  8
0
100
AcDbLine
 62
7
  6
CONTINUOUS
 10
99.1245976731
 20
150.1197753878
 11
99.1245976731
 21
150.6096768381
  0
LINE
  5
37C
100
AcDbEntity
  8
0
100
AcDbLine
 62
7
  6
CONTINUOUS
 10
99.4004971153
 20
68.6291323363
 11
99.4004971153
 21
71.4052405545
  0
LINE
  5
37D
100
AcDbEntity
  8
0
100
AcDbLine
 62
7
  6
CONTINUOUS
 10
99.4004971153
 20
111.2505585104
 11
99.4004971153
 21
114.0266667286
  0
LINE
  5
37E
100
AcDbEntity
  8
0
100
AcDbLine
 62
7
  6
CONTINUOUS
 10
100.6095157312
 20
150.977088111
 11
100.6095157312
 21
151.4669895612
  0
LINE
  5
37F
100
AcDbEntity
  8
0
100
AcDbLine
 62
7
  6
CONTINUOUS
 10
77.7631132198
 20
121.2937348551
 11
61.6410114865
 21
130.6016240582
  0
LINE
  5
380
100
AcDbEntity
  8
0
100
AcDbLine
 62
7
  6
CONTINUOUS
 10
60.0853700912
 20
131.4997537181
 11
43.9632683578
 21
140.8076429212
  0
LINE
  5
381
100
AcDbEntity
  8
0
100
AcDbLine
 62
7
  6
CONTINUOUS
 10
42.4076269625
 20
141.7057725811
 11
26.2855252291
 21
151.0136617842
  0
LINE
  5
382
100
AcDbEntity
  8
0
100
AcDbLine
 62
7
  6
CONTINUOUS
 10
33.0030440663
 20
150.4013142498
 11
34.2758415716
 21
149.6664808917
  0
LINE
  5
383
100
AcDbEntity
  8
0
100
AcDbLine
 62
7
  6
CONTINUOUS
 10
40.0741413178
 20
146.3189067046
 11
41.346938823
 21
145.5840733465
  0
LINE
  5
384
100
AcDbEntity
  8
0
100
AcDbLine
 62
7
  6
CONTINUOUS
 10
50.680787195
 20
140.1952953868
 11
51.9535847002
 21
139.4604620287
  0
LINE
  5
385
100
AcDbEntity
  8
0
100
AcDbLine
 62
7
  6
CONTINUOUS
 10
57.7518844464
 20
136.1128878416
 11
59.0246819517
 21
135.3780544835
  0
LINE
  5
386
100
AcDbEntity
  8
0
100
AcDbLine
 62
7
  6
CONTINUOUS
 10
68.3585303236
 20
129.9892765238
 11
69.6313278289
 21
129.2544431657
  0
LINE
  5
387
100
AcDbEntity
  8
0
100
AcDbLine
 62
7
  6
CONTINUOUS
 10
75.4296275751
 20
125.9068689786
 11
76.7024250804
 21
125.1720356205
  0
LINE
  5
388
100
AcDbEntity
  8
0
100
AcDbLine
 62
7
  6
CONTINUOUS
 10
80.8036438224
 20
125.2536939694
 11
78.823736592
 21
126.3967680821
  0
LINE
  5
389
100
AcDbEntity
  8
0
100
AcDbLine
 62
7
  6
CONTINUOUS
 10
77.5509390868
 20
127.1316014402
 11
71.7526393406
 21
130.4791756273
  0
LINE
  5
38A
100
AcDbEntity
  8
0
100
AcDbLine
 62
7
  6
CONTINUOUS
 10
70.4798418353
 20
131.2140089854
 11
68.4999346049
 21
132.3570830981
  0
LINE
  5
38B
100
AcDbEntity
  8
0
100
AcDbLine
 62
7
  6
CONTINUOUS
 10
63.1259006938
 20
135.4597128324
 11
61.1459934634
 21
136.6027869451
  0
LINE
  5
38C
100
AcDbEntity
  8
0
100
AcDbLine
 62
7
  6
CONTINUOUS
 10
59.8731959581
 20
137.3376203032
 11
54.0748962119
 21
140.6851944903
  0
LINE
  5
38D
100
AcDbEntity
  8
0
100
AcDbLine
 62
7
  6
CONTINUOUS
 10
52.8020987066
 20
141.4200278484
 11
50.8221914762
 21
142.5631019611
  0
LINE
  5
38E
100
AcDbEntity
  8
0
100
AcDbLine
 62
7
  6
CONTINUOUS
 10
45.4481575651
 20
145.6657316954
 11
43.4682503347
 21
146.8088058081
  0
LINE
  5
38F
100
AcDbEntity
  8
0
100
AcDbLine
 62
7
  6
CONTINUOUS
 10
42.1954528294
 20
147.5436391662
 11
36.3971530832
 21
150.8912133533
  0
LINE
  5
390
100
AcDbEntity
  8
0
100
AcDbLine
 62
7
  6
CONTINUOUS
 10
35.1243555779
 20
151.6260467114
 11
33.1444483475
 21
152.7691208241
  0
LINE
  5
391
100
AcDbEntity
  8
0
100
AcDbLine
 62
7
  6
CONTINUOUS
 10
101.6632217401
 20
113.6183701837
 11
102.5824643828
 21
113.0876572028
  0
LINE
  5
392
100
AcDbEntity
  8
0
100
AcDbLine
 62
7
  6
CONTINUOUS
 10
78.6517318563
 20
143.8519603114
 11
77.7935785024
 21
146.063716003
  0
LINE
  5
393
100
AcDbEntity
  8
0
100
AcDbLine
 62
7
  6
CONTINUOUS
 10
101.6632217401
 20
115.3330436018
 11
101.6632217401
 21
113.6183701837
  0
LINE
  5
394
100
AcDbEntity
  8
0
100
AcDbLine
 62
7
  6
CONTINUOUS
 10
101.6632217401
 20
72.7116174277
 11
101.6632217401
 21
70.9969440095
  0
LINE
  5
395
100
AcDbEntity
  8
0
100
AcDbLine
 62
7
  6
CONTINUOUS
 10
101.8044905988
 20
153.7898811201
 11
101.8044905988
 21
153.9531505629
  0
LINE
  5
396
100
AcDbEntity
  8
0
100
AcDbLine
 62
7
  6
CONTINUOUS
 10
102.511600324
 20
154.3613981161
 11
102.511600324
 21
155.9944029504
  0
LINE
  5
397
100
AcDbEntity
  8
0
100
AcDbLine
 62
7
  6
CONTINUOUS
 10
102.5824643828
 20
115.8637654211
 11
102.5824643828
 21
113.0876572028
  0
LINE
  5
398
100
AcDbEntity
  8
0
100
AcDbLine
 62
7
  6
CONTINUOUS
 10
102.5824643828
 20
73.2423392469
 11
102.5824643828
 21
70.4662310287
  0
LINE
  5
399
100
AcDbEntity
  8
0
100
AcDbLine
 62
7
  6
CONTINUOUS
 10
103.4379310801
 20
152.6100647264
 11
103.4379310801
 21
153.0999661767
  0
LINE
  5
39A
100
AcDbEntity
  8
0
100
AcDbLine
 62
7
  6
CONTINUOUS
 10
106.1956648961
 20
150.3647497221
 11
106.1956648961
 21
150.6913423257
  0
LINE
  5
39B
100
AcDbEntity
  8
0
100
AcDbLine
 62
7
  6
CONTINUOUS
 10
99.4004971153
 20
71.4052405545
 11
102.5824643828
 21
73.2423392469
  0
LINE
  5
39C
100
AcDbEntity
  8
0
100
AcDbLine
 62
7
  6
CONTINUOUS
 10
43.256185515
 20
38.4998640806
 11
41.7005172373
 21
37.6017039431
  0
LINE
  5
39D
100
AcDbEntity
  8
0
100
AcDbLine
 62
7
  6
CONTINUOUS
 10
68.6344091581
 20
53.0709857276
 11
78.5409339175
 21
58.7904863233
  0
LINE
  5
39E
100
AcDbEntity
  8
0
100
AcDbLine
 62
7
  6
CONTINUOUS
 10
43.9632952401
 20
38.0916233261
 11
42.4076269625
 21
37.1934631885
  0
LINE
  5
39F
100
AcDbEntity
  8
0
100
AcDbLine
 62
7
  6
CONTINUOUS
 10
101.6632217401
 20
70.9969440095
 11
99.4004971153
 21
69.6905671364
  0
LINE
  5
3A0
100
AcDbEntity
  8
0
100
AcDbLine
 62
7
  6
CONTINUOUS
 10
77.7124860632
 20
56.9593425568
 11
67.8059613038
 21
51.2398419611
  0
LINE
  5
3A1
100
AcDbEntity
  8
0
100
AcDbLine
 62
7
  6
CONTINUOUS
 10
49.7461150287
 20
40.3825784401
 11
51.2310330869
 21
41.2398911632
  0
LINE
  5
3A2
100
AcDbEntity
  8
0
100
AcDbLine
 62
7
  6
CONTINUOUS
 10
102.5824643828
 20
70.4662310287
 11
99.4004971153
 21
68.6291323363
  0
LINE
  5
3A3
100
AcDbEntity
  8
0
100
AcDbLine
 62
7
  6
CONTINUOUS
 10
44.670378083
 20
36.8668505247
 11
42.4076269625
 21
35.5604583543
  0
LINE
  5
3A4
100
AcDbEntity
  8
0
100
AcDbLine
 62
7
  6
CONTINUOUS
 10
44.670378083
 20
36.7035810818
 11
43.9632683578
 21
36.2953335286
  0
LINE
  5
3A5
100
AcDbEntity
  8
0
100
AcDbLine
 62
7
  6
CONTINUOUS
 10
92.4094467048
 20
135.5841754185
 11
93.4300716802
 21
132.9536746019
  0
LINE
  5
3A6
100
AcDbEntity
  8
0
100
AcDbLine
 62
7
  6
CONTINUOUS
 10
74.8155958534
 20
51.9527010269
 11
74.3125012845
 21
51.6622409759
  0
LINE
  5
3A7
100
AcDbEntity
  8
0
100
AcDbLine
 62
7
  6
CONTINUOUS
 10
75.9499456159
 20
50.5291563908
 11
75.2124929352
 21
50.1033904286
  0
LINE
  5
3A8
100
AcDbEntity
  8
0
100
AcDbLine
 62
7
  6
CONTINUOUS
 10
75.3942879863
 20
50.0742537386
 11
74.4750529979
 21
49.5435363385
  0
LINE
  5
3A9
100
AcDbEntity
  8
0
100
AcDbLine
 62
7
  6
CONTINUOUS
 10
55.7874414784
 20
38.6093070636
 11
54.3025234202
 21
37.7519943405
  0
LINE
  5
3AA
100
AcDbEntity
  8
INTFCLR_74
100
AcDbLine
 62
7
420
3604575
  6
CONTINUOUS
 10
76.2125014187
 20
49.5260433342
 11
75.7124950169
 21
49.2373662267
  0
LINE
  5
3AB
100
AcDbEntity
  8
0
100
AcDbLine
 62
7
  6
CONTINUOUS
 10
76.1317279236
 20
49.4793990366
 11
75.2124929352
 21
48.9486816366
  0
LINE
  5
3AC
100
AcDbEntity
  8
0
100
AcDbLine
 62
7
  6
CONTINUOUS
 10
76.2781751427
 20
48.543324774
 11
75.3589401543
 21
48.012607374
  0
LINE
  5
3AD
100
AcDbEntity
  8
0
100
AcDbLine
 62
7
  6
CONTINUOUS
 10
76.9499370359
 20
48.7971006297
 11
76.2124970986
 21
48.3713420248
  0
LINE
  5
3AE
100
AcDbEntity
  8
0
100
AcDbLine
 62
7
  6
CONTINUOUS
 10
49.7461150287
 20
40.3825784401
 11
49.4744884773
 21
40.2557587357
  0
LINE
  5
3AF
100
AcDbEntity
  8
0
100
AcDbLine
 62
7
  6
CONTINUOUS
 10
42.5489293825
 20
158.1987680706
 11
54.8526386
 21
151.0953789419
  0
LINE
  5
3B0
100
AcDbEntity
  8
0
100
AcDbLine
 62
7
  6
CONTINUOUS
 10
60.2266725111
 20
147.9927492076
 11
72.5303817287
 21
140.8893600789
  0
LINE
  5
3B1
100
AcDbEntity
  8
0
100
AcDbLine
 62
7
  6
CONTINUOUS
 10
77.9044156398
 20
137.7867303446
 11
90.2081248574
 21
130.6833412159
  0
LINE
  5
3B2
100
AcDbEntity
  8
0
100
AcDbLine
 62
7
  6
CONTINUOUS
 10
92.470861258
 20
131.4181830724
 11
79.1771984253
 21
139.0931092574
  0
LINE
  5
3B3
100
AcDbEntity
  8
0
100
AcDbLine
 62
7
  6
CONTINUOUS
 10
74.7931181293
 20
141.6242019354
 11
61.4994552966
 21
149.2991281204
  0
LINE
  5
3B4
100
AcDbEntity
  8
0
100
AcDbLine
 62
7
  6
CONTINUOUS
 10
57.1153750007
 20
151.8302207984
 11
43.8217121679
 21
159.5051469834
  0
LINE
  5
3B5
100
AcDbEntity
  8
0
100
AcDbLine
 62
7
  6
CONTINUOUS
 10
58.0745854229
 20
153.3657123279
 11
58.9247699005
 21
152.8748691952
  0
LINE
  5
3B6
100
AcDbEntity
  8
0
100
AcDbLine
 62
7
  6
CONTINUOUS
 10
75.7523285516
 20
143.1596934649
 11
76.6025130292
 21
142.6688503322
  0
LINE
  5
3B7
100
AcDbEntity
  8
0
100
AcDbLine
 62
7
  6
CONTINUOUS
 10
93.4300716802
 20
132.9536746019
 11
94.2802561579
 21
132.4628314692
  0
LINE
  5
3B8
100
AcDbEntity
  8
0
100
AcDbLine
 62
7
  6
CONTINUOUS
 10
96.329474985
 20
133.6459414484
 11
95.471321631
 21
135.85769714
  0
LINE
  5
3B9
100
AcDbEntity
  8
0
100
AcDbLine
 62
7
  6
CONTINUOUS
 10
119.4822337275
 20
41.6843154493
 11
119.4822337275
 21
41.7659953207
  0
LINE
  5
3BA
100
AcDbEntity
  8
0
100
AcDbLine
 62
7
  6
CONTINUOUS
 10
119.4822337275
 20
142.76731469
 11
119.4822337275
 21
143.7471316999
  0
LINE
  5
3BB
100
AcDbEntity
  8
0
100
AcDbLine
 62
7
  6
CONTINUOUS
 10
120.1893434527
 20
41.2760746948
 11
120.1893434527
 21
39.6430698606
  0
LINE
  5
3BC
100
AcDbEntity
  8
0
100
AcDbLine
 62
7
  6
CONTINUOUS
 10
120.1893434527
 20
144.1553792531
 11
120.1893434527
 21
145.7883840874
  0
LINE
  5
3BD
100
AcDbEntity
  8
0
100
AcDbLine
 62
7
  6
CONTINUOUS
 10
77.7687044992
 20
47.1913555558
 11
77.1124887493
 21
46.8124914775
  0
LINE
  5
3BE
100
AcDbEntity
  8
0
100
AcDbLine
 62
7
  6
CONTINUOUS
 10
77.1691421694
 20
45.9550513718
 11
77.3034918985
 21
46.0326177611
  0
LINE
  5
3BF
100
AcDbEntity
  8
0
100
AcDbLine
 62
7
  6
CONTINUOUS
 10
77.9045351649
 20
44.1342500616
 11
77.4802693298
 21
43.8893015296
  0
LINE
  5
3C0
100
AcDbEntity
  8
0
100
AcDbLine
 62
7
  6
CONTINUOUS
 10
77.4802693298
 20
43.685172398
 11
77.1691421694
 21
43.5055441204
  0
LINE
  5
3C1
100
AcDbEntity
  8
0
100
AcDbLine
 62
7
  6
CONTINUOUS
 10
77.4802693298
 20
40.7049195278
 11
76.2145440405
 21
39.9741570534
  0
LINE
  5
3C2
100
AcDbEntity
  8
0
100
AcDbLine
 62
7
  6
CONTINUOUS
 10
95.471321631
 20
135.85769714
 11
93.4300716802
 21
137.0361866875
  0
LINE
  5
3C3
100
AcDbEntity
  8
0
100
AcDbLine
 62
7
  6
CONTINUOUS
 10
77.7935785024
 20
146.063716003
 11
75.7523285516
 21
147.2422055505
  0
LINE
  5
3C4
100
AcDbEntity
  8
0
100
AcDbLine
 62
7
  6
CONTINUOUS
 10
60.1158353737
 20
156.269734866
 11
58.0745854229
 21
157.4482244136
  0
LINE
  5
3C5
100
AcDbEntity
  8
0
100
AcDbLine
 62
7
  6
CONTINUOUS
 10
120.9671641503
 20
141.9100091055
 11
120.9671641503
 21
140.6036052381
  0
LINE
  5
3C6
100
AcDbEntity
  8
0
100
AcDbLine
 62
7
  6
CONTINUOUS
 10
120.9671641503
 20
137.0109946027
 11
120.9671641503
 21
47.4406794436
  0
LINE
  5
3C7
100
AcDbEntity
  8
0
100
AcDbLine
 62
7
  6
CONTINUOUS
 10
120.9671641503
 20
44.0113692916
 11
120.9671641503
 21
42.6233151825
  0
LINE
  5
3C8
100
AcDbEntity
  8
0
100
AcDbLine
 62
7
  6
CONTINUOUS
 10
77.4802693298
 20
39.6026603123
 11
77.1691421694
 21
39.4230320348
  0
LINE
  5
3C9
100
AcDbEntity
  8
0
100
AcDbLine
 62
7
  6
CONTINUOUS
 10
60.9339286437
 20
28.2938452176
 11
59.378260366
 21
27.3956850801
  0
LINE
  5
3CA
100
AcDbEntity
  8
0
100
AcDbLine
 62
7
  6
CONTINUOUS
 10
61.6410383688
 20
27.8856044631
 11
60.0853700912
 21
26.9874443255
  0
LINE
  5
3CB
100
AcDbEntity
  8
0
100
AcDbLine
 62
7
  6
CONTINUOUS
 10
67.4238581574
 20
30.1765595771
 11
68.9087762156
 21
31.0338723002
  0
LINE
  5
3CC
100
AcDbEntity
  8
0
100
AcDbLine
 62
7
  6
CONTINUOUS
 10
62.3481212116
 20
26.6608316617
 11
60.0853700912
 21
25.3544394913
  0
LINE
  5
3CD
100
AcDbEntity
  8
0
100
AcDbLine
 62
7
  6
CONTINUOUS
 10
62.3481212116
 20
26.4975622188
 11
61.6410114865
 21
26.0893146656
  0
LINE
  5
3CE
100
AcDbEntity
  8
0
100
AcDbLine
 62
7
  6
CONTINUOUS
 10
73.4651846071
 20
28.4032882006
 11
71.9802665489
 21
27.5459754775
  0
LINE
  5
3CF
100
AcDbEntity
  8
0
100
AcDbLine
 62
7
  6
CONTINUOUS
 10
77.7277650651
 20
28.7227685576
 11
77.1691421694
 21
28.4002494035
  0
LINE
  5
3D0
100
AcDbEntity
  8
0
100
AcDbLine
 62
7
  6
CONTINUOUS
 10
77.9045351649
 20
28.1308026858
 11
77.4802693298
 21
27.8858541539
  0
LINE
  5
3D1
100
AcDbEntity
  8
0
100
AcDbLine
 62
7
  6
CONTINUOUS
 10
67.4238581574
 20
30.1765595771
 11
67.1522316059
 21
30.0497398726
  0
LINE
  5
3D2
100
AcDbEntity
  8
0
100
AcDbLine
 62
7
  6
CONTINUOUS
 10
59.5901277378
 20
168.6089916147
 11
63.8850883972
 21
166.1293510189
  0
LINE
  5
3D3
100
AcDbEntity
  8
0
100
AcDbLine
 62
7
  6
CONTINUOUS
 10
68.5888299111
 20
163.4137060257
 11
72.8837905705
 21
160.9340654298
  0
LINE
  5
3D4
100
AcDbEntity
  8
0
100
AcDbLine
 62
7
  6
CONTINUOUS
 10
77.2678708664
 20
158.4029727517
 11
81.5628315258
 21
155.9233321558
  0
LINE
  5
3D5
100
AcDbEntity
  8
0
100
AcDbLine
 62
7
  6
CONTINUOUS
 10
86.2665730398
 20
153.2076871626
 11
90.5615336992
 21
150.7280465668
  0
LINE
  5
3D6
100
AcDbEntity
  8
0
100
AcDbLine
 62
7
  6
CONTINUOUS
 10
94.9456139951
 20
148.1969538887
 11
99.2405746545
 21
145.7173132928
  0
LINE
  5
3D7
100
AcDbEntity
  8
0
100
AcDbLine
 62
7
  6
CONTINUOUS
 10
103.9443161685
 20
143.0016682996
 11
108.2392768279
 21
140.5220277037
  0
LINE
  5
3D8
100
AcDbEntity
  8
0
100
AcDbLine
 62
7
  6
CONTINUOUS
 10
63.3448491134
 20
170.7767680718
 11
67.6398097728
 21
168.2971274759
  0
LINE
  5
3D9
100
AcDbEntity
  8
0
100
AcDbLine
 62
7
  6
CONTINUOUS
 10
72.3435512867
 20
165.5814824827
 11
76.6385119461
 21
163.1018418868
  0
LINE
  5
3DA
100
AcDbEntity
  8
0
100
AcDbLine
 62
7
  6
CONTINUOUS
 10
81.0225922421
 20
160.5707492088
 11
85.3175529014
 21
158.0911086129
  0
LINE
  5
3DB
100
AcDbEntity
  8
0
100
AcDbLine
 62
7
  6
CONTINUOUS
 10
90.0212944154
 20
155.3754636197
 11
94.3162550748
 21
152.8958230238
  0
LINE
  5
3DC
100
AcDbEntity
  8
0
100
AcDbLine
 62
7
  6
CONTINUOUS
 10
98.7003353707
 20
150.3647303458
 11
102.9952960301
 21
147.8850897499
  0
LINE
  5
3DD
100
AcDbEntity
  8
0
100
AcDbLine
 62
7
  6
CONTINUOUS
 10
107.6990375441
 20
145.1694447567
 11
111.9939982035
 21
142.6898041608
  0
LINE
  5
3DE
100
AcDbEntity
  8
0
100
AcDbLine
 62
7
  6
CONTINUOUS
 10
112.4182605058
 20
142.9347506531
 11
106.5477014768
 21
146.3240428128
  0
LINE
  5
3DF
100
AcDbEntity
  8
0
100
AcDbLine
 62
7
  6
CONTINUOUS
 10
104.4153315556
 20
147.5551393097
 11
99.1245976731
 21
150.6096768381
  0
LINE
  5
3E0
100
AcDbEntity
  8
0
100
AcDbLine
 62
7
  6
CONTINUOUS
 10
94.7405173771
 20
153.1407695161
 11
88.8699583481
 21
156.5300616758
  0
LINE
  5
3E1
100
AcDbEntity
  8
0
100
AcDbLine
 62
7
  6
CONTINUOUS
 10
86.7375884269
 20
157.7611581727
 11
81.4468545444
 21
160.8156957011
  0
LINE
  5
3E2
100
AcDbEntity
  8
0
100
AcDbLine
 62
7
  6
CONTINUOUS
 10
77.0627742485
 20
163.3467883791
 11
71.1922152194
 21
166.7360805388
  0
LINE
  5
3E3
100
AcDbEntity
  8
0
100
AcDbLine
 62
7
  6
CONTINUOUS
 10
69.0598452982
 20
167.9671770357
 11
63.7691114157
 21
171.0217145641
  0
LINE
  5
3E4
100
AcDbEntity
  8
0
100
AcDbLine
 62
7
  6
CONTINUOUS
 10
64.8297671715
 20
171.6340807949
 11
78.1234300043
 21
163.95915461
  0
LINE
  5
3E5
100
AcDbEntity
  8
0
100
AcDbLine
 62
7
  6
CONTINUOUS
 10
82.5075103002
 20
161.4280619319
 11
95.801173133
 21
153.7531357469
  0
LINE
  5
3E6
100
AcDbEntity
  8
0
100
AcDbLine
 62
7
  6
CONTINUOUS
 10
100.1852534289
 20
151.2220430689
 11
113.4789162616
 21
143.5471168839
  0
LINE
  5
3E7
100
AcDbEntity
  8
0
100
AcDbLine
 62
7
  6
CONTINUOUS
 10
113.903178564
 20
143.7920633763
 11
100.6095157312
 21
151.4669895612
  0
LINE
  5
3E8
100
AcDbEntity
  8
0
100
AcDbLine
 62
7
  6
CONTINUOUS
 10
96.2254354353
 20
153.9980822393
 11
82.9317726025
 21
161.6730084242
  0
LINE
  5
3E9
100
AcDbEntity
  8
0
100
AcDbLine
 62
7
  6
CONTINUOUS
 10
78.5476923066
 20
164.2041011023
 11
65.2540294739
 21
171.8790272873
  0
LINE
  5
3EA
100
AcDbEntity
  8
0
100
AcDbLine
 62
7
  6
CONTINUOUS
 10
78.5409339175
 20
22.9460302113
 11
120.9671641503
 21
47.4406794436
  0
LINE
  5
3EB
100
AcDbEntity
  8
0
100
AcDbLine
 62
7
  6
CONTINUOUS
 10
120.9671641503
 20
44.0113692916
 11
78.5409339175
 21
19.5167200594
  0
LINE
  5
3EC
100
AcDbEntity
  8
0
100
AcDbLine
 62
7
  6
CONTINUOUS
 10
70.5573371038
 20
170.9400823902
 11
76.9213246302
 21
167.2659155995
  0
LINE
  5
3ED
100
AcDbEntity
  8
0
100
AcDbLine
 62
7
  6
CONTINUOUS
 10
88.2350802325
 20
160.7340635272
 11
94.5990677588
 21
157.0598967365
  0
LINE
  5
3EE
100
AcDbEntity
  8
0
100
AcDbLine
 62
7
  6
CONTINUOUS
 10
105.9128233612
 20
150.5280446642
 11
112.2768108875
 21
146.8538778735
  0
LINE
  5
3EF
100
AcDbEntity
  8
0
100
AcDbLine
 62
7
  6
CONTINUOUS
 10
119.4822337275
 20
142.76731469
 11
120.9671641503
 21
141.9100091055
  0
LINE
  5
3F0
100
AcDbEntity
  8
0
100
AcDbLine
 62
7
  6
CONTINUOUS
 10
67.3753409855
 20
173.1037597489
 11
70.8401786387
 21
171.1033800517
  0
LINE
  5
3F1
100
AcDbEntity
  8
0
100
AcDbLine
 62
7
  6
CONTINUOUS
 10
77.204166165
 20
167.429213261
 11
80.6690038183
 21
165.4288335639
  0
LINE
  5
3F2
100
AcDbEntity
  8
0
100
AcDbLine
 62
7
  6
CONTINUOUS
 10
85.0530841142
 20
162.8977408859
 11
88.5179217674
 21
160.8973611887
  0
LINE
  5
3F3
100
AcDbEntity
  8
0
100
AcDbLine
 62
7
  6
CONTINUOUS
 10
94.8819092937
 20
157.223194398
 11
98.3467469469
 21
155.2228147009
  0
LINE
  5
3F4
100
AcDbEntity
  8
0
100
AcDbLine
 62
7
  6
CONTINUOUS
 10
102.7308272428
 20
152.6917220229
 11
106.1956648961
 21
150.6913423257
  0
LINE
  5
3F5
100
AcDbEntity
  8
0
100
AcDbLine
 62
7
  6
CONTINUOUS
 10
112.5596524224
 20
147.017175535
 11
116.0244900756
 21
145.0167958379
  0
LINE
  5
3F6
100
AcDbEntity
  8
0
100
AcDbLine
 62
7
  6
CONTINUOUS
 10
116.3073207462
 20
145.180087227
 11
103.4379310801
 21
152.6100647264
  0
LINE
  5
3F7
100
AcDbEntity
  8
0
100
AcDbLine
 62
7
  6
CONTINUOUS
 10
98.6295776175
 20
155.38610609
 11
85.7601879514
 21
162.8160835895
  0
LINE
  5
3F8
100
AcDbEntity
  8
0
100
AcDbLine
 62
7
  6
CONTINUOUS
 10
80.9518344888
 20
165.592124953
 11
68.0824448227
 21
173.0221024525
  0
LINE
  5
3F9
100
AcDbEntity
  8
0
100
AcDbLine
 62
7
  6
CONTINUOUS
 10
116.7315939128
 20
145.4250399917
 11
103.4379310801
 21
153.0999661767
  0
LINE
  5
3FA
100
AcDbEntity
  8
0
100
AcDbLine
 62
7
  6
CONTINUOUS
 10
99.0538507842
 20
155.6310588548
 11
85.7601879514
 21
163.3059850397
  0
LINE
  5
3FB
100
AcDbEntity
  8
0
100
AcDbLine
 62
7
  6
CONTINUOUS
 10
81.3761076555
 20
165.8370777178
 11
68.0824448227
 21
173.5120039027
  0
LINE
  5
3FC
100
AcDbEntity
  8
0
100
AcDbLine
 62
7
  6
CONTINUOUS
 10
120.1893434527
 20
145.7883840874
 11
104.0672417193
 21
155.0962732905
  0
LINE
  5
3FD
100
AcDbEntity
  8
0
100
AcDbLine
 62
7
  6
CONTINUOUS
 10
102.511600324
 20
155.9944029504
 11
86.3894985906
 21
165.3022921535
  0
LINE
  5
3FE
100
AcDbEntity
  8
0
100
AcDbLine
 62
7
  6
CONTINUOUS
 10
84.8338571953
 20
166.2004218134
 11
68.711755462
 21
175.5083110165
  0
LINE
  5
3FF
100
AcDbEntity
  8
0
100
AcDbLine
 62
7
  6
CONTINUOUS
 10
78.5409339175
 20
18.1286659502
 11
120.9671641503
 21
42.6233151825
  0
LINE
  5
400
100
AcDbEntity
  8
0
100
AcDbLine
 62
7
  6
CONTINUOUS
 10
119.4822337275
 20
41.6843154493
 11
77.0560034947
 21
17.189666217
  0
LINE
  5
401
100
AcDbEntity
  8
0
100
AcDbLine
 62
7
  6
CONTINUOUS
 10
120.1893434527
 20
41.2760746948
 11
77.7631132198
 21
16.7814254625
  0
LINE
  5
402
100
AcDbEntity
  8
0
100
AcDbLine
 62
7
  6
CONTINUOUS
 10
120.1893434527
 20
39.6430698606
 11
77.7631132198
 21
15.1484206283
  0
ARC
  5
403
100
AcDbEntity
  8
0
100
AcDbCircle
 62
7
  6
CONTINUOUS
 10
81.313183598
 20
147.6000134383
 40
11.826198788
100
AcDbArc
 50
41.6083788946
 51
41.8772334187
  0
ARC
  5
404
100
AcDbEntity
  8
0
100
AcDbCircle
 62
7
  6
CONTINUOUS
 10
98.990926729
 20
137.3939945774
 40
11.8261987849
100
AcDbArc
 50
41.6083788946
 51
41.8772334188
  0
ARC
  5
405
100
AcDbEntity
  8
0
100
AcDbCircle
 62
7
  6
CONTINUOUS
 10
63.635440472
 20
157.8060323037
 40
11.8261987845
100
AcDbArc
 50
41.6083788945
 51
41.8772334187
  0
ARC
  5
406
100
AcDbEntity
  8
0
100
AcDbCircle
 62
7
  6
CONTINUOUS
 10
98.7584915774
 20
136.7664566054
 40
7.7899698693
100
AcDbArc
 50
220.4977983953
 51
221.318406584
  0
ARC
  5
407
100
AcDbEntity
  8
0
100
AcDbCircle
 62
7
  6
CONTINUOUS
 10
63.40300532
 20
157.1784943314
 40
7.7899698692
100
AcDbArc
 50
220.4977983953
 51
221.318406584
  0
ARC
  5
408
100
AcDbEntity
  8
0
100
AcDbCircle
 62
7
  6
CONTINUOUS
 10
81.0807484481
 20
146.9724754679
 40
7.7899698685
100
AcDbArc
 50
220.4977983953
 51
221.318406584
  0
ARC
  5
409
100
AcDbEntity
  8
0
100
AcDbCircle
 62
7
  6
CONTINUOUS
 10
99.8777609705
 20
139.4299008977
 40
7.3362893836
100
AcDbArc
 50
180.0221600758
 51
182.2876236012
  0
ARC
  5
40A
100
AcDbEntity
  8
0
100
AcDbCircle
 62
7
  6
CONTINUOUS
 10
82.200017842
 20
149.6359197607
 40
7.3362893837
100
AcDbArc
 50
180.0221600758
 51
182.2876236012
  0
ARC
  5
40B
100
AcDbEntity
  8
0
100
AcDbCircle
 62
7
  6
CONTINUOUS
 10
64.5222747133
 20
159.8419386237
 40
7.3362893837
100
AcDbArc
 50
180.0221600758
 51
182.2876236012
  0
ARC
  5
40C
100
AcDbEntity
  8
0
100
AcDbCircle
 62
7
  6
CONTINUOUS
 10
76.9038652353
 20
123.243902763
 40
6.4223324683
100
AcDbArc
 50
234.5830278311
 51
235.8384047105
  0
ARC
  5
40D
100
AcDbEntity
  8
0
100
AcDbCircle
 62
7
  6
CONTINUOUS
 10
59.2261221066
 20
133.449921626
 40
6.4223324681
100
AcDbArc
 50
234.583027831
 51
235.8384047106
  0
ARC
  5
40E
100
AcDbEntity
  8
0
100
AcDbCircle
 62
7
  6
CONTINUOUS
 10
41.5483789779
 20
143.655940489
 40
6.4223324682
100
AcDbArc
 50
234.5830278311
 51
235.8384047106
  0
ARC
  5
40F
100
AcDbEntity
  8
0
100
AcDbCircle
 62
7
  6
CONTINUOUS
 10
61.7165875249
 20
159.9313117175
 40
4.7782867429
100
AcDbArc
 50
72.610053326
 51
74.1765928185
  0
ARC
  5
410
100
AcDbEntity
  8
0
100
AcDbCircle
 62
7
  6
CONTINUOUS
 10
97.0720737823
 20
139.5192739919
 40
4.7782867425
100
AcDbArc
 50
72.6100533259
 51
74.1765928186
  0
ARC
  5
411
100
AcDbEntity
  8
0
100
AcDbCircle
 62
7
  6
CONTINUOUS
 10
79.3943306536
 20
149.7252928548
 40
4.7782867426
100
AcDbArc
 50
72.6100533259
 51
74.1765928186
  0
ARC
  5
412
100
AcDbEntity
  8
0
100
AcDbCircle
 62
7
  6
CONTINUOUS
 10
76.525940622
 20
102.6780004095
 40
3.0054858097
100
AcDbArc
 50
180.0111215761
 51
182.7694664191
  0
ARC
  5
413
100
AcDbEntity
  8
0
100
AcDbCircle
 62
7
  6
CONTINUOUS
 10
29.1495890371
 20
130.0301309623
 40
3.0054858096
100
AcDbArc
 50
180.0111215761
 51
182.7694664191
  0
ARC
  5
414
100
AcDbEntity
  8
0
100
AcDbCircle
 62
7
  6
CONTINUOUS
 10
76.5243940413
 20
50.503501067
 40
3.00393923
100
AcDbArc
 50
180.0112248082
 51
182.7768916633
  0
ARC
  5
415
100
AcDbEntity
  8
0
100
AcDbCircle
 62
7
  6
CONTINUOUS
 10
96.9332153293
 20
141.5190274027
 40
2.5813705644
100
AcDbArc
 50
107.0442985809
 51
112.6118683444
  0
ARC
  5
416
100
AcDbEntity
  8
0
100
AcDbCircle
 62
7
  6
CONTINUOUS
 10
79.2554722007
 20
151.7250462657
 40
2.5813705645
100
AcDbArc
 50
107.0442985809
 51
112.6118683444
  0
ARC
  5
417
100
AcDbEntity
  8
0
100
AcDbCircle
 62
7
  6
CONTINUOUS
 10
61.577729072
 20
161.9310651287
 40
2.5813705645
100
AcDbArc
 50
107.0442985809
 51
112.6118683444
  0
ARC
  5
418
100
AcDbEntity
  8
0
100
AcDbCircle
 62
7
  6
CONTINUOUS
 10
96.9108664798
 20
141.5737986854
 40
2.522216722
100
AcDbArc
 50
112.6215890424
 51
119.9809841406
  0
ARC
  5
419
100
AcDbEntity
  8
0
100
AcDbCircle
 62
7
  6
CONTINUOUS
 10
79.2331233511
 20
151.7798175484
 40
2.522216722
100
AcDbArc
 50
112.6215890424
 51
119.9809841406
  0
ARC
  5
41A
100
AcDbEntity
  8
0
100
AcDbCircle
 62
7
  6
CONTINUOUS
 10
61.5553802224
 20
161.9858364114
 40
2.522216722
100
AcDbArc
 50
112.6215890424
 51
119.9809841405
  0
ARC
  5
41B
100
AcDbEntity
  8
0
100
AcDbCircle
 62
7
  6
CONTINUOUS
 10
97.1862195695
 20
141.7517146201
 40
2.5058466768
100
AcDbArc
 50
119.9996981588
 51
122.1149936785
  0
ARC
  5
41C
100
AcDbEntity
  8
0
100
AcDbCircle
 62
7
  6
CONTINUOUS
 10
79.5084764409
 20
151.9577334829
 40
2.5058466769
100
AcDbArc
 50
119.9996981589
 51
122.1149936784
  0
ARC
  5
41D
100
AcDbEntity
  8
0
100
AcDbCircle
 62
7
  6
CONTINUOUS
 10
61.8307333122
 20
162.163752346
 40
2.5058466768
100
AcDbArc
 50
119.9996981588
 51
122.1149936785
  0
ARC
  5
41E
100
AcDbEntity
  8
0
100
AcDbCircle
 62
7
  6
CONTINUOUS
 10
76.3042600808
 20
103.3415279407
 40
1.8527367294
100
AcDbArc
 50
163.3599331479
 51
165.1838544099
  0
ARC
  5
41F
100
AcDbEntity
  8
0
100
AcDbCircle
 62
7
  6
CONTINUOUS
 10
28.9279084959
 20
130.6936584935
 40
1.8527367293
100
AcDbArc
 50
163.3599331479
 51
165.18385441
  0
ARC
  5
420
100
AcDbEntity
  8
0
100
AcDbCircle
 62
7
  6
CONTINUOUS
 10
76.3042600808
 20
51.1670234861
 40
1.8527367294
100
AcDbArc
 50
163.3599331479
 51
165.1838544099
  0
ARC
  5
421
100
AcDbEntity
  8
0
100
AcDbCircle
 62
7
  6
CONTINUOUS
 10
76.7380004781
 20
47.4594563851
 40
1.047546312
100
AcDbArc
 50
300.0455680712
 51
311.2498664447
  0
ARC
  5
422
100
AcDbEntity
  8
0
100
AcDbCircle
 62
7
  6
CONTINUOUS
 10
74.6834320385
 20
51.0196880344
 40
1.0418675758
100
AcDbArc
 50
110.2845098172
 51
119.9976903207
  0
ARC
  5
423
100
AcDbEntity
  8
0
100
AcDbCircle
 62
7
  6
CONTINUOUS
 10
74.6834320385
 20
103.194192489
 40
1.0418675758
100
AcDbArc
 50
110.2845098172
 51
119.9976903208
  0
ARC
  5
424
100
AcDbEntity
  8
0
100
AcDbCircle
 62
7
  6
CONTINUOUS
 10
27.3070804536
 20
130.5463230419
 40
1.0418675758
100
AcDbArc
 50
110.2845098172
 51
119.9976903208
  0
ARC
  5
425
100
AcDbEntity
  8
0
100
AcDbCircle
 62
7
  6
CONTINUOUS
 10
27.307449328
 20
130.5469412279
 40
1.0415168125
100
AcDbArc
 50
120.0322671158
 51
126.2029278177
  0
ARC
  5
426
100
AcDbEntity
  8
0
100
AcDbCircle
 62
7
  6
CONTINUOUS
 10
74.6838009128
 20
103.194810675
 40
1.0415168125
100
AcDbArc
 50
120.0322671158
 51
126.2029278177
  0
ARC
  5
427
100
AcDbEntity
  8
0
100
AcDbCircle
 62
7
  6
CONTINUOUS
 10
74.6838009128
 20
51.0203062204
 40
1.0415168125
100
AcDbArc
 50
120.0322671158
 51
126.2029278177
  0
ARC
  5
428
100
AcDbEntity
  8
0
100
AcDbCircle
 62
7
  6
CONTINUOUS
 10
29.3696954717
 20
126.9739740017
 40
1.0330202784
100
AcDbArc
 50
299.9957515492
 51
304.5929823816
  0
ARC
  5
429
100
AcDbEntity
  8
0
100
AcDbCircle
 62
7
  6
CONTINUOUS
 10
76.7460470566
 20
99.6218434488
 40
1.0330202784
100
AcDbArc
 50
299.9957515491
 51
304.5929823816
  0
SPLINE
  5
42A
100
AcDbEntity
  8
0
100
AcDbSpline
 62
7
  6
CONTINUOUS
 70
0
 71
3
 72
11
 73
7
 74
0
 42
0.0000001
 43
0.0000001
 44
0.0000000001
 40
0.0
 40
0.0
 40
0.0
 40
0.0
 40
0.2666115873
 40
0.5231738469
 40
0.7680465275
 40
1.0
 40
1.0
 40
1.0
 40
1.0
 10
41.8586113993
 20
97.1860464893
 30
0.0
 10
41.5614624643
 20
96.1854639626
 30
0.0
 10
41.0486140406
 20
94.2001733913
 30
0.0
 10
40.5252185167
 20
91.2359051676
 30
0.0
 10
40.2671642838
 20
88.3727712565
 30
0.0
 10
40.2747552191
 20
86.5023243321
 30
0.0
 10
40.3277002128
 20
85.5957807991
 30
0.0
  0
SPLINE
  5
42B
100
AcDbEntity
  8
0
100
AcDbSpline
 62
7
  6
CONTINUOUS
 70
0
 71
3
 72
9
 73
5
 74
0
 42
0.0000001
 43
0.0000001
 44
0.0000000001
 40
0.0
 40
0.0
 40
0.0
 40
0.0
 40
0.5206784724
 40
1.0
 40
1.0
 40
1.0
 40
1.0
 10
40.3277002128
 20
85.5957807991
 30
0.0
 10
40.3902328133
 20
84.5250747594
 30
0.0
 10
40.6419671217
 20
82.4730452796
 30
0.0
 10
41.212103183
 20
80.4813868249
 30
0.0
 10
41.5738183753
 20
79.562690193
 30
0.0
  0
SPLINE
  5
42C
100
AcDbEntity
  8
0
100
AcDbSpline
 62
7
  6
CONTINUOUS
 70
0
 71
3
 72
13
 73
9
 74
0
 42
0.0000001
 43
0.0000001
 44
0.0000000001
 40
0.0
 40
0.0
 40
0.0
 40
0.0
 40
0.304474653
 40
0.5714591491
 40
0.689993648
 40
0.7993531892
 40
0.9016242574
 40
1.0
 40
1.0
 40
1.0
 40
1.0
 10
38.5434437885
 20
58.1368101568
 30
0.0
 10
38.456885309
 20
58.0483823753
 30
0.0
 10
38.2794872463
 20
57.8960576598
 30
0.0
 10
38.0281458244
 20
57.763492467
 30
0.0
 10
37.8322113526
 20
57.714165314
 30
0.0
 10
37.6973799852
 20
57.7057610899
 30
0.0
 10
37.5718242192
 20
57.7251842704
 30
0.0
 10
37.4956954226
 20
57.7570875579
 30
0.0
 10
37.4610768276
 20
57.7770878294
 30
0.0
  0
SPLINE
  5
42D
100
AcDbEntity
  8
0
100
AcDbSpline
 62
7
  6
CONTINUOUS
 70
0
 71
3
 72
11
 73
7
 74
0
 42
0.0000001
 43
0.0000001
 44
0.0000000001
 40
0.0
 40
0.0
 40
0.0
 40
0.0
 40
0.2651582035
 40
0.5277373141
 40
0.7758893678
 40
1.0
 40
1.0
 40
1.0
 40
1.0
 10
28.4341036045
 20
64.9922138506
 30
0.0
 10
28.358078832
 20
64.8913905756
 30
0.0
 10
28.2223870504
 20
64.6784865833
 30
0.0
 10
28.0722125863
 20
64.3393146079
 30
0.0
 10
27.9829472704
 20
63.9993656916
 30
0.0
 10
27.9672106128
 20
63.7729209701
 30
0.0
 10
27.9734331546
 20
63.6663763348
 30
0.0
  0
SPLINE
  5
42E
100
AcDbEntity
  8
0
100
AcDbSpline
 62
7
  6
CONTINUOUS
 70
0
 71
3
 72
11
 73
7
 74
0
 42
0.0000001
 43
0.0000001
 44
0.0000000001
 40
0.0
 40
0.0
 40
0.0
 40
0.0
 40
0.285780759
 40
0.5438830885
 40
0.7785978139
 40
1.0
 40
1.0
 40
1.0
 40
1.0
 10
27.9734331546
 20
63.6663763348
 30
0.0
 10
27.9772022502
 20
63.6018405031
 30
0.0
 10
27.994098636
 20
63.4791912225
 30
0.0
 10
28.0530169579
 20
63.311669952
 30
0.0
 10
28.1437430638
 20
63.1756214195
 30
0.0
 10
28.22528453
 20
63.1092714911
 30
0.0
 10
28.2686504007
 20
63.0842176382
 30
0.0
  0
SPLINE
  5
42F
100
AcDbEntity
  8
0
100
AcDbSpline
 62
7
  6
CONTINUOUS
 70
0
 71
3
 72
11
 73
7
 74
0
 42
0.0000001
 43
0.0000001
 44
0.0000000001
 40
0.0
 40
0.0
 40
0.0
 40
0.0
 40
0.2214021861
 40
0.4561169115
 40
0.714219241
 40
1.0
 40
1.0
 40
1.0
 40
1.0
 10
37.4610768276
 20
57.7770878294
 30
0.0
 10
37.4177109569
 20
57.8021416823
 30
0.0
 10
37.3361694907
 20
57.8684916108
 30
0.0
 10
37.2454433848
 20
58.0045401433
 30
0.0
 10
37.1865250629
 20
58.1720614138
 30
0.0
 10
37.1696286771
 20
58.2947106943
 30
0.0
 10
37.1658595815
 20
58.359246526
 30
0.0
  0
SPLINE
  5
430
100
AcDbEntity
  8
0
100
AcDbSpline
 62
7
  6
CONTINUOUS
 70
0
 71
3
 72
11
 73
7
 74
0
 42
0.0000001
 43
0.0000001
 44
0.0000000001
 40
0.0
 40
0.0
 40
0.0
 40
0.0
 40
0.2241106322
 40
0.4722626859
 40
0.7348417965
 40
1.0
 40
1.0
 40
1.0
 40
1.0
 10
37.1658595815
 20
58.359246526
 30
0.0
 10
37.1596370397
 20
58.4657911613
 30
0.0
 10
37.1753736973
 20
58.6922358828
 30
0.0
 10
37.2646390132
 20
59.0321847991
 30
0.0
 10
37.4148134773
 20
59.3713567745
 30
0.0
 10
37.5505052589
 20
59.5842607668
 30
0.0
 10
37.6265300314
 20
59.6850840418
 30
0.0
  0
SPLINE
  5
431
100
AcDbEntity
  8
0
100
AcDbSpline
 62
7
  6
CONTINUOUS
 70
0
 71
3
 72
11
 73
7
 74
0
 42
0.0000001
 43
0.0000001
 44
0.0000000001
 40
0.0
 40
0.0
 40
0.0
 40
0.0
 40
0.2895391946
 40
0.5491157945
 40
0.7822541179
 40
1.0
 40
1.0
 40
1.0
 40
1.0
 10
78.5409339175
 20
22.9460302113
 30
0.0
 10
78.4488420761
 20
22.9991982579
 30
0.0
 10
78.2654888539
 20
23.0863063817
 30
0.0
 10
77.9837860643
 20
23.154491423
 30
0.0
 10
77.7193301007
 20
23.1478481679
 30
0.0
 10
77.5602540779
 20
23.0899146122
 30
0.0
 10
77.4909973693
 20
23.0499294385
 30
0.0
  0
SPLINE
  5
432
100
AcDbEntity
  8
0
100
AcDbSpline
 62
7
  6
CONTINUOUS
 70
0
 71
3
 72
11
 73
7
 74
0
 42
0.0000001
 43
0.0000001
 44
0.0000000001
 40
0.0
 40
0.0
 40
0.0
 40
0.0
 40
0.2372539654
 40
0.5000012591
 40
0.7627478695
 40
1.0
 40
1.0
 40
1.0
 40
1.0
 10
26.9926349543
 20
50.9921261399
 30
0.0
 10
26.9926349543
 20
51.2355704944
 30
0.0
 10
26.9013599964
 20
51.748963846
 30
0.0
 10
26.5829879105
 20
52.4702640727
 30
0.0
 10
26.1175077104
 20
53.1066287515
 30
0.0
 10
25.7185330888
 20
53.4423676297
 30
0.0
 10
25.5077045315
 20
53.5640868003
 30
0.0
  0
SPLINE
  5
433
100
AcDbEntity
  8
0
100
AcDbSpline
 62
7
  6
CONTINUOUS
 70
0
 71
3
 72
11
 73
7
 74
0
 42
0.0000001
 43
0.0000001
 44
0.0000000001
 40
0.0
 40
0.0
 40
0.0
 40
0.0
 40
0.2895391946
 40
0.5491157945
 40
0.7822541179
 40
1.0
 40
1.0
 40
1.0
 40
1.0
 10
43.1854476601
 20
43.439718179
 30
0.0
 10
43.088970493
 20
43.4954180374
 30
0.0
 10
42.896886165
 20
43.5866741671
 30
0.0
 10
42.6017689568
 20
43.6581061151
 30
0.0
 10
42.3247198521
 20
43.6511465145
 30
0.0
 10
42.1580687805
 20
43.5904542181
 30
0.0
 10
42.0855141335
 20
43.5485649885
 30
0.0
  0
SPLINE
  5
434
100
AcDbEntity
  8
0
100
AcDbSpline
 62
7
  6
CONTINUOUS
 70
0
 71
3
 72
11
 73
7
 74
0
 42
0.0000001
 43
0.0000001
 44
0.0000000001
 40
0.0
 40
0.0
 40
0.0
 40
0.0
 40
0.2372539654
 40
0.5000012591
 40
0.7627478695
 40
1.0
 40
1.0
 40
1.0
 40
1.0
 10
44.7410890555
 20
40.7452832014
 30
0.0
 10
44.7410890555
 20
41.0003201443
 30
0.0
 10
44.6454676711
 20
41.5381607983
 30
0.0
 10
44.3119350096
 20
42.2938086549
 30
0.0
 10
43.8242890857
 20
42.9604764135
 30
0.0
 10
43.4063156726
 20
43.3122028574
 30
0.0
 10
43.1854476601
 20
43.439718179
 30
0.0
  0
SPLINE
  5
435
100
AcDbEntity
  8
0
100
AcDbSpline
 62
7
  6
CONTINUOUS
 70
0
 71
3
 72
11
 73
7
 74
0
 42
0.0000001
 43
0.0000001
 44
0.0000000001
 40
0.0
 40
0.0
 40
0.0
 40
0.0
 40
0.2895391946
 40
0.5491157945
 40
0.7822541179
 40
1.0
 40
1.0
 40
1.0
 40
1.0
 10
60.8631907888
 20
33.233699316
 30
0.0
 10
60.7667136216
 20
33.2893991744
 30
0.0
 10
60.5746292936
 20
33.380655304
 30
0.0
 10
60.2795120855
 20
33.4520872521
 30
0.0
 10
60.0024629808
 20
33.4451276515
 30
0.0
 10
59.8358119092
 20
33.384435355
 30
0.0
 10
59.7632572622
 20
33.3425461255
 30
0.0
  0
SPLINE
  5
436
100
AcDbEntity
  8
0
100
AcDbSpline
 62
7
  6
CONTINUOUS
 70
0
 71
3
 72
11
 73
7
 74
0
 42
0.0000001
 43
0.0000001
 44
0.0000000001
 40
0.0
 40
0.0
 40
0.0
 40
0.0
 40
0.2372539654
 40
0.5000012591
 40
0.7627478695
 40
1.0
 40
1.0
 40
1.0
 40
1.0
 10
62.4188321841
 20
30.5392643384
 30
0.0
 10
62.4188321841
 20
30.7943012813
 30
0.0
 10
62.3232107997
 20
31.3321419352
 30
0.0
 10
61.9896781382
 20
32.0877897919
 30
0.0
 10
61.5020322143
 20
32.7544575505
 30
0.0
 10
61.0840588012
 20
33.1061839944
 30
0.0
 10
60.8631907888
 20
33.233699316
 30
0.0
  0
SPLINE
  5
437
100
AcDbEntity
  8
0
100
AcDbSpline
 62
7
  6
CONTINUOUS
 70
0
 71
3
 72
11
 73
7
 74
0
 42
0.0000001
 43
0.0000001
 44
0.0000000001
 40
0.0
 40
0.0
 40
0.0
 40
0.0
 40
0.2277778452
 40
0.4751000247
 40
0.7352197107
 40
1.0
 40
1.0
 40
1.0
 40
1.0
 10
37.9528356941
 20
43.9632871989
 30
0.0
 10
37.9528356941
 20
44.2869090944
 30
0.0
 10
37.8854935394
 20
44.9626144509
 30
0.0
 10
37.6214765815
 20
45.976700533
 30
0.0
 10
37.2023741731
 20
46.9939895448
 30
0.0
 10
36.8316982728
 20
47.6438364887
 30
0.0
 10
36.6247802916
 20
47.9580132035
 30
0.0
  0
SPLINE
  5
438
100
AcDbEntity
  8
0
100
AcDbSpline
 62
7
  6
CONTINUOUS
 70
0
 71
3
 72
11
 73
7
 74
0
 42
0.0000001
 43
0.0000001
 44
0.0000000001
 40
0.0
 40
0.0
 40
0.0
 40
0.0
 40
0.2277778452
 40
0.4751000247
 40
0.7352197107
 40
1.0
 40
1.0
 40
1.0
 40
1.0
 10
55.6305788227
 20
33.7572683359
 30
0.0
 10
55.6305788227
 20
34.0808902314
 30
0.0
 10
55.5632366681
 20
34.7565955879
 30
0.0
 10
55.2992197101
 20
35.77068167
 30
0.0
 10
54.8801173018
 20
36.7879706818
 30
0.0
 10
54.5094414014
 20
37.4378176257
 30
0.0
 10
54.3025234202
 20
37.7519943405
 30
0.0
  0
SPLINE
  5
439
100
AcDbEntity
  8
0
100
AcDbSpline
 62
7
  6
CONTINUOUS
 70
0
 71
3
 72
11
 73
7
 74
0
 42
0.0000001
 43
0.0000001
 44
0.0000000001
 40
0.0
 40
0.0
 40
0.0
 40
0.0
 40
0.2277778452
 40
0.4751000247
 40
0.7352197107
 40
1.0
 40
1.0
 40
1.0
 40
1.0
 10
73.3083219514
 20
23.5512494729
 30
0.0
 10
73.3083219514
 20
23.8748713684
 30
0.0
 10
73.2409797968
 20
24.5505767249
 30
0.0
 10
72.9769628388
 20
25.564662807
 30
0.0
 10
72.5578604305
 20
26.5819518188
 30
0.0
 10
72.1871845301
 20
27.2317987627
 30
0.0
 10
71.9802665489
 20
27.5459754775
 30
0.0
  0
SPLINE
  5
43A
100
AcDbEntity
  8
0
100
AcDbSpline
 62
7
  6
CONTINUOUS
 70
0
 71
3
 72
9
 73
5
 74
0
 42
0.0000001
 43
0.0000001
 44
0.0000000001
 40
0.0
 40
0.0
 40
0.0
 40
0.0
 40
0.2277435414
 40
1.0
 40
1.0
 40
1.0
 40
1.0
 10
77.6924022473
 20
47.0080063004
 30
0.0
 10
77.7281990977
 20
47.0743329618
 30
0.0
 10
77.8617914567
 20
47.3783974407
 30
0.0
 10
77.9045351649
 20
47.7162473809
 30
0.0
 10
77.9045351649
 20
47.9718198877
 30
0.0
  0
SPLINE
  5
43B
100
AcDbEntity
  8
0
100
AcDbSpline
 62
7
  6
CONTINUOUS
 70
0
 71
3
 72
17
 73
13
 74
0
 42
0.0000001
 43
0.0000001
 44
0.0000000001
 40
0.0
 40
0.0
 40
0.0
 40
0.0
 40
0.1266146605
 40
0.2656912944
 40
0.4106567689
 40
0.5539615808
 40
0.6883213355
 40
0.8080359259
 40
0.8615981943
 40
0.910995433
 40
0.9567824972
 40
1.0
 40
1.0
 40
1.0
 40
1.0
 10
77.9045351649
 20
47.9718198877
 30
0.0
 10
77.9045351649
 20
48.2251423036
 30
0.0
 10
77.8367165766
 20
48.7573266482
 30
0.0
 10
77.5815300591
 20
49.5421524647
 30
0.0
 10
77.1860505703
 20
50.3044445114
 30
0.0
 10
76.6797853178
 20
50.9865668472
 30
0.0
 10
76.1008873791
 20
51.5374423337
 30
0.0
 10
75.5723886375
 20
51.8658845538
 30
0.0
 10
75.1515234119
 20
52.0167199095
 30
0.0
 10
74.8572767645
 20
52.0708765921
 30
0.0
 10
74.578535726
 20
52.0681274319
 30
0.0
 10
74.403335691
 20
52.0269287666
 30
0.0
 10
74.3222352241
 20
51.9969417921
 30
0.0
  0
SPLINE
  5
43C
100
AcDbEntity
  8
0
100
AcDbSpline
 62
7
  6
CONTINUOUS
 70
0
 71
3
 72
11
 73
7
 74
0
 42
0.0000001
 43
0.0000001
 44
0.0000000001
 40
0.0
 40
0.0
 40
0.0
 40
0.0
 40
0.2897033281
 40
0.5490895198
 40
0.7822165953
 40
1.0
 40
1.0
 40
1.0
 40
1.0
 10
15.6011797721
 20
113.8996317504
 30
0.0
 10
15.6011797721
 20
114.1023043279
 30
0.0
 10
15.6319079167
 20
114.487744616
 30
0.0
 10
15.788006609
 20
115.0173193732
 30
0.0
 10
16.0508249645
 20
115.4470393405
 30
0.0
 10
16.2976911737
 20
115.6545794361
 30
0.0
 10
16.4296376061
 20
115.7307582314
 30
0.0
  0
SPLINE
  5
43D
100
AcDbEntity
  8
0
100
AcDbSpline
 62
7
  6
CONTINUOUS
 70
0
 71
3
 72
13
 73
9
 74
0
 42
0.0000001
 43
0.0000001
 44
0.0000000001
 40
0.0
 40
0.0
 40
0.0
 40
0.0
 40
0.1142250362
 40
0.2375584228
 40
0.4999988469
 40
0.762439898
 40
0.8857740437
 40
1.0
 40
1.0
 40
1.0
 40
1.0
 10
18.4296186727
 20
78.79006963
 30
0.0
 10
18.2360434459
 20
78.9018278109
 30
0.0
 10
17.8535604368
 20
79.1700019598
 30
0.0
 10
17.1374372949
 20
79.8401226251
 30
0.0
 10
16.3810898993
 20
80.8733284811
 30
0.0
 10
15.8644750795
 20
82.0449462996
 30
0.0
 10
15.6421880687
 20
83.0001904073
 30
0.0
 10
15.6011797721
 20
83.4655203617
 30
0.0
 10
15.6011797721
 20
83.6890423166
 30
0.0
  0
SPLINE
  5
43E
100
AcDbEntity
  8
0
100
AcDbSpline
 62
7
  6
CONTINUOUS
 70
0
 71
3
 72
11
 73
7
 74
0
 42
0.0000001
 43
0.0000001
 44
0.0000000001
 40
0.0
 40
0.0
 40
0.0
 40
0.0
 40
0.2372523758
 40
0.4999990758
 40
0.7627462798
 40
1.0
 40
1.0
 40
1.0
 40
1.0
 10
120.9671641503
 20
44.0113692916
 30
0.0
 10
120.7563353751
 20
44.1330885881
 30
0.0
 10
120.3573605308
 20
44.4688277673
 30
0.0
 10
119.8918803407
 20
45.1051927651
 30
0.0
 10
119.5735085361
 20
45.826492841
 30
0.0
 10
119.4822337275
 20
46.3398858492
 30
0.0
 10
119.4822337275
 20
46.5833299521
 30
0.0
  0
SPLINE
  5
43F
100
AcDbEntity
  8
0
100
AcDbSpline
 62
7
  6
CONTINUOUS
 70
0
 71
3
 72
11
 73
7
 74
0
 42
0.0000001
 43
0.0000001
 44
0.0000000001
 40
0.0
 40
0.0
 40
0.0
 40
0.0
 40
0.2372523758
 40
0.4999990758
 40
0.7627462798
 40
1.0
 40
1.0
 40
1.0
 40
1.0
 10
120.9671641503
 20
137.0109946027
 30
0.0
 10
120.7462959096
 20
137.1385100562
 30
0.0
 10
120.3283222632
 20
137.4902368153
 30
0.0
 10
119.8406763498
 20
138.1569049082
 30
0.0
 10
119.507143983
 20
138.9125526068
 30
0.0
 10
119.411522755
 20
139.4503929011
 30
0.0
 10
119.411522755
 20
139.7054295803
 30
0.0
  0
SPLINE
  5
440
100
AcDbEntity
  8
0
100
AcDbSpline
 62
7
  6
CONTINUOUS
 70
0
 71
3
 72
11
 73
7
 74
0
 42
0.0000001
 43
0.0000001
 44
0.0000000001
 40
0.0
 40
0.0
 40
0.0
 40
0.0
 40
0.217745073
 40
0.4508830113
 40
0.7104597664
 40
1.0
 40
1.0
 40
1.0
 40
1.0
 10
61.9631243155
 20
29.5322418712
 30
0.0
 10
62.0356806337
 20
29.5741320656
 30
0.0
 10
62.1715708156
 20
29.6881126175
 30
0.0
 10
62.3161249192
 20
29.9245712964
 30
0.0
 10
62.4018218074
 20
30.2158750484
 30
0.0
 10
62.4188321841
 20
30.4278593519
 30
0.0
 10
62.4188321841
 20
30.5392643384
 30
0.0
  0
SPLINE
  5
441
100
AcDbEntity
  8
0
100
AcDbSpline
 62
7
  6
CONTINUOUS
 70
0
 71
3
 72
11
 73
7
 74
0
 42
0.0000001
 43
0.0000001
 44
0.0000000001
 40
0.0
 40
0.0
 40
0.0
 40
0.0
 40
0.217745073
 40
0.4508830113
 40
0.7104597664
 40
1.0
 40
1.0
 40
1.0
 40
1.0
 10
44.2853811868
 20
39.7382607342
 30
0.0
 10
44.357937505
 20
39.7801509286
 30
0.0
 10
44.4938276869
 20
39.8941314805
 30
0.0
 10
44.6383817905
 20
40.1305901595
 30
0.0
 10
44.7240786787
 20
40.4218939114
 30
0.0
 10
44.7410890555
 20
40.6338782149
 30
0.0
 10
44.7410890555
 20
40.7452832014
 30
0.0
  0
SPLINE
  5
442
100
AcDbEntity
  8
0
100
AcDbSpline
 62
7
  6
CONTINUOUS
 70
0
 71
3
 72
13
 73
9
 74
0
 42
0.0000001
 43
0.0000001
 44
0.0000000001
 40
0.0
 40
0.0
 40
0.0
 40
0.0
 40
0.0974273173
 40
0.198988139
 40
0.3080176323
 40
0.4266327234
 40
0.6946141368
 40
1.0
 40
1.0
 40
1.0
 40
1.0
 10
77.1124636332
 20
46.8125348008
 30
0.0
 10
77.0424474042
 20
46.7720736404
 30
0.0
 10
76.8877878625
 20
46.7081803091
 30
0.0
 10
76.6323842967
 20
46.6720977623
 30
0.0
 10
76.3581040327
 20
46.6943931018
 30
0.0
 10
75.9596103224
 20
46.8041137787
 30
0.0
 10
75.4515570452
 20
47.088338414
 30
0.0
 10
75.0961979456
 20
47.4097902321
 30
0.0
 10
74.9238670155
 20
47.5956719186
 30
0.0
  0
SPLINE
  5
443
100
AcDbEntity
  8
0
100
AcDbSpline
 62
7
  6
CONTINUOUS
 70
0
 71
3
 72
11
 73
7
 74
0
 42
0.0000001
 43
0.0000001
 44
0.0000000001
 40
0.0
 40
0.0
 40
0.0
 40
0.0
 40
0.2575581693
 40
0.519419875
 40
0.7711197848
 40
1.0
 40
1.0
 40
1.0
 40
1.0
 10
74.9238670155
 20
47.5956719186
 30
0.0
 10
74.7435513222
 20
47.7901662278
 30
0.0
 10
74.4159917706
 20
48.2169867501
 30
0.0
 10
74.0406956068
 20
48.9206997621
 30
0.0
 10
73.7975417238
 20
49.6493187622
 30
0.0
 10
73.7325877865
 20
50.1447511745
 30
0.0
 10
73.7325877865
 20
50.3804403394
 30
0.0
  0
SPLINE
  5
444
100
AcDbEntity
  8
0
100
AcDbSpline
 62
7
  6
CONTINUOUS
 70
0
 71
3
 72
9
 73
5
 74
0
 42
0.0000001
 43
0.0000001
 44
0.0000000001
 40
0.0
 40
0.0
 40
0.0
 40
0.0
 40
0.2428122072
 40
1.0
 40
1.0
 40
1.0
 40
1.0
 10
77.4286939192
 20
46.6718677575
 30
0.0
 10
77.4547791884
 20
46.6947286738
 30
0.0
 10
77.5576292594
 20
46.7940705078
 30
0.0
 10
77.6410306119
 20
46.9128216952
 30
0.0
 10
77.6924022473
 20
47.0080063004
 30
0.0
  0
SPLINE
  5
445
100
AcDbEntity
  8
0
100
AcDbSpline
 62
7
  6
CONTINUOUS
 70
0
 71
3
 72
11
 73
7
 74
0
 42
0.0000001
 43
0.0000001
 44
0.0000000001
 40
0.0
 40
0.0
 40
0.0
 40
0.0
 40
0.2372539654
 40
0.5000012591
 40
0.7627478695
 40
1.0
 40
1.0
 40
1.0
 40
1.0
 10
27.0633459268
 20
144.0325776172
 30
0.0
 10
27.0633459268
 20
144.2876145601
 30
0.0
 10
26.9677245424
 20
144.825455214
 30
0.0
 10
26.6341918809
 20
145.5811030707
 30
0.0
 10
26.146545957
 20
146.2477708293
 30
0.0
 10
25.7285725439
 20
146.5994972732
 30
0.0
 10
25.5077045315
 20
146.7270125948
 30
0.0
  0
SPLINE
  5
446
100
AcDbEntity
  8
0
100
AcDbSpline
 62
7
  6
CONTINUOUS
 70
0
 71
3
 72
11
 73
7
 74
0
 42
0.0000001
 43
0.0000001
 44
0.0000000001
 40
0.0
 40
0.0
 40
0.0
 40
0.0
 40
0.2895391946
 40
0.5491157945
 40
0.7822541179
 40
1.0
 40
1.0
 40
1.0
 40
1.0
 10
78.5409339175
 20
116.1089560058
 30
0.0
 10
78.4444567503
 20
116.1646558641
 30
0.0
 10
78.2523724223
 20
116.2559119938
 30
0.0
 10
77.9572552142
 20
116.3273439419
 30
0.0
 10
77.6802061095
 20
116.3203843413
 30
0.0
 10
77.5135550379
 20
116.2596920448
 30
0.0
 10
77.4410003908
 20
116.2178028152
 30
0.0
  0
SPLINE
  5
447
100
AcDbEntity
  8
0
100
AcDbSpline
 62
7
  6
CONTINUOUS
 70
0
 71
3
 72
15
 73
11
 74
0
 42
0.0000001
 43
0.0000001
 44
0.0000000001
 40
0.0
 40
0.0
 40
0.0
 40
0.0
 40
0.1287972074
 40
0.2706054898
 40
0.4178799053
 40
0.562375555
 40
0.6961915357
 40
0.8135903033
 40
0.913065596
 40
1.0
 40
1.0
 40
1.0
 40
1.0
 10
39.6852545207
 20
134.2959728976
 30
0.0
 10
39.6852545207
 20
134.3942438552
 30
0.0
 10
39.6577009858
 20
134.6009390588
 30
0.0
 10
39.5551503478
 20
134.9044220913
 30
0.0
 10
39.3968903761
 20
135.1967421819
 30
0.0
 10
39.1960504907
 20
135.4539171112
 30
0.0
 10
38.9684817742
 20
135.6554300185
 30
0.0
 10
38.731177062
 20
135.7850748505
 30
0.0
 10
38.4988464751
 20
135.8316550622
 30
0.0
 10
38.3545742575
 20
135.7944590623
 30
0.0
 10
38.2971055585
 20
135.7613376774
 30
0.0
  0
SPLINE
  5
448
100
AcDbEntity
  8
0
100
AcDbSpline
 62
7
  6
CONTINUOUS
 70
0
 71
3
 72
15
 73
11
 74
0
 42
0.0000001
 43
0.0000001
 44
0.0000000001
 40
0.0
 40
0.0
 40
0.0
 40
0.0
 40
0.1287972074
 40
0.2706054898
 40
0.4178799053
 40
0.562375555
 40
0.6961915357
 40
0.8135903033
 40
0.913065596
 40
1.0
 40
1.0
 40
1.0
 40
1.0
 10
65.9897362961
 20
119.1094168294
 30
0.0
 10
65.9897362961
 20
119.207687787
 30
0.0
 10
65.9621827613
 20
119.4143829906
 30
0.0
 10
65.8596321232
 20
119.7178660232
 30
0.0
 10
65.7013721516
 20
120.0101861137
 30
0.0
 10
65.5005322662
 20
120.267361043
 30
0.0
 10
65.2729635497
 20
120.4688739504
 30
0.0
 10
65.0356588374
 20
120.5985187824
 30
0.0
 10
64.8033282506
 20
120.645098994
 30
0.0
 10
64.659056033
 20
120.6079029942
 30
0.0
 10
64.6015873339
 20
120.5747816092
 30
0.0
  0
SPLINE
  5
449
100
AcDbEntity
  8
0
100
AcDbSpline
 62
7
  6
CONTINUOUS
 70
0
 71
3
 72
17
 73
13
 74
0
 42
0.0000001
 43
0.0000001
 44
0.0000000001
 40
0.0
 40
0.0
 40
0.0
 40
0.0
 40
0.128694094
 40
0.2702787256
 40
0.41743435
 40
0.5617778939
 40
0.6954482501
 40
0.8127108639
 40
0.8646770521
 40
0.9125096585
 40
0.9571396658
 40
1.0
 40
1.0
 40
1.0
 40
1.0
 10
37.9528356941
 20
138.4467772434
 30
0.0
 10
37.9528356941
 20
138.8827188729
 30
0.0
 10
37.8308908127
 20
139.7993162702
 30
0.0
 10
37.375665872
 20
141.1451207158
 30
0.0
 10
36.6742944696
 20
142.4415718235
 30
0.0
 10
35.7830670159
 20
143.5823503193
 30
0.0
 10
34.7748227288
 20
144.475326224
 30
0.0
 10
33.8622007971
 20
144.9742292397
 30
0.0
 10
33.148346222
 20
145.164258663
 30
0.0
 10
32.6570158752
 20
145.2002831234
 30
0.0
 10
32.199492887
 20
145.1333387933
 30
0.0
 10
31.9223504202
 20
145.0180858706
 30
0.0
 10
31.7966026001
 20
144.9455151282
 30
0.0
  0
SPLINE
  5
44A
100
AcDbEntity
  8
0
100
AcDbSpline
 62
7
  6
CONTINUOUS
 70
0
 71
3
 72
17
 73
13
 74
0
 42
0.0000001
 43
0.0000001
 44
0.0000000001
 40
0.0
 40
0.0
 40
0.0
 40
0.0
 40
0.128694094
 40
0.2702787256
 40
0.41743435
 40
0.5617778939
 40
0.6954482501
 40
0.8127108639
 40
0.8646770521
 40
0.9125096585
 40
0.9571396658
 40
1.0
 40
1.0
 40
1.0
 40
1.0
 10
55.6305788227
 20
128.2407583804
 30
0.0
 10
55.6305788227
 20
128.6767000098
 30
0.0
 10
55.5086339413
 20
129.5932974072
 30
0.0
 10
55.0534090007
 20
130.9391018528
 30
0.0
 10
54.3520375983
 20
132.2355529605
 30
0.0
 10
53.4608101446
 20
133.3763314563
 30
0.0
 10
52.4525658575
 20
134.269307361
 30
0.0
 10
51.5399439258
 20
134.7682103767
 30
0.0
 10
50.8260893506
 20
134.9582398
 30
0.0
 10
50.3347590039
 20
134.9942642604
 30
0.0
 10
49.8772360157
 20
134.9273199302
 30
0.0
 10
49.6000935489
 20
134.8120670076
 30
0.0
 10
49.4743457288
 20
134.7394962652
 30
0.0
  0
SPLINE
  5
44B
100
AcDbEntity
  8
0
100
AcDbSpline
 62
7
  6
CONTINUOUS
 70
0
 71
3
 72
17
 73
13
 74
0
 42
0.0000001
 43
0.0000001
 44
0.0000000001
 40
0.0
 40
0.0
 40
0.0
 40
0.0
 40
0.128694094
 40
0.2702787256
 40
0.41743435
 40
0.5617778939
 40
0.6954482501
 40
0.8127108639
 40
0.8646770521
 40
0.9125096585
 40
0.9571396658
 40
1.0
 40
1.0
 40
1.0
 40
1.0
 10
73.3083219514
 20
118.0347395174
 30
0.0
 10
73.3083219514
 20
118.4706811468
 30
0.0
 10
73.18637707
 20
119.3872785441
 30
0.0
 10
72.7311521294
 20
120.7330829898
 30
0.0
 10
72.029780727
 20
122.0295340975
 30
0.0
 10
71.1385532733
 20
123.1703125933
 30
0.0
 10
70.1303089861
 20
124.063288498
 30
0.0
 10
69.2176870545
 20
124.5621915137
 30
0.0
 10
68.5038324793
 20
124.752220937
 30
0.0
 10
68.0125021326
 20
124.7882453973
 30
0.0
 10
67.5549791443
 20
124.7213010672
 30
0.0
 10
67.2778366776
 20
124.6060481446
 30
0.0
 10
67.1520888574
 20
124.5334774022
 30
0.0
  0
SPLINE
  5
44C
100
AcDbEntity
  8
0
100
AcDbSpline
 62
7
  6
CONTINUOUS
 70
0
 71
3
 72
11
 73
7
 74
0
 42
0.0000001
 43
0.0000001
 44
0.0000000001
 40
0.0
 40
0.0
 40
0.0
 40
0.0
 40
0.2895391946
 40
0.5491157945
 40
0.7822541179
 40
1.0
 40
1.0
 40
1.0
 40
1.0
 10
45.0239176369
 20
137.5824285319
 30
0.0
 10
44.9274404697
 20
137.6381283902
 30
0.0
 10
44.7353561417
 20
137.7293845199
 30
0.0
 10
44.4402389336
 20
137.800816468
 30
0.0
 10
44.1631898289
 20
137.7938568673
 30
0.0
 10
43.9965387573
 20
137.7331645709
 30
0.0
 10
43.9239841102
 20
137.6912753413
 30
0.0
  0
SPLINE
  5
44D
100
AcDbEntity
  8
0
100
AcDbSpline
 62
7
  6
CONTINUOUS
 70
0
 71
3
 72
9
 73
5
 74
0
 42
0.0000001
 43
0.0000001
 44
0.0000000001
 40
0.0
 40
0.0
 40
0.0
 40
0.0
 40
0.524878868
 40
1.0
 40
1.0
 40
1.0
 40
1.0
 10
45.9833027697
 20
136.6462151962
 30
0.0
 10
45.8513594716
 20
136.8418570968
 30
0.0
 10
45.5647503166
 20
137.192118235
 30
0.0
 10
45.2089069453
 20
137.475627321
 30
0.0
 10
45.0239176369
 20
137.5824285319
 30
0.0
  0
SPLINE
  5
44E
100
AcDbEntity
  8
0
100
AcDbSpline
 62
7
  6
CONTINUOUS
 70
0
 71
3
 72
11
 73
7
 74
0
 42
0.0000001
 43
0.0000001
 44
0.0000000001
 40
0.0
 40
0.0
 40
0.0
 40
0.0
 40
0.2895391946
 40
0.5491157945
 40
0.7822541179
 40
1.0
 40
1.0
 40
1.0
 40
1.0
 10
62.7016607656
 20
127.3764096689
 30
0.0
 10
62.6051835984
 20
127.4321095272
 30
0.0
 10
62.4130992704
 20
127.5233656569
 30
0.0
 10
62.1179820623
 20
127.5947976049
 30
0.0
 10
61.8409329575
 20
127.5878380043
 30
0.0
 10
61.674281886
 20
127.5271457079
 30
0.0
 10
61.6017272389
 20
127.4852564783
 30
0.0
  0
SPLINE
  5
44F
100
AcDbEntity
  8
0
100
AcDbSpline
 62
7
  6
CONTINUOUS
 70
0
 71
3
 72
9
 73
5
 74
0
 42
0.0000001
 43
0.0000001
 44
0.0000000001
 40
0.0
 40
0.0
 40
0.0
 40
0.0
 40
0.524878868
 40
1.0
 40
1.0
 40
1.0
 40
1.0
 10
63.6610458984
 20
126.4401963331
 30
0.0
 10
63.5291026003
 20
126.6358382337
 30
0.0
 10
63.2424934452
 20
126.986099372
 30
0.0
 10
62.886650074
 20
127.269608458
 30
0.0
 10
62.7016607656
 20
127.3764096689
 30
0.0
  0
SPLINE
  5
450
100
AcDbEntity
  8
0
100
AcDbSpline
 62
7
  6
CONTINUOUS
 70
0
 71
3
 72
11
 73
7
 74
0
 42
0.0000001
 43
0.0000001
 44
0.0000000001
 40
0.0
 40
0.0
 40
0.0
 40
0.0
 40
0.2177804224
 40
0.4509245649
 40
0.7102604319
 40
1.0
 40
1.0
 40
1.0
 40
1.0
 10
54.5742927202
 20
31.4225861472
 30
0.0
 10
54.7425396438
 20
31.5196836883
 30
0.0
 10
55.0572810655
 20
31.7843490032
 30
0.0
 10
55.3923670998
 20
32.3321946756
 30
0.0
 10
55.5914572733
 20
33.0073951583
 30
0.0
 10
55.6305788227
 20
33.4988276302
 30
0.0
 10
55.6305788227
 20
33.7572683359
 30
0.0
  0
SPLINE
  5
451
100
AcDbEntity
  8
0
100
AcDbSpline
 62
7
  6
CONTINUOUS
 70
0
 71
3
 72
11
 73
7
 74
0
 42
0.0000001
 43
0.0000001
 44
0.0000000001
 40
0.0
 40
0.0
 40
0.0
 40
0.0
 40
0.2177804224
 40
0.4509245649
 40
0.7102604319
 40
1.0
 40
1.0
 40
1.0
 40
1.0
 10
36.8965495915
 20
41.6286050102
 30
0.0
 10
37.0647965151
 20
41.7257025514
 30
0.0
 10
37.3795379368
 20
41.9903678662
 30
0.0
 10
37.7146239711
 20
42.5382135386
 30
0.0
 10
37.9137141446
 20
43.2134140213
 30
0.0
 10
37.9528356941
 20
43.7048464932
 30
0.0
 10
37.9528356941
 20
43.9632871989
 30
0.0
  0
SPLINE
  5
452
100
AcDbEntity
  8
0
100
AcDbSpline
 62
7
  6
CONTINUOUS
 70
0
 71
3
 72
11
 73
7
 74
0
 42
0.0000001
 43
0.0000001
 44
0.0000000001
 40
0.0
 40
0.0
 40
0.0
 40
0.0
 40
0.2177804224
 40
0.4509245649
 40
0.7102604319
 40
1.0
 40
1.0
 40
1.0
 40
1.0
 10
72.2520358489
 20
21.2165672842
 30
0.0
 10
72.4202827724
 20
21.3136648253
 30
0.0
 10
72.7350241942
 20
21.5783301402
 30
0.0
 10
73.0701102285
 20
22.1261758126
 30
0.0
 10
73.2692004019
 20
22.8013762953
 30
0.0
 10
73.3083219514
 20
23.2928087672
 30
0.0
 10
73.3083219514
 20
23.5512494729
 30
0.0
  0
SPLINE
  5
453
100
AcDbEntity
  8
0
100
AcDbSpline
 62
7
  6
CONTINUOUS
 70
0
 71
3
 72
11
 73
7
 74
0
 42
0.0000001
 43
0.0000001
 44
0.0000000001
 40
0.0
 40
0.0
 40
0.0
 40
0.0
 40
0.2878853603
 40
0.5529705163
 40
0.7904718432
 40
1.0
 40
1.0
 40
1.0
 40
1.0
 10
107.7964405907
 20
145.28841687
 30
0.0
 10
107.4435945112
 20
145.6819835965
 30
0.0
 10
106.7146846443
 20
146.3945670899
 30
0.0
 10
105.5270414692
 20
147.2407873691
 30
0.0
 10
104.3321802629
 20
147.7924822105
 30
0.0
 10
103.5141965027
 20
147.9516263382
 30
0.0
 10
103.1296457592
 20
147.9626561391
 30
0.0
  0
SPLINE
  5
454
100
AcDbEntity
  8
0
100
AcDbSpline
 62
7
  6
CONTINUOUS
 70
0
 71
3
 72
11
 73
7
 74
0
 42
0.0000001
 43
0.0000001
 44
0.0000000001
 40
0.0
 40
0.0
 40
0.0
 40
0.0
 40
0.2622843551
 40
0.5232596805
 40
0.7721775861
 40
1.0
 40
1.0
 40
1.0
 40
1.0
 10
83.8981046379
 20
127.0161009497
 30
0.0
 10
83.6393932336
 20
127.3541671934
 30
0.0
 10
83.1733815451
 20
128.068387859
 30
0.0
 10
82.643455457
 20
129.208891904
 30
0.0
 10
82.3056547565
 20
130.3623648434
 30
0.0
 10
82.2177702434
 20
131.1369954102
 30
0.0
 10
82.2177702434
 20
131.5067619218
 30
0.0
  0
SPLINE
  5
455
100
AcDbEntity
  8
0
100
AcDbSpline
 62
7
  6
CONTINUOUS
 70
0
 71
3
 72
9
 73
5
 74
0
 42
0.0000001
 43
0.0000001
 44
0.0000000001
 40
0.0
 40
0.0
 40
0.0
 40
0.0
 40
0.2724422311
 40
1.0
 40
1.0
 40
1.0
 40
1.0
 10
82.2177702434
 20
131.5067619218
 30
0.0
 10
82.2177702434
 20
131.6450649537
 30
0.0
 10
82.2395880473
 20
132.1515898423
 30
0.0
 10
82.3563707367
 20
132.6604878662
 30
0.0
 10
82.5163276733
 20
132.9933914791
 30
0.0
  0
SPLINE
  5
456
100
AcDbEntity
  8
0
100
AcDbSpline
 62
7
  6
CONTINUOUS
 70
0
 71
3
 72
16
 73
12
 74
0
 42
0.0000001
 43
0.0000001
 44
0.0000000001
 40
0.0
 40
0.0
 40
0.0
 40
0.0
 40
0.1505993111
 40
0.3010874184
 40
0.446540334
 40
0.5825524025
 40
0.70583902
 40
0.8149595526
 40
0.9112426499
 40
0.956155248
 40
1.0
 40
1.0
 40
1.0
 40
1.0
 10
105.2895511421
 20
138.7826343238
 30
0.0
 10
105.0751772932
 20
139.2956359735
 30
0.0
 10
104.5774517155
 20
140.2936828864
 30
0.0
 10
103.6577693002
 20
141.6670609018
 30
0.0
 10
102.600724766
 20
142.8678944199
 30
0.0
 10
101.4566934246
 20
143.8385655647
 30
0.0
 10
100.2774763073
 20
144.5328228953
 30
0.0
 10
99.1145544518
 20
144.9169385853
 30
0.0
 10
98.1733194429
 20
144.9522207746
 30
0.0
 10
97.5054865443
 20
144.7923609117
 30
0.0
 10
97.204860214
 20
144.6559662302
 30
0.0
 10
97.0646756629
 20
144.5750355129
 30
0.0
  0
SPLINE
  5
457
100
AcDbEntity
  8
0
100
AcDbSpline
 62
7
  6
CONTINUOUS
 70
0
 71
3
 72
11
 73
7
 74
0
 42
0.0000001
 43
0.0000001
 44
0.0000000001
 40
0.0
 40
0.0
 40
0.0
 40
0.0
 40
0.2176907916
 40
0.4508868986
 40
0.7106214304
 40
1.0
 40
1.0
 40
1.0
 40
1.0
 10
65.7515328905
 20
118.5830057851
 30
0.0
 10
65.7894667841
 20
118.6048685228
 30
0.0
 10
65.8604468696
 20
118.664519453
 30
0.0
 10
65.9360875841
 20
118.7881008017
 30
0.0
 10
65.9807895548
 20
118.9404201206
 30
0.0
 10
65.9897362961
 20
119.051215516
 30
0.0
 10
65.9897362961
 20
119.1094168294
 30
0.0
  0
SPLINE
  5
458
100
AcDbEntity
  8
0
100
AcDbSpline
 62
7
  6
CONTINUOUS
 70
0
 71
3
 72
13
 73
9
 74
0
 42
0.0000001
 43
0.0000001
 44
0.0000000001
 40
0.0
 40
0.0
 40
0.0
 40
0.0
 40
0.270352492
 40
0.536383579
 40
0.6631077271
 40
0.7833376548
 40
0.8959230224
 40
1.0
 40
1.0
 40
1.0
 40
1.0
 10
103.8755591486
 20
137.9656325738
 30
0.0
 10
103.5883127614
 20
138.653130612
 30
0.0
 10
102.8956534942
 20
139.9684689176
 30
0.0
 10
101.7773400901
 20
141.4267963997
 30
0.0
 10
100.7650238528
 20
142.4166667264
 30
0.0
 10
99.9871000491
 20
143.0337757932
 30
0.0
 10
99.1957044457
 20
143.5234842459
 30
0.0
 10
98.648083284
 20
143.7679491228
 30
0.0
 10
98.3773772043
 20
143.8627837266
 30
0.0
  0
SPLINE
  5
459
100
AcDbEntity
  8
0
100
AcDbSpline
 62
7
  6
CONTINUOUS
 70
0
 71
3
 72
11
 73
7
 74
0
 42
0.0000001
 43
0.0000001
 44
0.0000000001
 40
0.0
 40
0.0
 40
0.0
 40
0.0
 40
0.2731761385
 40
0.5293874868
 40
0.7704144917
 40
1.0
 40
1.0
 40
1.0
 40
1.0
 10
98.3773772043
 20
143.8627837266
 30
0.0
 10
98.1849295935
 20
143.9302025779
 30
0.0
 10
97.8036449906
 20
144.038822311
 30
0.0
 10
97.2320111883
 20
144.1186592085
 30
0.0
 10
96.6871325903
 20
144.1073187939
 30
0.0
 10
96.3404259185
 20
144.037287211
 30
0.0
 10
96.1765872474
 20
143.9870200965
 30
0.0
  0
SPLINE
  5
45A
100
AcDbEntity
  8
0
100
AcDbSpline
 62
7
  6
CONTINUOUS
 70
0
 71
3
 72
11
 73
7
 74
0
 42
0.0000001
 43
0.0000001
 44
0.0000000001
 40
0.0
 40
0.0
 40
0.0
 40
0.0
 40
0.2176907916
 40
0.4508868986
 40
0.7106214304
 40
1.0
 40
1.0
 40
1.0
 40
1.0
 10
39.447051115
 20
133.7695618532
 30
0.0
 10
39.4849850087
 20
133.791424591
 30
0.0
 10
39.5559650941
 20
133.8510755212
 30
0.0
 10
39.6316058086
 20
133.9746568698
 30
0.0
 10
39.6763077793
 20
134.1269761887
 30
0.0
 10
39.6852545207
 20
134.2377715841
 30
0.0
 10
39.6852545207
 20
134.2959728976
 30
0.0
  0
SPLINE
  5
45B
100
AcDbEntity
  8
0
100
AcDbSpline
 62
7
  6
CONTINUOUS
 70
0
 71
3
 72
17
 73
13
 74
0
 42
0.0000001
 43
0.0000001
 44
0.0000000001
 40
0.0
 40
0.0
 40
0.0
 40
0.0
 40
0.042857965
 40
0.0874854797
 40
0.1353180708
 40
0.1872814984
 40
0.3045423159
 40
0.4382097446
 40
0.5825520305
 40
0.7297107839
 40
0.8713099826
 40
1.0
 40
1.0
 40
1.0
 40
1.0
 10
29.7361120483
 20
126.3391698082
 30
0.0
 10
29.6671010925
 20
126.2992895777
 30
0.0
 10
29.5149251596
 20
126.2360737951
 30
0.0
 10
29.2637629921
 20
126.1992361012
 30
0.0
 10
28.9940259983
 20
126.2191127838
 30
0.0
 10
28.6020959428
 20
126.3233290207
 30
0.0
 10
28.1010731449
 20
126.5972894081
 30
0.0
 10
27.5475254825
 20
127.0875080167
 30
0.0
 10
27.0582116397
 20
127.7138063545
 30
0.0
 10
26.6731017197
 20
128.4255925623
 30
0.0
 10
26.4231971243
 20
129.1644985833
 30
0.0
 10
26.3562362017
 20
129.6677432998
 30
0.0
 10
26.3562362017
 20
129.9070753468
 30
0.0
  0
SPLINE
  5
45C
100
AcDbEntity
  8
0
100
AcDbSpline
 62
7
  6
CONTINUOUS
 70
0
 71
3
 72
12
 73
8
 74
0
 42
0.0000001
 43
0.0000001
 44
0.0000000001
 40
0.0
 40
0.0
 40
0.0
 40
0.0
 40
0.2895538081
 40
0.5486501541
 40
0.7816324088
 40
0.8918397054
 40
1.0
 40
1.0
 40
1.0
 40
1.0
 10
92.5414721357
 20
139.4270634684
 30
0.0
 10
92.5414721357
 20
139.8071703513
 30
0.0
 10
92.5991332883
 20
140.5299610019
 30
0.0
 10
92.8912552005
 20
141.5225232828
 30
0.0
 10
93.3114153669
 20
142.2072190042
 30
0.0
 10
93.7354039111
 20
142.6244728456
 30
0.0
 10
93.9718738172
 20
142.7894217617
 30
0.0
 10
94.0948376869
 20
142.8604133006
 30
0.0
  0
SPLINE
  5
45D
100
AcDbEntity
  8
0
100
AcDbSpline
 62
7
  6
CONTINUOUS
 70
0
 71
3
 72
11
 73
7
 74
0
 42
0.0000001
 43
0.0000001
 44
0.0000000001
 40
0.0
 40
0.0
 40
0.0
 40
0.0
 40
0.2897762172
 40
0.5490701576
 40
0.7822260326
 40
1.0
 40
1.0
 40
1.0
 40
1.0
 10
90.9151470876
 20
136.4468901875
 30
0.0
 10
90.9151470876
 20
136.7002965276
 30
0.0
 10
90.9534629821
 20
137.1821010668
 30
0.0
 10
91.1487242941
 20
137.8440370582
 30
0.0
 10
91.4771637604
 20
138.3811694089
 30
0.0
 10
91.785798477
 20
138.6405685435
 30
0.0
 10
91.9507255585
 20
138.7357886758
 30
0.0
  0
SPLINE
  5
45E
100
AcDbEntity
  8
0
100
AcDbSpline
 62
7
  6
CONTINUOUS
 70
0
 71
3
 72
11
 73
7
 74
0
 42
0.0000001
 43
0.0000001
 44
0.0000000001
 40
0.0
 40
0.0
 40
0.0
 40
0.0
 40
0.2597701353
 40
0.5212872062
 40
0.7716983308
 40
1.0
 40
1.0
 40
1.0
 40
1.0
 10
92.834757621
 20
131.7075034945
 30
0.0
 10
92.5420396913
 20
132.0502446352
 30
0.0
 10
92.0122215307
 20
132.7889674004
 30
0.0
 10
91.4072303588
 20
133.9894295655
 30
0.0
 10
91.0179543178
 20
135.2192066714
 30
0.0
 10
90.9151470876
 20
136.0507636673
 30
0.0
 10
90.9151470876
 20
136.4468901875
 30
0.0
  0
SPLINE
  5
45F
100
AcDbEntity
  8
0
100
AcDbSpline
 62
7
  6
CONTINUOUS
 70
0
 71
3
 72
9
 73
5
 74
0
 42
0.0000001
 43
0.0000001
 44
0.0000000001
 40
0.0
 40
0.0
 40
0.0
 40
0.0
 40
0.4876182553
 40
1.0
 40
1.0
 40
1.0
 40
1.0
 10
29.9561854237
 20
126.1235856011
 30
0.0
 10
30.0298012586
 20
126.1743562912
 30
0.0
 10
30.1674809788
 20
126.2988059639
 30
0.0
 10
30.2714211484
 20
126.4519489303
 30
0.0
 10
30.3160506625
 20
126.5346413078
 30
0.0
  0
SPLINE
  5
460
100
AcDbEntity
  8
0
100
AcDbSpline
 62
7
  6
CONTINUOUS
 70
0
 71
3
 72
17
 73
13
 74
0
 42
0.0000001
 43
0.0000001
 44
0.0000000001
 40
0.0
 40
0.0
 40
0.0
 40
0.0
 40
0.042857965
 40
0.0874854797
 40
0.1353180708
 40
0.1872814984
 40
0.3045423159
 40
0.4382097446
 40
0.5825520305
 40
0.7297107839
 40
0.8713099826
 40
1.0
 40
1.0
 40
1.0
 40
1.0
 10
77.1124636332
 20
98.9870392554
 30
0.0
 10
77.0434526774
 20
98.9471590248
 30
0.0
 10
76.8912767445
 20
98.8839432422
 30
0.0
 10
76.640114577
 20
98.8471055484
 30
0.0
 10
76.3703775831
 20
98.866982231
 30
0.0
 10
75.9784475277
 20
98.9711984678
 30
0.0
 10
75.4774247297
 20
99.2451588552
 30
0.0
 10
74.9238770674
 20
99.7353774638
 30
0.0
 10
74.4345632246
 20
100.3616758016
 30
0.0
 10
74.0494533046
 20
101.0734620094
 30
0.0
 10
73.7995487091
 20
101.8123680304
 30
0.0
 10
73.7325877865
 20
102.3156127469
 30
0.0
 10
73.7325877865
 20
102.5549447939
 30
0.0
  0
SPLINE
  5
461
100
AcDbEntity
  8
0
100
AcDbSpline
 62
7
  6
CONTINUOUS
 70
0
 71
3
 72
16
 73
12
 74
0
 42
0.0000001
 43
0.0000001
 44
0.0000000001
 40
0.0
 40
0.0
 40
0.0
 40
0.0
 40
0.1505367772
 40
0.3010053561
 40
0.4464746411
 40
0.5825213015
 40
0.7058420036
 40
0.8149823335
 40
0.9112629112
 40
0.9561649093
 40
1.0
 40
1.0
 40
1.0
 40
1.0
 10
87.1040101324
 20
128.8704828467
 30
0.0
 10
86.9585456554
 20
129.2199598533
 30
0.0
 10
86.6205750691
 20
129.9000478674
 30
0.0
 10
85.9953130117
 20
130.8360733411
 30
0.0
 10
85.2761516402
 20
131.6548180548
 30
0.0
 10
84.4974176762
 20
132.3168799517
 30
0.0
 10
83.6944778603
 20
132.7906420468
 30
0.0
 10
82.9024937599
 20
133.0529955002
 30
0.0
 10
82.2613573639
 20
133.0775441594
 30
0.0
 10
81.806517193
 20
132.9687370539
 30
0.0
 10
81.6017671269
 20
132.8759309506
 30
0.0
 10
81.5062967529
 20
132.8208337258
 30
0.0
  0
SPLINE
  5
462
100
AcDbEntity
  8
0
100
AcDbSpline
 62
7
  6
CONTINUOUS
 70
0
 71
3
 72
9
 73
5
 74
0
 42
0.0000001
 43
0.0000001
 44
0.0000000001
 40
0.0
 40
0.0
 40
0.0
 40
0.0
 40
0.499328989
 40
1.0
 40
1.0
 40
1.0
 40
1.0
 10
72.9640085955
 20
119.6588167077
 30
0.0
 10
72.4984407176
 20
120.1655860534
 30
0.0
 10
71.6793941943
 20
121.2879175839
 30
0.0
 10
71.0984898711
 20
122.5498769406
 30
0.0
 10
70.8813034314
 20
123.2048179031
 30
0.0
  0
SPLINE
  5
463
100
AcDbEntity
  8
0
100
AcDbSpline
 62
7
  6
CONTINUOUS
 70
0
 71
3
 72
9
 73
5
 74
0
 42
0.0000001
 43
0.0000001
 44
0.0000000001
 40
0.0
 40
0.0
 40
0.0
 40
0.0
 40
0.4876182553
 40
1.0
 40
1.0
 40
1.0
 40
1.0
 10
77.3325370085
 20
98.7714550482
 30
0.0
 10
77.4061528434
 20
98.8222257384
 30
0.0
 10
77.5438325636
 20
98.9466754111
 30
0.0
 10
77.6477727333
 20
99.0998183775
 30
0.0
 10
77.6924022473
 20
99.1825107549
 30
0.0
  0
SPLINE
  5
464
100
AcDbEntity
  8
0
100
AcDbSpline
 62
7
  6
CONTINUOUS
 70
0
 71
3
 72
9
 73
5
 74
0
 42
0.0000001
 43
0.0000001
 44
0.0000000001
 40
0.0
 40
0.0
 40
0.0
 40
0.0
 40
0.2419900696
 40
1.0
 40
1.0
 40
1.0
 40
1.0
 10
73.1819783978
 20
118.0099833233
 30
0.0
 10
73.1013751626
 20
118.067293218
 30
0.0
 10
72.7736852428
 20
118.3116696783
 30
0.0
 10
72.4674077337
 20
118.5843393194
 30
0.0
 10
72.2476243913
 20
118.8026712351
 30
0.0
  0
SPLINE
  5
465
100
AcDbEntity
  8
0
100
AcDbSpline
 62
7
  6
CONTINUOUS
 70
0
 71
3
 72
11
 73
7
 74
0
 42
0.0000001
 43
0.0000001
 44
0.0000000001
 40
0.0
 40
0.0
 40
0.0
 40
0.0
 40
0.2177739674
 40
0.4509298424
 40
0.7102237828
 40
1.0
 40
1.0
 40
1.0
 40
1.0
 10
36.8965459353
 20
136.1121014076
 30
0.0
 10
37.0647715136
 20
136.2092259167
 30
0.0
 10
37.3795788406
 20
136.4738129634
 30
0.0
 10
37.7145870069
 20
137.0216878151
 30
0.0
 10
37.9137534921
 20
137.6968623465
 30
0.0
 10
37.9528356941
 20
138.1883028455
 30
0.0
 10
37.9528356941
 20
138.4467772434
 30
0.0
  0
SPLINE
  5
466
100
AcDbEntity
  8
0
100
AcDbSpline
 62
7
  6
CONTINUOUS
 70
0
 71
3
 72
9
 73
5
 74
0
 42
0.0000001
 43
0.0000001
 44
0.0000000001
 40
0.0
 40
0.0
 40
0.0
 40
0.0
 40
0.2404067816
 40
1.0
 40
1.0
 40
1.0
 40
1.0
 10
37.8757592418
 20
137.6724417542
 30
0.0
 10
37.8172564759
 20
137.692849664
 30
0.0
 10
37.576176348
 20
137.7841975042
 30
0.0
 10
37.3445343802
 20
137.8997359345
 30
0.0
 10
37.1749914447
 20
137.9976193796
 30
0.0
  0
SPLINE
  5
467
100
AcDbEntity
  8
0
100
AcDbSpline
 62
7
  6
CONTINUOUS
 70
0
 71
3
 72
15
 73
11
 74
0
 42
0.0000001
 43
0.0000001
 44
0.0000000001
 40
0.0
 40
0.0
 40
0.0
 40
0.0
 40
0.1141465952
 40
0.2373352439
 40
0.366975646
 40
0.4999989181
 40
0.6330223406
 40
0.7626631822
 40
0.8858525235
 40
1.0
 40
1.0
 40
1.0
 40
1.0
 10
72.530477702
 20
117.5855816536
 30
0.0
 10
72.2836182868
 20
117.7281027792
 30
0.0
 10
71.7959934019
 20
118.0699584202
 30
0.0
 10
71.1250074436
 20
118.6976374824
 30
0.0
 10
70.5067348806
 20
119.4397082764
 30
0.0
 10
69.9643169936
 20
120.2681286964
 30
0.0
 10
69.5180881244
 20
121.1520854341
 30
0.0
 10
69.1845663879
 20
122.0585618081
 30
0.0
 10
68.9764665423
 20
122.953495766
 30
0.0
 10
68.9242181038
 20
123.5467225407
 30
0.0
 10
68.9242181038
 20
123.831771829
 30
0.0
  0
SPLINE
  5
468
100
AcDbEntity
  8
0
100
AcDbSpline
 62
7
  6
CONTINUOUS
 70
0
 71
3
 72
9
 73
5
 74
0
 42
0.0000001
 43
0.0000001
 44
0.0000000001
 40
0.0
 40
0.0
 40
0.0
 40
0.0
 40
0.2596853221
 40
1.0
 40
1.0
 40
1.0
 40
1.0
 10
68.9242181038
 20
123.831771829
 30
0.0
 10
68.9242181038
 20
123.8988410627
 30
0.0
 10
68.9296779302
 20
124.1570482816
 30
0.0
 10
68.9575073829
 20
124.4150525742
 30
0.0
 10
68.9933119265
 20
124.6028722156
 30
0.0
  0
SPLINE
  5
469
100
AcDbEntity
  8
0
100
AcDbSpline
 62
7
  6
CONTINUOUS
 70
0
 71
3
 72
11
 73
7
 74
0
 42
0.0000001
 43
0.0000001
 44
0.0000000001
 40
0.0
 40
0.0
 40
0.0
 40
0.0
 40
0.2878853603
 40
0.5529705163
 40
0.7904718432
 40
1.0
 40
1.0
 40
1.0
 40
1.0
 10
90.118697462
 20
155.494435733
 30
0.0
 10
89.7658513825
 20
155.8880024595
 30
0.0
 10
89.0369415156
 20
156.6005859529
 30
0.0
 10
87.8492983405
 20
157.4468062321
 30
0.0
 10
86.6544371342
 20
157.9985010735
 30
0.0
 10
85.836453374
 20
158.1576452012
 30
0.0
 10
85.4519026305
 20
158.1686750021
 30
0.0
  0
SPLINE
  5
46A
100
AcDbEntity
  8
0
100
AcDbSpline
 62
7
  6
CONTINUOUS
 70
0
 71
3
 72
11
 73
7
 74
0
 42
0.0000001
 43
0.0000001
 44
0.0000000001
 40
0.0
 40
0.0
 40
0.0
 40
0.0
 40
0.2177739674
 40
0.4509298424
 40
0.7102237828
 40
1.0
 40
1.0
 40
1.0
 40
1.0
 10
54.574289064
 20
125.9060825446
 30
0.0
 10
54.7425146423
 20
126.0032070537
 30
0.0
 10
55.0573219693
 20
126.2677941004
 30
0.0
 10
55.3923301356
 20
126.8156689521
 30
0.0
 10
55.5914966208
 20
127.4908434835
 30
0.0
 10
55.6305788227
 20
127.9822839824
 30
0.0
 10
55.6305788227
 20
128.2407583804
 30
0.0
  0
SPLINE
  5
46B
100
AcDbEntity
  8
0
100
AcDbSpline
 62
7
  6
CONTINUOUS
 70
0
 71
3
 72
9
 73
5
 74
0
 42
0.0000001
 43
0.0000001
 44
0.0000000001
 40
0.0
 40
0.0
 40
0.0
 40
0.0
 40
0.2404067816
 40
1.0
 40
1.0
 40
1.0
 40
1.0
 10
55.5535023705
 20
127.4664228912
 30
0.0
 10
55.4949996046
 20
127.486830801
 30
0.0
 10
55.2539194767
 20
127.5781786412
 30
0.0
 10
55.0222775089
 20
127.6937170715
 30
0.0
 10
54.8527345733
 20
127.7916005166
 30
0.0
  0
SPLINE
  5
46C
100
AcDbEntity
  8
0
100
AcDbSpline
 62
7
  6
CONTINUOUS
 70
0
 71
3
 72
11
 73
7
 74
0
 42
0.0000001
 43
0.0000001
 44
0.0000000001
 40
0.0
 40
0.0
 40
0.0
 40
0.0
 40
0.2622843551
 40
0.5232596805
 40
0.7721775861
 40
1.0
 40
1.0
 40
1.0
 40
1.0
 10
66.2203615093
 20
137.2221198127
 30
0.0
 10
65.961650105
 20
137.5601860564
 30
0.0
 10
65.4956384165
 20
138.274406722
 30
0.0
 10
64.9657123283
 20
139.414910767
 30
0.0
 10
64.6279116278
 20
140.5683837064
 30
0.0
 10
64.5400271147
 20
141.3430142732
 30
0.0
 10
64.5400271147
 20
141.7127807848
 30
0.0
  0
SPLINE
  5
46D
100
AcDbEntity
  8
0
100
AcDbSpline
 62
7
  6
CONTINUOUS
 70
0
 71
3
 72
9
 73
5
 74
0
 42
0.0000001
 43
0.0000001
 44
0.0000000001
 40
0.0
 40
0.0
 40
0.0
 40
0.0
 40
0.2724422311
 40
1.0
 40
1.0
 40
1.0
 40
1.0
 10
64.5400271147
 20
141.7127807848
 30
0.0
 10
64.5400271147
 20
141.8510838167
 30
0.0
 10
64.5618449187
 20
142.3576087053
 30
0.0
 10
64.678627608
 20
142.8665067292
 30
0.0
 10
64.8385845446
 20
143.1994103421
 30
0.0
  0
SPLINE
  5
46E
100
AcDbEntity
  8
0
100
AcDbSpline
 62
7
  6
CONTINUOUS
 70
0
 71
3
 72
16
 73
12
 74
0
 42
0.0000001
 43
0.0000001
 44
0.0000000001
 40
0.0
 40
0.0
 40
0.0
 40
0.0
 40
0.1505993111
 40
0.3010874184
 40
0.446540334
 40
0.5825524025
 40
0.70583902
 40
0.8149595526
 40
0.9112426499
 40
0.956155248
 40
1.0
 40
1.0
 40
1.0
 40
1.0
 10
87.6118080134
 20
148.9886531868
 30
0.0
 10
87.3974341645
 20
149.5016548365
 30
0.0
 10
86.8997085868
 20
150.4997017494
 30
0.0
 10
85.9800261715
 20
151.8730797648
 30
0.0
 10
84.9229816374
 20
153.0739132829
 30
0.0
 10
83.7789502959
 20
154.0445844277
 30
0.0
 10
82.5997331786
 20
154.7388417583
 30
0.0
 10
81.4368113231
 20
155.1229574483
 30
0.0
 10
80.4955763143
 20
155.1582396376
 30
0.0
 10
79.8277434156
 20
154.9983797747
 30
0.0
 10
79.5271170853
 20
154.8619850932
 30
0.0
 10
79.3869325342
 20
154.7810543759
 30
0.0
  0
SPLINE
  5
46F
100
AcDbEntity
  8
0
100
AcDbSpline
 62
7
  6
CONTINUOUS
 70
0
 71
3
 72
13
 73
9
 74
0
 42
0.0000001
 43
0.0000001
 44
0.0000000001
 40
0.0
 40
0.0
 40
0.0
 40
0.0
 40
0.270352492
 40
0.536383579
 40
0.6631077271
 40
0.7833376548
 40
0.8959230224
 40
1.0
 40
1.0
 40
1.0
 40
1.0
 10
86.1978160199
 20
148.1716514368
 30
0.0
 10
85.9105696327
 20
148.859149475
 30
0.0
 10
85.2179103655
 20
150.1744877807
 30
0.0
 10
84.0995969614
 20
151.6328152627
 30
0.0
 10
83.0872807242
 20
152.6226855894
 30
0.0
 10
82.3093569204
 20
153.2397946562
 30
0.0
 10
81.517961317
 20
153.7295031089
 30
0.0
 10
80.9703401553
 20
153.9739679858
 30
0.0
 10
80.6996340756
 20
154.0688025896
 30
0.0
  0
SPLINE
  5
470
100
AcDbEntity
  8
0
100
AcDbSpline
 62
7
  6
CONTINUOUS
 70
0
 71
3
 72
11
 73
7
 74
0
 42
0.0000001
 43
0.0000001
 44
0.0000000001
 40
0.0
 40
0.0
 40
0.0
 40
0.0
 40
0.2731761385
 40
0.5293874868
 40
0.7704144917
 40
1.0
 40
1.0
 40
1.0
 40
1.0
 10
80.6996340756
 20
154.0688025896
 30
0.0
 10
80.5071864649
 20
154.1362214409
 30
0.0
 10
80.125901862
 20
154.244841174
 30
0.0
 10
79.5542680596
 20
154.3246780715
 30
0.0
 10
79.0093894616
 20
154.3133376569
 30
0.0
 10
78.6626827899
 20
154.243306074
 30
0.0
 10
78.4988441187
 20
154.1930389595
 30
0.0
  0
SPLINE
  5
471
100
AcDbEntity
  8
0
100
AcDbSpline
 62
7
  6
CONTINUOUS
 70
0
 71
3
 72
12
 73
8
 74
0
 42
0.0000001
 43
0.0000001
 44
0.0000000001
 40
0.0
 40
0.0
 40
0.0
 40
0.0
 40
0.2895538081
 40
0.5486501541
 40
0.7816324088
 40
0.8918397054
 40
1.0
 40
1.0
 40
1.0
 40
1.0
 10
74.863729007
 20
149.6330823314
 30
0.0
 10
74.863729007
 20
150.0131892143
 30
0.0
 10
74.9213901596
 20
150.7359798649
 30
0.0
 10
75.2135120718
 20
151.7285421458
 30
0.0
 10
75.6336722382
 20
152.4132378672
 30
0.0
 10
76.0576607824
 20
152.8304917086
 30
0.0
 10
76.2941306885
 20
152.9954406247
 30
0.0
 10
76.4170945582
 20
153.0664321636
 30
0.0
  0
SPLINE
  5
472
100
AcDbEntity
  8
0
100
AcDbSpline
 62
7
  6
CONTINUOUS
 70
0
 71
3
 72
11
 73
7
 74
0
 42
0.0000001
 43
0.0000001
 44
0.0000000001
 40
0.0
 40
0.0
 40
0.0
 40
0.0
 40
0.2897762172
 40
0.5490701576
 40
0.7822260326
 40
1.0
 40
1.0
 40
1.0
 40
1.0
 10
73.237403959
 20
146.6529090505
 30
0.0
 10
73.237403959
 20
146.9063153906
 30
0.0
 10
73.2757198534
 20
147.3881199298
 30
0.0
 10
73.4709811655
 20
148.0500559212
 30
0.0
 10
73.7994206318
 20
148.5871882719
 30
0.0
 10
74.1080553483
 20
148.8465874065
 30
0.0
 10
74.2729824298
 20
148.9418075388
 30
0.0
  0
SPLINE
  5
473
100
AcDbEntity
  8
0
100
AcDbSpline
 62
7
  6
CONTINUOUS
 70
0
 71
3
 72
11
 73
7
 74
0
 42
0.0000001
 43
0.0000001
 44
0.0000000001
 40
0.0
 40
0.0
 40
0.0
 40
0.0
 40
0.2597701353
 40
0.5212872062
 40
0.7716983308
 40
1.0
 40
1.0
 40
1.0
 40
1.0
 10
75.1570144923
 20
141.9135223575
 30
0.0
 10
74.8642965626
 20
142.2562634982
 30
0.0
 10
74.3344784021
 20
142.9949862634
 30
0.0
 10
73.7294872301
 20
144.1954484286
 30
0.0
 10
73.3402111891
 20
145.4252255344
 30
0.0
 10
73.237403959
 20
146.2567825303
 30
0.0
 10
73.237403959
 20
146.6529090505
 30
0.0
  0
SPLINE
  5
474
100
AcDbEntity
  8
0
100
AcDbSpline
 62
7
  6
CONTINUOUS
 70
0
 71
3
 72
11
 73
7
 74
0
 42
0.0000001
 43
0.0000001
 44
0.0000000001
 40
0.0
 40
0.0
 40
0.0
 40
0.0
 40
0.2177739674
 40
0.4509298424
 40
0.7102237828
 40
1.0
 40
1.0
 40
1.0
 40
1.0
 10
72.2520321927
 20
115.7000636816
 30
0.0
 10
72.420257771
 20
115.7971881907
 30
0.0
 10
72.7350650979
 20
116.0617752374
 30
0.0
 10
73.0700732643
 20
116.6096500891
 30
0.0
 10
73.2692397495
 20
117.2848246204
 30
0.0
 10
73.3083219514
 20
117.7762651194
 30
0.0
 10
73.3083219514
 20
118.0347395174
 30
0.0
  0
SPLINE
  5
475
100
AcDbEntity
  8
0
100
AcDbSpline
 62
7
  6
CONTINUOUS
 70
0
 71
3
 72
9
 73
5
 74
0
 42
0.0000001
 43
0.0000001
 44
0.0000000001
 40
0.0
 40
0.0
 40
0.0
 40
0.0
 40
0.2404067816
 40
1.0
 40
1.0
 40
1.0
 40
1.0
 10
73.2312454992
 20
117.2604040282
 30
0.0
 10
73.1727427332
 20
117.280811938
 30
0.0
 10
72.9316626054
 20
117.3721597782
 30
0.0
 10
72.7000206376
 20
117.4876982085
 30
0.0
 10
72.530477702
 20
117.5855816536
 30
0.0
  0
SPLINE
  5
476
100
AcDbEntity
  8
0
100
AcDbSpline
 62
7
  6
CONTINUOUS
 70
0
 71
3
 72
16
 73
12
 74
0
 42
0.0000001
 43
0.0000001
 44
0.0000000001
 40
0.0
 40
0.0
 40
0.0
 40
0.0
 40
0.1505367772
 40
0.3010053561
 40
0.4464746411
 40
0.5825213015
 40
0.7058420036
 40
0.8149823335
 40
0.9112629112
 40
0.9561649093
 40
1.0
 40
1.0
 40
1.0
 40
1.0
 10
69.4262670037
 20
139.0765017097
 30
0.0
 10
69.2808025267
 20
139.4259787163
 30
0.0
 10
68.9428319404
 20
140.1060667304
 30
0.0
 10
68.317569883
 20
141.0420922041
 30
0.0
 10
67.5984085115
 20
141.8608369178
 30
0.0
 10
66.8196745475
 20
142.5228988148
 30
0.0
 10
66.0167347316
 20
142.9966609098
 30
0.0
 10
65.2247506312
 20
143.2590143632
 30
0.0
 10
64.5836142352
 20
143.2835630224
 30
0.0
 10
64.1287740643
 20
143.1747559169
 30
0.0
 10
63.9240239982
 20
143.0819498136
 30
0.0
 10
63.8285536242
 20
143.0268525888
 30
0.0
  0
SPLINE
  5
477
100
AcDbEntity
  8
0
100
AcDbSpline
 62
7
  6
CONTINUOUS
 70
0
 71
3
 72
9
 73
5
 74
0
 42
0.0000001
 43
0.0000001
 44
0.0000000001
 40
0.0
 40
0.0
 40
0.0
 40
0.0
 40
0.499328989
 40
1.0
 40
1.0
 40
1.0
 40
1.0
 10
55.2862654668
 20
129.8648355707
 30
0.0
 10
54.8206975889
 20
130.3716049164
 30
0.0
 10
54.0016510656
 20
131.4939364469
 30
0.0
 10
53.4207467424
 20
132.7558958036
 30
0.0
 10
53.2035603027
 20
133.4108367661
 30
0.0
  0
SPLINE
  5
478
100
AcDbEntity
  8
0
100
AcDbSpline
 62
7
  6
CONTINUOUS
 70
0
 71
3
 72
9
 73
5
 74
0
 42
0.0000001
 43
0.0000001
 44
0.0000000001
 40
0.0
 40
0.0
 40
0.0
 40
0.0
 40
0.2419900696
 40
1.0
 40
1.0
 40
1.0
 40
1.0
 10
55.5042352692
 20
128.2160021863
 30
0.0
 10
55.4236320339
 20
128.273312081
 30
0.0
 10
55.0959421141
 20
128.5176885413
 30
0.0
 10
54.789664605
 20
128.7903581824
 30
0.0
 10
54.5698812626
 20
129.0086900981
 30
0.0
  0
SPLINE
  5
479
100
AcDbEntity
  8
0
100
AcDbSpline
 62
7
  6
CONTINUOUS
 70
0
 71
3
 72
15
 73
11
 74
0
 42
0.0000001
 43
0.0000001
 44
0.0000000001
 40
0.0
 40
0.0
 40
0.0
 40
0.0
 40
0.1141465952
 40
0.2373352439
 40
0.366975646
 40
0.4999989181
 40
0.6330223406
 40
0.7626631822
 40
0.8858525235
 40
1.0
 40
1.0
 40
1.0
 40
1.0
 10
54.8527345733
 20
127.7916005166
 30
0.0
 10
54.6058751581
 20
127.9341216422
 30
0.0
 10
54.1182502732
 20
128.2759772832
 30
0.0
 10
53.4472643149
 20
128.9036563454
 30
0.0
 10
52.8289917519
 20
129.6457271394
 30
0.0
 10
52.2865738649
 20
130.4741475594
 30
0.0
 10
51.8403449958
 20
131.3581042971
 30
0.0
 10
51.5068232592
 20
132.2645806712
 30
0.0
 10
51.2987234136
 20
133.159514629
 30
0.0
 10
51.2464749751
 20
133.7527414037
 30
0.0
 10
51.2464749751
 20
134.037790692
 30
0.0
  0
SPLINE
  5
47A
100
AcDbEntity
  8
0
100
AcDbSpline
 62
7
  6
CONTINUOUS
 70
0
 71
3
 72
9
 73
5
 74
0
 42
0.0000001
 43
0.0000001
 44
0.0000000001
 40
0.0
 40
0.0
 40
0.0
 40
0.0
 40
0.2596853221
 40
1.0
 40
1.0
 40
1.0
 40
1.0
 10
51.2464749751
 20
134.037790692
 30
0.0
 10
51.2464749751
 20
134.1048599257
 30
0.0
 10
51.2519348015
 20
134.3630671446
 30
0.0
 10
51.2797642543
 20
134.6210714372
 30
0.0
 10
51.3155687978
 20
134.8088910786
 30
0.0
  0
SPLINE
  5
47B
100
AcDbEntity
  8
0
100
AcDbSpline
 62
7
  6
CONTINUOUS
 70
0
 71
3
 72
11
 73
7
 74
0
 42
0.0000001
 43
0.0000001
 44
0.0000000001
 40
0.0
 40
0.0
 40
0.0
 40
0.0
 40
0.2177839466
 40
0.4509170841
 40
0.710307871
 40
1.0
 40
1.0
 40
1.0
 40
1.0
 10
62.8381728293
 20
121.0978798037
 30
0.0
 10
62.96846014
 20
121.1731244852
 30
0.0
 10
63.2122609293
 20
121.3780451002
 30
0.0
 10
63.4717929328
 20
121.8024130515
 30
0.0
 10
63.6259313262
 20
122.3253683811
 30
0.0
 10
63.6562742032
 20
122.7059868606
 30
0.0
 10
63.6562742032
 20
122.9061185707
 30
0.0
  0
SPLINE
  5
47C
100
AcDbEntity
  8
0
100
AcDbSpline
 62
7
  6
CONTINUOUS
 70
0
 71
3
 72
11
 73
7
 74
0
 42
0.0000001
 43
0.0000001
 44
0.0000000001
 40
0.0
 40
0.0
 40
0.0
 40
0.0
 40
0.2177839466
 40
0.4509170841
 40
0.710307871
 40
1.0
 40
1.0
 40
1.0
 40
1.0
 10
45.1604297006
 20
131.3038986667
 30
0.0
 10
45.2907170113
 20
131.3791433482
 30
0.0
 10
45.5345178006
 20
131.5840639632
 30
0.0
 10
45.7940498041
 20
132.0084319145
 30
0.0
 10
45.9481881975
 20
132.5313872441
 30
0.0
 10
45.9785310745
 20
132.9120057236
 30
0.0
 10
45.9785310745
 20
133.1121374338
 30
0.0
  0
SPLINE
  5
47D
100
AcDbEntity
  8
0
100
AcDbSpline
 62
7
  6
CONTINUOUS
 70
0
 71
3
 72
11
 73
7
 74
0
 42
0.0000001
 43
0.0000001
 44
0.0000000001
 40
0.0
 40
0.0
 40
0.0
 40
0.0
 40
0.217745073
 40
0.4508830113
 40
0.7104597664
 40
1.0
 40
1.0
 40
1.0
 40
1.0
 10
26.6076380581
 20
143.02555515
 30
0.0
 10
26.6801943764
 20
143.0674453444
 30
0.0
 10
26.8160845582
 20
143.1814258963
 30
0.0
 10
26.9606386619
 20
143.4178845752
 30
0.0
 10
27.04633555
 20
143.7091883272
 30
0.0
 10
27.0633459268
 20
143.9211726307
 30
0.0
 10
27.0633459268
 20
144.0325776172
 30
0.0
  0
SPLINE
  5
47E
100
AcDbEntity
  8
0
100
AcDbSpline
 62
7
  6
CONTINUOUS
 70
0
 71
3
 72
11
 73
7
 74
0
 42
0.0000001
 43
0.0000001
 44
0.0000000001
 40
0.0
 40
0.0
 40
0.0
 40
0.0
 40
0.217745073
 40
0.4508830113
 40
0.7104597664
 40
1.0
 40
1.0
 40
1.0
 40
1.0
 10
26.5576410797
 20
50.0308774212
 30
0.0
 10
26.6268993834
 20
50.0708635159
 30
0.0
 10
26.7566127388
 20
50.1796631336
 30
0.0
 10
26.8945962014
 20
50.4053736907
 30
0.0
 10
26.9763977764
 20
50.6834363631
 30
0.0
 10
26.9926349543
 20
50.8857850164
 30
0.0
 10
26.9926349543
 20
50.9921261399
 30
0.0
  0
SPLINE
  5
47F
100
AcDbEntity
  8
0
100
AcDbSpline
 62
7
  6
CONTINUOUS
 70
0
 71
3
 72
11
 73
7
 74
0
 42
0.0000001
 43
0.0000001
 44
0.0000000001
 40
0.0
 40
0.0
 40
0.0
 40
0.0
 40
0.2177843137
 40
0.4509117637
 40
0.7102976701
 40
1.0
 40
1.0
 40
1.0
 40
1.0
 10
67.8059513241
 20
51.2398592465
 30
0.0
 10
67.6740078685
 20
51.1636821699
 30
0.0
 10
67.3708472663
 20
51.0536627045
 30
0.0
 10
66.8673026722
 20
51.0409130524
 30
0.0
 10
66.3306421459
 20
51.1705070024
 30
0.0
 10
65.9814855538
 20
51.336607566
 30
0.0
 10
65.8059702575
 20
51.4379390771
 30
0.0
  0
SPLINE
  5
480
100
AcDbEntity
  8
0
100
AcDbSpline
 62
7
  6
CONTINUOUS
 70
0
 71
3
 72
11
 73
7
 74
0
 42
0.0000001
 43
0.0000001
 44
0.0000000001
 40
0.0
 40
0.0
 40
0.0
 40
0.0
 40
0.2878853603
 40
0.5529705163
 40
0.7904718432
 40
1.0
 40
1.0
 40
1.0
 40
1.0
 10
72.4409543333
 20
165.700454596
 30
0.0
 10
72.0881082538
 20
166.0940213225
 30
0.0
 10
71.3591983869
 20
166.8066048159
 30
0.0
 10
70.1715552118
 20
167.6528250951
 30
0.0
 10
68.9766940055
 20
168.2045199365
 30
0.0
 10
68.1587102453
 20
168.3636640642
 30
0.0
 10
67.7741595018
 20
168.3746938651
 30
0.0
  0
SPLINE
  5
481
100
AcDbEntity
  8
0
100
AcDbSpline
 62
7
  6
CONTINUOUS
 70
0
 71
3
 72
11
 73
7
 74
0
 42
0.0000001
 43
0.0000001
 44
0.0000000001
 40
0.0
 40
0.0
 40
0.0
 40
0.0
 40
0.2622843551
 40
0.5232596805
 40
0.7721775861
 40
1.0
 40
1.0
 40
1.0
 40
1.0
 10
48.5426183806
 20
147.4281386757
 30
0.0
 10
48.2839069763
 20
147.7662049194
 30
0.0
 10
47.8178952878
 20
148.480425585
 30
0.0
 10
47.2879691996
 20
149.62092963
 30
0.0
 10
46.9501684991
 20
150.7744025694
 30
0.0
 10
46.862283986
 20
151.5490331362
 30
0.0
 10
46.862283986
 20
151.9187996478
 30
0.0
  0
SPLINE
  5
482
100
AcDbEntity
  8
0
100
AcDbSpline
 62
7
  6
CONTINUOUS
 70
0
 71
3
 72
9
 73
5
 74
0
 42
0.0000001
 43
0.0000001
 44
0.0000000001
 40
0.0
 40
0.0
 40
0.0
 40
0.0
 40
0.2724422311
 40
1.0
 40
1.0
 40
1.0
 40
1.0
 10
46.862283986
 20
151.9187996478
 30
0.0
 10
46.862283986
 20
152.0571026797
 30
0.0
 10
46.88410179
 20
152.5636275684
 30
0.0
 10
47.0008844794
 20
153.0725255922
 30
0.0
 10
47.1608414159
 20
153.4054292051
 30
0.0
  0
SPLINE
  5
483
100
AcDbEntity
  8
0
100
AcDbSpline
 62
7
  6
CONTINUOUS
 70
0
 71
3
 72
16
 73
12
 74
0
 42
0.0000001
 43
0.0000001
 44
0.0000000001
 40
0.0
 40
0.0
 40
0.0
 40
0.0
 40
0.1505993111
 40
0.3010874184
 40
0.446540334
 40
0.5825524025
 40
0.70583902
 40
0.8149595526
 40
0.9112426499
 40
0.956155248
 40
1.0
 40
1.0
 40
1.0
 40
1.0
 10
69.9340648847
 20
159.1946720498
 30
0.0
 10
69.7196910358
 20
159.7076736995
 30
0.0
 10
69.2219654582
 20
160.7057206125
 30
0.0
 10
68.3022830428
 20
162.0790986278
 30
0.0
 10
67.2452385087
 20
163.2799321459
 30
0.0
 10
66.1012071672
 20
164.2506032907
 30
0.0
 10
64.92199005
 20
164.9448606213
 30
0.0
 10
63.7590681945
 20
165.3289763113
 30
0.0
 10
62.8178331856
 20
165.3642585006
 30
0.0
 10
62.150000287
 20
165.2043986377
 30
0.0
 10
61.8493739566
 20
165.0680039563
 30
0.0
 10
61.7091894055
 20
164.9870732389
 30
0.0
  0
SPLINE
  5
484
100
AcDbEntity
  8
0
100
AcDbSpline
 62
7
  6
CONTINUOUS
 70
0
 71
3
 72
13
 73
9
 74
0
 42
0.0000001
 43
0.0000001
 44
0.0000000001
 40
0.0
 40
0.0
 40
0.0
 40
0.0
 40
0.270352492
 40
0.536383579
 40
0.6631077271
 40
0.7833376548
 40
0.8959230224
 40
1.0
 40
1.0
 40
1.0
 40
1.0
 10
68.5200728912
 20
158.3776702998
 30
0.0
 10
68.232826504
 20
159.065168338
 30
0.0
 10
67.5401672369
 20
160.3805066437
 30
0.0
 10
66.4218538327
 20
161.8388341257
 30
0.0
 10
65.4095375955
 20
162.8287044524
 30
0.0
 10
64.6316137917
 20
163.4458135192
 30
0.0
 10
63.8402181883
 20
163.9355219719
 30
0.0
 10
63.2925970266
 20
164.1799868488
 30
0.0
 10
63.0218909469
 20
164.2748214526
 30
0.0
  0
SPLINE
  5
485
100
AcDbEntity
  8
0
100
AcDbSpline
 62
7
  6
CONTINUOUS
 70
0
 71
3
 72
11
 73
7
 74
0
 42
0.0000001
 43
0.0000001
 44
0.0000000001
 40
0.0
 40
0.0
 40
0.0
 40
0.0
 40
0.2731761385
 40
0.5293874868
 40
0.7704144917
 40
1.0
 40
1.0
 40
1.0
 40
1.0
 10
63.0218909469
 20
164.2748214526
 30
0.0
 10
62.8294433362
 20
164.3422403039
 30
0.0
 10
62.4481587333
 20
164.450860037
 30
0.0
 10
61.8765249309
 20
164.5306969345
 30
0.0
 10
61.3316463329
 20
164.5193565199
 30
0.0
 10
60.9849396612
 20
164.449324937
 30
0.0
 10
60.82110099
 20
164.3990578225
 30
0.0
  0
SPLINE
  5
486
100
AcDbEntity
  8
0
100
AcDbSpline
 62
7
  6
CONTINUOUS
 70
0
 71
3
 72
12
 73
8
 74
0
 42
0.0000001
 43
0.0000001
 44
0.0000000001
 40
0.0
 40
0.0
 40
0.0
 40
0.0
 40
0.2895538081
 40
0.5486501541
 40
0.7816324088
 40
0.8918397054
 40
1.0
 40
1.0
 40
1.0
 40
1.0
 10
57.1859858783
 20
159.8391011944
 30
0.0
 10
57.1859858783
 20
160.2192080773
 30
0.0
 10
57.243647031
 20
160.9419987279
 30
0.0
 10
57.5357689432
 20
161.9345610088
 30
0.0
 10
57.9559291096
 20
162.6192567302
 30
0.0
 10
58.3799176537
 20
163.0365105716
 30
0.0
 10
58.6163875599
 20
163.2014594877
 30
0.0
 10
58.7393514295
 20
163.2724510266
 30
0.0
  0
SPLINE
  5
487
100
AcDbEntity
  8
0
100
AcDbSpline
 62
7
  6
CONTINUOUS
 70
0
 71
3
 72
11
 73
7
 74
0
 42
0.0000001
 43
0.0000001
 44
0.0000000001
 40
0.0
 40
0.0
 40
0.0
 40
0.0
 40
0.2897762172
 40
0.5490701576
 40
0.7822260326
 40
1.0
 40
1.0
 40
1.0
 40
1.0
 10
55.5596608303
 20
156.8589279136
 30
0.0
 10
55.5596608303
 20
157.1123342536
 30
0.0
 10
55.5979767248
 20
157.5941387928
 30
0.0
 10
55.7932380368
 20
158.2560747842
 30
0.0
 10
56.1216775031
 20
158.793207135
 30
0.0
 10
56.4303122196
 20
159.0526062695
 30
0.0
 10
56.5952393011
 20
159.1478264018
 30
0.0
  0
SPLINE
  5
488
100
AcDbEntity
  8
0
100
AcDbSpline
 62
7
  6
CONTINUOUS
 70
0
 71
3
 72
11
 73
7
 74
0
 42
0.0000001
 43
0.0000001
 44
0.0000000001
 40
0.0
 40
0.0
 40
0.0
 40
0.0
 40
0.2597701353
 40
0.5212872062
 40
0.7716983308
 40
1.0
 40
1.0
 40
1.0
 40
1.0
 10
57.4792713637
 20
152.1195412205
 30
0.0
 10
57.1865534339
 20
152.4622823612
 30
0.0
 10
56.6567352734
 20
153.2010051264
 30
0.0
 10
56.0517441014
 20
154.4014672916
 30
0.0
 10
55.6624680604
 20
155.6312443974
 30
0.0
 10
55.5596608303
 20
156.4628013933
 30
0.0
 10
55.5596608303
 20
156.8589279136
 30
0.0
  0
SPLINE
  5
489
100
AcDbEntity
  8
0
100
AcDbSpline
 62
7
  6
CONTINUOUS
 70
0
 71
3
 72
16
 73
12
 74
0
 42
0.0000001
 43
0.0000001
 44
0.0000000001
 40
0.0
 40
0.0
 40
0.0
 40
0.0
 40
0.1505367772
 40
0.3010053561
 40
0.4464746411
 40
0.5825213015
 40
0.7058420036
 40
0.8149823335
 40
0.9112629112
 40
0.9561649093
 40
1.0
 40
1.0
 40
1.0
 40
1.0
 10
51.748523875
 20
149.2825205727
 30
0.0
 10
51.6030593981
 20
149.6319975793
 30
0.0
 10
51.2650888117
 20
150.3120855934
 30
0.0
 10
50.6398267543
 20
151.2481110671
 30
0.0
 10
49.9206653828
 20
152.0668557808
 30
0.0
 10
49.1419314188
 20
152.7289176778
 30
0.0
 10
48.3389916029
 20
153.2026797728
 30
0.0
 10
47.5470075025
 20
153.4650332262
 30
0.0
 10
46.9058711065
 20
153.4895818854
 30
0.0
 10
46.4510309356
 20
153.3807747799
 30
0.0
 10
46.2462808696
 20
153.2879686766
 30
0.0
 10
46.1508104955
 20
153.2328714518
 30
0.0
  0
SPLINE
  5
48A
100
AcDbEntity
  8
0
100
AcDbSpline
 62
7
  6
CONTINUOUS
 70
0
 71
3
 72
9
 73
5
 74
0
 42
0.0000001
 43
0.0000001
 44
0.0000000001
 40
0.0
 40
0.0
 40
0.0
 40
0.0
 40
0.499328989
 40
1.0
 40
1.0
 40
1.0
 40
1.0
 10
37.6085223382
 20
140.0708544337
 30
0.0
 10
37.1429544602
 20
140.5776237794
 30
0.0
 10
36.323907937
 20
141.6999553099
 30
0.0
 10
35.7430036137
 20
142.9619146666
 30
0.0
 10
35.5258171741
 20
143.6168556291
 30
0.0
  0
SPLINE
  5
48B
100
AcDbEntity
  8
0
100
AcDbSpline
 62
7
  6
CONTINUOUS
 70
0
 71
3
 72
9
 73
5
 74
0
 42
0.0000001
 43
0.0000001
 44
0.0000000001
 40
0.0
 40
0.0
 40
0.0
 40
0.0
 40
0.2419900696
 40
1.0
 40
1.0
 40
1.0
 40
1.0
 10
37.8264921405
 20
138.4220210493
 30
0.0
 10
37.7458889052
 20
138.479330944
 30
0.0
 10
37.4181989854
 20
138.7237074043
 30
0.0
 10
37.1119214763
 20
138.9963770454
 30
0.0
 10
36.8921381339
 20
139.2147089612
 30
0.0
  0
SPLINE
  5
48C
100
AcDbEntity
  8
0
100
AcDbSpline
 62
7
  6
CONTINUOUS
 70
0
 71
3
 72
15
 73
11
 74
0
 42
0.0000001
 43
0.0000001
 44
0.0000000001
 40
0.0
 40
0.0
 40
0.0
 40
0.0
 40
0.1141465952
 40
0.2373352439
 40
0.366975646
 40
0.4999989181
 40
0.6330223406
 40
0.7626631822
 40
0.8858525235
 40
1.0
 40
1.0
 40
1.0
 40
1.0
 10
37.1749914447
 20
137.9976193796
 30
0.0
 10
36.9281320294
 20
138.1401405052
 30
0.0
 10
36.4405071445
 20
138.4819961462
 30
0.0
 10
35.7695211863
 20
139.1096752084
 30
0.0
 10
35.1512486233
 20
139.8517460024
 30
0.0
 10
34.6088307363
 20
140.6801664224
 30
0.0
 10
34.1626018671
 20
141.5641231601
 30
0.0
 10
33.8290801305
 20
142.4705995342
 30
0.0
 10
33.620980285
 20
143.3655334921
 30
0.0
 10
33.5687318464
 20
143.9587602667
 30
0.0
 10
33.5687318464
 20
144.243809555
 30
0.0
  0
SPLINE
  5
48D
100
AcDbEntity
  8
0
100
AcDbSpline
 62
7
  6
CONTINUOUS
 70
0
 71
3
 72
9
 73
5
 74
0
 42
0.0000001
 43
0.0000001
 44
0.0000000001
 40
0.0
 40
0.0
 40
0.0
 40
0.0
 40
0.2596853221
 40
1.0
 40
1.0
 40
1.0
 40
1.0
 10
33.5687318464
 20
144.243809555
 30
0.0
 10
33.5687318464
 20
144.3108787888
 30
0.0
 10
33.5741916729
 20
144.5690860076
 30
0.0
 10
33.6020211256
 20
144.8270903002
 30
0.0
 10
33.6378256691
 20
145.0149099416
 30
0.0
  0
SPLINE
  5
48E
100
AcDbEntity
  8
0
100
AcDbSpline
 62
7
  6
CONTINUOUS
 70
0
 71
3
 72
17
 73
13
 74
0
 42
0.0000001
 43
0.0000001
 44
0.0000000001
 40
0.0
 40
0.0
 40
0.0
 40
0.0
 40
0.1266146605
 40
0.2656912944
 40
0.4106567689
 40
0.5539615808
 40
0.6883213355
 40
0.8080359259
 40
0.8615981943
 40
0.910995433
 40
0.9567824972
 40
1.0
 40
1.0
 40
1.0
 40
1.0
 10
77.9045351649
 20
100.1463243423
 30
0.0
 10
77.9045351649
 20
100.3996467582
 30
0.0
 10
77.8367165766
 20
100.9318311028
 30
0.0
 10
77.5815300591
 20
101.7166569193
 30
0.0
 10
77.1860505703
 20
102.478948966
 30
0.0
 10
76.6797853178
 20
103.1610713018
 30
0.0
 10
76.1008873791
 20
103.7119467883
 30
0.0
 10
75.5723886375
 20
104.0403890084
 30
0.0
 10
75.1515234119
 20
104.191224364
 30
0.0
 10
74.8572767645
 20
104.2453810466
 30
0.0
 10
74.578535726
 20
104.2426318865
 30
0.0
 10
74.403335691
 20
104.2014332212
 30
0.0
 10
74.3222352241
 20
104.1714462467
 30
0.0
  0
SPLINE
  5
48F
100
AcDbEntity
  8
0
100
AcDbSpline
 62
7
  6
CONTINUOUS
 70
0
 71
3
 72
9
 73
5
 74
0
 42
0.0000001
 43
0.0000001
 44
0.0000000001
 40
0.0
 40
0.0
 40
0.0
 40
0.0
 40
0.2277435414
 40
1.0
 40
1.0
 40
1.0
 40
1.0
 10
77.6924022473
 20
99.1825107549
 30
0.0
 10
77.7281990977
 20
99.2488374163
 30
0.0
 10
77.8617914567
 20
99.5529018953
 30
0.0
 10
77.9045351649
 20
99.8907518354
 30
0.0
 10
77.9045351649
 20
100.1463243423
 30
0.0
  0
SPLINE
  5
490
100
AcDbEntity
  8
0
100
AcDbSpline
 62
7
  6
CONTINUOUS
 70
0
 71
3
 72
17
 73
13
 74
0
 42
0.0000001
 43
0.0000001
 44
0.0000000001
 40
0.0
 40
0.0
 40
0.0
 40
0.0
 40
0.1266146605
 40
0.2656912944
 40
0.4106567689
 40
0.5539615808
 40
0.6883213355
 40
0.8080359259
 40
0.8615981943
 40
0.910995433
 40
0.9567824972
 40
1.0
 40
1.0
 40
1.0
 40
1.0
 10
30.52818358
 20
127.4984548951
 30
0.0
 10
30.52818358
 20
127.751777311
 30
0.0
 10
30.4603649917
 20
128.2839616557
 30
0.0
 10
30.2051784742
 20
129.0687874722
 30
0.0
 10
29.8096989854
 20
129.8310795189
 30
0.0
 10
29.3034337329
 20
130.5132018546
 30
0.0
 10
28.7245357942
 20
131.0640773412
 30
0.0
 10
28.1960370527
 20
131.3925195613
 30
0.0
 10
27.775171827
 20
131.5433549169
 30
0.0
 10
27.4809251796
 20
131.5975115995
 30
0.0
 10
27.2021841412
 20
131.5947624394
 30
0.0
 10
27.0269841062
 20
131.553563774
 30
0.0
 10
26.9458836393
 20
131.5235767995
 30
0.0
  0
SPLINE
  5
491
100
AcDbEntity
  8
0
100
AcDbSpline
 62
7
  6
CONTINUOUS
 70
0
 71
3
 72
9
 73
5
 74
0
 42
0.0000001
 43
0.0000001
 44
0.0000000001
 40
0.0
 40
0.0
 40
0.0
 40
0.0
 40
0.2277435414
 40
1.0
 40
1.0
 40
1.0
 40
1.0
 10
30.3160506625
 20
126.5346413078
 30
0.0
 10
30.3518475129
 20
126.6009679692
 30
0.0
 10
30.4854398719
 20
126.9050324482
 30
0.0
 10
30.52818358
 20
127.2428823883
 30
0.0
 10
30.52818358
 20
127.4984548951
 30
0.0
  0
SPLINE
  5
492
100
AcDbEntity
  8
0
100
AcDbSpline
 62
7
  6
CONTINUOUS
 70
0
 71
3
 72
11
 73
7
 74
0
 42
0.0000001
 43
0.0000001
 44
0.0000000001
 40
0.0
 40
0.0
 40
0.0
 40
0.0
 40
0.2896413964
 40
0.5491107671
 40
0.7822355978
 40
1.0
 40
1.0
 40
1.0
 40
1.0
 10
73.7325877865
 20
102.5549447939
 30
0.0
 10
73.7325877865
 20
102.6967849984
 30
0.0
 10
73.75414755
 20
102.9665986408
 30
0.0
 10
73.8633513991
 20
103.3373139136
 30
0.0
 10
74.0473048761
 20
103.6382020761
 30
0.0
 10
74.2201935796
 20
103.7833445765
 30
0.0
 10
74.3125264006
 20
103.8367021072
 30
0.0
  0
SPLINE
  5
493
100
AcDbEntity
  8
0
100
AcDbSpline
 62
7
  6
CONTINUOUS
 70
0
 71
3
 72
11
 73
7
 74
0
 42
0.0000001
 43
0.0000001
 44
0.0000000001
 40
0.0
 40
0.0
 40
0.0
 40
0.0
 40
0.2896413964
 40
0.5491107671
 40
0.7822355978
 40
1.0
 40
1.0
 40
1.0
 40
1.0
 10
26.3562362017
 20
129.9070753468
 30
0.0
 10
26.3562362017
 20
130.0489155513
 30
0.0
 10
26.3777959652
 20
130.3187291936
 30
0.0
 10
26.4869998143
 20
130.6894444664
 30
0.0
 10
26.6709532913
 20
130.990332629
 30
0.0
 10
26.8438419948
 20
131.1354751294
 30
0.0
 10
26.9361748158
 20
131.18883266
 30
0.0
  0
SPLINE
  5
494
100
AcDbEntity
  8
0
100
AcDbSpline
 62
7
  6
CONTINUOUS
 70
0
 71
3
 72
11
 73
7
 74
0
 42
0.0000001
 43
0.0000001
 44
0.0000000001
 40
0.0
 40
0.0
 40
0.0
 40
0.0
 40
0.2896413964
 40
0.5491107671
 40
0.7822355978
 40
1.0
 40
1.0
 40
1.0
 40
1.0
 10
73.7325877865
 20
50.3804403394
 30
0.0
 10
73.7325877865
 20
50.5222805439
 30
0.0
 10
73.75414755
 20
50.7920941862
 30
0.0
 10
73.8633513991
 20
51.162809459
 30
0.0
 10
74.0473048761
 20
51.4636976216
 30
0.0
 10
74.2201935796
 20
51.6088401219
 30
0.0
 10
74.3125264006
 20
51.6621976526
 30
0.0
  0
SPLINE
  5
495
100
AcDbEntity
  8
0
100
AcDbSpline
 62
7
  6
CONTINUOUS
 70
0
 71
3
 72
11
 73
7
 74
0
 42
0.0000001
 43
0.0000001
 44
0.0000000001
 40
0.0
 40
0.0
 40
0.0
 40
0.0
 40
0.28583635
 40
0.5455730953
 40
0.7814950558
 40
1.0
 40
1.0
 40
1.0
 40
1.0
 10
35.831494154
 20
51.0667900975
 30
0.0
 10
35.6352231332
 20
51.1801046606
 30
0.0
 10
35.2444759641
 20
51.3705436392
 30
0.0
 10
34.6449183828
 20
51.5416403029
 30
0.0
 10
34.0747601316
 20
51.5772455595
 30
0.0
 10
33.7161040342
 20
51.5051237319
 30
0.0
 10
33.5532899582
 20
51.4459100262
 30
0.0
  0
SPLINE
  5
496
100
AcDbEntity
  8
0
100
AcDbSpline
 62
7
  6
CONTINUOUS
 70
0
 71
3
 72
10
 73
6
 74
0
 42
0.0000001
 43
0.0000001
 44
0.0000000001
 40
0.0
 40
0.0
 40
0.0
 40
0.0
 40
0.5245998026
 40
0.7705250921
 40
1.0
 40
1.0
 40
1.0
 40
1.0
 10
73.4651846071
 20
28.4032882006
 30
0.0
 10
73.154828589
 20
28.8745214573
 30
0.0
 10
72.6306304947
 20
29.5269459648
 30
0.0
 10
71.8243924793
 20
30.241502081
 30
0.0
 10
71.4007343752
 20
30.5313442547
 30
0.0
 10
71.1869804113
 20
30.6547523715
 30
0.0
  0
SPLINE
  5
497
100
AcDbEntity
  8
0
100
AcDbSpline
 62
7
  6
CONTINUOUS
 70
0
 71
3
 72
11
 73
7
 74
0
 42
0.0000001
 43
0.0000001
 44
0.0000000001
 40
0.0
 40
0.0
 40
0.0
 40
0.0
 40
0.28583635
 40
0.5455730953
 40
0.7814950558
 40
1.0
 40
1.0
 40
1.0
 40
1.0
 10
71.1869804113
 20
30.6547523715
 30
0.0
 10
70.9907093906
 20
30.7680669346
 30
0.0
 10
70.5999622214
 20
30.9585059131
 30
0.0
 10
70.0004046402
 20
31.1296025768
 30
0.0
 10
69.430246389
 20
31.1652078335
 30
0.0
 10
69.0715902915
 20
31.0930860059
 30
0.0
 10
68.9087762156
 20
31.0338723002
 30
0.0
  0
SPLINE
  5
498
100
AcDbEntity
  8
0
100
AcDbSpline
 62
7
  6
CONTINUOUS
 70
0
 71
3
 72
10
 73
6
 74
0
 42
0.0000001
 43
0.0000001
 44
0.0000000001
 40
0.0
 40
0.0
 40
0.0
 40
0.0
 40
0.5245998026
 40
0.7705250921
 40
1.0
 40
1.0
 40
1.0
 40
1.0
 10
55.7874414784
 20
38.6093070636
 30
0.0
 10
55.4770854603
 20
39.0805403203
 30
0.0
 10
54.952887366
 20
39.7329648278
 30
0.0
 10
54.1466493507
 20
40.447520944
 30
0.0
 10
53.7229912465
 20
40.7373631178
 30
0.0
 10
53.5092372826
 20
40.8607712345
 30
0.0
  0
SPLINE
  5
499
100
AcDbEntity
  8
0
100
AcDbSpline
 62
7
  6
CONTINUOUS
 70
0
 71
3
 72
11
 73
7
 74
0
 42
0.0000001
 43
0.0000001
 44
0.0000000001
 40
0.0
 40
0.0
 40
0.0
 40
0.0
 40
0.28583635
 40
0.5455730953
 40
0.7814950558
 40
1.0
 40
1.0
 40
1.0
 40
1.0
 10
53.5092372826
 20
40.8607712345
 30
0.0
 10
53.3129662619
 20
40.9740857976
 30
0.0
 10
52.9222190928
 20
41.1645247762
 30
0.0
 10
52.3226615115
 20
41.3356214399
 30
0.0
 10
51.7525032603
 20
41.3712266965
 30
0.0
 10
51.3938471628
 20
41.2991048689
 30
0.0
 10
51.2310330869
 20
41.2398911632
 30
0.0
  0
SPLINE
  5
49A
100
AcDbEntity
  8
0
100
AcDbSpline
 62
7
  6
CONTINUOUS
 70
0
 71
3
 72
10
 73
6
 74
0
 42
0.0000001
 43
0.0000001
 44
0.0000000001
 40
0.0
 40
0.0
 40
0.0
 40
0.0
 40
0.5245998026
 40
0.7705250921
 40
1.0
 40
1.0
 40
1.0
 40
1.0
 10
38.1096983497
 20
48.8153259266
 30
0.0
 10
37.7993423317
 20
49.2865591833
 30
0.0
 10
37.2751442373
 20
49.9389836908
 30
0.0
 10
36.468906222
 20
50.653539807
 30
0.0
 10
36.0452481179
 20
50.9433819808
 30
0.0
 10
35.831494154
 20
51.0667900975
 30
0.0
  0
SPLINE
  5
49B
100
AcDbEntity
  8
0
100
AcDbSpline
 62
7
  6
CONTINUOUS
 70
0
 71
3
 72
17
 73
13
 74
0
 42
0.0000001
 43
0.0000001
 44
0.0000000001
 40
0.0
 40
0.0
 40
0.0
 40
0.0
 40
0.128694094
 40
0.2702787256
 40
0.41743435
 40
0.5617778939
 40
0.6954482501
 40
0.8127108639
 40
0.8646770521
 40
0.9125096585
 40
0.9571396658
 40
1.0
 40
1.0
 40
1.0
 40
1.0
 10
48.4180596262
 20
37.921324032
 30
0.0
 10
48.4180596262
 20
37.4853824026
 30
0.0
 10
48.5400045076
 20
36.5687850053
 30
0.0
 10
48.9952294483
 20
35.2229805597
 30
0.0
 10
49.6966008507
 20
33.9265294519
 30
0.0
 10
50.5878283044
 20
32.7857509562
 30
0.0
 10
51.5960725915
 20
31.8927750515
 30
0.0
 10
52.5086945232
 20
31.3938720358
 30
0.0
 10
53.2225490983
 20
31.2038426125
 30
0.0
 10
53.7138794451
 20
31.1678181521
 30
0.0
 10
54.1714024333
 20
31.2347624822
 30
0.0
 10
54.4485449001
 20
31.3500154049
 30
0.0
 10
54.5742927202
 20
31.4225861472
 30
0.0
  0
SPLINE
  5
49C
100
AcDbEntity
  8
0
100
AcDbSpline
 62
7
  6
CONTINUOUS
 70
0
 71
3
 72
15
 73
11
 74
0
 42
0.0000001
 43
0.0000001
 44
0.0000000001
 40
0.0
 40
0.0
 40
0.0
 40
0.0
 40
0.1026398948
 40
0.2184353618
 40
0.3453582989
 40
0.479773795
 40
0.6171548538
 40
0.7526200551
 40
0.881553713
 40
1.0
 40
1.0
 40
1.0
 40
1.0
 10
63.478404984
 20
122.033719811
 30
0.0
 10
63.2575775725
 20
122.0873636867
 30
0.0
 10
62.8035915919
 20
122.2696642024
 30
0.0
 10
62.1646069901
 20
122.6964540267
 30
0.0
 10
61.5541844724
 20
123.2712009776
 30
0.0
 10
61.0033842592
 20
123.9645996325
 30
0.0
 10
60.5401239007
 20
124.7412290115
 30
0.0
 10
60.1881052674
 20
125.5612382483
 30
0.0
 10
59.9657328064
 20
126.3821198027
 30
0.0
 10
59.9085773512
 20
126.9304095516
 30
0.0
 10
59.9085773512
 20
127.1926553315
 30
0.0
  0
SPLINE
  5
49D
100
AcDbEntity
  8
0
100
AcDbSpline
 62
7
  6
CONTINUOUS
 70
0
 71
3
 72
15
 73
11
 74
0
 42
0.0000001
 43
0.0000001
 44
0.0000000001
 40
0.0
 40
0.0
 40
0.0
 40
0.0
 40
0.1026398948
 40
0.2184353618
 40
0.3453582989
 40
0.479773795
 40
0.6171548538
 40
0.7526200551
 40
0.881553713
 40
1.0
 40
1.0
 40
1.0
 40
1.0
 10
45.8006618553
 20
132.239738674
 30
0.0
 10
45.5798344439
 20
132.2933825497
 30
0.0
 10
45.1258484633
 20
132.4756830654
 30
0.0
 10
44.4868638615
 20
132.9024728897
 30
0.0
 10
43.8764413437
 20
133.4772198406
 30
0.0
 10
43.3256411305
 20
134.1706184955
 30
0.0
 10
42.862380772
 20
134.9472478745
 30
0.0
 10
42.5103621387
 20
135.7672571113
 30
0.0
 10
42.2879896777
 20
136.5881386658
 30
0.0
 10
42.2308342226
 20
137.1364284146
 30
0.0
 10
42.2308342226
 20
137.3986741945
 30
0.0
  0
SPLINE
  5
49E
100
AcDbEntity
  8
0
100
AcDbSpline
 62
7
  6
CONTINUOUS
 70
0
 71
3
 72
11
 73
7
 74
0
 42
0.0000001
 43
0.0000001
 44
0.0000000001
 40
0.0
 40
0.0
 40
0.0
 40
0.0
 40
0.2093112801
 40
0.4468020868
 40
0.7120210676
 40
1.0
 40
1.0
 40
1.0
 40
1.0
 10
99.2405746545
 20
145.7173132928
 30
0.0
 10
99.6285833403
 20
145.7061843102
 30
0.0
 10
100.4543109753
 20
145.5443020243
 30
0.0
 10
101.6594612296
 20
144.983618867
 30
0.0
 10
102.8562241295
 20
144.1241966191
 30
0.0
 10
103.5896823508
 20
143.4009831814
 30
0.0
 10
103.9443161685
 20
143.0016682996
 30
0.0
  0
SPLINE
  5
49F
100
AcDbEntity
  8
0
100
AcDbSpline
 62
7
  6
CONTINUOUS
 70
0
 71
3
 72
11
 73
7
 74
0
 42
0.0000001
 43
0.0000001
 44
0.0000000001
 40
0.0
 40
0.0
 40
0.0
 40
0.0
 40
0.217745073
 40
0.4508830113
 40
0.7104597664
 40
1.0
 40
1.0
 40
1.0
 40
1.0
 10
77.4410003908
 20
116.2178028152
 30
0.0
 10
77.3684440726
 20
116.1759126208
 30
0.0
 10
77.2325538907
 20
116.0619320689
 30
0.0
 10
77.0879997871
 20
115.82547339
 30
0.0
 10
77.002302899
 20
115.534169638
 30
0.0
 10
76.9852925222
 20
115.3221853346
 30
0.0
 10
76.9852925222
 20
115.210780348
 30
0.0
  0
SPLINE
  5
4A0
100
AcDbEntity
  8
0
100
AcDbSpline
 62
7
  6
CONTINUOUS
 70
0
 71
3
 72
11
 73
7
 74
0
 42
0.0000001
 43
0.0000001
 44
0.0000000001
 40
0.0
 40
0.0
 40
0.0
 40
0.0
 40
0.2177833598
 40
0.4509104088
 40
0.7102966711
 40
1.0
 40
1.0
 40
1.0
 40
1.0
 10
77.7124760834
 20
56.9593598422
 30
0.0
 10
77.8444224528
 20
57.035538683
 30
0.0
 10
78.0912886867
 20
57.2430786333
 30
0.0
 10
78.3541070511
 20
57.6727986262
 30
0.0
 10
78.5102057039
 20
58.2023734145
 30
0.0
 10
78.5409339175
 20
58.5878137458
 30
0.0
 10
78.5409339175
 20
58.7904863233
 30
0.0
  0
SPLINE
  5
4A1
100
AcDbEntity
  8
0
100
AcDbSpline
 62
7
  6
CONTINUOUS
 70
0
 71
3
 72
11
 73
7
 74
0
 42
0.0000001
 43
0.0000001
 44
0.0000000001
 40
0.0
 40
0.0
 40
0.0
 40
0.0
 40
0.217745073
 40
0.4508830113
 40
0.7104597664
 40
1.0
 40
1.0
 40
1.0
 40
1.0
 10
77.4909973693
 20
23.0499294385
 30
0.0
 10
77.4217390655
 20
23.0099433438
 30
0.0
 10
77.2920257101
 20
22.9011437261
 30
0.0
 10
77.1540422476
 20
22.675433169
 30
0.0
 10
77.0722406725
 20
22.3973704966
 30
0.0
 10
77.0560034947
 20
22.1950218433
 30
0.0
 10
77.0560034947
 20
22.0886807198
 30
0.0
  0
SPLINE
  5
4A2
100
AcDbEntity
  8
0
100
AcDbSpline
 62
7
  6
CONTINUOUS
 70
0
 71
3
 72
11
 73
7
 74
0
 42
0.0000001
 43
0.0000001
 44
0.0000000001
 40
0.0
 40
0.0
 40
0.0
 40
0.0
 40
0.2372539654
 40
0.5000012591
 40
0.7627478695
 40
1.0
 40
1.0
 40
1.0
 40
1.0
 10
77.0560034947
 20
22.0886807198
 30
0.0
 10
77.0560034947
 20
21.8452363653
 30
0.0
 10
77.1472784525
 20
21.3318430137
 30
0.0
 10
77.4656505385
 20
20.6105427869
 30
0.0
 10
77.9311307386
 20
19.9741781082
 30
0.0
 10
78.3301053602
 20
19.63843923
 30
0.0
 10
78.5409339175
 20
19.5167200594
 30
0.0
  0
SPLINE
  5
4A3
100
AcDbEntity
  8
0
100
AcDbSpline
 62
7
  6
CONTINUOUS
 70
0
 71
3
 72
17
 73
13
 74
0
 42
0.0000001
 43
0.0000001
 44
0.0000000001
 40
0.0
 40
0.0
 40
0.0
 40
0.0
 40
0.128694094
 40
0.2702787256
 40
0.41743435
 40
0.5617778939
 40
0.6954482501
 40
0.8127108639
 40
0.8646770521
 40
0.9125096585
 40
0.9571396658
 40
1.0
 40
1.0
 40
1.0
 40
1.0
 10
66.0958027549
 20
27.715305169
 30
0.0
 10
66.0958027549
 20
27.2793635396
 30
0.0
 10
66.2177476363
 20
26.3627661423
 30
0.0
 10
66.672972577
 20
25.0169616967
 30
0.0
 10
67.3743439794
 20
23.7205105889
 30
0.0
 10
68.2655714331
 20
22.5797320932
 30
0.0
 10
69.2738157202
 20
21.6867561885
 30
0.0
 10
70.1864376519
 20
21.1878531728
 30
0.0
 10
70.900292227
 20
20.9978237495
 30
0.0
 10
71.3916225738
 20
20.9617992891
 30
0.0
 10
71.849145562
 20
21.0287436192
 30
0.0
 10
72.1262880287
 20
21.1439965419
 30
0.0
 10
72.2520358489
 20
21.2165672842
 30
0.0
  0
SPLINE
  5
4A4
100
AcDbEntity
  8
0
100
AcDbSpline
 62
7
  6
CONTINUOUS
 70
0
 71
3
 72
11
 73
7
 74
0
 42
0.0000001
 43
0.0000001
 44
0.0000000001
 40
0.0
 40
0.0
 40
0.0
 40
0.0
 40
0.2093112801
 40
0.4468020868
 40
0.7120210676
 40
1.0
 40
1.0
 40
1.0
 40
1.0
 10
63.8850883972
 20
166.1293510189
 30
0.0
 10
64.273097083
 20
166.1182220362
 30
0.0
 10
65.098824718
 20
165.9563397503
 30
0.0
 10
66.3039749723
 20
165.395656593
 30
0.0
 10
67.5007378722
 20
164.5362343451
 30
0.0
 10
68.2341960935
 20
163.8130209075
 30
0.0
 10
68.5888299111
 20
163.4137060257
 30
0.0
  0
SPLINE
  5
4A5
100
AcDbEntity
  8
0
100
AcDbSpline
 62
7
  6
CONTINUOUS
 70
0
 71
3
 72
9
 73
5
 74
0
 42
0.0000001
 43
0.0000001
 44
0.0000000001
 40
0.0
 40
0.0
 40
0.0
 40
0.0
 40
0.5131906304
 40
1.0
 40
1.0
 40
1.0
 40
1.0
 10
76.6532433197
 20
46.4080304601
 30
0.0
 10
76.761363242
 20
46.4049293317
 30
0.0
 10
76.9740185539
 20
46.4235243768
 30
0.0
 10
77.1736371311
 20
46.5013697227
 30
0.0
 10
77.2624949776
 20
46.5526715176
 30
0.0
  0
SPLINE
  5
4A6
100
AcDbEntity
  8
0
100
AcDbSpline
 62
7
  6
CONTINUOUS
 70
0
 71
3
 72
11
 73
7
 74
0
 42
0.0000001
 43
0.0000001
 44
0.0000000001
 40
0.0
 40
0.0
 40
0.0
 40
0.0
 40
0.2895391946
 40
0.5491157945
 40
0.7822541179
 40
1.0
 40
1.0
 40
1.0
 40
1.0
 10
25.5077045315
 20
50.1347766484
 30
0.0
 10
25.5997963729
 20
50.0816086018
 30
0.0
 10
25.7831495951
 20
49.994500478
 30
0.0
 10
26.0648523847
 20
49.9263154367
 30
0.0
 10
26.3293083482
 20
49.9329586918
 30
0.0
 10
26.4883843711
 20
49.9908922475
 30
0.0
 10
26.5576410797
 20
50.0308774212
 30
0.0
  0
SPLINE
  5
4A7
100
AcDbEntity
  8
0
100
AcDbSpline
 62
7
  6
CONTINUOUS
 70
0
 71
3
 72
11
 73
7
 74
0
 42
0.0000001
 43
0.0000001
 44
0.0000000001
 40
0.0
 40
0.0
 40
0.0
 40
0.0
 40
0.2176907916
 40
0.4508868986
 40
0.7106214304
 40
1.0
 40
1.0
 40
1.0
 40
1.0
 10
64.6015873339
 20
120.5747816092
 30
0.0
 10
64.5636534403
 20
120.5529188715
 30
0.0
 10
64.4926733549
 20
120.4932679412
 30
0.0
 10
64.4170326403
 20
120.3696865926
 30
0.0
 10
64.3723306697
 20
120.2173672737
 30
0.0
 10
64.3633839283
 20
120.1065718783
 30
0.0
 10
64.3633839283
 20
120.0483705648
 30
0.0
  0
SPLINE
  5
4A8
100
AcDbEntity
  8
0
100
AcDbSpline
 62
7
  6
CONTINUOUS
 70
0
 71
3
 72
11
 73
7
 74
0
 42
0.0000001
 43
0.0000001
 44
0.0000000001
 40
0.0
 40
0.0
 40
0.0
 40
0.0
 40
0.289775222
 40
0.5490688033
 40
0.782225076
 40
1.0
 40
1.0
 40
1.0
 40
1.0
 10
62.4893088169
 20
160.8598087092
 30
0.0
 10
62.2698578683
 20
160.9865059072
 30
0.0
 10
61.8334557442
 20
161.1942154024
 30
0.0
 10
61.1625892257
 20
161.3560720952
 30
0.0
 10
60.5332155279
 20
161.3401984578
 30
0.0
 10
60.1542611167
 20
161.2026163455
 30
0.0
 10
59.9893377197
 20
161.1073983404
 30
0.0
  0
SPLINE
  5
4A9
100
AcDbEntity
  8
0
100
AcDbSpline
 62
7
  6
CONTINUOUS
 70
0
 71
3
 72
11
 73
7
 74
0
 42
0.0000001
 43
0.0000001
 44
0.0000000001
 40
0.0
 40
0.0
 40
0.0
 40
0.0
 40
0.2284900552
 40
0.4793397199
 40
0.7409883792
 40
1.0
 40
1.0
 40
1.0
 40
1.0
 10
59.0952103983
 20
158.9002367706
 30
0.0
 10
59.4459078994
 20
158.6977660545
 30
0.0
 10
60.1287541587
 20
158.1795115152
 30
0.0
 10
61.0133617265
 20
157.2010165718
 30
0.0
 10
61.7567041441
 20
156.0466984663
 30
0.0
 10
62.129438284
 20
155.1971790063
 30
0.0
 10
62.2764433954
 20
154.7623132929
 30
0.0
  0
SPLINE
  5
4AA
100
AcDbEntity
  8
0
100
AcDbSpline
 62
7
  6
CONTINUOUS
 70
0
 71
3
 72
11
 73
7
 74
0
 42
0.0000001
 43
0.0000001
 44
0.0000000001
 40
0.0
 40
0.0
 40
0.0
 40
0.0
 40
0.2176907916
 40
0.4508868986
 40
0.7106214304
 40
1.0
 40
1.0
 40
1.0
 40
1.0
 10
38.2971055585
 20
135.7613376774
 30
0.0
 10
38.2591716648
 20
135.7394749396
 30
0.0
 10
38.1881915794
 20
135.6798240094
 30
0.0
 10
38.1125508649
 20
135.5562426608
 30
0.0
 10
38.0678488942
 20
135.4039233419
 30
0.0
 10
38.0589021528
 20
135.2931279464
 30
0.0
 10
38.0589021528
 20
135.234926633
 30
0.0
  0
SPLINE
  5
4AB
100
AcDbEntity
  8
0
100
AcDbSpline
 62
7
  6
CONTINUOUS
 70
0
 71
3
 72
11
 73
7
 74
0
 42
0.0000001
 43
0.0000001
 44
0.0000000001
 40
0.0
 40
0.0
 40
0.0
 40
0.0
 40
0.2317418247
 40
0.4830520123
 40
0.7432484818
 40
1.0
 40
1.0
 40
1.0
 40
1.0
 10
73.5239821628
 20
50.3579694311
 30
0.0
 10
73.535729586
 20
50.1129315201
 30
0.0
 10
73.6181934432
 20
49.6043241272
 30
0.0
 10
73.877911786
 20
48.8582764881
 30
0.0
 10
74.2619615506
 20
48.1379598449
 30
0.0
 10
74.5912653195
 20
47.6975090843
 30
0.0
 10
74.7717467141
 20
47.4942884574
 30
0.0
  0
SPLINE
  5
4AC
100
AcDbEntity
  8
0
100
AcDbSpline
 62
7
  6
CONTINUOUS
 70
0
 71
3
 72
11
 73
7
 74
0
 42
0.0000001
 43
0.0000001
 44
0.0000000001
 40
0.0
 40
0.0
 40
0.0
 40
0.0
 40
0.2372539654
 40
0.5000012591
 40
0.7627478695
 40
1.0
 40
1.0
 40
1.0
 40
1.0
 10
43.4682762416
 20
136.6842528741
 30
0.0
 10
43.4682762416
 20
136.4292159312
 30
0.0
 10
43.563897626
 20
135.8913752773
 30
0.0
 10
43.8974302875
 20
135.1357274206
 30
0.0
 10
44.3850762114
 20
134.469059662
 30
0.0
 10
44.8030496245
 20
134.1173332181
 30
0.0
 10
45.0239176369
 20
133.9898178965
 30
0.0
  0
SPLINE
  5
4AD
100
AcDbEntity
  8
0
100
AcDbSpline
 62
7
  6
CONTINUOUS
 70
0
 71
3
 72
11
 73
7
 74
0
 42
0.0000001
 43
0.0000001
 44
0.0000000001
 40
0.0
 40
0.0
 40
0.0
 40
0.0
 40
0.289775222
 40
0.5490688033
 40
0.782225076
 40
1.0
 40
1.0
 40
1.0
 40
1.0
 10
97.8447950743
 20
140.4477709832
 30
0.0
 10
97.6253441257
 20
140.5744681812
 30
0.0
 10
97.1889420015
 20
140.7821776764
 30
0.0
 10
96.518075483
 20
140.9440343692
 30
0.0
 10
95.8887017853
 20
140.9281607318
 30
0.0
 10
95.509747374
 20
140.7905786195
 30
0.0
 10
95.3448239771
 20
140.6953606144
 30
0.0
  0
SPLINE
  5
4AE
100
AcDbEntity
  8
0
100
AcDbSpline
 62
7
  6
CONTINUOUS
 70
0
 71
3
 72
11
 73
7
 74
0
 42
0.0000001
 43
0.0000001
 44
0.0000000001
 40
0.0
 40
0.0
 40
0.0
 40
0.0
 40
0.2278224139
 40
0.4767403195
 40
0.7377156449
 40
1.0
 40
1.0
 40
1.0
 40
1.0
 10
45.094524393
 20
150.8981892631
 30
0.0
 10
45.094524393
 20
150.5284227515
 30
0.0
 10
45.1824089061
 20
149.7537921848
 30
0.0
 10
45.5202096066
 20
148.6003192453
 30
0.0
 10
46.0501356948
 20
147.4598152004
 30
0.0
 10
46.5161473833
 20
146.7455945348
 30
0.0
 10
46.7748587876
 20
146.407528291
 30
0.0
  0
SPLINE
  5
4AF
100
AcDbEntity
  8
0
100
AcDbSpline
 62
7
  6
CONTINUOUS
 70
0
 71
3
 72
11
 73
7
 74
0
 42
0.0000001
 43
0.0000001
 44
0.0000000001
 40
0.0
 40
0.0
 40
0.0
 40
0.0
 40
0.284592763
 40
0.5446238159
 40
0.7811057374
 40
1.0
 40
1.0
 40
1.0
 40
1.0
 10
45.0239176369
 20
133.9898178965
 30
0.0
 10
45.1059621795
 20
133.9424505293
 30
0.0
 10
45.2695636932
 20
133.8624469822
 30
0.0
 10
45.5203629406
 20
133.7883747858
 30
0.0
 10
45.759664592
 20
133.7691418939
 30
0.0
 10
45.9112112232
 20
133.7948988732
 30
0.0
 10
45.9805324106
 20
133.8173506195
 30
0.0
  0
SPLINE
  5
4B0
100
AcDbEntity
  8
0
100
AcDbSpline
 62
7
  6
CONTINUOUS
 70
0
 71
3
 72
11
 73
7
 74
0
 42
0.0000001
 43
0.0000001
 44
0.0000000001
 40
0.0
 40
0.0
 40
0.0
 40
0.0
 40
0.2284900552
 40
0.4793397199
 40
0.7409883792
 40
1.0
 40
1.0
 40
1.0
 40
1.0
 10
94.4506966556
 20
138.4881990446
 30
0.0
 10
94.8013941567
 20
138.2857283285
 30
0.0
 10
95.4842404161
 20
137.7674737892
 30
0.0
 10
96.3688479838
 20
136.7889788458
 30
0.0
 10
97.1121904015
 20
135.6346607403
 30
0.0
 10
97.4849245414
 20
134.7851412803
 30
0.0
 10
97.6319296527
 20
134.3502755669
 30
0.0
  0
SPLINE
  5
4B1
100
AcDbEntity
  8
0
100
AcDbSpline
 62
7
  6
CONTINUOUS
 70
0
 71
3
 72
11
 73
7
 74
0
 42
0.0000001
 43
0.0000001
 44
0.0000000001
 40
0.0
 40
0.0
 40
0.0
 40
0.0
 40
0.2317931313
 40
0.4715924526
 40
0.7260964026
 40
1.0
 40
1.0
 40
1.0
 40
1.0
 10
95.9333076636
 20
143.9218481007
 30
0.0
 10
96.1014659868
 20
144.0189320505
 30
0.0
 10
96.4682326718
 20
144.1766236098
 30
0.0
 10
97.0712954214
 20
144.2854813112
 30
0.0
 10
97.7184493485
 20
144.2688765752
 30
0.0
 10
98.154226933
 20
144.1790395265
 30
0.0
 10
98.3749850996
 20
144.1164955759
 30
0.0
  0
SPLINE
  5
4B2
100
AcDbEntity
  8
0
100
AcDbSpline
 62
7
  6
CONTINUOUS
 70
0
 71
3
 72
13
 73
9
 74
0
 42
0.0000001
 43
0.0000001
 44
0.0000000001
 40
0.0
 40
0.0
 40
0.0
 40
0.0
 40
0.1029905507
 40
0.2147401954
 40
0.3345849849
 40
0.4612996661
 40
0.7282078942
 40
1.0
 40
1.0
 40
1.0
 40
1.0
 10
98.5001763635
 20
144.079158553
 30
0.0
 10
98.7765279234
 20
143.9926357388
 30
0.0
 10
99.3373537365
 20
143.7611308251
 30
0.0
 10
100.1494867749
 20
143.2815014571
 30
0.0
 10
100.9502180851
 20
142.6663386187
 30
0.0
 10
101.9954864731
 20
141.6671849181
 30
0.0
 10
103.1504926769
 20
140.18121185
 30
0.0
 10
103.8634357369
 20
138.8347354868
 30
0.0
 10
104.1581042079
 20
138.1296302201
 30
0.0
  0
SPLINE
  5
4B3
100
AcDbEntity
  8
0
100
AcDbSpline
 62
7
  6
CONTINUOUS
 70
0
 71
3
 72
17
 73
13
 74
0
 42
0.0000001
 43
0.0000001
 44
0.0000000001
 40
0.0
 40
0.0
 40
0.0
 40
0.0
 40
0.042857965
 40
0.0874854797
 40
0.1353180708
 40
0.1872814984
 40
0.3045423159
 40
0.4382097446
 40
0.5825520305
 40
0.7297107839
 40
0.8713099826
 40
1.0
 40
1.0
 40
1.0
 40
1.0
 10
26.9361748158
 20
131.18883266
 30
0.0
 10
27.0051857716
 20
131.2287128906
 30
0.0
 10
27.1573617045
 20
131.2919286732
 30
0.0
 10
27.408523872
 20
131.328766367
 30
0.0
 10
27.6782608659
 20
131.3088896844
 30
0.0
 10
28.0701909213
 20
131.2046734476
 30
0.0
 10
28.5712137192
 20
130.9307130602
 30
0.0
 10
29.1247613816
 20
130.4404944516
 30
0.0
 10
29.6140752244
 20
129.8141961138
 30
0.0
 10
29.9991851444
 20
129.102409906
 30
0.0
 10
30.2490897398
 20
128.363503885
 30
0.0
 10
30.3160506625
 20
127.8602591685
 30
0.0
 10
30.3160506625
 20
127.6209271215
 30
0.0
  0
SPLINE
  5
4B4
100
AcDbEntity
  8
0
100
AcDbSpline
 62
7
  6
CONTINUOUS
 70
0
 71
3
 72
11
 73
7
 74
0
 42
0.0000001
 43
0.0000001
 44
0.0000000001
 40
0.0
 40
0.0
 40
0.0
 40
0.0
 40
0.2179706252
 40
0.4527992041
 40
0.7126866467
 40
1.0
 40
1.0
 40
1.0
 40
1.0
 10
26.6922806487
 20
131.387372526
 30
0.0
 10
26.6034207961
 20
131.3223422973
 30
0.0
 10
26.439809302
 20
131.1566694898
 30
0.0
 10
26.267330642
 20
130.8362907721
 30
0.0
 10
26.1646646947
 20
130.4518823147
 30
0.0
 10
26.1441032841
 20
130.1746914727
 30
0.0
 10
26.1441032841
 20
130.0295475731
 30
0.0
  0
SPLINE
  5
4B5
100
AcDbEntity
  8
0
100
AcDbSpline
 62
7
  6
CONTINUOUS
 70
0
 71
3
 72
9
 73
5
 74
0
 42
0.0000001
 43
0.0000001
 44
0.0000000001
 40
0.0
 40
0.0
 40
0.0
 40
0.0
 40
0.2456047522
 40
1.0
 40
1.0
 40
1.0
 40
1.0
 10
30.3304948343
 20
126.4682582557
 30
0.0
 10
30.3149034513
 20
126.4671317009
 30
0.0
 10
30.2513404218
 20
126.4637170704
 30
0.0
 10
30.1875466513
 20
126.4649260129
 30
0.0
 10
30.1396424707
 20
126.4681873341
 30
0.0
  0
SPLINE
  5
4B6
100
AcDbEntity
  8
0
100
AcDbSpline
 62
7
  6
CONTINUOUS
 70
0
 71
3
 72
9
 73
5
 74
0
 42
0.0000001
 43
0.0000001
 44
0.0000000001
 40
0.0
 40
0.0
 40
0.0
 40
0.0
 40
0.2418324446
 40
1.0
 40
1.0
 40
1.0
 40
1.0
 10
30.1396424707
 20
126.4681873341
 30
0.0
 10
30.1128241685
 20
126.4700131267
 30
0.0
 10
30.0021420451
 20
126.4806017557
 30
0.0
 10
29.892705797
 20
126.5030230842
 30
0.0
 10
29.8114433276
 20
126.5253450611
 30
0.0
  0
SPLINE
  5
4B7
100
AcDbEntity
  8
0
100
AcDbSpline
 62
7
  6
CONTINUOUS
 70
0
 71
3
 72
13
 73
9
 74
0
 42
0.0000001
 43
0.0000001
 44
0.0000000001
 40
0.0
 40
0.0
 40
0.0
 40
0.0
 40
0.1142259181
 40
0.2375599982
 40
0.5000010158
 40
0.7624414734
 40
0.8857749255
 40
1.0
 40
1.0
 40
1.0
 40
1.0
 10
78.5409339175
 20
89.0010757571
 30
0.0
 10
78.5409339175
 20
89.2245976371
 30
0.0
 10
78.4999257081
 20
89.6899273937
 30
0.0
 10
78.2776387504
 20
90.64517124
 30
0.0
 10
77.7610241383
 20
91.8167889898
 30
0.0
 10
77.004676787
 20
92.84999506
 30
0.0
 10
76.2885534453
 20
93.520115902
 30
0.0
 10
75.9060703085
 20
93.7882902253
 30
0.0
 10
75.7124950169
 20
93.9000484437
 30
0.0
  0
SPLINE
  5
4B8
100
AcDbEntity
  8
0
100
AcDbSpline
 62
7
  6
CONTINUOUS
 70
0
 71
3
 72
11
 73
7
 74
0
 42
0.0000001
 43
0.0000001
 44
0.0000000001
 40
0.0
 40
0.0
 40
0.0
 40
0.0
 40
0.289702329
 40
0.5490881649
 40
0.7822156415
 40
1.0
 40
1.0
 40
1.0
 40
1.0
 10
28.3361434321
 20
121.2521789965
 30
0.0
 10
28.1606281358
 20
121.3535105077
 30
0.0
 10
27.8114716156
 20
121.5196111095
 30
0.0
 10
27.2748110965
 20
121.6492050096
 30
0.0
 10
26.771266529
 20
121.6364553525
 30
0.0
 10
26.4681058133
 20
121.5264359812
 30
0.0
 10
26.3361623655
 20
121.4502588272
 30
0.0
  0
SPLINE
  5
4B9
100
AcDbEntity
  8
0
100
AcDbSpline
 62
7
  6
CONTINUOUS
 70
0
 71
3
 72
15
 73
11
 74
0
 42
0.0000001
 43
0.0000001
 44
0.0000000001
 40
0.0
 40
0.0
 40
0.0
 40
0.0
 40
0.1271397101
 40
0.2649327719
 40
0.4077482509
 40
0.5491123409
 40
0.6827820163
 40
0.8036760252
 40
0.9090431102
 40
1.0
 40
1.0
 40
1.0
 40
1.0
 10
73.5239651353
 20
102.5327828862
 30
0.0
 10
73.5354386683
 20
102.2928336235
 30
0.0
 10
73.6149755958
 20
101.7948795778
 30
0.0
 10
73.8655489045
 20
101.0632183423
 30
0.0
 10
74.2367196939
 20
100.3541414624
 30
0.0
 10
74.7045055874
 20
99.7143759669
 30
0.0
 10
75.2383626381
 20
99.185261503
 30
0.0
 10
75.8054215482
 20
98.8010438552
 30
0.0
 10
76.3719805962
 20
98.5859682323
 30
0.0
 10
76.7530537871
 20
98.5711189786
 30
0.0
 10
76.9220011556
 20
98.6026143003
 30
0.0
  0
SPLINE
  5
4BA
100
AcDbEntity
  8
0
100
AcDbSpline
 62
7
  6
CONTINUOUS
 70
0
 71
3
 72
9
 73
5
 74
0
 42
0.0000001
 43
0.0000001
 44
0.0000000001
 40
0.0
 40
0.0
 40
0.0
 40
0.0
 40
0.2546690528
 40
1.0
 40
1.0
 40
1.0
 40
1.0
 10
76.9220011556
 20
98.6026143003
 30
0.0
 10
76.9523392506
 20
98.6082699554
 30
0.0
 10
77.0705262875
 20
98.635201072
 30
0.0
 10
77.1842673503
 20
98.6820322477
 30
0.0
 10
77.2624908586
 20
98.7271833486
 30
0.0
  0
SPLINE
  5
4BB
100
AcDbEntity
  8
0
100
AcDbSpline
 62
7
  6
CONTINUOUS
 70
0
 71
3
 72
15
 73
11
 74
0
 42
0.0000001
 43
0.0000001
 44
0.0000000001
 40
0.0
 40
0.0
 40
0.0
 40
0.0
 40
0.1271397101
 40
0.2649327719
 40
0.4077482509
 40
0.5491123409
 40
0.6827820163
 40
0.8036760252
 40
0.9090431102
 40
1.0
 40
1.0
 40
1.0
 40
1.0
 10
26.1476135504
 20
129.884913439
 30
0.0
 10
26.1590870834
 20
129.6449641763
 30
0.0
 10
26.238624011
 20
129.1470101307
 30
0.0
 10
26.4891973196
 20
128.4153488952
 30
0.0
 10
26.8603681091
 20
127.7062720152
 30
0.0
 10
27.3281540026
 20
127.0665065198
 30
0.0
 10
27.8620110532
 20
126.5373920559
 30
0.0
 10
28.4290699634
 20
126.1531744081
 30
0.0
 10
28.9956290114
 20
125.9380987852
 30
0.0
 10
29.3767022022
 20
125.9232495314
 30
0.0
 10
29.5456495707
 20
125.9547448531
 30
0.0
  0
SPLINE
  5
4BC
100
AcDbEntity
  8
0
100
AcDbSpline
 62
7
  6
CONTINUOUS
 70
0
 71
3
 72
9
 73
5
 74
0
 42
0.0000001
 43
0.0000001
 44
0.0000000001
 40
0.0
 40
0.0
 40
0.0
 40
0.0
 40
0.2546690528
 40
1.0
 40
1.0
 40
1.0
 40
1.0
 10
29.5456495707
 20
125.9547448531
 30
0.0
 10
29.5759876657
 20
125.9604005083
 30
0.0
 10
29.6941747027
 20
125.9873316248
 30
0.0
 10
29.8079157655
 20
126.0341628006
 30
0.0
 10
29.8861392738
 20
126.0793139015
 30
0.0
  0
SPLINE
  5
4BD
100
AcDbEntity
  8
0
100
AcDbSpline
 62
7
  6
CONTINUOUS
 70
0
 71
3
 72
11
 73
7
 74
0
 42
0.0000001
 43
0.0000001
 44
0.0000000001
 40
0.0
 40
0.0
 40
0.0
 40
0.0
 40
0.2278224139
 40
0.4767403195
 40
0.7377156449
 40
1.0
 40
1.0
 40
1.0
 40
1.0
 10
80.4500106504
 20
130.4861515371
 30
0.0
 10
80.4500106504
 20
130.1163850255
 30
0.0
 10
80.5378951634
 20
129.3417544587
 30
0.0
 10
80.8756958639
 20
128.1882815193
 30
0.0
 10
81.4056219521
 20
127.0477774743
 30
0.0
 10
81.8716336406
 20
126.3335568087
 30
0.0
 10
82.1303450449
 20
125.995490565
 30
0.0
  0
SPLINE
  5
4BE
100
AcDbEntity
  8
0
100
AcDbSpline
 62
7
  6
CONTINUOUS
 70
0
 71
3
 72
9
 73
5
 74
0
 42
0.0000001
 43
0.0000001
 44
0.0000000001
 40
0.0
 40
0.0
 40
0.0
 40
0.0
 40
0.2772895597
 40
1.0
 40
1.0
 40
1.0
 40
1.0
 10
77.6924022473
 20
100.2687965686
 30
0.0
 10
77.6924022473
 20
100.178669247
 30
0.0
 10
77.6760012229
 20
99.8548857688
 30
0.0
 10
77.5851076889
 20
99.5274028903
 30
0.0
 10
77.4601454715
 20
99.3284970423
 30
0.0
  0
SPLINE
  5
4BF
100
AcDbEntity
  8
0
100
AcDbSpline
 62
7
  6
CONTINUOUS
 70
0
 71
3
 72
9
 73
5
 74
0
 42
0.0000001
 43
0.0000001
 44
0.0000000001
 40
0.0
 40
0.0
 40
0.0
 40
0.0
 40
0.5101481516
 40
1.0
 40
1.0
 40
1.0
 40
1.0
 10
77.4601454715
 20
99.3284970423
 30
0.0
 10
77.4157293675
 20
99.2577986903
 30
0.0
 10
77.3134069036
 20
99.1279223346
 30
0.0
 10
77.1818777734
 20
99.0271524792
 30
0.0
 10
77.1124636332
 20
98.9870392554
 30
0.0
  0
SPLINE
  5
4C0
100
AcDbEntity
  8
0
100
AcDbSpline
 62
7
  6
CONTINUOUS
 70
0
 71
3
 72
17
 73
13
 74
0
 42
0.0000001
 43
0.0000001
 44
0.0000000001
 40
0.0
 40
0.0
 40
0.0
 40
0.0
 40
0.042857965
 40
0.0874854797
 40
0.1353180708
 40
0.1872814984
 40
0.3045423159
 40
0.4382097446
 40
0.5825520305
 40
0.7297107839
 40
0.8713099826
 40
1.0
 40
1.0
 40
1.0
 40
1.0
 10
74.3125264006
 20
103.8367021072
 30
0.0
 10
74.3815373565
 20
103.8765823377
 30
0.0
 10
74.5337132893
 20
103.9397981203
 30
0.0
 10
74.7848754568
 20
103.9766358142
 30
0.0
 10
75.0546124507
 20
103.9567591316
 30
0.0
 10
75.4465425062
 20
103.8525428947
 30
0.0
 10
75.9475653041
 20
103.5785825073
 30
0.0
 10
76.5011129665
 20
103.0883638987
 30
0.0
 10
76.9904268092
 20
102.4620655609
 30
0.0
 10
77.3755367292
 20
101.7502793531
 30
0.0
 10
77.6254413247
 20
101.0113733321
 30
0.0
 10
77.6924022473
 20
100.5081286156
 30
0.0
 10
77.6924022473
 20
100.2687965686
 30
0.0
  0
SPLINE
  5
4C1
100
AcDbEntity
  8
0
100
AcDbSpline
 62
7
  6
CONTINUOUS
 70
0
 71
3
 72
11
 73
7
 74
0
 42
0.0000001
 43
0.0000001
 44
0.0000000001
 40
0.0
 40
0.0
 40
0.0
 40
0.0
 40
0.2179706252
 40
0.4527992041
 40
0.7126866467
 40
1.0
 40
1.0
 40
1.0
 40
1.0
 10
74.0686322335
 20
104.0352419731
 30
0.0
 10
73.979772381
 20
103.9702117444
 30
0.0
 10
73.8161608869
 20
103.804538937
 30
0.0
 10
73.6436822269
 20
103.4841602193
 30
0.0
 10
73.5410162795
 20
103.0997517618
 30
0.0
 10
73.520454869
 20
102.8225609198
 30
0.0
 10
73.520454869
 20
102.6774170203
 30
0.0
  0
SPLINE
  5
4C2
100
AcDbEntity
  8
0
100
AcDbSpline
 62
7
  6
CONTINUOUS
 70
0
 71
3
 72
9
 73
5
 74
0
 42
0.0000001
 43
0.0000001
 44
0.0000000001
 40
0.0
 40
0.0
 40
0.0
 40
0.0
 40
0.2772895597
 40
1.0
 40
1.0
 40
1.0
 40
1.0
 10
30.3160506625
 20
127.6209271215
 30
0.0
 10
30.3160506625
 20
127.5307997999
 30
0.0
 10
30.299649638
 20
127.2070163217
 30
0.0
 10
30.208756104
 20
126.8795334431
 30
0.0
 10
30.0837938866
 20
126.6806275952
 30
0.0
  0
SPLINE
  5
4C3
100
AcDbEntity
  8
0
100
AcDbSpline
 62
7
  6
CONTINUOUS
 70
0
 71
3
 72
9
 73
5
 74
0
 42
0.0000001
 43
0.0000001
 44
0.0000000001
 40
0.0
 40
0.0
 40
0.0
 40
0.0
 40
0.5101481516
 40
1.0
 40
1.0
 40
1.0
 40
1.0
 10
30.0837938866
 20
126.6806275952
 30
0.0
 10
30.0393777826
 20
126.6099292432
 30
0.0
 10
29.9370553188
 20
126.4800528874
 30
0.0
 10
29.8055261886
 20
126.379283032
 30
0.0
 10
29.7361120483
 20
126.3391698082
 30
0.0
  0
SPLINE
  5
4C4
100
AcDbEntity
  8
0
100
AcDbSpline
 62
7
  6
CONTINUOUS
 70
0
 71
3
 72
9
 73
5
 74
0
 42
0.0000001
 43
0.0000001
 44
0.0000000001
 40
0.0
 40
0.0
 40
0.0
 40
0.0
 40
0.2456047522
 40
1.0
 40
1.0
 40
1.0
 40
1.0
 10
77.7068464191
 20
99.1161277029
 30
0.0
 10
77.6912550362
 20
99.1150011481
 30
0.0
 10
77.6276920067
 20
99.1115865175
 30
0.0
 10
77.5638982361
 20
99.1127954601
 30
0.0
 10
77.5159940556
 20
99.1160567813
 30
0.0
  0
SPLINE
  5
4C5
100
AcDbEntity
  8
0
100
AcDbSpline
 62
7
  6
CONTINUOUS
 70
0
 71
3
 72
9
 73
5
 74
0
 42
0.0000001
 43
0.0000001
 44
0.0000000001
 40
0.0
 40
0.0
 40
0.0
 40
0.0
 40
0.2418324446
 40
1.0
 40
1.0
 40
1.0
 40
1.0
 10
77.5159940556
 20
99.1160567813
 30
0.0
 10
77.4891757533
 20
99.1178825738
 30
0.0
 10
77.37849363
 20
99.1284712028
 30
0.0
 10
77.2690573818
 20
99.1508925313
 30
0.0
 10
77.1877949125
 20
99.1732145082
 30
0.0
  0
SPLINE
  5
4C6
100
AcDbEntity
  8
0
100
AcDbSpline
 62
7
  6
CONTINUOUS
 70
0
 71
3
 72
11
 73
7
 74
0
 42
0.0000001
 43
0.0000001
 44
0.0000000001
 40
0.0
 40
0.0
 40
0.0
 40
0.0
 40
0.2177843137
 40
0.4509117637
 40
0.7102976701
 40
1.0
 40
1.0
 40
1.0
 40
1.0
 10
16.4296376061
 20
115.7307582314
 30
0.0
 10
16.5615810617
 20
115.806935308
 30
0.0
 10
16.864741664
 20
115.9169547734
 30
0.0
 10
17.3682862581
 20
115.9297044255
 30
0.0
 10
17.9049467843
 20
115.8001104755
 30
0.0
 10
18.2541033764
 20
115.6340099119
 30
0.0
 10
18.4296186727
 20
115.5326784008
 30
0.0
  0
SPLINE
  5
4C7
100
AcDbEntity
  8
0
100
AcDbSpline
 62
7
  6
CONTINUOUS
 70
0
 71
3
 72
11
 73
7
 74
0
 42
0.0000001
 43
0.0000001
 44
0.0000000001
 40
0.0
 40
0.0
 40
0.0
 40
0.0
 40
0.2177804224
 40
0.4509245649
 40
0.7102604319
 40
1.0
 40
1.0
 40
1.0
 40
1.0
 10
31.7966026001
 20
144.9455151282
 30
0.0
 10
31.6283556765
 20
144.8484175871
 30
0.0
 10
31.3136142548
 20
144.5837522723
 30
0.0
 10
30.9785282205
 20
144.0359065998
 30
0.0
 10
30.779438047
 20
143.3607061171
 30
0.0
 10
30.7403164976
 20
142.8692736452
 30
0.0
 10
30.7403164976
 20
142.6108329395
 30
0.0
  0
SPLINE
  5
4C8
100
AcDbEntity
  8
0
100
AcDbSpline
 62
7
  6
CONTINUOUS
 70
0
 71
3
 72
11
 73
7
 74
0
 42
0.0000001
 43
0.0000001
 44
0.0000000001
 40
0.0
 40
0.0
 40
0.0
 40
0.0
 40
0.2177804224
 40
0.4509245649
 40
0.7102604319
 40
1.0
 40
1.0
 40
1.0
 40
1.0
 10
46.1508104955
 20
153.2328714518
 30
0.0
 10
45.982563572
 20
153.1357739107
 30
0.0
 10
45.6678221503
 20
152.8711085959
 30
0.0
 10
45.3327361159
 20
152.3232629234
 30
0.0
 10
45.1336459425
 20
151.6480624407
 30
0.0
 10
45.094524393
 20
151.1566299688
 30
0.0
 10
45.094524393
 20
150.8981892631
 30
0.0
  0
SPLINE
  5
4C9
100
AcDbEntity
  8
0
100
AcDbSpline
 62
7
  6
CONTINUOUS
 70
0
 71
3
 72
11
 73
7
 74
0
 42
0.0000001
 43
0.0000001
 44
0.0000000001
 40
0.0
 40
0.0
 40
0.0
 40
0.0
 40
0.2372539654
 40
0.5000012591
 40
0.7627478695
 40
1.0
 40
1.0
 40
1.0
 40
1.0
 10
41.6298062648
 20
42.5415425213
 30
0.0
 10
41.6298062648
 20
42.2865055784
 30
0.0
 10
41.7254276492
 20
41.7486649244
 30
0.0
 10
42.0589603107
 20
40.9930170678
 30
0.0
 10
42.5466062346
 20
40.3263493091
 30
0.0
 10
42.9645796477
 20
39.9746228653
 30
0.0
 10
43.1854476601
 20
39.8471075437
 30
0.0
  0
SPLINE
  5
4CA
100
AcDbEntity
  8
0
100
AcDbSpline
 62
7
  6
CONTINUOUS
 70
0
 71
3
 72
11
 73
7
 74
0
 42
0.0000001
 43
0.0000001
 44
0.0000000001
 40
0.0
 40
0.0
 40
0.0
 40
0.0
 40
0.2895391946
 40
0.5491157945
 40
0.7822541179
 40
1.0
 40
1.0
 40
1.0
 40
1.0
 10
25.5077045315
 20
143.1344019594
 30
0.0
 10
25.6041816986
 20
143.0787021011
 30
0.0
 10
25.7962660267
 20
142.9874459714
 30
0.0
 10
26.0913832348
 20
142.9160140233
 30
0.0
 10
26.3684323395
 20
142.922973624
 30
0.0
 10
26.5350834111
 20
142.9836659204
 30
0.0
 10
26.6076380581
 20
143.02555515
 30
0.0
  0
SPLINE
  5
4CB
100
AcDbEntity
  8
0
100
AcDbSpline
 62
7
  6
CONTINUOUS
 70
0
 71
3
 72
11
 73
7
 74
0
 42
0.0000001
 43
0.0000001
 44
0.0000000001
 40
0.0
 40
0.0
 40
0.0
 40
0.0
 40
0.217774924
 40
0.4509311967
 40
0.710224778
 40
1.0
 40
1.0
 40
1.0
 40
1.0
 10
56.5952393011
 20
159.1478264018
 30
0.0
 10
56.7601626981
 20
159.2430444069
 30
0.0
 10
57.1391171093
 20
159.3806265192
 30
0.0
 10
57.768490807
 20
159.3965001566
 30
0.0
 10
58.4393573255
 20
159.2346434638
 30
0.0
 10
58.8757594497
 20
159.0269339686
 30
0.0
 10
59.0952103983
 20
158.9002367706
 30
0.0
  0
SPLINE
  5
4CC
100
AcDbEntity
  8
0
100
AcDbSpline
 62
7
  6
CONTINUOUS
 70
0
 71
3
 72
13
 73
9
 74
0
 42
0.0000001
 43
0.0000001
 44
0.0000000001
 40
0.0
 40
0.0
 40
0.0
 40
0.0
 40
0.1142250362
 40
0.2375584228
 40
0.4999988469
 40
0.762439898
 40
0.8857740437
 40
1.0
 40
1.0
 40
1.0
 40
1.0
 10
65.8059702575
 20
88.1805478479
 30
0.0
 10
65.9995454843
 20
88.068789667
 30
0.0
 10
66.3820284934
 20
87.8006155181
 30
0.0
 10
67.0981516354
 20
87.1304948528
 30
0.0
 10
67.8544990309
 20
86.0972889968
 30
0.0
 10
68.3711138507
 20
84.9256711783
 30
0.0
 10
68.5934008616
 20
83.9704270706
 30
0.0
 10
68.6344091581
 20
83.5050971162
 30
0.0
 10
68.6344091581
 20
83.2815751613
 30
0.0
  0
SPLINE
  5
4CD
100
AcDbEntity
  8
0
100
AcDbSpline
 62
7
  6
CONTINUOUS
 70
0
 71
3
 72
11
 73
7
 74
0
 42
0.0000001
 43
0.0000001
 44
0.0000000001
 40
0.0
 40
0.0
 40
0.0
 40
0.0
 40
0.2590159869
 40
0.5206670356
 40
0.7715154638
 40
1.0
 40
1.0
 40
1.0
 40
1.0
 10
65.6701774719
 20
156.7229522307
 30
0.0
 10
65.5231419646
 20
157.1577133963
 30
0.0
 10
65.150379453
 20
158.00701687
 30
0.0
 10
64.4070990227
 20
159.1610385761
 30
0.0
 10
63.5226275763
 20
160.1392684963
 30
0.0
 10
62.8399237126
 20
160.6573856842
 30
0.0
 10
62.4893088169
 20
160.8598087092
 30
0.0
  0
SPLINE
  5
4CE
100
AcDbEntity
  8
0
100
AcDbSpline
 62
7
  6
CONTINUOUS
 70
0
 71
3
 72
16
 73
12
 74
0
 42
0.0000001
 43
0.0000001
 44
0.0000000001
 40
0.0
 40
0.0
 40
0.0
 40
0.0
 40
0.0438440969
 40
0.0887565817
 40
0.1850401064
 40
0.2941610074
 40
0.4174468529
 40
0.5534568115
 40
0.6989077803
 40
0.8493966099
 40
1.0
 40
1.0
 40
1.0
 40
1.0
 10
58.7393514295
 20
163.2724510266
 30
0.0
 10
58.8795300524
 20
163.3533812722
 30
0.0
 10
59.1801501873
 20
163.4897685908
 30
0.0
 10
59.8479670684
 20
163.6496329467
 30
0.0
 10
60.7891883363
 20
163.6143577675
 30
0.0
 10
61.9520929179
 20
163.2302623184
 30
0.0
 10
63.1312877741
 20
162.5360345458
 30
0.0
 10
64.2752969682
 20
161.5654075575
 30
0.0
 10
65.3323300713
 20
160.3646196093
 30
0.0
 10
66.2520246882
 20
158.9912730504
 30
0.0
 10
66.749761021
 20
157.9932346525
 30
0.0
 10
66.9641479738
 20
157.480233146
 30
0.0
  0
SPLINE
  5
4CF
100
AcDbEntity
  8
0
100
AcDbSpline
 62
7
  6
CONTINUOUS
 70
0
 71
3
 72
17
 73
13
 74
0
 42
0.0000001
 43
0.0000001
 44
0.0000000001
 40
0.0
 40
0.0
 40
0.0
 40
0.0
 40
0.1286930371
 40
0.2702795962
 40
0.4174375935
 40
0.5617786795
 40
0.6954478243
 40
0.81271112
 40
0.8646738576
 40
0.9125098523
 40
0.9571380034
 40
1.0
 40
1.0
 40
1.0
 40
1.0
 10
40.3923642458
 20
136.3372393945
 30
0.0
 10
40.3923642458
 20
135.9996021425
 30
0.0
 10
40.4868087133
 20
135.2896884141
 30
0.0
 10
40.8393839634
 20
134.2473428169
 30
0.0
 10
41.382613256
 20
133.2432334989
 30
0.0
 10
42.0728972731
 20
132.3597050619
 30
0.0
 10
42.8537846539
 20
131.6681263959
 30
0.0
 10
43.5605793138
 20
131.2816145526
 30
0.0
 10
44.1134855288
 20
131.1345691044
 30
0.0
 10
44.4940198429
 20
131.1065045611
 30
0.0
 10
44.8483491232
 20
131.1585258
 30
0.0
 10
45.0630508264
 20
131.2476595569
 30
0.0
 10
45.1604297006
 20
131.3038986667
 30
0.0
  0
SPLINE
  5
4D0
100
AcDbEntity
  8
0
100
AcDbSpline
 62
7
  6
CONTINUOUS
 70
0
 71
3
 72
11
 73
7
 74
0
 42
0.0000001
 43
0.0000001
 44
0.0000000001
 40
0.0
 40
0.0
 40
0.0
 40
0.0
 40
0.2897033281
 40
0.5490895198
 40
0.7822165953
 40
1.0
 40
1.0
 40
1.0
 40
1.0
 10
68.6344091581
 20
53.0709857276
 30
0.0
 10
68.6344091581
 20
52.86831315
 30
0.0
 10
68.6036810135
 20
52.4828728619
 30
0.0
 10
68.4475823212
 20
51.9532981047
 30
0.0
 10
68.1847639658
 20
51.5235781374
 30
0.0
 10
67.9378977566
 20
51.3160380418
 30
0.0
 10
67.8059513241
 20
51.2398592465
 30
0.0
  0
SPLINE
  5
4D1
100
AcDbEntity
  8
0
100
AcDbSpline
 62
7
  6
CONTINUOUS
 70
0
 71
3
 72
11
 73
7
 74
0
 42
0.0000001
 43
0.0000001
 44
0.0000000001
 40
0.0
 40
0.0
 40
0.0
 40
0.0
 40
0.2317931313
 40
0.4715924526
 40
0.7260964026
 40
1.0
 40
1.0
 40
1.0
 40
1.0
 10
60.5778214063
 20
164.3338858267
 30
0.0
 10
60.7459797295
 20
164.4309697765
 30
0.0
 10
61.1127464144
 20
164.5886613358
 30
0.0
 10
61.7158091641
 20
164.6975190372
 30
0.0
 10
62.3629630912
 20
164.6809143012
 30
0.0
 10
62.7987406756
 20
164.5910772525
 30
0.0
 10
63.0194988422
 20
164.5285333019
 30
0.0
  0
SPLINE
  5
4D2
100
AcDbEntity
  8
0
100
AcDbSpline
 62
7
  6
CONTINUOUS
 70
0
 71
3
 72
13
 73
9
 74
0
 42
0.0000001
 43
0.0000001
 44
0.0000000001
 40
0.0
 40
0.0
 40
0.0
 40
0.0
 40
0.1029905507
 40
0.2147401954
 40
0.3345849849
 40
0.4612996661
 40
0.7282078942
 40
1.0
 40
1.0
 40
1.0
 40
1.0
 10
63.1446901061
 20
164.491196279
 30
0.0
 10
63.4210416661
 20
164.4046734648
 30
0.0
 10
63.9818674791
 20
164.1731685511
 30
0.0
 10
64.7940005176
 20
163.6935391831
 30
0.0
 10
65.5947318278
 20
163.0783763447
 30
0.0
 10
66.6400002157
 20
162.0792226441
 30
0.0
 10
67.7950064196
 20
160.593249576
 30
0.0
 10
68.5079494796
 20
159.2467732128
 30
0.0
 10
68.8026179505
 20
158.5416679461
 30
0.0
  0
SPLINE
  5
4D3
100
AcDbEntity
  8
0
100
AcDbSpline
 62
7
  6
CONTINUOUS
 70
0
 71
3
 72
11
 73
7
 74
0
 42
0.0000001
 43
0.0000001
 44
0.0000000001
 40
0.0
 40
0.0
 40
0.0
 40
0.0
 40
0.2895391946
 40
0.5491157945
 40
0.7822541179
 40
1.0
 40
1.0
 40
1.0
 40
1.0
 10
43.1854476601
 20
39.8471075437
 30
0.0
 10
43.2819248273
 20
39.7914076853
 30
0.0
 10
43.4740091553
 20
39.7001515556
 30
0.0
 10
43.7691263635
 20
39.6287196076
 30
0.0
 10
44.0461754682
 20
39.6356792082
 30
0.0
 10
44.2128265398
 20
39.6963715046
 30
0.0
 10
44.2853811868
 20
39.7382607342
 30
0.0
  0
SPLINE
  5
4D4
100
AcDbEntity
  8
0
100
AcDbSpline
 62
7
  6
CONTINUOUS
 70
0
 71
3
 72
11
 73
7
 74
0
 42
0.0000001
 43
0.0000001
 44
0.0000000001
 40
0.0
 40
0.0
 40
0.0
 40
0.0
 40
0.2372539654
 40
0.5000012591
 40
0.7627478695
 40
1.0
 40
1.0
 40
1.0
 40
1.0
 10
61.1460193703
 20
126.4782340111
 30
0.0
 10
61.1460193703
 20
126.2231970682
 30
0.0
 10
61.2416407547
 20
125.6853564143
 30
0.0
 10
61.5751734162
 20
124.9297085576
 30
0.0
 10
62.0628193401
 20
124.263040799
 30
0.0
 10
62.4807927532
 20
123.9113143551
 30
0.0
 10
62.7016607656
 20
123.7837990335
 30
0.0
  0
SPLINE
  5
4D5
100
AcDbEntity
  8
0
100
AcDbSpline
 62
7
  6
CONTINUOUS
 70
0
 71
3
 72
11
 73
7
 74
0
 42
0.0000001
 43
0.0000001
 44
0.0000000001
 40
0.0
 40
0.0
 40
0.0
 40
0.0
 40
0.284592763
 40
0.5446238159
 40
0.7811057374
 40
1.0
 40
1.0
 40
1.0
 40
1.0
 10
62.7016607656
 20
123.7837990335
 30
0.0
 10
62.7837053082
 20
123.7364316663
 30
0.0
 10
62.9473068218
 20
123.6564281192
 30
0.0
 10
63.1981060693
 20
123.5823559228
 30
0.0
 10
63.4374077206
 20
123.5631230309
 30
0.0
 10
63.5889543518
 20
123.5888800102
 30
0.0
 10
63.6582755392
 20
123.6113317565
 30
0.0
  0
SPLINE
  5
4D6
100
AcDbEntity
  8
0
100
AcDbSpline
 62
7
  6
CONTINUOUS
 70
0
 71
3
 72
17
 73
13
 74
0
 42
0.0000001
 43
0.0000001
 44
0.0000000001
 40
0.0
 40
0.0
 40
0.0
 40
0.0
 40
0.1286930371
 40
0.2702795962
 40
0.4174375935
 40
0.5617786795
 40
0.6954478243
 40
0.81271112
 40
0.8646738576
 40
0.9125098523
 40
0.9571380034
 40
1.0
 40
1.0
 40
1.0
 40
1.0
 10
58.0701073745
 20
126.1312205315
 30
0.0
 10
58.0701073745
 20
125.7935832794
 30
0.0
 10
58.164551842
 20
125.083669551
 30
0.0
 10
58.5171270921
 20
124.0413239539
 30
0.0
 10
59.0603563847
 20
123.0372146359
 30
0.0
 10
59.7506404018
 20
122.1536861989
 30
0.0
 10
60.5315277825
 20
121.4621075328
 30
0.0
 10
61.2383224424
 20
121.0755956896
 30
0.0
 10
61.7912286575
 20
120.9285502413
 30
0.0
 10
62.1717629716
 20
120.9004856981
 30
0.0
 10
62.5260922519
 20
120.952506937
 30
0.0
 10
62.7407939551
 20
121.0416406939
 30
0.0
 10
62.8381728293
 20
121.0978798037
 30
0.0
  0
SPLINE
  5
4D7
100
AcDbEntity
  8
0
100
AcDbSpline
 62
7
  6
CONTINUOUS
 70
0
 71
3
 72
11
 73
7
 74
0
 42
0.0000001
 43
0.0000001
 44
0.0000000001
 40
0.0
 40
0.0
 40
0.0
 40
0.0
 40
0.217745073
 40
0.4508830113
 40
0.7104597664
 40
1.0
 40
1.0
 40
1.0
 40
1.0
 10
43.9239841102
 20
137.6912753413
 30
0.0
 10
43.851427792
 20
137.6493851469
 30
0.0
 10
43.7155376101
 20
137.535404595
 30
0.0
 10
43.5709835065
 20
137.2989459161
 30
0.0
 10
43.4852866184
 20
137.0076421641
 30
0.0
 10
43.4682762416
 20
136.7956578606
 30
0.0
 10
43.4682762416
 20
136.6842528741
 30
0.0
  0
SPLINE
  5
4D8
100
AcDbEntity
  8
0
100
AcDbSpline
 62
7
  6
CONTINUOUS
 70
0
 71
3
 72
11
 73
7
 74
0
 42
0.0000001
 43
0.0000001
 44
0.0000000001
 40
0.0
 40
0.0
 40
0.0
 40
0.0
 40
0.217745073
 40
0.4508830113
 40
0.7104597664
 40
1.0
 40
1.0
 40
1.0
 40
1.0
 10
59.7632572622
 20
33.3425461255
 30
0.0
 10
59.6907009439
 20
33.300655931
 30
0.0
 10
59.5548107621
 20
33.1866753791
 30
0.0
 10
59.4102566584
 20
32.9502167002
 30
0.0
 10
59.3245597703
 20
32.6589129483
 30
0.0
 10
59.3075493935
 20
32.4469286448
 30
0.0
 10
59.3075493935
 20
32.3355236583
 30
0.0
  0
SPLINE
  5
4D9
100
AcDbEntity
  8
0
100
AcDbSpline
 62
7
  6
CONTINUOUS
 70
0
 71
3
 72
11
 73
7
 74
0
 42
0.0000001
 43
0.0000001
 44
0.0000000001
 40
0.0
 40
0.0
 40
0.0
 40
0.0
 40
0.2372539654
 40
0.5000012591
 40
0.7627478695
 40
1.0
 40
1.0
 40
1.0
 40
1.0
 10
76.9852925222
 20
115.210780348
 30
0.0
 10
76.9852925222
 20
114.9557434052
 30
0.0
 10
77.0809139066
 20
114.4179027512
 30
0.0
 10
77.4144465681
 20
113.6622548946
 30
0.0
 10
77.902092492
 20
112.9955871359
 30
0.0
 10
78.3200659051
 20
112.643860692
 30
0.0
 10
78.5409339175
 20
112.5163453704
 30
0.0
  0
SPLINE
  5
4DA
100
AcDbEntity
  8
0
100
AcDbSpline
 62
7
  6
CONTINUOUS
 70
0
 71
3
 72
11
 73
7
 74
0
 42
0.0000001
 43
0.0000001
 44
0.0000000001
 40
0.0
 40
0.0
 40
0.0
 40
0.0
 40
0.2177804224
 40
0.4509245649
 40
0.7102604319
 40
1.0
 40
1.0
 40
1.0
 40
1.0
 10
49.4743457288
 20
134.7394962652
 30
0.0
 10
49.3060988052
 20
134.6423987241
 30
0.0
 10
48.9913573835
 20
134.3777334093
 30
0.0
 10
48.6562713492
 20
133.8298877368
 30
0.0
 10
48.4571811757
 20
133.1546872541
 30
0.0
 10
48.4180596262
 20
132.6632547822
 30
0.0
 10
48.4180596262
 20
132.4048140765
 30
0.0
  0
SPLINE
  5
4DB
100
AcDbEntity
  8
0
100
AcDbSpline
 62
7
  6
CONTINUOUS
 70
0
 71
3
 72
11
 73
7
 74
0
 42
0.0000001
 43
0.0000001
 44
0.0000000001
 40
0.0
 40
0.0
 40
0.0
 40
0.0
 40
0.2177804224
 40
0.4509245649
 40
0.7102604319
 40
1.0
 40
1.0
 40
1.0
 40
1.0
 10
63.8285536242
 20
143.0268525888
 30
0.0
 10
63.6603067007
 20
142.9297550477
 30
0.0
 10
63.3455652789
 20
142.6650897329
 30
0.0
 10
63.0104792446
 20
142.1172440604
 30
0.0
 10
62.8113890711
 20
141.4420435777
 30
0.0
 10
62.7722675217
 20
140.9506111058
 30
0.0
 10
62.7722675217
 20
140.6921704001
 30
0.0
  0
SPLINE
  5
4DC
100
AcDbEntity
  8
0
100
AcDbSpline
 62
7
  6
CONTINUOUS
 70
0
 71
3
 72
11
 73
7
 74
0
 42
0.0000001
 43
0.0000001
 44
0.0000000001
 40
0.0
 40
0.0
 40
0.0
 40
0.0
 40
0.2093112801
 40
0.4468020868
 40
0.7120210676
 40
1.0
 40
1.0
 40
1.0
 40
1.0
 10
81.5628315258
 20
155.9233321558
 30
0.0
 10
81.9508402116
 20
155.9122031732
 30
0.0
 10
82.7765678466
 20
155.7503208873
 30
0.0
 10
83.9817181009
 20
155.18963773
 30
0.0
 10
85.1784810009
 20
154.3302154821
 30
0.0
 10
85.9119392221
 20
153.6070020445
 30
0.0
 10
86.2665730398
 20
153.2076871626
 30
0.0
  0
SPLINE
  5
4DD
100
AcDbEntity
  8
0
100
AcDbSpline
 62
7
  6
CONTINUOUS
 70
0
 71
3
 72
11
 73
7
 74
0
 42
0.0000001
 43
0.0000001
 44
0.0000000001
 40
0.0
 40
0.0
 40
0.0
 40
0.0
 40
0.2372539654
 40
0.5000012591
 40
0.7627478695
 40
1.0
 40
1.0
 40
1.0
 40
1.0
 10
59.3075493935
 20
32.3355236583
 30
0.0
 10
59.3075493935
 20
32.0804867154
 30
0.0
 10
59.4031707779
 20
31.5426460614
 30
0.0
 10
59.7367034394
 20
30.7869982048
 30
0.0
 10
60.2243493633
 20
30.1203304461
 30
0.0
 10
60.6423227764
 20
29.7686040023
 30
0.0
 10
60.8631907888
 20
29.6410886807
 30
0.0
  0
SPLINE
  5
4DE
100
AcDbEntity
  8
0
100
AcDbSpline
 62
7
  6
CONTINUOUS
 70
0
 71
3
 72
15
 73
11
 74
0
 42
0.0000001
 43
0.0000001
 44
0.0000000001
 40
0.0
 40
0.0
 40
0.0
 40
0.0
 40
0.1287972074
 40
0.2706054898
 40
0.4178799053
 40
0.562375555
 40
0.6961915357
 40
0.8135903033
 40
0.913065596
 40
1.0
 40
1.0
 40
1.0
 40
1.0
 10
38.0589021528
 20
135.234926633
 30
0.0
 10
38.0589021528
 20
135.1366556754
 30
0.0
 10
38.0864556877
 20
134.9299604718
 30
0.0
 10
38.1890063257
 20
134.6264774393
 30
0.0
 10
38.3472662974
 20
134.3341573487
 30
0.0
 10
38.5481061828
 20
134.0769824194
 30
0.0
 10
38.7756748993
 20
133.8754695121
 30
0.0
 10
39.0129796115
 20
133.7458246801
 30
0.0
 10
39.2453101984
 20
133.6992444684
 30
0.0
 10
39.389582416
 20
133.7364404682
 30
0.0
 10
39.447051115
 20
133.7695618532
 30
0.0
  0
SPLINE
  5
4DF
100
AcDbEntity
  8
0
100
AcDbSpline
 62
7
  6
CONTINUOUS
 70
0
 71
3
 72
15
 73
11
 74
0
 42
0.0000001
 43
0.0000001
 44
0.0000000001
 40
0.0
 40
0.0
 40
0.0
 40
0.0
 40
0.1287972074
 40
0.2706054898
 40
0.4178799053
 40
0.562375555
 40
0.6961915357
 40
0.8135903033
 40
0.913065596
 40
1.0
 40
1.0
 40
1.0
 40
1.0
 10
64.3633839283
 20
120.0483705648
 30
0.0
 10
64.3633839283
 20
119.9500996072
 30
0.0
 10
64.3909374632
 20
119.7434044037
 30
0.0
 10
64.4934881012
 20
119.4399213711
 30
0.0
 10
64.6517480728
 20
119.1476012805
 30
0.0
 10
64.8525879583
 20
118.8904263512
 30
0.0
 10
65.0801566747
 20
118.6889134439
 30
0.0
 10
65.317461387
 20
118.5592686119
 30
0.0
 10
65.5497919739
 20
118.5126884003
 30
0.0
 10
65.6940641915
 20
118.5498844001
 30
0.0
 10
65.7515328905
 20
118.5830057851
 30
0.0
  0
SPLINE
  5
4E0
100
AcDbEntity
  8
0
100
AcDbSpline
 62
7
  6
CONTINUOUS
 70
0
 71
3
 72
11
 73
7
 74
0
 42
0.0000001
 43
0.0000001
 44
0.0000000001
 40
0.0
 40
0.0
 40
0.0
 40
0.0
 40
0.217774924
 40
0.4509311967
 40
0.710224778
 40
1.0
 40
1.0
 40
1.0
 40
1.0
 10
74.2729824298
 20
148.9418075388
 30
0.0
 10
74.4379058267
 20
149.0370255439
 30
0.0
 10
74.816860238
 20
149.1746076562
 30
0.0
 10
75.4462339357
 20
149.1904812936
 30
0.0
 10
76.1171004542
 20
149.0286246008
 30
0.0
 10
76.5535025784
 20
148.8209151056
 30
0.0
 10
76.772953527
 20
148.6942179076
 30
0.0
  0
SPLINE
  5
4E1
100
AcDbEntity
  8
0
100
AcDbSpline
 62
7
  6
CONTINUOUS
 70
0
 71
3
 72
11
 73
7
 74
0
 42
0.0000001
 43
0.0000001
 44
0.0000000001
 40
0.0
 40
0.0
 40
0.0
 40
0.0
 40
0.2895391946
 40
0.5491157945
 40
0.7822541179
 40
1.0
 40
1.0
 40
1.0
 40
1.0
 10
60.8631907888
 20
29.6410886807
 30
0.0
 10
60.959667956
 20
29.5853888223
 30
0.0
 10
61.151752284
 20
29.4941326926
 30
0.0
 10
61.4468694922
 20
29.4227007446
 30
0.0
 10
61.7239185969
 20
29.4296603452
 30
0.0
 10
61.8905696684
 20
29.4903526416
 30
0.0
 10
61.9631243155
 20
29.5322418712
 30
0.0
  0
SPLINE
  5
4E2
100
AcDbEntity
  8
0
100
AcDbSpline
 62
7
  6
CONTINUOUS
 70
0
 71
3
 72
11
 73
7
 74
0
 42
0.0000001
 43
0.0000001
 44
0.0000000001
 40
0.0
 40
0.0
 40
0.0
 40
0.0
 40
0.2590159869
 40
0.5206670356
 40
0.7715154638
 40
1.0
 40
1.0
 40
1.0
 40
1.0
 10
83.3479206006
 20
146.5169333677
 30
0.0
 10
83.2008850933
 20
146.9516945333
 30
0.0
 10
82.8281225817
 20
147.8009980069
 30
0.0
 10
82.0848421514
 20
148.9550197131
 30
0.0
 10
81.2003707049
 20
149.9332496333
 30
0.0
 10
80.5176668413
 20
150.4513668212
 30
0.0
 10
80.1670519456
 20
150.6537898462
 30
0.0
  0
SPLINE
  5
4E3
100
AcDbEntity
  8
0
100
AcDbSpline
 62
7
  6
CONTINUOUS
 70
0
 71
3
 72
16
 73
12
 74
0
 42
0.0000001
 43
0.0000001
 44
0.0000000001
 40
0.0
 40
0.0
 40
0.0
 40
0.0
 40
0.0438440969
 40
0.0887565817
 40
0.1850401064
 40
0.2941610074
 40
0.4174468529
 40
0.5534568115
 40
0.6989077803
 40
0.8493966099
 40
1.0
 40
1.0
 40
1.0
 40
1.0
 10
76.4170945582
 20
153.0664321636
 30
0.0
 10
76.5572731811
 20
153.1473624092
 30
0.0
 10
76.857893316
 20
153.2837497278
 30
0.0
 10
77.5257101971
 20
153.4436140837
 30
0.0
 10
78.466931465
 20
153.4083389045
 30
0.0
 10
79.6298360466
 20
153.0242434554
 30
0.0
 10
80.8090309028
 20
152.3300156828
 30
0.0
 10
81.9530400969
 20
151.3593886945
 30
0.0
 10
83.0100732
 20
150.1586007463
 30
0.0
 10
83.9297678169
 20
148.7852541874
 30
0.0
 10
84.4275041497
 20
147.7872157895
 30
0.0
 10
84.6418911024
 20
147.274214283
 30
0.0
  0
SPLINE
  5
4E4
100
AcDbEntity
  8
0
100
AcDbSpline
 62
7
  6
CONTINUOUS
 70
0
 71
3
 72
11
 73
7
 74
0
 42
0.0000001
 43
0.0000001
 44
0.0000000001
 40
0.0
 40
0.0
 40
0.0
 40
0.0
 40
0.217745073
 40
0.4508830113
 40
0.7104597664
 40
1.0
 40
1.0
 40
1.0
 40
1.0
 10
42.0855141335
 20
43.5485649885
 30
0.0
 10
42.0129578152
 20
43.506674794
 30
0.0
 10
41.8770676334
 20
43.3926942421
 30
0.0
 10
41.7325135298
 20
43.1562355632
 30
0.0
 10
41.6468166416
 20
42.8649318113
 30
0.0
 10
41.6298062648
 20
42.6529475078
 30
0.0
 10
41.6298062648
 20
42.5415425213
 30
0.0
  0
SPLINE
  5
4E5
100
AcDbEntity
  8
0
100
AcDbSpline
 62
7
  6
CONTINUOUS
 70
0
 71
3
 72
15
 73
11
 74
0
 42
0.0000001
 43
0.0000001
 44
0.0000000001
 40
0.0
 40
0.0
 40
0.0
 40
0.0
 40
0.1141474765
 40
0.2373368178
 40
0.3669776594
 40
0.5000010819
 40
0.633024354
 40
0.7626647561
 40
0.8858534048
 40
1.0
 40
1.0
 40
1.0
 40
1.0
 10
30.7403164976
 20
142.6108329395
 30
0.0
 10
30.7403164976
 20
142.3257836512
 30
0.0
 10
30.7925649361
 20
141.7325568766
 30
0.0
 10
31.0006647817
 20
140.8376229187
 30
0.0
 10
31.3341865182
 20
139.9311465446
 30
0.0
 10
31.7804153874
 20
139.0471898069
 30
0.0
 10
32.3228332744
 20
138.2187693869
 30
0.0
 10
32.9411058374
 20
137.4766985929
 30
0.0
 10
33.6120917957
 20
136.8490195308
 30
0.0
 10
34.0997166806
 20
136.5071638897
 30
0.0
 10
34.3465760958
 20
136.3646427641
 30
0.0
  0
SPLINE
  5
4E6
100
AcDbEntity
  8
0
100
AcDbSpline
 62
7
  6
CONTINUOUS
 70
0
 71
3
 72
11
 73
7
 74
0
 42
0.0000001
 43
0.0000001
 44
0.0000000001
 40
0.0
 40
0.0
 40
0.0
 40
0.0
 40
0.289775222
 40
0.5490688033
 40
0.782225076
 40
1.0
 40
1.0
 40
1.0
 40
1.0
 10
34.3465760958
 20
136.3646427641
 30
0.0
 10
34.5704160037
 20
136.2354116566
 30
0.0
 10
35.0155460517
 20
136.023548028
 30
0.0
 10
35.6998297182
 20
135.8584542453
 30
0.0
 10
36.3417907188
 20
135.8746453511
 30
0.0
 10
36.7283241153
 20
136.0149790683
 30
0.0
 10
36.8965459353
 20
136.1121014076
 30
0.0
  0
SPLINE
  5
4E7
100
AcDbEntity
  8
0
100
AcDbSpline
 62
7
  6
CONTINUOUS
 70
0
 71
3
 72
9
 73
5
 74
0
 42
0.0000001
 43
0.0000001
 44
0.0000000001
 40
0.0
 40
0.0
 40
0.0
 40
0.0
 40
0.2772895597
 40
1.0
 40
1.0
 40
1.0
 40
1.0
 10
77.6924022473
 20
48.094292114
 30
0.0
 10
77.6924022473
 20
48.0041647924
 30
0.0
 10
77.6760012229
 20
47.6803813143
 30
0.0
 10
77.5851076889
 20
47.3528984357
 30
0.0
 10
77.4601454715
 20
47.1539925878
 30
0.0
  0
SPLINE
  5
4E8
100
AcDbEntity
  8
0
100
AcDbSpline
 62
7
  6
CONTINUOUS
 70
0
 71
3
 72
9
 73
5
 74
0
 42
0.0000001
 43
0.0000001
 44
0.0000000001
 40
0.0
 40
0.0
 40
0.0
 40
0.0
 40
0.5101481516
 40
1.0
 40
1.0
 40
1.0
 40
1.0
 10
77.4601454715
 20
47.1539925878
 30
0.0
 10
77.4157293675
 20
47.0832942358
 30
0.0
 10
77.3134069036
 20
46.95341788
 30
0.0
 10
77.1818777734
 20
46.8526480246
 30
0.0
 10
77.1124636332
 20
46.8125348008
 30
0.0
  0
SPLINE
  5
4E9
100
AcDbEntity
  8
0
100
AcDbSpline
 62
7
  6
CONTINUOUS
 70
0
 71
3
 72
15
 73
11
 74
0
 42
0.0000001
 43
0.0000001
 44
0.0000000001
 40
0.0
 40
0.0
 40
0.0
 40
0.0
 40
0.1141474765
 40
0.2373368178
 40
0.3669776594
 40
0.5000010819
 40
0.633024354
 40
0.7626647561
 40
0.8858534048
 40
1.0
 40
1.0
 40
1.0
 40
1.0
 10
48.4180596262
 20
132.4048140765
 30
0.0
 10
48.4180596262
 20
132.1197647882
 30
0.0
 10
48.4703080648
 20
131.5265380136
 30
0.0
 10
48.6784079103
 20
130.6316040557
 30
0.0
 10
49.0119296469
 20
129.7251276816
 30
0.0
 10
49.4581585161
 20
128.8411709439
 30
0.0
 10
50.0005764031
 20
128.0127505239
 30
0.0
 10
50.6188489661
 20
127.2706797299
 30
0.0
 10
51.2898349243
 20
126.6430006677
 30
0.0
 10
51.7774598092
 20
126.3011450267
 30
0.0
 10
52.0243192245
 20
126.1586239011
 30
0.0
  0
SPLINE
  5
4EA
100
AcDbEntity
  8
0
100
AcDbSpline
 62
7
  6
CONTINUOUS
 70
0
 71
3
 72
11
 73
7
 74
0
 42
0.0000001
 43
0.0000001
 44
0.0000000001
 40
0.0
 40
0.0
 40
0.0
 40
0.0
 40
0.289775222
 40
0.5490688033
 40
0.782225076
 40
1.0
 40
1.0
 40
1.0
 40
1.0
 10
52.0243192245
 20
126.1586239011
 30
0.0
 10
52.2481591324
 20
126.0293927936
 30
0.0
 10
52.6932891804
 20
125.817529165
 30
0.0
 10
53.3775728469
 20
125.6524353823
 30
0.0
 10
54.0195338475
 20
125.6686264881
 30
0.0
 10
54.406067244
 20
125.8089602053
 30
0.0
 10
54.574289064
 20
125.9060825446
 30
0.0
  0
SPLINE
  5
4EB
100
AcDbEntity
  8
0
100
AcDbSpline
 62
7
  6
CONTINUOUS
 70
0
 71
3
 72
11
 73
7
 74
0
 42
0.0000001
 43
0.0000001
 44
0.0000000001
 40
0.0
 40
0.0
 40
0.0
 40
0.0
 40
0.2317931313
 40
0.4715924526
 40
0.7260964026
 40
1.0
 40
1.0
 40
1.0
 40
1.0
 10
78.2555645349
 20
154.1278669637
 30
0.0
 10
78.4237228582
 20
154.2249509135
 30
0.0
 10
78.7904895431
 20
154.3826424728
 30
0.0
 10
79.3935522927
 20
154.4915001742
 30
0.0
 10
80.0407062199
 20
154.4748954382
 30
0.0
 10
80.4764838043
 20
154.3850583895
 30
0.0
 10
80.6972419709
 20
154.3225144389
 30
0.0
  0
SPLINE
  5
4EC
100
AcDbEntity
  8
0
100
AcDbSpline
 62
7
  6
CONTINUOUS
 70
0
 71
3
 72
13
 73
9
 74
0
 42
0.0000001
 43
0.0000001
 44
0.0000000001
 40
0.0
 40
0.0
 40
0.0
 40
0.0
 40
0.1029905507
 40
0.2147401954
 40
0.3345849849
 40
0.4612996661
 40
0.7282078942
 40
1.0
 40
1.0
 40
1.0
 40
1.0
 10
80.8224332348
 20
154.285177416
 30
0.0
 10
81.0987847948
 20
154.1986546018
 30
0.0
 10
81.6596106078
 20
153.9671496881
 30
0.0
 10
82.4717436462
 20
153.4875203201
 30
0.0
 10
83.2724749565
 20
152.8723574817
 30
0.0
 10
84.3177433444
 20
151.8732037811
 30
0.0
 10
85.4727495482
 20
150.387230713
 30
0.0
 10
86.1856926083
 20
149.0407543498
 30
0.0
 10
86.4803610792
 20
148.3356490831
 30
0.0
  0
SPLINE
  5
4ED
100
AcDbEntity
  8
0
100
AcDbSpline
 62
7
  6
CONTINUOUS
 70
0
 71
3
 72
15
 73
11
 74
0
 42
0.0000001
 43
0.0000001
 44
0.0000000001
 40
0.0
 40
0.0
 40
0.0
 40
0.0
 40
0.1141474765
 40
0.2373368178
 40
0.3669776594
 40
0.5000010819
 40
0.633024354
 40
0.7626647561
 40
0.8858534048
 40
1.0
 40
1.0
 40
1.0
 40
1.0
 10
66.0958027549
 20
122.1987952135
 30
0.0
 10
66.0958027549
 20
121.9137459252
 30
0.0
 10
66.1480511935
 20
121.3205191506
 30
0.0
 10
66.356151039
 20
120.4255851927
 30
0.0
 10
66.6896727756
 20
119.5191088186
 30
0.0
 10
67.1359016448
 20
118.6351520809
 30
0.0
 10
67.6783195318
 20
117.8067316609
 30
0.0
 10
68.2965920948
 20
117.0646608669
 30
0.0
 10
68.967578053
 20
116.4369818047
 30
0.0
 10
69.4552029379
 20
116.0951261637
 30
0.0
 10
69.7020623532
 20
115.9526050381
 30
0.0
  0
SPLINE
  5
4EE
100
AcDbEntity
  8
0
100
AcDbSpline
 62
7
  6
CONTINUOUS
 70
0
 71
3
 72
11
 73
7
 74
0
 42
0.0000001
 43
0.0000001
 44
0.0000000001
 40
0.0
 40
0.0
 40
0.0
 40
0.0
 40
0.289775222
 40
0.5490688033
 40
0.782225076
 40
1.0
 40
1.0
 40
1.0
 40
1.0
 10
69.7020623532
 20
115.9526050381
 30
0.0
 10
69.9259022611
 20
115.8233739306
 30
0.0
 10
70.3710323091
 20
115.6115103019
 30
0.0
 10
71.0553159756
 20
115.4464165193
 30
0.0
 10
71.6972769762
 20
115.4626076251
 30
0.0
 10
72.0838103726
 20
115.6029413423
 30
0.0
 10
72.2520321927
 20
115.7000636816
 30
0.0
  0
SPLINE
  5
4EF
100
AcDbEntity
  8
0
100
AcDbSpline
 62
7
  6
CONTINUOUS
 70
0
 71
3
 72
11
 73
7
 74
0
 42
0.0000001
 43
0.0000001
 44
0.0000000001
 40
0.0
 40
0.0
 40
0.0
 40
0.0
 40
0.2178587327
 40
0.450981924
 40
0.7102515687
 40
1.0
 40
1.0
 40
1.0
 40
1.0
 10
67.1521081932
 20
30.0499536121
 30
0.0
 10
66.9838280571
 20
29.9527718144
 30
0.0
 10
66.6688965019
 20
29.6882469269
 30
0.0
 10
66.3340450114
 20
29.140227691
 30
0.0
 10
66.134855395
 20
28.465159744
 30
0.0
 10
66.0958027549
 20
27.9737551617
 30
0.0
 10
66.0958027549
 20
27.715305169
 30
0.0
  0
SPLINE
  5
4F0
100
AcDbEntity
  8
0
100
AcDbSpline
 62
7
  6
CONTINUOUS
 70
0
 71
3
 72
11
 73
7
 74
0
 42
0.0000001
 43
0.0000001
 44
0.0000000001
 40
0.0
 40
0.0
 40
0.0
 40
0.0
 40
0.217745073
 40
0.4508830113
 40
0.7104597664
 40
1.0
 40
1.0
 40
1.0
 40
1.0
 10
61.6017272389
 20
127.4852564783
 30
0.0
 10
61.5291709207
 20
127.4433662839
 30
0.0
 10
61.3932807388
 20
127.329385732
 30
0.0
 10
61.2487266352
 20
127.0929270531
 30
0.0
 10
61.163029747
 20
126.8016233011
 30
0.0
 10
61.1460193703
 20
126.5896389976
 30
0.0
 10
61.1460193703
 20
126.4782340111
 30
0.0
  0
SPLINE
  5
4F1
100
AcDbEntity
  8
0
100
AcDbSpline
 62
7
  6
CONTINUOUS
 70
0
 71
3
 72
11
 73
7
 74
0
 42
0.0000001
 43
0.0000001
 44
0.0000000001
 40
0.0
 40
0.0
 40
0.0
 40
0.0
 40
0.289775222
 40
0.5490688033
 40
0.782225076
 40
1.0
 40
1.0
 40
1.0
 40
1.0
 10
80.1670519456
 20
150.6537898462
 30
0.0
 10
79.947600997
 20
150.7804870442
 30
0.0
 10
79.5111988728
 20
150.9881965394
 30
0.0
 10
78.8403323543
 20
151.1500532322
 30
0.0
 10
78.2109586566
 20
151.1341795948
 30
0.0
 10
77.8320042454
 20
150.9965974825
 30
0.0
 10
77.6670808484
 20
150.9013794774
 30
0.0
  0
SPLINE
  5
4F2
100
AcDbEntity
  8
0
100
AcDbSpline
 62
7
  6
CONTINUOUS
 70
0
 71
3
 72
11
 73
7
 74
0
 42
0.0000001
 43
0.0000001
 44
0.0000000001
 40
0.0
 40
0.0
 40
0.0
 40
0.0
 40
0.2284900552
 40
0.4793397199
 40
0.7409883792
 40
1.0
 40
1.0
 40
1.0
 40
1.0
 10
76.772953527
 20
148.6942179076
 30
0.0
 10
77.1236510281
 20
148.4917471915
 30
0.0
 10
77.8064972874
 20
147.9734926522
 30
0.0
 10
78.6911048552
 20
146.9949977088
 30
0.0
 10
79.4344472728
 20
145.8406796033
 30
0.0
 10
79.8071814127
 20
144.9911601433
 30
0.0
 10
79.9541865241
 20
144.5562944299
 30
0.0
  0
SPLINE
  5
4F3
100
AcDbEntity
  8
0
100
AcDbSpline
 62
7
  6
CONTINUOUS
 70
0
 71
3
 72
9
 73
5
 74
0
 42
0.0000001
 43
0.0000001
 44
0.0000000001
 40
0.0
 40
0.0
 40
0.0
 40
0.0
 40
0.2456047522
 40
1.0
 40
1.0
 40
1.0
 40
1.0
 10
77.7068464191
 20
46.9416232483
 30
0.0
 10
77.6912550362
 20
46.9404966935
 30
0.0
 10
77.6276920067
 20
46.937082063
 30
0.0
 10
77.5638982361
 20
46.9382910055
 30
0.0
 10
77.5159940556
 20
46.9415523267
 30
0.0
  0
SPLINE
  5
4F4
100
AcDbEntity
  8
0
100
AcDbSpline
 62
7
  6
CONTINUOUS
 70
0
 71
3
 72
9
 73
5
 74
0
 42
0.0000001
 43
0.0000001
 44
0.0000000001
 40
0.0
 40
0.0
 40
0.0
 40
0.0
 40
0.2418324446
 40
1.0
 40
1.0
 40
1.0
 40
1.0
 10
77.5159940556
 20
46.9415523267
 30
0.0
 10
77.4891757533
 20
46.9433781192
 30
0.0
 10
77.37849363
 20
46.9539667483
 30
0.0
 10
77.2690573818
 20
46.9763880768
 30
0.0
 10
77.1877949125
 20
46.9987100537
 30
0.0
  0
SPLINE
  5
4F5
100
AcDbEntity
  8
0
100
AcDbSpline
 62
7
  6
CONTINUOUS
 70
0
 71
3
 72
11
 73
7
 74
0
 42
0.0000001
 43
0.0000001
 44
0.0000000001
 40
0.0
 40
0.0
 40
0.0
 40
0.0
 40
0.2177804224
 40
0.4509245649
 40
0.7102604319
 40
1.0
 40
1.0
 40
1.0
 40
1.0
 10
67.1520888574
 20
124.5334774022
 30
0.0
 10
66.9838419339
 20
124.4363798611
 30
0.0
 10
66.6691005122
 20
124.1717145463
 30
0.0
 10
66.3340144779
 20
123.6238688738
 30
0.0
 10
66.1349243044
 20
122.9486683911
 30
0.0
 10
66.0958027549
 20
122.4572359192
 30
0.0
 10
66.0958027549
 20
122.1987952135
 30
0.0
  0
SPLINE
  5
4F6
100
AcDbEntity
  8
0
100
AcDbSpline
 62
7
  6
CONTINUOUS
 70
0
 71
3
 72
11
 73
7
 74
0
 42
0.0000001
 43
0.0000001
 44
0.0000000001
 40
0.0
 40
0.0
 40
0.0
 40
0.0
 40
0.2177804224
 40
0.4509245649
 40
0.7102604319
 40
1.0
 40
1.0
 40
1.0
 40
1.0
 10
81.5062967529
 20
132.8208337258
 30
0.0
 10
81.3380498293
 20
132.7237361847
 30
0.0
 10
81.0233084076
 20
132.4590708699
 30
0.0
 10
80.6882223733
 20
131.9112251974
 30
0.0
 10
80.4891321998
 20
131.2360247147
 30
0.0
 10
80.4500106504
 20
130.7445922428
 30
0.0
 10
80.4500106504
 20
130.4861515371
 30
0.0
  0
SPLINE
  5
4F7
100
AcDbEntity
  8
0
100
AcDbSpline
 62
7
  6
CONTINUOUS
 70
0
 71
3
 72
11
 73
7
 74
0
 42
0.0000001
 43
0.0000001
 44
0.0000000001
 40
0.0
 40
0.0
 40
0.0
 40
0.0
 40
0.2278224139
 40
0.4767403195
 40
0.7377156449
 40
1.0
 40
1.0
 40
1.0
 40
1.0
 10
62.7722675217
 20
140.6921704001
 30
0.0
 10
62.7722675217
 20
140.3224038885
 30
0.0
 10
62.8601520348
 20
139.5477733218
 30
0.0
 10
63.1979527353
 20
138.3943003823
 30
0.0
 10
63.7278788234
 20
137.2537963374
 30
0.0
 10
64.1938905119
 20
136.5395756717
 30
0.0
 10
64.4526019162
 20
136.201509428
 30
0.0
  0
SPLINE
  5
4F8
100
AcDbEntity
  8
0
100
AcDbSpline
 62
7
  6
CONTINUOUS
 70
0
 71
3
 72
17
 73
13
 74
0
 42
0.0000001
 43
0.0000001
 44
0.0000000001
 40
0.0
 40
0.0
 40
0.0
 40
0.0
 40
0.042857965
 40
0.0874854797
 40
0.1353180708
 40
0.1872814984
 40
0.3045423159
 40
0.4382097446
 40
0.5825520305
 40
0.7297107839
 40
0.8713099826
 40
1.0
 40
1.0
 40
1.0
 40
1.0
 10
74.3125264006
 20
51.6621976526
 30
0.0
 10
74.3815373565
 20
51.7020778832
 30
0.0
 10
74.5337132893
 20
51.7652936658
 30
0.0
 10
74.7848754568
 20
51.8021313596
 30
0.0
 10
75.0546124507
 20
51.782254677
 30
0.0
 10
75.4465425062
 20
51.6780384402
 30
0.0
 10
75.9475653041
 20
51.4040780527
 30
0.0
 10
76.5011129665
 20
50.9138594441
 30
0.0
 10
76.9904268092
 20
50.2875611064
 30
0.0
 10
77.3755367292
 20
49.5757748985
 30
0.0
 10
77.6254413247
 20
48.8368688775
 30
0.0
 10
77.6924022473
 20
48.3336241611
 30
0.0
 10
77.6924022473
 20
48.094292114
 30
0.0
  0
SPLINE
  5
4F9
100
AcDbEntity
  8
0
100
AcDbSpline
 62
7
  6
CONTINUOUS
 70
0
 71
3
 72
11
 73
7
 74
0
 42
0.0000001
 43
0.0000001
 44
0.0000000001
 40
0.0
 40
0.0
 40
0.0
 40
0.0
 40
0.217774924
 40
0.4509311967
 40
0.710224778
 40
1.0
 40
1.0
 40
1.0
 40
1.0
 10
91.9507255585
 20
138.7357886758
 30
0.0
 10
92.1156489554
 20
138.8310066809
 30
0.0
 10
92.4946033666
 20
138.9685887932
 30
0.0
 10
93.1239770644
 20
138.9844624306
 30
0.0
 10
93.7948435829
 20
138.8226057378
 30
0.0
 10
94.231245707
 20
138.6148962426
 30
0.0
 10
94.4506966556
 20
138.4881990446
 30
0.0
  0
SPLINE
  5
4FA
100
AcDbEntity
  8
0
100
AcDbSpline
 62
7
  6
CONTINUOUS
 70
0
 71
3
 72
11
 73
7
 74
0
 42
0.0000001
 43
0.0000001
 44
0.0000000001
 40
0.0
 40
0.0
 40
0.0
 40
0.0
 40
0.2590159869
 40
0.5206670356
 40
0.7715154638
 40
1.0
 40
1.0
 40
1.0
 40
1.0
 10
101.0256637293
 20
136.3109145046
 30
0.0
 10
100.878628222
 20
136.7456756702
 30
0.0
 10
100.5058657104
 20
137.5949791439
 30
0.0
 10
99.7625852801
 20
138.7490008501
 30
0.0
 10
98.8781138336
 20
139.7272307703
 30
0.0
 10
98.19540997
 20
140.2453479582
 30
0.0
 10
97.8447950743
 20
140.4477709832
 30
0.0
  0
SPLINE
  5
4FB
100
AcDbEntity
  8
0
100
AcDbSpline
 62
7
  6
CONTINUOUS
 70
0
 71
3
 72
17
 73
13
 74
0
 42
0.0000001
 43
0.0000001
 44
0.0000000001
 40
0.0
 40
0.0
 40
0.0
 40
0.0
 40
0.128694094
 40
0.2702787256
 40
0.41743435
 40
0.5617778939
 40
0.6954482501
 40
0.8127108639
 40
0.8646770521
 40
0.9125096585
 40
0.9571396658
 40
1.0
 40
1.0
 40
1.0
 40
1.0
 10
30.7403164976
 20
48.1273428951
 30
0.0
 10
30.7403164976
 20
47.6914012656
 30
0.0
 10
30.862261379
 20
46.7748038683
 30
0.0
 10
31.3174863196
 20
45.4289994227
 30
0.0
 10
32.018857722
 20
44.1325483149
 30
0.0
 10
32.9100851757
 20
42.9917698192
 30
0.0
 10
33.9183294628
 20
42.0987939145
 30
0.0
 10
34.8309513945
 20
41.5998908988
 30
0.0
 10
35.5448059697
 20
41.4098614755
 30
0.0
 10
36.0361363164
 20
41.3738370151
 30
0.0
 10
36.4936593046
 20
41.4407813452
 30
0.0
 10
36.7708017714
 20
41.5560342679
 30
0.0
 10
36.8965495915
 20
41.6286050102
 30
0.0
  0
SPLINE
  5
4FC
100
AcDbEntity
  8
0
100
AcDbSpline
 62
7
  6
CONTINUOUS
 70
0
 71
3
 72
11
 73
7
 74
0
 42
0.0000001
 43
0.0000001
 44
0.0000000001
 40
0.0
 40
0.0
 40
0.0
 40
0.0
 40
0.2178587327
 40
0.450981924
 40
0.7102515687
 40
1.0
 40
1.0
 40
1.0
 40
1.0
 10
49.4743650645
 20
40.2559724751
 30
0.0
 10
49.3060849284
 20
40.1587906774
 30
0.0
 10
48.9911533733
 20
39.8942657899
 30
0.0
 10
48.6563018828
 20
39.346246554
 30
0.0
 10
48.4571122664
 20
38.671178607
 30
0.0
 10
48.4180596262
 20
38.1797740247
 30
0.0
 10
48.4180596262
 20
37.921324032
 30
0.0
  0
SPLINE
  5
4FD
100
AcDbEntity
  8
0
100
AcDbSpline
 62
7
  6
CONTINUOUS
 70
0
 71
3
 72
16
 73
12
 74
0
 42
0.0000001
 43
0.0000001
 44
0.0000000001
 40
0.0
 40
0.0
 40
0.0
 40
0.0
 40
0.0438440969
 40
0.0887565817
 40
0.1850401064
 40
0.2941610074
 40
0.4174468529
 40
0.5534568115
 40
0.6989077803
 40
0.8493966099
 40
1.0
 40
1.0
 40
1.0
 40
1.0
 10
94.0948376869
 20
142.8604133006
 30
0.0
 10
94.2350163098
 20
142.9413435462
 30
0.0
 10
94.5356364446
 20
143.0777308647
 30
0.0
 10
95.2034533258
 20
143.2375952207
 30
0.0
 10
96.1446745936
 20
143.2023200415
 30
0.0
 10
97.3075791752
 20
142.8182245924
 30
0.0
 10
98.4867740314
 20
142.1239968198
 30
0.0
 10
99.6307832255
 20
141.1533698315
 30
0.0
 10
100.6878163287
 20
139.9525818833
 30
0.0
 10
101.6075109455
 20
138.5792353244
 30
0.0
 10
102.1052472784
 20
137.5811969265
 30
0.0
 10
102.3196342311
 20
137.06819542
 30
0.0
  0
SPLINE
  5
4FE
100
AcDbEntity
  8
0
100
AcDbSpline
 62
7
  6
CONTINUOUS
 70
0
 71
3
 72
11
 73
7
 74
0
 42
0.0000001
 43
0.0000001
 44
0.0000000001
 40
0.0
 40
0.0
 40
0.0
 40
0.0
 40
0.2178587327
 40
0.450981924
 40
0.7102515687
 40
1.0
 40
1.0
 40
1.0
 40
1.0
 10
31.7966219358
 20
50.4619913382
 30
0.0
 10
31.6283417997
 20
50.3648095404
 30
0.0
 10
31.3134102446
 20
50.100284653
 30
0.0
 10
30.9785587541
 20
49.552265417
 30
0.0
 10
30.7793691377
 20
48.87719747
 30
0.0
 10
30.7403164976
 20
48.3857928877
 30
0.0
 10
30.7403164976
 20
48.1273428951
 30
0.0
  0
SPLINE
  5
4FF
100
AcDbEntity
  8
0
100
AcDbSpline
 62
7
  6
CONTINUOUS
 70
0
 71
3
 72
11
 73
7
 74
0
 42
0.0000001
 43
0.0000001
 44
0.0000000001
 40
0.0
 40
0.0
 40
0.0
 40
0.0
 40
0.2179706252
 40
0.4527992041
 40
0.7126866467
 40
1.0
 40
1.0
 40
1.0
 40
1.0
 10
74.0686322335
 20
51.8607375185
 30
0.0
 10
73.979772381
 20
51.7957072899
 30
0.0
 10
73.8161608869
 20
51.6300344824
 30
0.0
 10
73.6436822269
 20
51.3096557647
 30
0.0
 10
73.5410162795
 20
50.9252473073
 30
0.0
 10
73.520454869
 20
50.6480564653
 30
0.0
 10
73.520454869
 20
50.5029125657
 30
0.0
  0
ENDSEC
  0
SECTION
  2
OBJECTS
  0
DICTIONARY
  5
C
100
AcDbDictionary
280
0
281
1
  3
ACAD_GROUP
350
D
  3
ACAD_MLINESTYLE
350
17
  3
ACAD_LAYOUT
350
1A
  3
ACAD_PLOTSETTINGS
350
19
  3
ACAD_PLOTSTYLENAME
350
E
  0
DICTIONARY
  5
D
102
{ACAD_REACTORS
330
C
102
}
100
AcDbDictionary
280
0
281
1
  0
ACDBDICTIONARYWDFLT
  5
E
102
{ACAD_REACTORS
330
C
102
}
100
AcDbDictionary
281
1
  3
Normal
350
F
100
AcDbDictionaryWithDefault
340
F
  0
DICTIONARY
  5
17
102
{ACAD_REACTORS
330
C
102
}
100
AcDbDictionary
280
0
281
1
  3
Standard
350
18
  0
DICTIONARY
  5
19
102
{ACAD_REACTORS
330
C
102
}
100
AcDbDictionary
281
1
  0
DICTIONARY
  5
1A
102
{ACAD_REACTORS
330
C
102
}
100
AcDbDictionary
281
1
  3
Model
350
500
  3
Layout1
350
501
  0
ACDBPLACEHOLDER
  5
F
102
{ACAD_REACTORS
330
E
102
}
  0
MLINESTYLE
  5
18
102
{ACAD_REACTORS
330
17
102
}
100
AcDbMlineStyle
  2
STANDARD
 70
0
  3

 62
256
 51
90.0
 52
90.0
 71
2
 49
0.5
 62
256
  6
BYLAYER
 49
-0.5
 62
256
  6
BYLAYER
  0
LAYOUT
  5
500
102
{ACAD_REACTORS
330
1A
102
}
100
AcDbPlotSettings
  1

  2
none_device
  4

  6

 40
0.0
 41
0.0
 42
0.0
 43
0.0
 44
210.0
 45
297.0
 46
0.0
 47
0.0
 48
0.0
 49
0.0
140
0.0
141
0.0
142
1.0
143
1.0
 70
1024
 72
1
 73
0
 74
0
  7

 75
0
147
1.0
148
0.0
149
0.0
100
AcDbLayout
  1
Model
 70
0
 71
0
 10
0.0
 20
0.0
 11
210.0
 21
297.0
 12
0.0
 22
0.0
 32
0.0
 14
0.0
 24
0.0
 34
0.0
 15
0.0
 25
0.0
 35
0.0
146
0.0
 13
0.0
 23
0.0
 33
0.0
 16
1.0
 26
0.0
 36
0.0
 17
0.0
 27
1.0
 37
0.0
 76
0
330
215
345
0
346
0
  0
LAYOUT
  5
501
102
{ACAD_REACTORS
330
1A
102
}
100
AcDbPlotSettings
  1

  2
none_device
  4

  6

 40
0.0
 41
0.0
 42
0.0
 43
0.0
 44
210.0
 45
297.0
 46
0.0
 47
0.0
 48
0.0
 49
0.0
140
0.0
141
0.0
142
1.0
143
1.0
 70
0
 72
1
 73
0
 74
0
  7

 75
0
147
1.0
148
0.0
149
0.0
100
AcDbLayout
  1
Layout1
 70
0
 71
1
 10
0.0
 20
0.0
 11
210.0
 21
297.0
 12
0.0
 22
0.0
 32
0.0
 14
0.0
 24
0.0
 34
0.0
 15
0.0
 25
0.0
 35
0.0
146
0.0
 13
0.0
 23
0.0
 33
0.0
 16
1.0
 26
0.0
 36
0.0
 17
0.0
 27
1.0
 37
0.0
 76
0
330
216
345
0
346
0
  0
ENDSEC
  0
EOF
