999
DXF file: C:\Users\SESA621925\Desktop\Projects\Drawing_creation_tool\Gen2D (3) (1)\CAD\G20B4A100_3D-CAD\drw0001_1.dxf
999
Pro/ENGINEER 2019471 by Parametric Technology Corporation
  0
SECTION
  2
HEADER
  9
$ACADVER
  1
AC1024
  9
$DWGCODEPAGE
  3
ANSI_1252
  9
$EXTMAX
 10
144.398069586
 20
204.2201269859
 30
0.0
  9
$EXTMIN
 10
0.0
 20
0.0
 30
0.0
  9
$LIMMIN
 10
0.0
 20
0.0
  9
$LIMMAX
 10
144.398069586
 20
204.2201269859
  9
$VIEWCTR
 10
72.199034793
 20
102.110063493
  9
$VIEWSIZE
 40
204.2201269859
  9
$CLAYER
  8
0
  9
$LTSCALE
 40
13.3121267961
  9
$CELTYPE
  6
BYLAYER
  9
$DIMSCALE
 40
1.0
  9
$DIMASZ
 40
1.7190246379
  9
$DIMEXO
 40
1.0
  9
$DIMDLI
 40
9.1974694228
  9
$DIMEXE
 40
1.0
  9
$DIMCEN
 40
2.1783480212
  9
$DIMLFAC
 40
1.0
  9
$DIMBLK
  1
_FILLED
  9
$DIMALT
 70
0
  9
$DIMALTF
 40
0.0393700787
  9
$DIMTXT
 40
2.4066344931
  9
$DIMTOL
 70
1
  9
$DIMLIM
 70
0
  9
$DIMTFAC
 40
1.0
  9
$DIMTP
 40
0.01
  9
$DIMTM
 40
0.01
  9
$DIMGAP
 40
0.625
  9
$DIMDSEP
 70
46
  9
$AUNITS
 70
0
  9
$PDMODE
 70
3
  9
$PDSIZE
 40
0.3125
  9
$HANDSEED
  5
576
  9
$TILEMODE
 70
1
  9
$MEASUREMENT
 70
1
  9
$INSUNITS
 70
4
  0
ENDSEC
  0
SECTION
  2
CLASSES
  0
CLASS
  1
ACDBDICTIONARYWDFLT
  2
AcDbDictionaryWithDefault
  3
AutoCAD 2000
 90
0
 91
1
280
0
281
0
  0
CLASS
  1
ACDBPLACEHOLDER
  2
AcDbPlaceHolder
  3
AutoCAD 2000
 90
0
 91
1
280
0
281
0
  0
CLASS
  1
LAYOUT
  2
AcDbLayout
  3
AutoCAD 2000
 90
0
 91
0
280
0
281
0
  0
ENDSEC
  0
SECTION
  2
TABLES
  0
TABLE
  2
VPORT
  5
8
100
AcDbSymbolTable
 70
2
  0
VPORT
  5
1F4
100
AcDbSymbolTableRecord
100
AcDbViewportTableRecord
  2
*ACTIVE
 70
0
 10
0.0
 20
0.0
 11
1.0
 21
1.0
 12
72.199034793
 22
102.110063493
 13
0.0
 23
0.0
 14
1.0
 24
1.0
 15
0.0
 25
0.0
 16
0.0
 26
0.0
 36
1.0
 17
0.0
 27
0.0
 37
0.0
 40
204.2201269859
 41
0.7070707071
 42
50.0
 43
0.0
 44
0.0
 50
0.0
 51
0.0
 71
0
 72
100
 73
1
 74
1
 75
0
 76
0
 77
0
 78
0
  0
ENDTAB
  0
TABLE
  2
LTYPE
  5
5
100
AcDbSymbolTable
 70
6
  0
LTYPE
  5
14
100
AcDbSymbolTableRecord
100
AcDbLinetypeTableRecord
  2
BYBLOCK
 70
0
  3

 72
65
 73
0
 40
0.0
  0
LTYPE
  5
15
100
AcDbSymbolTableRecord
100
AcDbLinetypeTableRecord
  2
BYLAYER
 70
0
  3

 72
65
 73
0
 40
0.0
  0
LTYPE
  5
16
100
AcDbSymbolTableRecord
100
AcDbLinetypeTableRecord
  2
CONTINUOUS
 70
64
  3
Solid line
 72
65
 73
0
 40
0.0
  0
LTYPE
  5
1F5
100
AcDbSymbolTableRecord
100
AcDbLinetypeTableRecord
  2
CENTER
 70
64
  3
____ _ ____ _ ____ _ ____ _ ____ _ ____ _ ____
 72
65
 73
4
 40
0.6
 49
0.375
 74
0
 49
-0.075
 74
0
 49
0.075
 74
0
 49
-0.075
 74
0
  0
LTYPE
  5
1F6
100
AcDbSymbolTableRecord
100
AcDbLinetypeTableRecord
  2
HIDDEN
 70
64
  3
- - - - - - - - - - - - - - - - - - - -
 72
65
 73
2
 40
0.2
 49
0.1
 74
0
 49
-0.1
 74
0
  0
LTYPE
  5
1F7
100
AcDbSymbolTableRecord
100
AcDbLinetypeTableRecord
  2
PHANTOM
 70
64
  3
_____ _ _ _____ _ _ _____ _ _ _____
 72
65
 73
6
 40
0.8
 49
0.45
 74
0
 49
-0.05
 74
0
 49
0.1
 74
0
 49
-0.05
 74
0
 49
0.1
 74
0
 49
-0.05
 74
0
  0
LTYPE
  5
1F8
100
AcDbSymbolTableRecord
100
AcDbLinetypeTableRecord
  2
DOT
 70
64
  3
. . . . . . . . . . . . . . . . . . . .
 72
65
 73
2
 40
0.2
 49
0.1
 74
0
 49
-0.1
 74
0
  0
LTYPE
  5
1F9
100
AcDbSymbolTableRecord
100
AcDbLinetypeTableRecord
  2
DASHED
 70
64
  3
- - - - - - - - - - - - - - - - - - - -
 72
65
 73
2
 40
0.2
 49
0.1
 74
0
 49
-0.1
 74
0
  0
ENDTAB
  0
TABLE
  2
LAYER
  5
2
100
AcDbSymbolTable
 70
36
  0
LAYER
  5
10
100
AcDbSymbolTableRecord
100
AcDbLayerTableRecord
  2
0
 70
0
 62
7
  6
CONTINUOUS
370
-3
390
F
  0
LAYER
  5
1FA
100
AcDbSymbolTableRecord
100
AcDbLayerTableRecord
  2
DEFAULT_1
 70
0
 62
7
  6
CENTER
370
-3
390
F
  0
LAYER
  5
1FB
100
AcDbSymbolTableRecord
100
AcDbLayerTableRecord
  2
DEFAULT_2
 70
0
 62
8
  6
HIDDEN
370
-3
390
F
  0
LAYER
  5
1FC
100
AcDbSymbolTableRecord
100
AcDbLayerTableRecord
  2
DEFAULT_3
 70
0
 62
7
  6
PHANTOM
370
-3
390
F
  0
LAYER
  5
1FD
100
AcDbSymbolTableRecord
100
AcDbLayerTableRecord
  2
00_COMPONENTS
 70
0
 62
7
  6
CONTINUOUS
370
-3
390
F
  0
LAYER
  5
1FE
100
AcDbSymbolTableRecord
100
AcDbLayerTableRecord
  2
01_1_DEFAULT_DATUMS
 70
0
 62
7
  6
CONTINUOUS
370
-3
390
F
  0
LAYER
  5
1FF
100
AcDbSymbolTableRecord
100
AcDbLayerTableRecord
  2
01_PLANES
 70
0
 62
7
  6
CONTINUOUS
370
-3
390
F
  0
LAYER
  5
200
100
AcDbSymbolTableRecord
100
AcDbLayerTableRecord
  2
02_COORD_SYS
 70
0
 62
7
  6
CONTINUOUS
370
-3
390
F
  0
LAYER
  5
201
100
AcDbSymbolTableRecord
100
AcDbLayerTableRecord
  2
03_AXES
 70
0
 62
7
  6
CONTINUOUS
370
-3
390
F
  0
LAYER
  5
202
100
AcDbSymbolTableRecord
100
AcDbLayerTableRecord
  2
04_POINTS
 70
0
 62
7
  6
CONTINUOUS
370
-3
390
F
  0
LAYER
  5
203
100
AcDbSymbolTableRecord
100
AcDbLayerTableRecord
  2
05_CURVES
 70
0
 62
7
  6
CONTINUOUS
370
-3
390
F
  0
LAYER
  5
204
100
AcDbSymbolTableRecord
100
AcDbLayerTableRecord
  2
06_SURFS
 70
0
 62
7
  6
CONTINUOUS
370
-3
390
F
  0
LAYER
  5
205
100
AcDbSymbolTableRecord
100
AcDbLayerTableRecord
  2
07_COSMETICS
 70
0
 62
7
  6
CONTINUOUS
370
-3
390
F
  0
LAYER
  5
206
100
AcDbSymbolTableRecord
100
AcDbLayerTableRecord
  2
10_NOTES
 70
0
 62
7
  6
CONTINUOUS
370
-3
390
F
  0
LAYER
  5
207
100
AcDbSymbolTableRecord
100
AcDbLayerTableRecord
  2
11_NOTES_PUB
 70
0
 62
7
  6
CONTINUOUS
370
-3
390
F
  0
LAYER
  5
208
100
AcDbSymbolTableRecord
100
AcDbLayerTableRecord
  2
13_REF_GTOL
 70
0
 62
7
  6
CONTINUOUS
370
-3
390
F
  0
LAYER
  5
209
100
AcDbSymbolTableRecord
100
AcDbLayerTableRecord
  2
16_MISC
 70
0
 62
7
  6
CONTINUOUS
370
-3
390
F
  0
LAYER
  5
20A
100
AcDbSymbolTableRecord
100
AcDbLayerTableRecord
  2
17_NO_PRINT
 70
0
 62
7
  6
CONTINUOUS
370
-3
390
F
  0
LAYER
  5
20B
100
AcDbSymbolTableRecord
100
AcDbLayerTableRecord
  2
18_DATUM_CAMS_JOINTS
 70
0
 62
7
  6
CONTINUOUS
370
-3
390
F
  0
LAYER
  5
20C
100
AcDbSymbolTableRecord
100
AcDbLayerTableRecord
  2
19_DATUM_FUNCTIONAL
 70
0
 62
7
  6
CONTINUOUS
370
-3
390
F
  0
LAYER
  5
20D
100
AcDbSymbolTableRecord
100
AcDbLayerTableRecord
  2
20_DATUM_KINEMATIC_SCHEME
 70
0
 62
7
  6
CONTINUOUS
370
-3
390
F
  0
LAYER
  5
20E
100
AcDbSymbolTableRecord
100
AcDbLayerTableRecord
  2
INTFCLR_1
 70
0
 62
7
  6
CONTINUOUS
370
-3
390
F
  0
LAYER
  5
20F
100
AcDbSymbolTableRecord
100
AcDbLayerTableRecord
  2
INTFCLR_34423
 70
0
 62
7
  6
CONTINUOUS
370
-3
390
F
  0
LAYER
  5
210
100
AcDbSymbolTableRecord
100
AcDbLayerTableRecord
  2
INTFCLR_65
 70
0
 62
7
  6
CONTINUOUS
370
-3
390
F
  0
LAYER
  5
211
100
AcDbSymbolTableRecord
100
AcDbLayerTableRecord
  2
INTFCLR_74
 70
0
 62
7
  6
CONTINUOUS
370
-3
390
F
  0
ENDTAB
  0
TABLE
  2
STYLE
  5
3
100
AcDbSymbolTable
 70
1
  0
STYLE
  5
11
100
AcDbSymbolTableRecord
100
AcDbTextStyleTableRecord
  2
STANDARD
 70
0
 40
0.0
 41
0.8
 50
0.0
 71
0
 42
0.2
  3
txt
  4

  0
STYLE
  5
212
100
AcDbSymbolTableRecord
100
AcDbTextStyleTableRecord
  2
TEXTSTYLE_1
 70
0
 40
0.0
 41
0.8
 50
0.0
 71
0
 42
0.2
  3
gdt
  4

  0
ENDTAB
  0
TABLE
  2
VIEW
  5
6
100
AcDbSymbolTable
 70
0
  0
ENDTAB
  0
TABLE
  2
UCS
  5
7
100
AcDbSymbolTable
 70
0
  0
ENDTAB
  0
TABLE
  2
APPID
  5
9
100
AcDbSymbolTable
 70
1
  0
APPID
  5
213
100
AcDbSymbolTableRecord
100
AcDbRegAppTableRecord
  2
ACAD
 70
0
  0
ENDTAB
  0
TABLE
  2
BLOCK_RECORD
  5
1
100
AcDbSymbolTable
 70
0
  0
BLOCK_RECORD
  5
214
100
AcDbSymbolTableRecord
100
AcDbBlockTableRecord
  2
*Model_Space
  0
BLOCK_RECORD
  5
215
100
AcDbSymbolTableRecord
100
AcDbBlockTableRecord
  2
*Paper_Space
  0
BLOCK_RECORD
  5
216
100
AcDbSymbolTableRecord
100
AcDbBlockTableRecord
  2
_FILLED
  0
ENDTAB
  0
TABLE
  2
DIMSTYLE
  5
A
100
AcDbSymbolTable
 70
1
100
AcDbDimStyleTable
 71
0
  0
DIMSTYLE
105
217
100
AcDbSymbolTableRecord
100
AcDbDimStyleTableRecord
  2
STANDARD
 70
0
  3

  4

 40
1.0
 41
1.7190246379
 42
1.0
 43
0.38
 44
1.0
 45
0.0
 46
0.0
 47
0.01
 48
0.01
140
2.4066344931
141
0.09
142
0.0
143
25.4
144
1.0
145
0.0
146
1.0
147
0.625
 71
1
 72
0
 73
0
 74
0
 75
0
 76
0
 77
1
 78
8
 79
2
170
0
171
1
172
0
173
0
174
0
175
0
176
0
177
0
178
0
270
2
179
2
271
2
272
2
273
2
274
2
275
0
280
0
281
0
282
0
283
1
284
8
285
0
286
0
287
3
288
0
340
11
278
46
341
216
342
216
343
216
344
216
  0
ENDTAB
  0
ENDSEC
  0
SECTION
  2
BLOCKS
  0
BLOCK
  5
20
100
AcDbEntity
  8
0
100
AcDbBlockBegin
  2
*Model_Space
 70
0
 10
0.0
 20
0.0
 30
0.0
  3
*Model_Space
  1

  0
ENDBLK
  5
21
100
AcDbEntity
  8
0
100
AcDbBlockEnd
  0
BLOCK
  5
1C
100
AcDbEntity
  8
0
100
AcDbBlockBegin
  2
*Paper_Space
 70
0
 10
0.0
 20
0.0
 30
0.0
  3
*Paper_Space
  1

  0
ENDBLK
  5
1D
100
AcDbEntity
  8
0
100
AcDbBlockEnd
  0
BLOCK
  5
218
100
AcDbEntity
  8
0
100
AcDbBlockBegin
  2
_FILLED
 70
64
 10
0.0
 20
0.0
  3
_FILLED
  1

  0
SOLID
  5
219
100
AcDbEntity
  8
0
  6
BYBLOCK
 62
0
100
AcDbTrace
 10
0.0
 20
0.0
 11
-1.0
 21
0.25
 12
-1.0
 22
-0.25
 13
-1.0
 23
-0.25
  0
ENDBLK
  5
21A
100
AcDbEntity
  8
0
  6
BYBLOCK
 62
0
100
AcDbBlockEnd
  0
ENDSEC
  0
SECTION
  2
ENTITIES
  0
LINE
  5
21B
100
AcDbEntity
  8
0
100
AcDbLine
 62
7
  6
CONTINUOUS
 10
17.5296581089
 20
163.1475697734
 11
59.9558883417
 21
187.6422190057
  0
LINE
  5
21C
100
AcDbEntity
  8
0
100
AcDbLine
 62
7
  6
CONTINUOUS
 10
35.0658450477
 20
171.6390549726
 11
50.6928398501
 21
180.6612507732
  0
LINE
  5
21D
100
AcDbEntity
  8
0
100
AcDbLine
 62
7
  6
CONTINUOUS
 10
59.5669938903
 20
185.662242168
 11
50.7989063089
 21
180.60001466
  0
LINE
  5
21E
100
AcDbEntity
  8
0
100
AcDbLine
 62
7
  6
CONTINUOUS
 10
59.5669938903
 20
185.5805919263
 11
50.7989063089
 21
180.5183644183
  0
LINE
  5
21F
100
AcDbEntity
  8
0
100
AcDbLine
 62
7
  6
CONTINUOUS
 10
24.3885812273
 20
164.9030288133
 11
33.7930622622
 21
170.3326760598
  0
LINE
  5
220
100
AcDbEntity
  8
0
100
AcDbLine
 62
7
  6
CONTINUOUS
 10
18.236767834
 20
161.0246443132
 11
16.7518374112
 21
160.1673244514
  0
LINE
  5
221
100
AcDbEntity
  8
0
100
AcDbLine
 62
7
  6
CONTINUOUS
 10
24.247176946
 20
162.535222239
 11
26.3684884577
 21
163.7599547006
  0
LINE
  5
222
100
AcDbEntity
  8
0
100
AcDbLine
 62
7
  6
CONTINUOUS
 10
52.6704530664
 20
176.9577315305
 11
51.5390869268
 21
176.3045408843
  0
LINE
  5
223
100
AcDbEntity
  8
0
100
AcDbLine
 62
7
  6
CONTINUOUS
 10
51.376922496
 20
176.0954644069
 11
49.8212940542
 21
175.1973272684
  0
LINE
  5
224
100
AcDbEntity
  8
0
100
AcDbLine
 62
7
  6
CONTINUOUS
 10
54.9524450232
 20
178.1203719733
 11
58.8415161279
 21
180.3657148196
  0
LINE
  5
225
100
AcDbEntity
  8
0
100
AcDbLine
 62
7
  6
CONTINUOUS
 10
33.4395857092
 20
159.6775471554
 11
31.6718290601
 21
158.2486943165
  0
LINE
  5
226
100
AcDbEntity
  8
0
100
AcDbLine
 62
7
  6
CONTINUOUS
 10
16.7518374112
 20
155.2683099486
 11
18.3074922475
 21
156.1664623259
  0
LINE
  5
227
100
AcDbEntity
  8
0
100
AcDbLine
 62
7
  6
CONTINUOUS
 10
51.0213217377
 20
173.2338858106
 11
47.5565129354
 21
171.2334894566
  0
LINE
  5
228
100
AcDbEntity
  8
0
100
AcDbLine
 62
7
  6
CONTINUOUS
 10
24.8735281817
 20
157.181327215
 11
24.8987305491
 21
157.1958777218
  0
LINE
  5
229
100
AcDbEntity
  8
0
100
AcDbLine
 62
7
  6
CONTINUOUS
 10
63.5452576419
 20
177.6500698264
 11
59.6561865372
 21
175.4047269801
  0
LINE
  5
22A
100
AcDbEntity
  8
0
100
AcDbLine
 62
7
  6
CONTINUOUS
 10
48.0152527441
 20
168.081844974
 11
49.7830567808
 21
169.1024810181
  0
LINE
  5
22B
100
AcDbEntity
  8
0
100
AcDbLine
 62
7
  6
CONTINUOUS
 10
38.6420535038
 20
161.8644825144
 11
41.6857634451
 21
163.6217587788
  0
LINE
  5
22C
100
AcDbEntity
  8
0
100
AcDbLine
 62
7
  6
CONTINUOUS
 10
45.3191132412
 20
165.7194617401
 11
46.9909896624
 21
166.6847142801
  0
LINE
  5
22D
100
AcDbEntity
  8
0
100
AcDbLine
 62
7
  6
CONTINUOUS
 10
34.7123832144
 20
158.9427137973
 11
32.5910717028
 21
157.7179813357
  0
LINE
  5
22E
100
AcDbEntity
  8
INTFCLR_74
100
AcDbLine
 62
7
420
3604575
  6
CONTINUOUS
 10
51.3506099384
 20
167.6505052309
 11
50.0565017432
 21
166.9033559759
  0
LINE
  5
22F
100
AcDbEntity
  8
INTFCLR_74
100
AcDbLine
 62
7
420
3604575
  6
CONTINUOUS
 10
51.3870705894
 20
167.5565336206
 11
49.9857913594
 21
166.7475095092
  0
LINE
  5
230
100
AcDbEntity
  8
0
100
AcDbLine
 62
7
  6
CONTINUOUS
 10
25.1664195887
 20
162.0045092581
 11
27.641285963
 21
163.0251213425
  0
LINE
  5
231
100
AcDbEntity
  8
0
100
AcDbLine
 62
7
  6
CONTINUOUS
 10
27.8352704363
 20
153.6656247201
 11
28.2383013295
 21
153.8983133258
  0
LINE
  5
232
100
AcDbEntity
  8
0
100
AcDbLine
 62
7
  6
CONTINUOUS
 10
49.0358772436
 20
165.4513453839
 11
51.624093634
 21
166.9456438939
  0
LINE
  5
233
100
AcDbEntity
  8
0
100
AcDbLine
 62
7
  6
CONTINUOUS
 10
46.0967714798
 20
163.2292869311
 11
36.6922904448
 21
157.7996396846
  0
LINE
  5
234
100
AcDbEntity
  8
0
100
AcDbLine
 62
7
  6
CONTINUOUS
 10
63.8804362241
 20
173.0475607014
 11
72.6485238055
 21
178.1097882094
  0
LINE
  5
235
100
AcDbEntity
  8
0
100
AcDbLine
 62
7
  6
CONTINUOUS
 10
63.9865026828
 20
172.9863245882
 11
48.3595078804
 21
163.9641287876
  0
LINE
  5
236
100
AcDbEntity
  8
0
100
AcDbLine
 62
7
  6
CONTINUOUS
 10
28.9796327707
 20
151.8355291813
 11
28.1362710137
 21
151.3486169504
  0
LINE
  5
237
100
AcDbEntity
  8
0
100
AcDbLine
 62
7
  6
CONTINUOUS
 10
33.6517598422
 20
153.8396805703
 11
76.0779900751
 21
178.3343298026
  0
LINE
  5
238
100
AcDbEntity
  8
0
100
AcDbLine
 62
7
  6
CONTINUOUS
 10
76.0779900751
 20
176.7013249683
 11
33.6517598422
 21
152.206675736
  0
LINE
  5
239
100
AcDbEntity
  8
0
100
AcDbLine
 62
7
  6
CONTINUOUS
 10
35.2074012376
 20
152.9415509104
 11
77.6336314704
 21
177.4362001427
  0
LINE
  5
23A
100
AcDbEntity
  8
0
100
AcDbLine
 62
7
  6
CONTINUOUS
 10
35.2074012376
 20
152.1250033433
 11
34.7831200938
 21
151.8800459729
  0
LINE
  5
23B
100
AcDbEntity
  8
0
100
AcDbLine
 62
7
  6
CONTINUOUS
 10
52.7435881763
 20
161.4330361096
 11
68.3705829788
 21
170.4552319102
  0
LINE
  5
23C
100
AcDbEntity
  8
0
100
AcDbLine
 62
7
  6
CONTINUOUS
 10
77.244737019
 20
175.456223305
 11
68.4766494375
 21
170.393995797
  0
LINE
  5
23D
100
AcDbEntity
  8
0
100
AcDbLine
 62
7
  6
CONTINUOUS
 10
77.244737019
 20
175.3745730633
 11
68.4766494375
 21
170.3123455553
  0
LINE
  5
23E
100
AcDbEntity
  8
0
100
AcDbLine
 62
7
  6
CONTINUOUS
 10
42.066324356
 20
154.6970099503
 11
51.4708053909
 21
160.1266571967
  0
LINE
  5
23F
100
AcDbEntity
  8
0
100
AcDbLine
 62
7
  6
CONTINUOUS
 10
31.6364971256
 20
148.4711473837
 11
33.4749671023
 21
149.5325821837
  0
LINE
  5
240
100
AcDbEntity
  8
0
100
AcDbLine
 62
7
  6
CONTINUOUS
 10
86.6849892283
 20
17.0763097545
 11
70.5628874949
 21
26.3841989575
  0
LINE
  5
241
100
AcDbEntity
  8
0
100
AcDbLine
 62
7
  6
CONTINUOUS
 10
69.0072460996
 20
27.2823286175
 11
52.8851443662
 21
36.5902178205
  0
LINE
  5
242
100
AcDbEntity
  8
0
100
AcDbLine
 62
7
  6
CONTINUOUS
 10
51.3295029709
 20
37.4883474805
 11
35.2074012376
 21
46.7962366835
  0
LINE
  5
243
100
AcDbEntity
  8
0
100
AcDbLine
 62
7
  6
CONTINUOUS
 10
33.6517598422
 20
47.6943663435
 11
17.5296581089
 21
57.0022555465
  0
LINE
  5
244
100
AcDbEntity
  8
0
100
AcDbLine
 62
7
  6
CONTINUOUS
 10
86.6849892283
 20
18.7093145887
 11
85.9778795031
 21
19.1175553432
  0
LINE
  5
245
100
AcDbEntity
  8
0
100
AcDbLine
 62
7
  6
CONTINUOUS
 10
18.236767834
 20
58.2270196263
 11
17.5296581089
 21
58.6352603808
  0
LINE
  5
246
100
AcDbEntity
  8
0
100
AcDbLine
 62
7
  6
CONTINUOUS
 10
31.6364971256
 20
50.4908573281
 11
33.6517598422
 21
49.3273711777
  0
LINE
  5
247
100
AcDbEntity
  8
0
100
AcDbLine
 62
7
  6
CONTINUOUS
 10
35.2074012376
 20
48.4292415178
 11
37.2226639542
 21
47.2657553674
  0
LINE
  5
248
100
AcDbEntity
  8
0
100
AcDbLine
 62
7
  6
CONTINUOUS
 10
49.3142402542
 20
40.2848384651
 11
51.3295029709
 21
39.1213523147
  0
LINE
  5
249
100
AcDbEntity
  8
0
100
AcDbLine
 62
7
  6
CONTINUOUS
 10
52.8851443662
 20
38.2232226548
 11
54.9004070829
 21
37.0597365044
  0
LINE
  5
24A
100
AcDbEntity
  8
0
100
AcDbLine
 62
7
  6
CONTINUOUS
 10
66.9919833829
 20
30.0788196021
 11
69.0072460996
 21
28.9153334517
  0
LINE
  5
24B
100
AcDbEntity
  8
0
100
AcDbLine
 62
7
  6
CONTINUOUS
 10
70.5628874949
 20
28.0172037918
 11
72.5781502116
 21
26.8537176414
  0
LINE
  5
24C
100
AcDbEntity
  8
0
100
AcDbLine
 62
7
  6
CONTINUOUS
 10
18.236767834
 20
60.023324944
 11
16.7518374112
 21
60.8806305285
  0
LINE
  5
24D
100
AcDbEntity
  8
0
100
AcDbLine
 62
7
  6
CONTINUOUS
 10
85.9778795031
 20
21.0771611444
 11
87.4628099259
 21
20.2198555599
  0
LINE
  5
24E
100
AcDbEntity
  8
0
100
AcDbLine
 62
7
  6
CONTINUOUS
 10
33.4749671023
 20
51.5522921282
 11
34.7831200938
 21
50.7970467323
  0
LINE
  5
24F
100
AcDbEntity
  8
0
100
AcDbLine
 62
7
  6
CONTINUOUS
 10
51.152710231
 20
41.3462732652
 11
52.4608632225
 21
40.5910278693
  0
LINE
  5
250
100
AcDbEntity
  8
0
100
AcDbLine
 62
7
  6
CONTINUOUS
 10
68.8304533597
 20
31.1402544022
 11
70.1386063512
 21
30.3850090063
  0
LINE
  5
251
100
AcDbEntity
  8
0
100
AcDbLine
 62
7
  6
CONTINUOUS
 10
72.5781502116
 20
30.7728748827
 11
70.1386063512
 21
32.181314324
  0
LINE
  5
252
100
AcDbEntity
  8
0
100
AcDbLine
 62
7
  6
CONTINUOUS
 10
54.9004070829
 20
40.9788937457
 11
52.4608632225
 21
42.387333187
  0
LINE
  5
253
100
AcDbEntity
  8
0
100
AcDbLine
 62
7
  6
CONTINUOUS
 10
37.2226639542
 20
51.1849126087
 11
34.7831200938
 21
52.59335205
  0
LINE
  5
254
100
AcDbEntity
  8
0
100
AcDbLine
 62
7
  6
CONTINUOUS
 10
16.7518374112
 20
60.8806305285
 11
16.7518374112
 21
62.2686846376
  0
LINE
  5
255
100
AcDbEntity
  8
0
100
AcDbLine
 62
7
  6
CONTINUOUS
 10
16.7518374112
 20
65.6979947895
 11
16.7518374112
 21
155.2683099486
  0
LINE
  5
256
100
AcDbEntity
  8
0
100
AcDbLine
 62
7
  6
CONTINUOUS
 10
16.7518374112
 20
158.860920584
 11
16.7518374112
 21
160.1673244514
  0
LINE
  5
257
100
AcDbEntity
  8
0
100
AcDbLine
 62
7
  6
CONTINUOUS
 10
16.9639703288
 20
87.7843883091
 11
16.9639703288
 21
87.9476887925
  0
LINE
  5
258
100
AcDbEntity
  8
0
100
AcDbLine
 62
7
  6
CONTINUOUS
 10
17.5296581089
 20
58.6352603808
 11
17.5296581089
 21
57.0022555465
  0
LINE
  5
259
100
AcDbEntity
  8
0
100
AcDbLine
 62
7
  6
CONTINUOUS
 10
17.5296581089
 20
161.5145649391
 11
17.5296581089
 21
163.1475697734
  0
LINE
  5
25A
100
AcDbEntity
  8
0
100
AcDbLine
 62
7
  6
CONTINUOUS
 10
18.236767834
 20
161.1063241846
 11
18.236767834
 21
159.3100188669
  0
LINE
  5
25B
100
AcDbEntity
  8
0
100
AcDbLine
 62
7
  6
CONTINUOUS
 10
18.236767834
 20
60.023324944
 11
18.236767834
 21
58.2270196263
  0
LINE
  5
25C
100
AcDbEntity
  8
0
100
AcDbLine
 62
7
  6
CONTINUOUS
 10
19.0852995042
 20
93.254985866
 11
19.0852995042
 21
143.878135728
  0
LINE
  5
25D
100
AcDbEntity
  8
0
100
AcDbLine
 62
7
  6
CONTINUOUS
 10
19.2974306554
 20
93.3774591122
 11
19.2974306554
 21
143.7556645215
  0
LINE
  5
25E
100
AcDbEntity
  8
0
100
AcDbLine
 62
7
  6
CONTINUOUS
 10
19.6509872843
 20
95.3779005138
 11
19.6509872843
 21
141.102035873
  0
LINE
  5
25F
100
AcDbEntity
  8
0
100
AcDbLine
 62
7
  6
CONTINUOUS
 10
49.0358772436
 20
169.533855566
 11
48.0152527441
 21
168.081844974
  0
LINE
  5
260
100
AcDbEntity
  8
0
100
AcDbLine
 62
7
  6
CONTINUOUS
 10
19.6509872843
 20
141.102035873
 11
19.8631184355
 21
141.2245091192
  0
LINE
  5
261
100
AcDbEntity
  8
0
100
AcDbLine
 62
7
  6
CONTINUOUS
 10
41.9249200747
 20
152.329203376
 11
44.0462315864
 21
153.5539358376
  0
LINE
  5
262
100
AcDbEntity
  8
0
100
AcDbLine
 62
7
  6
CONTINUOUS
 10
70.3481961951
 20
166.7517126675
 11
69.2168300555
 21
166.0985220213
  0
LINE
  5
263
100
AcDbEntity
  8
0
100
AcDbLine
 62
7
  6
CONTINUOUS
 10
69.0546656247
 20
165.8894455439
 11
67.4990371828
 21
164.9913084054
  0
LINE
  5
264
100
AcDbEntity
  8
0
100
AcDbLine
 62
7
  6
CONTINUOUS
 10
72.6301881519
 20
167.9143531103
 11
76.5192592566
 21
170.1596959566
  0
LINE
  5
265
100
AcDbEntity
  8
0
100
AcDbLine
 62
7
  6
CONTINUOUS
 10
68.6990648664
 20
163.0278669476
 11
65.234256064
 21
161.0274705936
  0
LINE
  5
266
100
AcDbEntity
  8
0
100
AcDbLine
 62
7
  6
CONTINUOUS
 10
42.5512713104
 20
146.975308352
 11
42.5764736778
 21
146.9898588588
  0
LINE
  5
267
100
AcDbEntity
  8
0
100
AcDbLine
 62
7
  6
CONTINUOUS
 10
42.8441627174
 20
151.7984903951
 11
45.3190290916
 21
152.8191024795
  0
LINE
  5
268
100
AcDbEntity
  8
0
100
AcDbLine
 62
7
  6
CONTINUOUS
 10
86.4021453382
 20
29.0788911047
 11
86.3314343657
 21
29.1197151801
  0
LINE
  5
269
100
AcDbEntity
  8
0
100
AcDbLine
 62
7
  6
CONTINUOUS
 10
35.5609561001
 20
58.4314013547
 11
35.4902451276
 21
58.4722254301
  0
LINE
  5
26A
100
AcDbEntity
  8
0
100
AcDbLine
 62
7
  6
CONTINUOUS
 10
86.9324776321
 20
29.2217868682
 11
86.4021453382
 21
29.5279674341
  0
LINE
  5
26B
100
AcDbEntity
  8
0
100
AcDbLine
 62
7
  6
CONTINUOUS
 10
35.4902451276
 20
58.9213017595
 11
34.8184908887
 21
59.3091304763
  0
LINE
  5
26C
100
AcDbEntity
  8
0
100
AcDbLine
 62
7
  6
CONTINUOUS
 10
86.9324776321
 20
29.4667313209
 11
86.6142764894
 21
29.6504406802
  0
LINE
  5
26D
100
AcDbEntity
  8
0
100
AcDbLine
 62
7
  6
CONTINUOUS
 10
35.5609561001
 20
59.1254221368
 11
35.0306220399
 21
59.4316037225
  0
LINE
  5
26E
100
AcDbEntity
  8
0
100
AcDbLine
 62
7
  6
CONTINUOUS
 10
34.8184908887
 20
60.533884102
 11
35.4902451276
 21
60.1460553852
  0
LINE
  5
26F
100
AcDbEntity
  8
0
100
AcDbLine
 62
7
  6
CONTINUOUS
 10
86.4021453382
 20
30.7527210598
 11
86.9324776321
 21
30.4465404939
  0
LINE
  5
270
100
AcDbEntity
  8
0
100
AcDbLine
 62
7
  6
CONTINUOUS
 10
24.3887060515
 20
85.5393650535
 11
24.3887060515
 21
115.7499544873
  0
LINE
  5
271
100
AcDbEntity
  8
0
100
AcDbLine
 62
7
  6
CONTINUOUS
 10
26.3684884577
 20
162.5002313814
 11
26.3684884577
 21
163.7599547006
  0
LINE
  5
272
100
AcDbEntity
  8
0
100
AcDbLine
 62
7
  6
CONTINUOUS
 10
51.1173288378
 20
149.4715282924
 11
49.3495721888
 21
148.0426754535
  0
LINE
  5
273
100
AcDbEntity
  8
0
100
AcDbLine
 62
7
  6
CONTINUOUS
 10
81.2230007705
 20
167.4440509634
 11
77.3339296659
 21
165.1987081171
  0
LINE
  5
274
100
AcDbEntity
  8
0
100
AcDbLine
 62
7
  6
CONTINUOUS
 10
65.6929958728
 20
157.875826111
 11
67.4607999095
 21
158.8964621551
  0
LINE
  5
275
100
AcDbEntity
  8
0
100
AcDbLine
 62
7
  6
CONTINUOUS
 10
56.3197966325
 20
151.6584636514
 11
59.3635065738
 21
153.4157399158
  0
LINE
  5
276
100
AcDbEntity
  8
0
100
AcDbLine
 62
7
  6
CONTINUOUS
 10
62.9968563699
 20
155.5134428771
 11
64.6687327911
 21
156.4786954171
  0
LINE
  5
277
100
AcDbEntity
  8
0
100
AcDbLine
 62
7
  6
CONTINUOUS
 10
52.3901263431
 20
148.7366949343
 11
50.2688148315
 21
147.5119624726
  0
LINE
  5
278
100
AcDbEntity
  8
INTFCLR_74
100
AcDbLine
 62
7
420
3604575
  6
CONTINUOUS
 10
69.028353067
 20
157.4444863679
 11
67.7342448718
 21
156.6973371129
  0
LINE
  5
279
100
AcDbEntity
  8
INTFCLR_74
100
AcDbLine
 62
7
420
3604575
  6
CONTINUOUS
 10
69.0648137181
 20
157.3505147576
 11
67.6635344881
 21
156.5414906462
  0
LINE
  5
27A
100
AcDbEntity
  8
0
100
AcDbLine
 62
7
  6
CONTINUOUS
 10
45.513013565
 20
143.4596058571
 11
45.9160444582
 21
143.6922944628
  0
LINE
  5
27B
100
AcDbEntity
  8
0
100
AcDbLine
 62
7
  6
CONTINUOUS
 10
66.7136203723
 20
155.2453265209
 11
69.3018367627
 21
156.7396250309
  0
LINE
  5
27C
100
AcDbEntity
  8
0
100
AcDbLine
 62
7
  6
CONTINUOUS
 10
63.7745146085
 20
153.0232680681
 11
54.3700335735
 21
147.5936208216
  0
LINE
  5
27D
100
AcDbEntity
  8
0
100
AcDbLine
 62
7
  6
CONTINUOUS
 10
31.6011416393
 20
134.2027671216
 11
31.8132727905
 21
134.3252403678
  0
LINE
  5
27E
100
AcDbEntity
  8
0
100
AcDbLine
 62
7
  6
CONTINUOUS
 10
81.5581793527
 20
162.8415418383
 11
90.3262669342
 21
167.9037693464
  0
LINE
  5
27F
100
AcDbEntity
  8
0
100
AcDbLine
 62
7
  6
CONTINUOUS
 10
81.6642458115
 20
162.7803057252
 11
66.0372510091
 21
153.7581099246
  0
LINE
  5
280
100
AcDbEntity
  8
0
100
AcDbLine
 62
7
  6
CONTINUOUS
 10
46.6573758993
 20
141.6295103183
 11
45.8140141423
 21
141.1425980874
  0
LINE
  5
281
100
AcDbEntity
  8
0
100
AcDbLine
 62
7
  6
CONTINUOUS
 10
37.0561580841
 20
64.9345177417
 11
46.248584511
 21
59.6273879329
  0
LINE
  5
282
100
AcDbEntity
  8
0
100
AcDbLine
 62
7
  6
CONTINUOUS
 10
37.2216254601
 20
66.842538394
 11
46.414051887
 21
61.5354085853
  0
LINE
  5
283
100
AcDbEntity
  8
0
100
AcDbLine
 62
7
  6
CONTINUOUS
 10
29.1262163858
 20
151.06702018
 11
29.1262163858
 21
150.5201300017
  0
LINE
  5
284
100
AcDbEntity
  8
0
100
AcDbLine
 62
7
  6
CONTINUOUS
 10
31.6011416393
 20
134.2027671216
 11
31.6011416393
 21
121.2668732891
  0
LINE
  5
285
100
AcDbEntity
  8
0
100
AcDbLine
 62
7
  6
CONTINUOUS
 10
31.6364971256
 20
55.3898718309
 11
31.6364971256
 21
50.4908573281
  0
LINE
  5
286
100
AcDbEntity
  8
0
100
AcDbLine
 62
7
  6
CONTINUOUS
 10
31.6364971256
 20
148.4711473837
 11
31.6364971256
 21
153.3701618864
  0
LINE
  5
287
100
AcDbEntity
  8
0
100
AcDbLine
 62
7
  6
CONTINUOUS
 10
31.8132727905
 20
134.3252403678
 11
31.8132727905
 21
121.3893465353
  0
LINE
  5
288
100
AcDbEntity
  8
0
100
AcDbLine
 62
7
  6
CONTINUOUS
 10
32.1668294194
 20
136.3256817694
 11
32.1668294194
 21
121.5934713317
  0
LINE
  5
289
100
AcDbEntity
  8
0
100
AcDbLine
 62
7
  6
CONTINUOUS
 10
36.9044645779
 20
132.3248899676
 11
36.7580173588
 21
131.5579145622
  0
LINE
  5
28A
100
AcDbEntity
  8
0
100
AcDbLine
 62
7
  6
CONTINUOUS
 10
37.6115743031
 20
129.0588907531
 11
37.7580215222
 21
129.8258661584
  0
LINE
  5
28B
100
AcDbEntity
  8
0
100
AcDbLine
 62
7
  6
CONTINUOUS
 10
51.3295029709
 20
143.6336617073
 11
93.7557332037
 21
168.1283109396
  0
LINE
  5
28C
100
AcDbEntity
  8
0
100
AcDbLine
 62
7
  6
CONTINUOUS
 10
36.361120277
 20
133.4072251605
 11
35.8580257081
 21
133.1167651095
  0
LINE
  5
28D
100
AcDbEntity
  8
0
100
AcDbLine
 62
7
  6
CONTINUOUS
 10
93.7557332037
 20
166.4953061053
 11
51.3295029709
 21
142.000656873
  0
LINE
  5
28E
100
AcDbEntity
  8
0
100
AcDbLine
 62
7
  6
CONTINUOUS
 10
52.8851443662
 20
142.7355320474
 11
95.3113745991
 21
167.2301812796
  0
LINE
  5
28F
100
AcDbEntity
  8
0
100
AcDbLine
 62
7
  6
CONTINUOUS
 10
52.8851443662
 20
141.9189844803
 11
52.4608632225
 21
141.6740271099
  0
LINE
  5
290
100
AcDbEntity
  8
0
100
AcDbLine
 62
7
  6
CONTINUOUS
 10
70.421331305
 20
151.2270172466
 11
86.0483261074
 21
160.2492130471
  0
LINE
  5
291
100
AcDbEntity
  8
0
100
AcDbLine
 62
7
  6
CONTINUOUS
 10
94.9224801477
 20
165.250204442
 11
86.1543925662
 21
160.187976934
  0
LINE
  5
292
100
AcDbEntity
  8
0
100
AcDbLine
 62
7
  6
CONTINUOUS
 10
94.9224801477
 20
165.1685542003
 11
86.1543925662
 21
160.1063266923
  0
LINE
  5
293
100
AcDbEntity
  8
0
100
AcDbLine
 62
7
  6
CONTINUOUS
 10
37.4954700395
 20
131.9836805244
 11
36.7580173588
 21
131.5579145622
  0
LINE
  5
294
100
AcDbEntity
  8
0
100
AcDbLine
 62
7
  6
CONTINUOUS
 10
36.9398124099
 20
131.5287778722
 11
36.0205774215
 21
130.9980604722
  0
LINE
  5
295
100
AcDbEntity
  8
0
100
AcDbLine
 62
7
  6
CONTINUOUS
 10
59.7440674846
 20
144.4909910873
 11
69.1485485196
 21
149.9206383337
  0
LINE
  5
296
100
AcDbEntity
  8
0
100
AcDbLine
 62
7
  6
CONTINUOUS
 10
49.3142402542
 20
138.2651285206
 11
51.152710231
 21
139.3265633207
  0
LINE
  5
297
100
AcDbEntity
  8
INTFCLR_74
100
AcDbLine
 62
7
420
3604575
  6
CONTINUOUS
 10
37.7580258423
 20
130.9805674678
 11
37.2580194405
 21
130.6918903603
  0
LINE
  5
298
100
AcDbEntity
  8
0
100
AcDbLine
 62
7
  6
CONTINUOUS
 10
37.6772523472
 20
130.9339231702
 11
36.7580173588
 21
130.4032057702
  0
LINE
  5
299
100
AcDbEntity
  8
0
100
AcDbLine
 62
7
  6
CONTINUOUS
 10
37.8236995663
 20
129.9978489076
 11
36.9044645779
 21
129.4671315076
  0
LINE
  5
29A
100
AcDbEntity
  8
0
100
AcDbLine
 62
7
  6
CONTINUOUS
 10
38.4954614595
 20
130.2516247633
 11
37.7580215222
 21
129.8258661584
  0
LINE
  5
29B
100
AcDbEntity
  8
0
100
AcDbLine
 62
7
  6
CONTINUOUS
 10
59.6026632034
 20
142.123184513
 11
61.723974715
 21
143.3479169746
  0
LINE
  5
29C
100
AcDbEntity
  8
0
100
AcDbLine
 62
7
  6
CONTINUOUS
 10
60.5219058461
 20
141.5924715321
 11
62.9967722203
 21
142.6130836165
  0
LINE
  5
29D
100
AcDbEntity
  8
0
100
AcDbLine
 62
7
  6
CONTINUOUS
 10
85.134373107
 20
50.299231151
 11
85.8718130443
 21
50.0425828239
  0
LINE
  5
29E
100
AcDbEntity
  8
0
100
AcDbLine
 62
7
  6
CONTINUOUS
 10
84.1343689436
 20
52.0312795548
 11
83.3969290063
 21
52.2879278819
  0
LINE
  5
29F
100
AcDbEntity
  8
0
100
AcDbLine
 62
7
  6
CONTINUOUS
 10
86.5435672832
 20
45.5722420215
 11
86.4021453382
 21
45.6538901724
  0
LINE
  5
2A0
100
AcDbEntity
  8
0
100
AcDbLine
 62
7
  6
CONTINUOUS
 10
35.4902451276
 20
75.0472244978
 11
35.3488231826
 21
75.1288726487
  0
LINE
  5
2A1
100
AcDbEntity
  8
0
100
AcDbLine
 62
7
  6
CONTINUOUS
 10
74.5934965369
 20
53.2882618141
 11
52.985236576
 21
65.7635142913
  0
LINE
  5
2A2
100
AcDbEntity
  8
0
100
AcDbLine
 62
7
  6
CONTINUOUS
 10
41.4358526565
 20
72.4314033584
 11
27.217144952
 21
80.6403923669
  0
LINE
  5
2A3
100
AcDbEntity
  8
0
100
AcDbLine
 62
7
  6
CONTINUOUS
 10
41.988016611
 20
73.1636775421
 11
51.1804430379
 21
67.8565477333
  0
LINE
  5
2A4
100
AcDbEntity
  8
0
100
AcDbLine
 62
7
  6
CONTINUOUS
 10
86.3314343657
 20
47.7343051929
 11
85.1810724916
 21
48.3984519056
  0
LINE
  5
2A5
100
AcDbEntity
  8
0
100
AcDbLine
 62
7
  6
CONTINUOUS
 10
84.0876695591
 20
49.0297141019
 11
76.8240437315
 21
53.2232755577
  0
LINE
  5
2A6
100
AcDbEntity
  8
0
100
AcDbLine
 62
7
  6
CONTINUOUS
 10
25.1208567322
 20
83.0751142863
 11
16.9639703288
 21
87.7843883091
  0
LINE
  5
2A7
100
AcDbEntity
  8
0
100
AcDbLine
 62
7
  6
CONTINUOUS
 10
86.5435672832
 20
47.6134980643
 11
87.4628099259
 21
47.0827850834
  0
LINE
  5
2A8
100
AcDbEntity
  8
0
100
AcDbLine
 62
7
  6
CONTINUOUS
 10
87.4628099259
 20
47.2460855669
 11
85.5751193281
 21
48.3359195863
  0
LINE
  5
2A9
100
AcDbEntity
  8
0
100
AcDbLine
 62
7
  6
CONTINUOUS
 10
83.6936227225
 20
49.4221775836
 11
76.9669101579
 21
53.3057590352
  0
LINE
  5
2AA
100
AcDbEntity
  8
0
100
AcDbLine
 62
7
  6
CONTINUOUS
 10
24.9794303339
 20
83.3200654917
 11
16.9639703288
 21
87.9476887925
  0
LINE
  5
2AB
100
AcDbEntity
  8
0
100
AcDbLine
 62
7
  6
CONTINUOUS
 10
85.6443840528
 20
48.375909355
 11
85.3932036427
 21
48.5209251517
  0
LINE
  5
2AC
100
AcDbEntity
  8
0
100
AcDbLine
 62
7
  6
CONTINUOUS
 10
84.2496514726
 20
49.1811403689
 11
83.7628874472
 21
49.4621673523
  0
LINE
  5
2AD
100
AcDbEntity
  8
0
100
AcDbLine
 62
7
  6
CONTINUOUS
 10
87.6749410771
 20
47.2052583296
 11
87.5335166882
 21
47.2869078914
  0
LINE
  5
2AE
100
AcDbEntity
  8
0
100
AcDbLine
 62
7
  6
CONTINUOUS
 10
33.4395857092
 20
158.2078682014
 11
33.4395857092
 21
159.6775471554
  0
LINE
  5
2AF
100
AcDbEntity
  8
0
100
AcDbLine
 62
7
  6
CONTINUOUS
 10
33.4749671023
 20
56.451306631
 11
33.4749671023
 21
51.5522921282
  0
LINE
  5
2B0
100
AcDbEntity
  8
0
100
AcDbLine
 62
7
  6
CONTINUOUS
 10
33.4749671023
 20
149.5325821837
 11
33.4749671023
 21
152.3087447629
  0
LINE
  5
2B1
100
AcDbEntity
  8
0
100
AcDbLine
 62
7
  6
CONTINUOUS
 10
33.6517598422
 20
49.3273711777
 11
33.6517598422
 21
47.6943663435
  0
LINE
  5
2B2
100
AcDbEntity
  8
0
100
AcDbLine
 62
7
  6
CONTINUOUS
 10
33.6517598422
 20
152.206675736
 11
33.6517598422
 21
153.8396805703
  0
LINE
  5
2B3
100
AcDbEntity
  8
0
100
AcDbLine
 62
7
  6
CONTINUOUS
 10
33.7930622622
 20
158.4119467663
 11
33.7930622622
 21
170.3326760598
  0
LINE
  5
2B4
100
AcDbEntity
  8
0
100
AcDbLine
 62
7
  6
CONTINUOUS
 10
34.7831200938
 20
52.59335205
 11
34.7831200938
 21
50.7970467323
  0
LINE
  5
2B5
100
AcDbEntity
  8
0
100
AcDbLine
 62
7
  6
CONTINUOUS
 10
34.7831200938
 20
151.8800459729
 11
34.7831200938
 21
152.8598629829
  0
LINE
  5
2B6
100
AcDbEntity
  8
0
100
AcDbLine
 62
7
  6
CONTINUOUS
 10
34.8184908887
 20
59.3091304763
 11
34.8184908887
 21
60.533884102
  0
LINE
  5
2B7
100
AcDbEntity
  8
0
100
AcDbLine
 62
7
  6
CONTINUOUS
 10
35.0306220399
 20
59.4316037225
 11
35.0306220399
 21
60.4114128955
  0
LINE
  5
2B8
100
AcDbEntity
  8
0
100
AcDbLine
 62
7
  6
CONTINUOUS
 10
35.2074012376
 20
48.4292415178
 11
35.2074012376
 21
46.7962366835
  0
LINE
  5
2B9
100
AcDbEntity
  8
0
100
AcDbLine
 62
7
  6
CONTINUOUS
 10
35.2074012376
 20
151.3085460761
 11
35.2074012376
 21
152.9415509104
  0
LINE
  5
2BA
100
AcDbEntity
  8
0
100
AcDbLine
 62
7
  6
CONTINUOUS
 10
35.3488231826
 20
75.1288726487
 11
35.3488231826
 21
75.9456719603
  0
LINE
  5
2BB
100
AcDbEntity
  8
0
100
AcDbLine
 62
7
  6
CONTINUOUS
 10
35.4902451276
 20
58.4722254301
 11
35.4902451276
 21
58.9213017595
  0
LINE
  5
2BC
100
AcDbEntity
  8
0
100
AcDbLine
 62
7
  6
CONTINUOUS
 10
35.4902451276
 20
60.1460553852
 11
35.4902451276
 21
75.0472244978
  0
LINE
  5
2BD
100
AcDbEntity
  8
0
100
AcDbLine
 62
7
  6
CONTINUOUS
 10
35.5609561001
 20
75.823199734
 11
35.5609561001
 21
58.4314013547
  0
LINE
  5
2BE
100
AcDbEntity
  8
0
100
AcDbLine
 62
7
  6
CONTINUOUS
 10
36.0205774215
 20
131.8145628893
 11
36.0205774215
 21
130.9980604721
  0
LINE
  5
2BF
100
AcDbEntity
  8
0
100
AcDbLine
 62
7
  6
CONTINUOUS
 10
36.9398124099
 20
131.6628733574
 11
36.9398124099
 21
131.5287778722
  0
LINE
  5
2C0
100
AcDbEntity
  8
0
100
AcDbLine
 62
7
  6
CONTINUOUS
 10
37.2226639542
 20
150.1450599257
 11
37.2226639542
 21
145.2460454229
  0
LINE
  5
2C1
100
AcDbEntity
  8
0
100
AcDbLine
 62
7
  6
CONTINUOUS
 10
37.2226639542
 20
47.2657553674
 11
37.2226639542
 21
52.1647698702
  0
LINE
  5
2C2
100
AcDbEntity
  8
0
100
AcDbLine
 62
7
  6
CONTINUOUS
 10
38.4954614595
 20
129.5692178313
 11
38.4954614595
 21
130.3857202485
  0
LINE
  5
2C3
100
AcDbEntity
  8
0
100
AcDbLine
 62
7
  6
CONTINUOUS
 10
66.7136203723
 20
159.327836703
 11
65.6929958728
 21
157.875826111
  0
LINE
  5
2C4
100
AcDbEntity
  8
0
100
AcDbLine
 62
7
  6
CONTINUOUS
 10
39.2156831888
 20
128.5889846231
 11
38.6580131729
 21
128.2670156111
  0
LINE
  5
2C5
100
AcDbEntity
  8
0
100
AcDbLine
 62
7
  6
CONTINUOUS
 10
88.0259393237
 20
156.5456938045
 11
86.8945731842
 21
155.8925031583
  0
LINE
  5
2C6
100
AcDbEntity
  8
0
100
AcDbLine
 62
7
  6
CONTINUOUS
 10
86.7324087534
 20
155.6834266809
 11
85.1767803115
 21
154.7852895424
  0
LINE
  5
2C7
100
AcDbEntity
  8
0
100
AcDbLine
 62
7
  6
CONTINUOUS
 10
90.3079312806
 20
157.7083342473
 11
94.1970023852
 21
159.9536770936
  0
LINE
  5
2C8
100
AcDbEntity
  8
0
100
AcDbLine
 62
7
  6
CONTINUOUS
 10
35.2580283942
 20
123.3781652388
 11
25.2171539058
 21
117.5810982538
  0
LINE
  5
2C9
100
AcDbEntity
  8
0
100
AcDbLine
 62
7
  6
CONTINUOUS
 10
86.3768079951
 20
152.8218480846
 11
82.9119991927
 21
150.8214517306
  0
LINE
  5
2CA
100
AcDbEntity
  8
0
100
AcDbLine
 62
7
  6
CONTINUOUS
 10
60.229014439
 20
136.769289489
 11
60.2542168065
 21
136.7838399958
  0
LINE
  5
2CB
100
AcDbEntity
  8
0
100
AcDbLine
 62
7
  6
CONTINUOUS
 10
37.2580194405
 20
123.1800681227
 11
27.217144952
 21
117.3830011377
  0
LINE
  5
2CC
100
AcDbEntity
  8
0
100
AcDbLine
 62
7
  6
CONTINUOUS
 10
98.9007438992
 20
157.2380321004
 11
95.0116727945
 21
154.9926892541
  0
LINE
  5
2CD
100
AcDbEntity
  8
0
100
AcDbLine
 62
7
  6
CONTINUOUS
 10
83.3707390015
 20
147.669807248
 11
85.1385430382
 21
148.6904432921
  0
LINE
  5
2CE
100
AcDbEntity
  8
0
100
AcDbLine
 62
7
  6
CONTINUOUS
 10
73.9975397612
 20
141.4524447884
 11
77.0412497025
 21
143.2097210528
  0
LINE
  5
2CF
100
AcDbEntity
  8
0
100
AcDbLine
 62
7
  6
CONTINUOUS
 10
80.6745994986
 20
145.307424014
 11
82.3464759197
 21
146.2726765541
  0
LINE
  5
2D0
100
AcDbEntity
  8
0
100
AcDbLine
 62
7
  6
CONTINUOUS
 10
84.2808161628
 20
49.9404965002
 11
84.9879258879
 21
49.5322557457
  0
LINE
  5
2D1
100
AcDbEntity
  8
0
100
AcDbLine
 62
7
  6
CONTINUOUS
 10
85.2000511511
 20
50.4712139002
 11
85.3161554147
 21
50.4041825888
  0
LINE
  5
2D2
100
AcDbEntity
  8
0
100
AcDbLine
 62
7
  6
CONTINUOUS
 10
55.3923356762
 20
68.2225966882
 11
57.0571753533
 21
67.2614227972
  0
LINE
  5
2D3
100
AcDbEntity
  8
0
100
AcDbLine
 62
7
  6
CONTINUOUS
 10
84.9879258879
 20
52.3900142056
 11
84.2808161628
 21
52.7982549601
  0
LINE
  5
2D4
100
AcDbEntity
  8
0
100
AcDbLine
 62
7
  6
CONTINUOUS
 10
24.3887060515
 20
90.1931319367
 11
19.0852995042
 21
93.254985866
  0
LINE
  5
2D5
100
AcDbEntity
  8
0
100
AcDbLine
 62
7
  6
CONTINUOUS
 10
24.3887060515
 20
90.4380763894
 11
19.2974306554
 21
93.3774591122
  0
LINE
  5
2D6
100
AcDbEntity
  8
0
100
AcDbLine
 62
7
  6
CONTINUOUS
 10
83.3969290063
 20
51.4714254647
 11
84.1343689436
 21
50.8765707628
  0
LINE
  5
2D7
100
AcDbEntity
  8
0
100
AcDbLine
 62
7
  6
CONTINUOUS
 10
44.0462315864
 20
152.2942125184
 11
44.0462315864
 21
153.5539358376
  0
LINE
  5
2D8
100
AcDbEntity
  8
0
100
AcDbLine
 62
7
  6
CONTINUOUS
 10
44.7534661357
 20
106.1150873447
 11
44.7534661357
 21
75.9888492374
  0
LINE
  5
2D9
100
AcDbEntity
  8
0
100
AcDbLine
 62
7
  6
CONTINUOUS
 10
46.8039595144
 20
140.861001317
 11
46.8039595144
 21
140.3141111387
  0
LINE
  5
2DA
100
AcDbEntity
  8
0
100
AcDbLine
 62
7
  6
CONTINUOUS
 10
68.7950719665
 20
139.2655094294
 11
67.0273153174
 21
137.8366565905
  0
LINE
  5
2DB
100
AcDbEntity
  8
0
100
AcDbLine
 62
7
  6
CONTINUOUS
 10
70.0678694718
 20
138.5306760713
 11
67.9465579601
 21
137.3059436096
  0
LINE
  5
2DC
100
AcDbEntity
  8
INTFCLR_74
100
AcDbLine
 62
7
420
3604575
  6
CONTINUOUS
 10
86.7060961957
 20
147.2384675049
 11
85.4119880005
 21
146.4913182499
  0
LINE
  5
2DD
100
AcDbEntity
  8
INTFCLR_74
100
AcDbLine
 62
7
420
3604575
  6
CONTINUOUS
 10
86.7425568468
 20
147.1444958946
 11
85.3412776168
 21
146.3354717832
  0
LINE
  5
2DE
100
AcDbEntity
  8
0
100
AcDbLine
 62
7
  6
CONTINUOUS
 10
63.1907566937
 20
133.2535869941
 11
63.5937875869
 21
133.4862755998
  0
LINE
  5
2DF
100
AcDbEntity
  8
0
100
AcDbLine
 62
7
  6
CONTINUOUS
 10
84.391363501
 20
145.0393076579
 11
86.9795798914
 21
146.5336061679
  0
LINE
  5
2E0
100
AcDbEntity
  8
0
100
AcDbLine
 62
7
  6
CONTINUOUS
 10
81.4522577371
 20
142.8172492051
 11
72.0477767022
 21
137.3876019586
  0
LINE
  5
2E1
100
AcDbEntity
  8
0
100
AcDbLine
 62
7
  6
CONTINUOUS
 10
99.2359224814
 20
152.6355229753
 11
108.0040100629
 21
157.6977504833
  0
LINE
  5
2E2
100
AcDbEntity
  8
0
100
AcDbLine
 62
7
  6
CONTINUOUS
 10
99.3419889402
 20
152.5742868622
 11
83.7149941378
 21
143.5520910616
  0
LINE
  5
2E3
100
AcDbEntity
  8
0
100
AcDbLine
 62
7
  6
CONTINUOUS
 10
64.335119028
 20
131.4234914553
 11
63.491757271
 21
130.9365792244
  0
LINE
  5
2E4
100
AcDbEntity
  8
0
100
AcDbLine
 62
7
  6
CONTINUOUS
 10
69.0072460996
 20
133.4276428443
 11
111.4334763324
 21
157.9222920766
  0
LINE
  5
2E5
100
AcDbEntity
  8
0
100
AcDbLine
 62
7
  6
CONTINUOUS
 10
111.4334763324
 20
156.2892872423
 11
69.0072460996
 21
131.79463801
  0
LINE
  5
2E6
100
AcDbEntity
  8
0
100
AcDbLine
 62
7
  6
CONTINUOUS
 10
70.5628874949
 20
132.5295131843
 11
112.9891177277
 21
157.0241624166
  0
LINE
  5
2E7
100
AcDbEntity
  8
0
100
AcDbLine
 62
7
  6
CONTINUOUS
 10
70.5628874949
 20
131.7129656173
 11
70.1386063512
 21
131.4680082469
  0
LINE
  5
2E8
100
AcDbEntity
  8
0
100
AcDbLine
 62
7
  6
CONTINUOUS
 10
24.3887060515
 20
92.6426391881
 11
19.6509872843
 21
95.3779005138
  0
LINE
  5
2E9
100
AcDbEntity
  8
0
100
AcDbLine
 62
7
  6
CONTINUOUS
 10
48.125529953
 20
79.4337355629
 11
57.0571753533
 21
74.277164344
  0
LINE
  5
2EA
100
AcDbEntity
  8
0
100
AcDbLine
 62
7
  6
CONTINUOUS
 10
57.0571753533
 20
78.9130961554
 11
51.2164208721
 21
82.2851810406
  0
LINE
  5
2EB
100
AcDbEntity
  8
0
100
AcDbLine
 62
7
  6
CONTINUOUS
 10
85.053603932
 20
51.4072881628
 11
84.3161639947
 21
52.0021428648
  0
LINE
  5
2EC
100
AcDbEntity
  8
0
100
AcDbLine
 62
7
  6
CONTINUOUS
 10
85.8718130443
 20
50.859085241
 11
85.134373107
 21
51.453939943
  0
LINE
  5
2ED
100
AcDbEntity
  8
0
100
AcDbLine
 62
7
  6
CONTINUOUS
 10
36.7580173588
 20
130.4032057702
 11
36.9044645779
 21
129.4671315076
  0
LINE
  5
2EE
100
AcDbEntity
  8
0
100
AcDbLine
 62
7
  6
CONTINUOUS
 10
37.8236995663
 20
129.9978489076
 11
37.6772523472
 21
130.9339231702
  0
LINE
  5
2EF
100
AcDbEntity
  8
0
100
AcDbLine
 62
7
  6
CONTINUOUS
 10
37.7580215222
 20
130.9805749505
 11
37.6115743031
 21
131.916649213
  0
LINE
  5
2F0
100
AcDbEntity
  8
0
100
AcDbLine
 62
7
  6
CONTINUOUS
 10
49.3142402542
 20
45.1838529679
 11
49.3142402542
 21
40.2848384651
  0
LINE
  5
2F1
100
AcDbEntity
  8
0
100
AcDbLine
 62
7
  6
CONTINUOUS
 10
49.3142402542
 20
138.2651285206
 11
49.3142402542
 21
143.1641430234
  0
LINE
  5
2F2
100
AcDbEntity
  8
0
100
AcDbLine
 62
7
  6
CONTINUOUS
 10
50.6928398501
 20
175.7005114647
 11
50.6928398501
 21
180.6612507732
  0
LINE
  5
2F3
100
AcDbEntity
  8
0
100
AcDbLine
 62
7
  6
CONTINUOUS
 10
50.7989063089
 20
180.5183644183
 11
50.7989063089
 21
180.60001466
  0
LINE
  5
2F4
100
AcDbEntity
  8
0
100
AcDbLine
 62
7
  6
CONTINUOUS
 10
51.1173288378
 20
148.0018493384
 11
51.1173288378
 21
149.4715282924
  0
LINE
  5
2F5
100
AcDbEntity
  8
0
100
AcDbLine
 62
7
  6
CONTINUOUS
 10
51.152710231
 20
46.245287768
 11
51.152710231
 21
41.3462732652
  0
LINE
  5
2F6
100
AcDbEntity
  8
0
100
AcDbLine
 62
7
  6
CONTINUOUS
 10
51.152710231
 20
139.3265633207
 11
51.152710231
 21
142.1027258999
  0
LINE
  5
2F7
100
AcDbEntity
  8
0
100
AcDbLine
 62
7
  6
CONTINUOUS
 10
51.3295029709
 20
39.1213523147
 11
51.3295029709
 21
37.4883474805
  0
LINE
  5
2F8
100
AcDbEntity
  8
0
100
AcDbLine
 62
7
  6
CONTINUOUS
 10
51.3295029709
 20
142.000656873
 11
51.3295029709
 21
143.6336617073
  0
LINE
  5
2F9
100
AcDbEntity
  8
0
100
AcDbLine
 62
7
  6
CONTINUOUS
 10
51.4708053909
 20
148.2059279033
 11
51.4708053909
 21
160.1266571967
  0
LINE
  5
2FA
100
AcDbEntity
  8
0
100
AcDbLine
 62
7
  6
CONTINUOUS
 10
52.4608632225
 20
42.387333187
 11
52.4608632225
 21
40.5910278693
  0
LINE
  5
2FB
100
AcDbEntity
  8
0
100
AcDbLine
 62
7
  6
CONTINUOUS
 10
52.4608632225
 20
141.6740271099
 11
52.4608632225
 21
142.6538441199
  0
LINE
  5
2FC
100
AcDbEntity
  8
0
100
AcDbLine
 62
7
  6
CONTINUOUS
 10
52.8851443662
 20
38.2232226548
 11
52.8851443662
 21
36.5902178205
  0
LINE
  5
2FD
100
AcDbEntity
  8
0
100
AcDbLine
 62
7
  6
CONTINUOUS
 10
52.8851443662
 20
141.1025272131
 11
52.8851443662
 21
142.7355320474
  0
LINE
  5
2FE
100
AcDbEntity
  8
0
100
AcDbLine
 62
7
  6
CONTINUOUS
 10
88.0990744337
 20
141.0209983836
 11
103.7260692361
 21
150.0431941841
  0
LINE
  5
2FF
100
AcDbEntity
  8
0
100
AcDbLine
 62
7
  6
CONTINUOUS
 10
112.6002232763
 20
155.044185579
 11
103.8321356949
 21
149.981958071
  0
LINE
  5
300
100
AcDbEntity
  8
0
100
AcDbLine
 62
7
  6
CONTINUOUS
 10
112.6002232763
 20
154.9625353373
 11
103.8321356949
 21
149.9003078292
  0
LINE
  5
301
100
AcDbEntity
  8
0
100
AcDbLine
 62
7
  6
CONTINUOUS
 10
77.4218106133
 20
134.2849722242
 11
86.8262916482
 21
139.7146194707
  0
LINE
  5
302
100
AcDbEntity
  8
0
100
AcDbLine
 62
7
  6
CONTINUOUS
 10
66.9919833829
 20
128.0591096576
 11
68.8304533597
 21
129.1205444577
  0
LINE
  5
303
100
AcDbEntity
  8
0
100
AcDbLine
 62
7
  6
CONTINUOUS
 10
77.2804063321
 20
131.91716565
 11
79.4017178437
 21
133.1418981116
  0
LINE
  5
304
100
AcDbEntity
  8
0
100
AcDbLine
 62
7
  6
CONTINUOUS
 10
105.7036824524
 20
146.3396749415
 11
104.5723163129
 21
145.6864842953
  0
LINE
  5
305
100
AcDbEntity
  8
0
100
AcDbLine
 62
7
  6
CONTINUOUS
 10
104.4101518821
 20
145.4774078179
 11
102.8545234402
 21
144.5792706794
  0
LINE
  5
306
100
AcDbEntity
  8
0
100
AcDbLine
 62
7
  6
CONTINUOUS
 10
107.9856744092
 20
147.5023153843
 11
111.8747455139
 21
149.7476582305
  0
LINE
  5
307
100
AcDbEntity
  8
0
100
AcDbLine
 62
7
  6
CONTINUOUS
 10
78.1996489748
 20
131.3864526691
 11
80.674515349
 21
132.4070647535
  0
LINE
  5
308
100
AcDbEntity
  8
0
100
AcDbLine
 62
7
  6
CONTINUOUS
 10
129.1112194611
 20
43.203963821
 11
128.4041097359
 21
43.6122045755
  0
LINE
  5
309
100
AcDbEntity
  8
0
100
AcDbLine
 62
7
  6
CONTINUOUS
 10
54.7943406241
 20
100.3181169009
 11
54.7943406241
 21
97.3436176588
  0
LINE
  5
30A
100
AcDbEntity
  8
0
100
AcDbLine
 62
7
  6
CONTINUOUS
 10
54.9004070829
 20
139.9390410627
 11
54.9004070829
 21
135.0400265599
  0
LINE
  5
30B
100
AcDbEntity
  8
0
100
AcDbLine
 62
7
  6
CONTINUOUS
 10
54.9004070829
 20
37.0597365044
 11
54.9004070829
 21
41.9587510072
  0
LINE
  5
30C
100
AcDbEntity
  8
0
100
AcDbLine
 62
7
  6
CONTINUOUS
 10
57.0571753533
 20
67.2614227972
 11
57.0571753533
 21
99.0116982161
  0
LINE
  5
30D
100
AcDbEntity
  8
0
100
AcDbLine
 62
7
  6
CONTINUOUS
 10
59.5669938903
 20
185.5805919263
 11
59.5669938903
 21
185.662242168
  0
LINE
  5
30E
100
AcDbEntity
  8
0
100
AcDbLine
 62
7
  6
CONTINUOUS
 10
84.391363501
 20
149.12181784
 11
83.3707390015
 21
147.669807248
  0
LINE
  5
30F
100
AcDbEntity
  8
0
100
AcDbLine
 62
7
  6
CONTINUOUS
 10
51.0428977753
 20
99.5094651995
 11
50.6461332549
 21
99.0363710327
  0
LINE
  5
310
100
AcDbEntity
  8
0
100
AcDbLine
 62
7
  6
CONTINUOUS
 10
104.0545511237
 20
142.6158292216
 11
100.5897423214
 21
140.6154328676
  0
LINE
  5
311
100
AcDbEntity
  8
0
100
AcDbLine
 62
7
  6
CONTINUOUS
 10
19.2974306554
 20
93.3774591122
 11
19.0852995042
 21
93.254985866
  0
LINE
  5
312
100
AcDbEntity
  8
0
100
AcDbLine
 62
7
  6
CONTINUOUS
 10
77.9067575677
 20
126.563270626
 11
77.9319599352
 21
126.5778211328
  0
LINE
  5
313
100
AcDbEntity
  8
0
100
AcDbLine
 62
7
  6
CONTINUOUS
 10
116.5784870279
 20
147.0320132374
 11
112.6894159232
 21
144.7866703911
  0
LINE
  5
314
100
AcDbEntity
  8
0
100
AcDbLine
 62
7
  6
CONTINUOUS
 10
101.0484821301
 20
137.463788385
 11
102.8162861669
 21
138.4844244291
  0
LINE
  5
315
100
AcDbEntity
  8
0
100
AcDbLine
 62
7
  6
CONTINUOUS
 10
91.6752828898
 20
131.2464259254
 11
94.7189928312
 21
133.0037021898
  0
LINE
  5
316
100
AcDbEntity
  8
0
100
AcDbLine
 62
7
  6
CONTINUOUS
 10
98.3523426273
 20
135.101405151
 11
100.0242190484
 21
136.0666576911
  0
LINE
  5
317
100
AcDbEntity
  8
0
100
AcDbLine
 62
7
  6
CONTINUOUS
 10
17.1053947176
 20
87.8660392307
 11
16.9639703288
 21
87.7843883091
  0
LINE
  5
318
100
AcDbEntity
  8
0
100
AcDbLine
 62
7
  6
CONTINUOUS
 10
87.7456126004
 20
128.3246572082
 11
85.6243010888
 21
127.0999247466
  0
LINE
  5
319
100
AcDbEntity
  8
INTFCLR_74
100
AcDbLine
 62
7
420
3604575
  6
CONTINUOUS
 10
104.3838393244
 20
137.0324486418
 11
103.0897311292
 21
136.2852993869
  0
LINE
  5
31A
100
AcDbEntity
  8
INTFCLR_74
100
AcDbLine
 62
7
420
3604575
  6
CONTINUOUS
 10
104.4202999755
 20
136.9384770316
 11
103.0190207455
 21
136.1294529202
  0
LINE
  5
31B
100
AcDbEntity
  8
0
100
AcDbLine
 62
7
  6
CONTINUOUS
 10
80.8684998224
 20
123.0475681311
 11
81.2715307156
 21
123.2802567368
  0
LINE
  5
31C
100
AcDbEntity
  8
0
100
AcDbLine
 62
7
  6
CONTINUOUS
 10
102.0691066296
 20
134.8332887949
 11
104.65732302
 21
136.3275873048
  0
LINE
  5
31D
100
AcDbEntity
  8
0
100
AcDbLine
 62
7
  6
CONTINUOUS
 10
99.1300008658
 20
132.6112303421
 11
89.7255198309
 21
127.1815830956
  0
LINE
  5
31E
100
AcDbEntity
  8
0
100
AcDbLine
 62
7
  6
CONTINUOUS
 10
116.9136656101
 20
142.4295041123
 11
125.6817531915
 21
147.4917316203
  0
LINE
  5
31F
100
AcDbEntity
  8
0
100
AcDbLine
 62
7
  6
CONTINUOUS
 10
117.0197320689
 20
142.3682679992
 11
101.3927372664
 21
133.3460721986
  0
LINE
  5
320
100
AcDbEntity
  8
0
100
AcDbLine
 62
7
  6
CONTINUOUS
 10
50.6461332549
 20
99.0363710327
 11
57.0571753533
 21
95.3350378868
  0
LINE
  5
321
100
AcDbEntity
  8
0
100
AcDbLine
 62
7
  6
CONTINUOUS
 10
51.0428977753
 20
99.5094651995
 11
57.0571753533
 21
96.037198974
  0
LINE
  5
322
100
AcDbEntity
  8
0
100
AcDbLine
 62
7
  6
CONTINUOUS
 10
61.723974715
 20
142.0881936554
 11
61.723974715
 21
143.3479169746
  0
LINE
  5
323
100
AcDbEntity
  8
0
100
AcDbLine
 62
7
  6
CONTINUOUS
 10
63.8804362241
 20
172.9659104596
 11
63.8804362241
 21
173.0475607014
  0
LINE
  5
324
100
AcDbEntity
  8
0
100
AcDbLine
 62
7
  6
CONTINUOUS
 10
64.4817026431
 20
130.654982454
 11
64.4817026431
 21
130.1080922756
  0
LINE
  5
325
100
AcDbEntity
  8
0
100
AcDbLine
 62
7
  6
CONTINUOUS
 10
66.9919833829
 20
34.9778341049
 11
66.9919833829
 21
30.0788196021
  0
LINE
  5
326
100
AcDbEntity
  8
0
100
AcDbLine
 62
7
  6
CONTINUOUS
 10
66.9919833829
 20
128.0591096576
 11
66.9919833829
 21
132.9581241604
  0
LINE
  5
327
100
AcDbEntity
  8
0
100
AcDbLine
 62
7
  6
CONTINUOUS
 10
41.988016611
 20
73.1636775421
 11
37.2216254601
 21
66.842538394
  0
LINE
  5
328
100
AcDbEntity
  8
0
100
AcDbLine
 62
7
  6
CONTINUOUS
 10
86.4728150952
 20
129.0594905664
 11
84.7050584461
 21
127.6306377275
  0
LINE
  5
329
100
AcDbEntity
  8
0
100
AcDbLine
 62
7
  6
CONTINUOUS
 10
82.0128621567
 20
121.2174725923
 11
81.1695003997
 21
120.7305603614
  0
LINE
  5
32A
100
AcDbEntity
  8
0
100
AcDbLine
 62
7
  6
CONTINUOUS
 10
86.6849892283
 20
123.2216239813
 11
129.1112194611
 21
147.7162732136
  0
LINE
  5
32B
100
AcDbEntity
  8
0
100
AcDbLine
 62
7
  6
CONTINUOUS
 10
129.1112194611
 20
146.0832683793
 11
86.6849892283
 21
121.588619147
  0
LINE
  5
32C
100
AcDbEntity
  8
0
100
AcDbLine
 62
7
  6
CONTINUOUS
 10
128.4041097359
 20
144.6952038162
 11
85.9778795031
 21
120.2005545839
  0
LINE
  5
32D
100
AcDbEntity
  8
0
100
AcDbLine
 62
7
  6
CONTINUOUS
 10
87.4628099259
 20
119.3432489994
 11
129.8890401588
 21
143.8378982317
  0
LINE
  5
32E
100
AcDbEntity
  8
0
100
AcDbLine
 62
7
  6
CONTINUOUS
 10
87.4628099259
 20
118.036845132
 11
129.8890401588
 21
142.5314943643
  0
LINE
  5
32F
100
AcDbEntity
  8
0
100
AcDbLine
 62
7
  6
CONTINUOUS
 10
57.0571753533
 20
99.0116982161
 11
44.7534661357
 21
106.1150873447
  0
LINE
  5
330
100
AcDbEntity
  8
0
100
AcDbLine
 62
7
  6
CONTINUOUS
 10
27.217144952
 20
117.3830011377
 11
74.5934965369
 21
90.0308705849
  0
LINE
  5
331
100
AcDbEntity
  8
0
100
AcDbLine
 62
7
  6
CONTINUOUS
 10
110.655808721
 20
72.8840090603
 11
111.5043403912
 21
72.3941201549
  0
LINE
  5
332
100
AcDbEntity
  8
0
100
AcDbLine
 62
7
  6
CONTINUOUS
 10
68.3705829788
 20
165.4944926017
 11
68.3705829788
 21
170.4552319102
  0
LINE
  5
333
100
AcDbEntity
  8
0
100
AcDbLine
 62
7
  6
CONTINUOUS
 10
68.4766494375
 20
170.3123455553
 11
68.4766494375
 21
170.393995797
  0
LINE
  5
334
100
AcDbEntity
  8
0
100
AcDbLine
 62
7
  6
CONTINUOUS
 10
68.7950719665
 20
137.7958304754
 11
68.7950719665
 21
139.2655094294
  0
LINE
  5
335
100
AcDbEntity
  8
0
100
AcDbLine
 62
7
  6
CONTINUOUS
 10
68.8304533597
 20
36.039268905
 11
68.8304533597
 21
31.1402544022
  0
LINE
  5
336
100
AcDbEntity
  8
0
100
AcDbLine
 62
7
  6
CONTINUOUS
 10
68.8304533597
 20
129.1205444577
 11
68.8304533597
 21
131.8967070369
  0
LINE
  5
337
100
AcDbEntity
  8
0
100
AcDbLine
 62
7
  6
CONTINUOUS
 10
69.0072460996
 20
28.9153334517
 11
69.0072460996
 21
27.2823286175
  0
LINE
  5
338
100
AcDbEntity
  8
0
100
AcDbLine
 62
7
  6
CONTINUOUS
 10
69.0072460996
 20
131.79463801
 11
69.0072460996
 21
133.4276428443
  0
LINE
  5
339
100
AcDbEntity
  8
0
100
AcDbLine
 62
7
  6
CONTINUOUS
 10
69.1485485196
 20
137.9999090403
 11
69.1485485196
 21
149.9206383337
  0
LINE
  5
33A
100
AcDbEntity
  8
0
100
AcDbLine
 62
7
  6
CONTINUOUS
 10
70.1386063512
 20
32.181314324
 11
70.1386063512
 21
30.3850090063
  0
LINE
  5
33B
100
AcDbEntity
  8
0
100
AcDbLine
 62
7
  6
CONTINUOUS
 10
70.1386063512
 20
131.4680082469
 11
70.1386063512
 21
132.4478252568
  0
LINE
  5
33C
100
AcDbEntity
  8
0
100
AcDbLine
 62
7
  6
CONTINUOUS
 10
70.5628874949
 20
28.0172037918
 11
70.5628874949
 21
26.3841989575
  0
LINE
  5
33D
100
AcDbEntity
  8
0
100
AcDbLine
 62
7
  6
CONTINUOUS
 10
70.5628874949
 20
130.8965083501
 11
70.5628874949
 21
132.5295131843
  0
LINE
  5
33E
100
AcDbEntity
  8
0
100
AcDbLine
 62
7
  6
CONTINUOUS
 10
72.5781502116
 20
129.7330221997
 11
72.5781502116
 21
124.8340076969
  0
LINE
  5
33F
100
AcDbEntity
  8
0
100
AcDbLine
 62
7
  6
CONTINUOUS
 10
72.5781502116
 20
26.8537176414
 11
72.5781502116
 21
31.7527321442
  0
LINE
  5
340
100
AcDbEntity
  8
0
100
AcDbLine
 62
7
  6
CONTINUOUS
 10
48.125529953
 20
79.4337355629
 11
41.988016611
 21
73.1636775421
  0
LINE
  5
341
100
AcDbEntity
  8
0
100
AcDbLine
 62
7
  6
CONTINUOUS
 10
51.2164208721
 20
82.2851810406
 11
48.317030023
 21
79.3231754472
  0
LINE
  5
342
100
AcDbEntity
  8
0
100
AcDbLine
 62
7
  6
CONTINUOUS
 10
129.8890401588
 20
138.9388837289
 11
87.4628099259
 21
114.4442344966
  0
LINE
  5
343
100
AcDbEntity
  8
0
100
AcDbLine
 62
7
  6
CONTINUOUS
 10
37.2580194405
 20
123.1800681227
 11
84.6343710253
 21
95.8279375699
  0
LINE
  5
344
100
AcDbEntity
  8
0
100
AcDbLine
 62
7
  6
CONTINUOUS
 10
36.0205774215
 20
130.9980604721
 11
36.7580173588
 21
130.4032057702
  0
LINE
  5
345
100
AcDbEntity
  8
0
100
AcDbLine
 62
7
  6
CONTINUOUS
 10
37.6772523472
 20
130.9339231702
 11
36.9398124099
 21
131.5287778722
  0
LINE
  5
346
100
AcDbEntity
  8
0
100
AcDbLine
 62
7
  6
CONTINUOUS
 10
38.4954614595
 20
130.3857202485
 11
37.7580215222
 21
130.9805749505
  0
LINE
  5
347
100
AcDbEntity
  8
0
100
AcDbLine
 62
7
  6
CONTINUOUS
 10
48.0152527441
 20
168.081844974
 11
49.0358772436
 21
165.4513453839
  0
LINE
  5
348
100
AcDbEntity
  8
0
100
AcDbLine
 62
7
  6
CONTINUOUS
 10
75.3708803499
 20
176.1298079722
 11
75.3708803499
 21
176.2930774151
  0
LINE
  5
349
100
AcDbEntity
  8
0
100
AcDbLine
 62
7
  6
CONTINUOUS
 10
76.0779900751
 20
176.7013249683
 11
76.0779900751
 21
178.3343298026
  0
LINE
  5
34A
100
AcDbEntity
  8
0
100
AcDbLine
 62
7
  6
CONTINUOUS
 10
77.244737019
 20
175.3745730633
 11
77.244737019
 21
175.456223305
  0
LINE
  5
34B
100
AcDbEntity
  8
0
100
AcDbLine
 62
7
  6
CONTINUOUS
 10
77.4219354375
 20
85.1318978983
 11
77.4219354375
 21
54.9213084645
  0
LINE
  5
34C
100
AcDbEntity
  8
0
100
AcDbLine
 62
7
  6
CONTINUOUS
 10
79.4017178437
 20
131.8821747924
 11
79.4017178437
 21
133.1418981116
  0
LINE
  5
34D
100
AcDbEntity
  8
0
100
AcDbLine
 62
7
  6
CONTINUOUS
 10
102.0691066297
 20
138.915798977
 11
101.0484821301
 21
137.463788385
  0
LINE
  5
34E
100
AcDbEntity
  8
0
100
AcDbLine
 62
7
  6
CONTINUOUS
 10
46.414051887
 20
61.5354085853
 11
51.1804430379
 21
67.8565477333
  0
LINE
  5
34F
100
AcDbEntity
  8
0
100
AcDbLine
 62
7
  6
CONTINUOUS
 10
83.7374718618
 20
106.0550946076
 11
83.234377293
 21
105.7646345567
  0
LINE
  5
350
100
AcDbEntity
  8
0
100
AcDbLine
 62
7
  6
CONTINUOUS
 10
84.8718216243
 20
104.6315499716
 11
84.1343689436
 21
104.2057840093
  0
LINE
  5
351
100
AcDbEntity
  8
0
100
AcDbLine
 62
7
  6
CONTINUOUS
 10
84.3161639947
 20
104.1766473193
 11
83.3969290063
 21
103.6459299193
  0
LINE
  5
352
100
AcDbEntity
  8
0
100
AcDbLine
 62
7
  6
CONTINUOUS
 10
35.5609543338
 20
75.2513458949
 11
35.3488231826
 21
75.1288726487
  0
LINE
  5
353
100
AcDbEntity
  8
0
100
AcDbLine
 62
7
  6
CONTINUOUS
 10
35.5609561001
 20
75.0880492532
 11
35.4902451276
 21
75.0472244978
  0
LINE
  5
354
100
AcDbEntity
  8
INTFCLR_74
100
AcDbLine
 62
7
420
3604575
  6
CONTINUOUS
 10
85.1343774271
 20
103.6284369149
 11
84.6343710253
 21
103.3397598075
  0
LINE
  5
355
100
AcDbEntity
  8
0
100
AcDbLine
 62
7
  6
CONTINUOUS
 10
85.053603932
 20
103.5817926173
 11
84.1343689436
 21
103.0510752173
  0
LINE
  5
356
100
AcDbEntity
  8
0
100
AcDbLine
 62
7
  6
CONTINUOUS
 10
85.2000511511
 20
102.6457183548
 11
84.2808161628
 21
102.1150009547
  0
LINE
  5
357
100
AcDbEntity
  8
0
100
AcDbLine
 62
7
  6
CONTINUOUS
 10
108.3223731237
 20
115.9545558548
 11
111.5043403912
 21
117.7916545472
  0
LINE
  5
358
100
AcDbEntity
  8
0
100
AcDbLine
 62
7
  6
CONTINUOUS
 10
85.8718130443
 20
102.8994942104
 11
85.134373107
 21
102.4737356056
  0
LINE
  5
359
100
AcDbEntity
  8
0
100
AcDbLine
 62
7
  6
CONTINUOUS
 10
16.7518374112
 20
62.2686846376
 11
18.236780664
 21
63.1260119068
  0
LINE
  5
35A
100
AcDbEntity
  8
0
100
AcDbLine
 62
7
  6
CONTINUOUS
 10
110.655808721
 20
115.5054352344
 11
108.3223731237
 21
114.1582336059
  0
LINE
  5
35B
100
AcDbEntity
  8
0
100
AcDbLine
 62
7
  6
CONTINUOUS
 10
86.6905805076
 20
101.2937491366
 11
86.0343647577
 21
100.9148850582
  0
LINE
  5
35C
100
AcDbEntity
  8
0
100
AcDbLine
 62
7
  6
CONTINUOUS
 10
85.134373107
 20
102.4737356056
 11
85.8718130443
 21
102.2170872785
  0
LINE
  5
35D
100
AcDbEntity
  8
0
100
AcDbLine
 62
7
  6
CONTINUOUS
 10
84.1343689436
 20
104.2057840093
 11
83.3969290063
 21
104.4624323364
  0
LINE
  5
35E
100
AcDbEntity
  8
0
100
AcDbLine
 62
7
  6
CONTINUOUS
 10
36.9044645779
 20
129.4671315076
 11
37.6115743031
 21
129.0588907531
  0
LINE
  5
35F
100
AcDbEntity
  8
0
100
AcDbLine
 62
7
  6
CONTINUOUS
 10
84.2808161628
 20
102.1150009547
 11
84.9879258879
 21
101.7067602002
  0
LINE
  5
360
100
AcDbEntity
  8
0
100
AcDbLine
 62
7
  6
CONTINUOUS
 10
37.8236995663
 20
129.9978489076
 11
37.9398038299
 21
129.9308175962
  0
LINE
  5
361
100
AcDbEntity
  8
0
100
AcDbLine
 62
7
  6
CONTINUOUS
 10
85.2000511511
 20
102.6457183548
 11
85.3161554147
 21
102.5786870434
  0
LINE
  5
362
100
AcDbEntity
  8
0
100
AcDbLine
 62
7
  6
CONTINUOUS
 10
19.6509872843
 20
141.102035873
 11
31.6011416393
 21
134.2027671216
  0
LINE
  5
363
100
AcDbEntity
  8
0
100
AcDbLine
 62
7
  6
CONTINUOUS
 10
19.8631184355
 20
141.2245091192
 11
31.8132727905
 21
134.3252403678
  0
LINE
  5
364
100
AcDbEntity
  8
0
100
AcDbLine
 62
7
  6
CONTINUOUS
 10
83.3969290063
 20
103.6459299193
 11
84.1343689436
 21
103.0510752173
  0
LINE
  5
365
100
AcDbEntity
  8
0
100
AcDbLine
 62
7
  6
CONTINUOUS
 10
51.9717401202
 20
166.0496395948
 11
51.0771262427
 21
168.3553665679
  0
LINE
  5
366
100
AcDbEntity
  8
0
100
AcDbLine
 62
7
  6
CONTINUOUS
 10
84.1343689436
 20
50.8765707628
 11
84.2808161628
 21
49.9404965002
  0
LINE
  5
367
100
AcDbEntity
  8
0
100
AcDbLine
 62
7
  6
CONTINUOUS
 10
85.2000511511
 20
50.4712139002
 11
85.053603932
 21
51.4072881628
  0
LINE
  5
368
100
AcDbEntity
  8
0
100
AcDbLine
 62
7
  6
CONTINUOUS
 10
85.134373107
 20
51.453939943
 11
84.9879258879
 21
52.3900142056
  0
LINE
  5
369
100
AcDbEntity
  8
0
100
AcDbLine
 62
7
  6
CONTINUOUS
 10
81.5581793527
 20
162.7598915966
 11
81.5581793527
 21
162.8415418383
  0
LINE
  5
36A
100
AcDbEntity
  8
0
100
AcDbLine
 62
7
  6
CONTINUOUS
 10
82.1594457718
 20
120.448963591
 11
82.1594457718
 21
119.9020734126
  0
LINE
  5
36B
100
AcDbEntity
  8
0
100
AcDbLine
 62
7
  6
CONTINUOUS
 10
83.3969290063
 20
104.4624323364
 11
83.3969290063
 21
103.6459299193
  0
LINE
  5
36C
100
AcDbEntity
  8
0
100
AcDbLine
 62
7
  6
CONTINUOUS
 10
83.3969290063
 20
52.2879278819
 11
83.3969290063
 21
51.4714254647
  0
LINE
  5
36D
100
AcDbEntity
  8
0
100
AcDbLine
 62
7
  6
CONTINUOUS
 10
84.3161639947
 20
104.3107428045
 11
84.3161639947
 21
104.1766473193
  0
LINE
  5
36E
100
AcDbEntity
  8
0
100
AcDbLine
 62
7
  6
CONTINUOUS
 10
84.3161639947
 20
52.1362383499
 11
84.3161639947
 21
52.0021428648
  0
LINE
  5
36F
100
AcDbEntity
  8
0
100
AcDbLine
 62
7
  6
CONTINUOUS
 10
85.8718130443
 20
50.0425828239
 11
85.8718130443
 21
50.859085241
  0
LINE
  5
370
100
AcDbEntity
  8
0
100
AcDbLine
 62
7
  6
CONTINUOUS
 10
85.8718130443
 20
102.2170872785
 11
85.8718130443
 21
103.0335896956
  0
LINE
  5
371
100
AcDbEntity
  8
0
100
AcDbLine
 62
7
  6
CONTINUOUS
 10
85.9778795031
 20
19.1175553432
 11
85.9778795031
 21
21.0771611444
  0
LINE
  5
372
100
AcDbEntity
  8
0
100
AcDbLine
 62
7
  6
CONTINUOUS
 10
85.9778795031
 20
120.2005545839
 11
85.9778795031
 21
121.9968599015
  0
LINE
  5
373
100
AcDbEntity
  8
0
100
AcDbLine
 62
7
  6
CONTINUOUS
 10
86.0483261074
 20
155.2884737387
 11
86.0483261074
 21
160.2492130471
  0
LINE
  5
374
100
AcDbEntity
  8
0
100
AcDbLine
 62
7
  6
CONTINUOUS
 10
86.1543925662
 20
160.1063266923
 11
86.1543925662
 21
160.187976934
  0
LINE
  5
375
100
AcDbEntity
  8
0
100
AcDbLine
 62
7
  6
CONTINUOUS
 10
86.3314343657
 20
29.1197151801
 11
86.3314343657
 21
47.7343051929
  0
LINE
  5
376
100
AcDbEntity
  8
0
100
AcDbLine
 62
7
  6
CONTINUOUS
 10
86.4021453382
 20
45.6538901724
 11
86.4021453382
 21
30.7527210598
  0
LINE
  5
377
100
AcDbEntity
  8
0
100
AcDbLine
 62
7
  6
CONTINUOUS
 10
86.4021453382
 20
29.5279674341
 11
86.4021453382
 21
29.0788911047
  0
LINE
  5
378
100
AcDbEntity
  8
0
100
AcDbLine
 62
7
  6
CONTINUOUS
 10
86.4728150952
 20
127.5898116124
 11
86.4728150952
 21
129.0594905664
  0
LINE
  5
379
100
AcDbEntity
  8
0
100
AcDbLine
 62
7
  6
CONTINUOUS
 10
86.5435655169
 20
29.6096159249
 11
86.5435655169
 21
30.6710739287
  0
LINE
  5
37A
100
AcDbEntity
  8
0
100
AcDbLine
 62
7
  6
CONTINUOUS
 10
86.5435655169
 20
47.7767995675
 11
86.5435672832
 21
45.5722420215
  0
LINE
  5
37B
100
AcDbEntity
  8
0
100
AcDbLine
 62
7
  6
CONTINUOUS
 10
86.6849892283
 20
123.2216239813
 11
86.6849892283
 21
121.588619147
  0
LINE
  5
37C
100
AcDbEntity
  8
0
100
AcDbLine
 62
7
  6
CONTINUOUS
 10
86.6849892283
 20
18.7093145887
 11
86.6849892283
 21
17.0763097545
  0
LINE
  5
37D
100
AcDbEntity
  8
0
100
AcDbLine
 62
7
  6
CONTINUOUS
 10
86.8262916482
 20
127.7938901773
 11
86.8262916482
 21
139.7146194707
  0
LINE
  5
37E
100
AcDbEntity
  8
0
100
AcDbLine
 62
7
  6
CONTINUOUS
 10
86.9324776321
 20
30.4465404939
 11
86.9324776321
 21
29.2217868682
  0
LINE
  5
37F
100
AcDbEntity
  8
0
100
AcDbLine
 62
7
  6
CONTINUOUS
 10
87.4628099259
 20
20.2198555599
 11
87.4628099259
 21
21.3648155907
  0
LINE
  5
380
100
AcDbEntity
  8
0
100
AcDbLine
 62
7
  6
CONTINUOUS
 10
87.4628099259
 20
24.9537129324
 11
87.4628099259
 21
47.0827850834
  0
LINE
  5
381
100
AcDbEntity
  8
0
100
AcDbLine
 62
7
  6
CONTINUOUS
 10
87.4628099259
 20
47.2460855669
 11
87.4628099259
 21
60.7183754495
  0
LINE
  5
382
100
AcDbEntity
  8
0
100
AcDbLine
 62
7
  6
CONTINUOUS
 10
87.4628099259
 20
90.9289648833
 11
87.4628099259
 21
114.4442344966
  0
LINE
  5
383
100
AcDbEntity
  8
0
100
AcDbLine
 62
7
  6
CONTINUOUS
 10
87.4628099259
 20
118.036845132
 11
87.4628099259
 21
119.3432489994
  0
LINE
  5
384
100
AcDbEntity
  8
0
100
AcDbLine
 62
7
  6
CONTINUOUS
 10
87.6749410771
 20
47.368558813
 11
87.6749410771
 21
47.2052583296
  0
LINE
  5
385
100
AcDbEntity
  8
0
100
AcDbLine
 62
7
  6
CONTINUOUS
 10
84.2808161628
 20
104.9727594147
 11
84.1343689436
 21
104.2057840093
  0
LINE
  5
386
100
AcDbEntity
  8
0
100
AcDbLine
 62
7
  6
CONTINUOUS
 10
84.9879258879
 20
101.7067602002
 11
85.134373107
 21
102.4737356056
  0
LINE
  5
387
100
AcDbEntity
  8
0
100
AcDbLine
 62
7
  6
CONTINUOUS
 10
51.1804430379
 20
67.8565477333
 11
57.0571753533
 21
73.8601929454
  0
LINE
  5
388
100
AcDbEntity
  8
0
100
AcDbLine
 62
7
  6
CONTINUOUS
 10
57.0571753533
 20
69.9233899555
 11
47.3309656441
 21
59.9871347003
  0
LINE
  5
389
100
AcDbEntity
  8
0
100
AcDbLine
 62
7
  6
CONTINUOUS
 10
111.5043403912
 20
115.015546329
 11
108.3223731237
 21
113.1784476366
  0
LINE
  5
38A
100
AcDbEntity
  8
0
100
AcDbLine
 62
7
  6
CONTINUOUS
 10
18.236767834
 20
59.0435079341
 11
17.5296581089
 21
58.6352603808
  0
LINE
  5
38B
100
AcDbEntity
  8
0
100
AcDbLine
 62
7
  6
CONTINUOUS
 10
74.5934965369
 20
90.0308705849
 11
84.6343710253
 21
95.8279375699
  0
LINE
  5
38C
100
AcDbEntity
  8
0
100
AcDbLine
 62
7
  6
CONTINUOUS
 10
37.7580215222
 20
129.8258661584
 11
38.4954614595
 21
129.5692178313
  0
LINE
  5
38D
100
AcDbEntity
  8
0
100
AcDbLine
 62
7
  6
CONTINUOUS
 10
84.9879258879
 20
104.5645186602
 11
84.2808161628
 21
104.9727594147
  0
LINE
  5
38E
100
AcDbEntity
  8
0
100
AcDbLine
 62
7
  6
CONTINUOUS
 10
37.6115743031
 20
131.916649213
 11
36.9044645779
 21
132.3248899676
  0
LINE
  5
38F
100
AcDbEntity
  8
0
100
AcDbLine
 62
7
  6
CONTINUOUS
 10
19.0852995042
 20
143.878135728
 11
32.1668294194
 21
136.3256817694
  0
LINE
  5
390
100
AcDbEntity
  8
0
100
AcDbLine
 62
7
  6
CONTINUOUS
 10
85.053603932
 20
103.5817926173
 11
84.3161639947
 21
104.1766473193
  0
LINE
  5
391
100
AcDbEntity
  8
0
100
AcDbLine
 62
7
  6
CONTINUOUS
 10
85.8718130443
 20
103.0335896956
 11
85.134373107
 21
103.6284443976
  0
LINE
  5
392
100
AcDbEntity
  8
0
100
AcDbLine
 62
7
  6
CONTINUOUS
 10
65.6929958728
 20
157.875826111
 11
66.7136203723
 21
155.2453265209
  0
LINE
  5
393
100
AcDbEntity
  8
0
100
AcDbLine
 62
7
  6
CONTINUOUS
 10
84.1343689436
 20
103.0510752173
 11
84.2808161628
 21
102.1150009547
  0
LINE
  5
394
100
AcDbEntity
  8
0
100
AcDbLine
 62
7
  6
CONTINUOUS
 10
85.2000511511
 20
102.6457183548
 11
85.053603932
 21
103.5817926173
  0
LINE
  5
395
100
AcDbEntity
  8
0
100
AcDbLine
 62
7
  6
CONTINUOUS
 10
85.134373107
 20
103.6284443976
 11
84.9879258879
 21
104.5645186602
  0
LINE
  5
396
100
AcDbEntity
  8
0
100
AcDbLine
 62
7
  6
CONTINUOUS
 10
93.0486234786
 20
165.9237891092
 11
93.0486234786
 21
166.0870585521
  0
LINE
  5
397
100
AcDbEntity
  8
0
100
AcDbLine
 62
7
  6
CONTINUOUS
 10
93.7557332037
 20
166.4953061053
 11
93.7557332037
 21
168.1283109396
  0
LINE
  5
398
100
AcDbEntity
  8
0
100
AcDbLine
 62
7
  6
CONTINUOUS
 10
84.2808161628
 20
52.7982549601
 11
84.1343689436
 21
52.0312795548
  0
LINE
  5
399
100
AcDbEntity
  8
0
100
AcDbLine
 62
7
  6
CONTINUOUS
 10
84.9879258879
 20
49.5322557457
 11
85.134373107
 21
50.299231151
  0
LINE
  5
39A
100
AcDbEntity
  8
0
100
AcDbLine
 62
7
  6
CONTINUOUS
 10
87.4628099259
 20
90.9289648833
 11
77.4219354375
 21
85.1318978983
  0
LINE
  5
39B
100
AcDbEntity
  8
0
100
AcDbLine
 62
7
  6
CONTINUOUS
 10
35.5609561001
 20
60.1868801406
 11
35.4902451276
 21
60.1460553852
  0
LINE
  5
39C
100
AcDbEntity
  8
0
100
AcDbLine
 62
7
  6
CONTINUOUS
 10
35.0306220399
 20
59.4316037225
 11
34.8184908887
 21
59.3091304763
  0
LINE
  5
39D
100
AcDbEntity
  8
0
100
AcDbLine
 62
7
  6
CONTINUOUS
 10
35.5609561001
 20
58.9621265149
 11
35.4902451276
 21
58.9213017595
  0
LINE
  5
39E
100
AcDbEntity
  8
0
100
AcDbLine
 62
7
  6
CONTINUOUS
 10
35.5609561001
 20
58.5130501854
 11
35.4902451276
 21
58.4722254301
  0
LINE
  5
39F
100
AcDbEntity
  8
0
100
AcDbLine
 62
7
  6
CONTINUOUS
 10
33.4749671023
 20
56.451306631
 11
31.6364971256
 21
55.3898718309
  0
LINE
  5
3A0
100
AcDbEntity
  8
0
100
AcDbLine
 62
7
  6
CONTINUOUS
 10
36.7580173588
 20
131.5579145622
 11
36.0205774215
 21
131.8145628893
  0
LINE
  5
3A1
100
AcDbEntity
  8
0
100
AcDbLine
 62
7
  6
CONTINUOUS
 10
69.6494832488
 20
155.8436207318
 11
68.7548693714
 21
158.1493477049
  0
LINE
  5
3A2
100
AcDbEntity
  8
0
100
AcDbLine
 62
7
  6
CONTINUOUS
 10
94.9224801477
 20
165.1685542003
 11
94.9224801477
 21
165.250204442
  0
LINE
  5
3A3
100
AcDbEntity
  8
0
100
AcDbLine
 62
7
  6
CONTINUOUS
 10
99.2359224814
 20
152.5538727336
 11
99.2359224814
 21
152.6355229753
  0
LINE
  5
3A4
100
AcDbEntity
  8
0
100
AcDbLine
 62
7
  6
CONTINUOUS
 10
33.4749671023
 20
51.5522921282
 11
31.6364971256
 21
50.4908573281
  0
LINE
  5
3A5
100
AcDbEntity
  8
0
100
AcDbLine
 62
7
  6
CONTINUOUS
 10
36.3387883715
 20
51.6952068699
 11
34.7831200938
 21
50.7970467323
  0
LINE
  5
3A6
100
AcDbEntity
  8
0
100
AcDbLine
 62
7
  6
CONTINUOUS
 10
37.0458980966
 20
51.2869661154
 11
33.6517598422
 21
49.3273711777
  0
LINE
  5
3A7
100
AcDbEntity
  8
0
100
AcDbLine
 62
7
  6
CONTINUOUS
 10
37.2226639542
 20
49.7560164874
 11
33.6517598422
 21
47.6943663435
  0
LINE
  5
3A8
100
AcDbEntity
  8
0
100
AcDbLine
 62
7
  6
CONTINUOUS
 10
37.2226639542
 20
49.5927470446
 11
35.2074012376
 21
48.4292415178
  0
LINE
  5
3A9
100
AcDbEntity
  8
0
100
AcDbLine
 62
7
  6
CONTINUOUS
 10
18.236767834
 20
159.3100188669
 11
16.7518374112
 21
160.1673244514
  0
LINE
  5
3AA
100
AcDbEntity
  8
0
100
AcDbLine
 62
7
  6
CONTINUOUS
 10
85.9778795031
 20
120.2005545839
 11
87.4628099259
 21
119.3432489994
  0
LINE
  5
3AB
100
AcDbEntity
  8
0
100
AcDbLine
 62
7
  6
CONTINUOUS
 10
72.5781502116
 20
129.7330221997
 11
70.5628874949
 21
130.8965083501
  0
LINE
  5
3AC
100
AcDbEntity
  8
0
100
AcDbLine
 62
7
  6
CONTINUOUS
 10
69.0072460996
 20
131.79463801
 11
66.9919833829
 21
132.9581241604
  0
LINE
  5
3AD
100
AcDbEntity
  8
0
100
AcDbLine
 62
7
  6
CONTINUOUS
 10
17.5296581089
 20
161.5145649391
 11
18.236767834
 21
161.1063241846
  0
LINE
  5
3AE
100
AcDbEntity
  8
0
100
AcDbLine
 62
7
  6
CONTINUOUS
 10
54.9004070829
 20
139.9390410627
 11
52.8851443662
 21
141.1025272131
  0
LINE
  5
3AF
100
AcDbEntity
  8
0
100
AcDbLine
 62
7
  6
CONTINUOUS
 10
51.3295029709
 20
142.000656873
 11
49.3142402542
 21
143.1641430234
  0
LINE
  5
3B0
100
AcDbEntity
  8
0
100
AcDbLine
 62
7
  6
CONTINUOUS
 10
37.2226639542
 20
150.1450599257
 11
35.2074012376
 21
151.3085460761
  0
LINE
  5
3B1
100
AcDbEntity
  8
0
100
AcDbLine
 62
7
  6
CONTINUOUS
 10
33.6517598422
 20
152.206675736
 11
31.6364971256
 21
153.3701618864
  0
LINE
  5
3B2
100
AcDbEntity
  8
0
100
AcDbLine
 62
7
  6
CONTINUOUS
 10
85.9778795031
 20
121.9968599015
 11
86.6849892283
 21
121.588619147
  0
LINE
  5
3B3
100
AcDbEntity
  8
0
100
AcDbLine
 62
7
  6
CONTINUOUS
 10
70.5628874949
 20
131.223054956
 11
70.1386063512
 21
131.4680082469
  0
LINE
  5
3B4
100
AcDbEntity
  8
0
100
AcDbLine
 62
7
  6
CONTINUOUS
 10
52.8851443662
 20
141.429073819
 11
52.4608632225
 21
141.6740271099
  0
LINE
  5
3B5
100
AcDbEntity
  8
0
100
AcDbLine
 62
7
  6
CONTINUOUS
 10
35.2074012376
 20
151.635092682
 11
34.7831200938
 21
151.8800459729
  0
LINE
  5
3B6
100
AcDbEntity
  8
0
100
AcDbLine
 62
7
  6
CONTINUOUS
 10
86.6849892283
 20
123.2216239813
 11
70.5628874949
 21
132.5295131843
  0
LINE
  5
3B7
100
AcDbEntity
  8
0
100
AcDbLine
 62
7
  6
CONTINUOUS
 10
69.0072460996
 20
133.4276428443
 11
52.8851443662
 21
142.7355320474
  0
LINE
  5
3B8
100
AcDbEntity
  8
0
100
AcDbLine
 62
7
  6
CONTINUOUS
 10
51.3295029709
 20
143.6336617073
 11
35.2074012376
 21
152.9415509104
  0
LINE
  5
3B9
100
AcDbEntity
  8
0
100
AcDbLine
 62
7
  6
CONTINUOUS
 10
33.6517598422
 20
153.8396805703
 11
17.5296581089
 21
163.1475697734
  0
LINE
  5
3BA
100
AcDbEntity
  8
0
100
AcDbLine
 62
7
  6
CONTINUOUS
 10
85.6243010888
 20
127.0999247466
 11
84.7050584461
 21
127.6306377275
  0
LINE
  5
3BB
100
AcDbEntity
  8
0
100
AcDbLine
 62
7
  6
CONTINUOUS
 10
78.1996489748
 20
131.3864526691
 11
77.2804063321
 21
131.91716565
  0
LINE
  5
3BC
100
AcDbEntity
  8
0
100
AcDbLine
 62
7
  6
CONTINUOUS
 10
67.9465579601
 20
137.3059436096
 11
67.0273153174
 21
137.8366565905
  0
LINE
  5
3BD
100
AcDbEntity
  8
0
100
AcDbLine
 62
7
  6
CONTINUOUS
 10
60.5219058461
 20
141.5924715321
 11
59.6026632034
 21
142.123184513
  0
LINE
  5
3BE
100
AcDbEntity
  8
0
100
AcDbLine
 62
7
  6
CONTINUOUS
 10
50.2688148315
 20
147.5119624726
 11
49.3495721888
 21
148.0426754535
  0
LINE
  5
3BF
100
AcDbEntity
  8
0
100
AcDbLine
 62
7
  6
CONTINUOUS
 10
42.8441627174
 20
151.7984903951
 11
41.9249200747
 21
152.329203376
  0
LINE
  5
3C0
100
AcDbEntity
  8
0
100
AcDbLine
 62
7
  6
CONTINUOUS
 10
32.5910717028
 20
157.7179813357
 11
31.6718290601
 21
158.2486943165
  0
LINE
  5
3C1
100
AcDbEntity
  8
0
100
AcDbLine
 62
7
  6
CONTINUOUS
 10
25.1664195887
 20
162.0045092581
 11
24.247176946
 21
162.535222239
  0
LINE
  5
3C2
100
AcDbEntity
  8
0
100
AcDbLine
 62
7
  6
CONTINUOUS
 10
83.3707390015
 20
147.669807248
 11
84.391363501
 21
145.0393076579
  0
LINE
  5
3C3
100
AcDbEntity
  8
0
100
AcDbLine
 62
7
  6
CONTINUOUS
 10
103.7260692361
 20
145.0824548757
 11
103.7260692361
 21
150.0431941841
  0
LINE
  5
3C4
100
AcDbEntity
  8
0
100
AcDbLine
 62
7
  6
CONTINUOUS
 10
103.8321356949
 20
149.9003078292
 11
103.8321356949
 21
149.981958071
  0
LINE
  5
3C5
100
AcDbEntity
  8
0
100
AcDbLine
 62
7
  6
CONTINUOUS
 10
108.3223731237
 20
70.5570214624
 11
108.3223731237
 21
73.3331296807
  0
LINE
  5
3C6
100
AcDbEntity
  8
0
100
AcDbLine
 62
7
  6
CONTINUOUS
 10
108.3223731237
 20
113.1784476366
 11
108.3223731237
 21
115.9545558548
  0
LINE
  5
3C7
100
AcDbEntity
  8
0
100
AcDbLine
 62
7
  6
CONTINUOUS
 10
89.7255198309
 20
127.1815830956
 11
87.7456126004
 21
128.3246572082
  0
LINE
  5
3C8
100
AcDbEntity
  8
0
100
AcDbLine
 62
7
  6
CONTINUOUS
 10
86.4728150952
 20
129.0594905664
 11
80.674515349
 21
132.4070647535
  0
LINE
  5
3C9
100
AcDbEntity
  8
0
100
AcDbLine
 62
7
  6
CONTINUOUS
 10
79.4017178437
 20
133.1418981116
 11
77.4218106133
 21
134.2849722242
  0
LINE
  5
3CA
100
AcDbEntity
  8
0
100
AcDbLine
 62
7
  6
CONTINUOUS
 10
72.0477767022
 20
137.3876019586
 11
70.0678694718
 21
138.5306760713
  0
LINE
  5
3CB
100
AcDbEntity
  8
0
100
AcDbLine
 62
7
  6
CONTINUOUS
 10
68.7950719665
 20
139.2655094294
 11
62.9967722203
 21
142.6130836165
  0
LINE
  5
3CC
100
AcDbEntity
  8
0
100
AcDbLine
 62
7
  6
CONTINUOUS
 10
61.723974715
 20
143.3479169746
 11
59.7440674846
 21
144.4909910873
  0
LINE
  5
3CD
100
AcDbEntity
  8
0
100
AcDbLine
 62
7
  6
CONTINUOUS
 10
54.3700335735
 20
147.5936208216
 11
52.3901263431
 21
148.7366949343
  0
LINE
  5
3CE
100
AcDbEntity
  8
0
100
AcDbLine
 62
7
  6
CONTINUOUS
 10
51.1173288378
 20
149.4715282924
 11
45.3190290916
 21
152.8191024795
  0
LINE
  5
3CF
100
AcDbEntity
  8
0
100
AcDbLine
 62
7
  6
CONTINUOUS
 10
44.0462315864
 20
153.5539358376
 11
42.066324356
 21
154.6970099503
  0
LINE
  5
3D0
100
AcDbEntity
  8
0
100
AcDbLine
 62
7
  6
CONTINUOUS
 10
36.6922904448
 20
157.7996396846
 11
34.7123832144
 21
158.9427137973
  0
LINE
  5
3D1
100
AcDbEntity
  8
0
100
AcDbLine
 62
7
  6
CONTINUOUS
 10
33.4395857092
 20
159.6775471554
 11
27.641285963
 21
163.0251213425
  0
LINE
  5
3D2
100
AcDbEntity
  8
0
100
AcDbLine
 62
7
  6
CONTINUOUS
 10
26.3684884577
 20
163.7599547006
 11
24.3885812273
 21
164.9030288133
  0
LINE
  5
3D3
100
AcDbEntity
  8
0
100
AcDbLine
 62
7
  6
CONTINUOUS
 10
110.655808721
 20
115.5054352344
 11
111.5043403912
 21
115.015546329
  0
LINE
  5
3D4
100
AcDbEntity
  8
0
100
AcDbLine
 62
7
  6
CONTINUOUS
 10
87.3272263775
 20
145.6376018688
 11
86.4326125
 21
147.9433288419
  0
LINE
  5
3D5
100
AcDbEntity
  8
0
100
AcDbLine
 62
7
  6
CONTINUOUS
 10
110.655808721
 20
117.3017574833
 11
110.655808721
 21
115.5054352344
  0
LINE
  5
3D6
100
AcDbEntity
  8
0
100
AcDbLine
 62
7
  6
CONTINUOUS
 10
110.655808721
 20
74.6803313092
 11
110.655808721
 21
72.8840090603
  0
LINE
  5
3D7
100
AcDbEntity
  8
0
100
AcDbLine
 62
7
  6
CONTINUOUS
 10
110.7263666073
 20
155.7177702462
 11
110.7263666073
 21
155.8810396891
  0
LINE
  5
3D8
100
AcDbEntity
  8
0
100
AcDbLine
 62
7
  6
CONTINUOUS
 10
111.4334763324
 20
156.2892872423
 11
111.4334763324
 21
157.9222920766
  0
LINE
  5
3D9
100
AcDbEntity
  8
0
100
AcDbLine
 62
7
  6
CONTINUOUS
 10
111.5043403912
 20
117.7916545472
 11
111.5043403912
 21
115.015546329
  0
LINE
  5
3DA
100
AcDbEntity
  8
0
100
AcDbLine
 62
7
  6
CONTINUOUS
 10
111.5043403912
 20
75.1702283731
 11
111.5043403912
 21
72.3941201549
  0
LINE
  5
3DB
100
AcDbEntity
  8
0
100
AcDbLine
 62
7
  6
CONTINUOUS
 10
112.6002232763
 20
154.9625353373
 11
112.6002232763
 21
155.044185579
  0
LINE
  5
3DC
100
AcDbEntity
  8
0
100
AcDbLine
 62
7
  6
CONTINUOUS
 10
51.152710231
 20
46.245287768
 11
49.3142402542
 21
45.1838529679
  0
LINE
  5
3DD
100
AcDbEntity
  8
0
100
AcDbLine
 62
7
  6
CONTINUOUS
 10
51.152710231
 20
41.3462732652
 11
49.3142402542
 21
40.2848384651
  0
LINE
  5
3DE
100
AcDbEntity
  8
0
100
AcDbLine
 62
7
  6
CONTINUOUS
 10
33.7930622622
 20
170.3326760598
 11
46.0967714798
 21
163.2292869311
  0
LINE
  5
3DF
100
AcDbEntity
  8
0
100
AcDbLine
 62
7
  6
CONTINUOUS
 10
51.4708053909
 20
160.1266571967
 11
63.7745146085
 21
153.0232680681
  0
LINE
  5
3E0
100
AcDbEntity
  8
0
100
AcDbLine
 62
7
  6
CONTINUOUS
 10
69.1485485196
 20
149.9206383337
 11
81.4522577371
 21
142.8172492051
  0
LINE
  5
3E1
100
AcDbEntity
  8
0
100
AcDbLine
 62
7
  6
CONTINUOUS
 10
86.8262916482
 20
139.7146194707
 11
99.1300008658
 21
132.6112303421
  0
LINE
  5
3E2
100
AcDbEntity
  8
0
100
AcDbLine
 62
7
  6
CONTINUOUS
 10
101.3927372664
 20
133.3460721986
 11
88.0990744337
 21
141.0209983836
  0
LINE
  5
3E3
100
AcDbEntity
  8
0
100
AcDbLine
 62
7
  6
CONTINUOUS
 10
83.7149941378
 20
143.5520910616
 11
70.421331305
 21
151.2270172466
  0
LINE
  5
3E4
100
AcDbEntity
  8
0
100
AcDbLine
 62
7
  6
CONTINUOUS
 10
66.0372510091
 20
153.7581099246
 11
52.7435881763
 21
161.4330361096
  0
LINE
  5
3E5
100
AcDbEntity
  8
0
100
AcDbLine
 62
7
  6
CONTINUOUS
 10
48.3595078804
 20
163.9641287876
 11
35.0658450477
 21
171.6390549726
  0
LINE
  5
3E6
100
AcDbEntity
  8
0
100
AcDbLine
 62
7
  6
CONTINUOUS
 10
101.0484821301
 20
137.463788385
 11
102.0691066296
 21
134.8332887949
  0
LINE
  5
3E7
100
AcDbEntity
  8
0
100
AcDbLine
 62
7
  6
CONTINUOUS
 10
105.0049695062
 20
135.4315830058
 11
104.1103556287
 21
137.7373099789
  0
LINE
  5
3E8
100
AcDbEntity
  8
0
100
AcDbLine
 62
7
  6
CONTINUOUS
 10
116.9136656101
 20
142.3478538706
 11
116.9136656101
 21
142.4295041123
  0
LINE
  5
3E9
100
AcDbEntity
  8
0
100
AcDbLine
 62
7
  6
CONTINUOUS
 10
108.3223731237
 20
73.3331296807
 11
111.5043403912
 21
75.1702283731
  0
LINE
  5
3EA
100
AcDbEntity
  8
0
100
AcDbLine
 62
7
  6
CONTINUOUS
 10
54.0165315002
 20
41.4891880069
 11
52.4608632225
 21
40.5910278693
  0
LINE
  5
3EB
100
AcDbEntity
  8
0
100
AcDbLine
 62
7
  6
CONTINUOUS
 10
77.4219354375
 20
54.9213084645
 11
87.4628099259
 21
60.7183754495
  0
LINE
  5
3EC
100
AcDbEntity
  8
0
100
AcDbLine
 62
7
  6
CONTINUOUS
 10
54.7236412253
 20
41.0809472524
 11
51.3295029709
 21
39.1213523147
  0
LINE
  5
3ED
100
AcDbEntity
  8
0
100
AcDbLine
 62
7
  6
CONTINUOUS
 10
110.655808721
 20
72.8840090603
 11
108.3223731237
 21
71.5368074318
  0
LINE
  5
3EE
100
AcDbEntity
  8
0
100
AcDbLine
 62
7
  6
CONTINUOUS
 10
86.6343620716
 20
58.887231683
 11
76.5934875831
 21
53.090164698
  0
LINE
  5
3EF
100
AcDbEntity
  8
0
100
AcDbLine
 62
7
  6
CONTINUOUS
 10
111.5043403912
 20
72.3941201549
 11
108.3223731237
 21
70.5570214624
  0
LINE
  5
3F0
100
AcDbEntity
  8
0
100
AcDbLine
 62
7
  6
CONTINUOUS
 10
54.9004070829
 20
39.5499976244
 11
51.3295029709
 21
37.4883474805
  0
LINE
  5
3F1
100
AcDbEntity
  8
0
100
AcDbLine
 62
7
  6
CONTINUOUS
 10
54.9004070829
 20
39.3867281816
 11
52.8851443662
 21
38.2232226548
  0
LINE
  5
3F2
100
AcDbEntity
  8
0
100
AcDbLine
 62
7
  6
CONTINUOUS
 10
83.7374718618
 20
53.8805901531
 11
83.234377293
 21
53.5901301021
  0
LINE
  5
3F3
100
AcDbEntity
  8
0
100
AcDbLine
 62
7
  6
CONTINUOUS
 10
49.0358772436
 20
165.4513453839
 11
49.9856755122
 21
164.9029915033
  0
LINE
  5
3F4
100
AcDbEntity
  8
0
100
AcDbLine
 62
7
  6
CONTINUOUS
 10
66.7136203723
 20
155.2453265209
 11
67.6634186409
 21
154.6969726403
  0
LINE
  5
3F5
100
AcDbEntity
  8
0
100
AcDbLine
 62
7
  6
CONTINUOUS
 10
84.391363501
 20
145.0393076579
 11
85.3411617695
 21
144.4909537773
  0
LINE
  5
3F6
100
AcDbEntity
  8
0
100
AcDbLine
 62
7
  6
CONTINUOUS
 10
102.0691066296
 20
134.8332887949
 11
103.0189048982
 21
134.2849349143
  0
LINE
  5
3F7
100
AcDbEntity
  8
0
100
AcDbLine
 62
7
  6
CONTINUOUS
 10
104.1103556287
 20
137.7373099789
 11
102.0691066297
 21
138.915798977
  0
LINE
  5
3F8
100
AcDbEntity
  8
0
100
AcDbLine
 62
7
  6
CONTINUOUS
 10
86.4326125
 20
147.9433288419
 11
84.391363501
 21
149.12181784
  0
LINE
  5
3F9
100
AcDbEntity
  8
0
100
AcDbLine
 62
7
  6
CONTINUOUS
 10
68.7548693714
 20
158.1493477049
 11
66.7136203723
 21
159.327836703
  0
LINE
  5
3FA
100
AcDbEntity
  8
0
100
AcDbLine
 62
7
  6
CONTINUOUS
 10
51.0771262427
 20
168.3553665679
 11
49.0358772436
 21
169.533855566
  0
LINE
  5
3FB
100
AcDbEntity
  8
0
100
AcDbLine
 62
7
  6
CONTINUOUS
 10
128.4041097359
 20
43.6122045755
 11
128.4041097359
 21
43.8571849303
  0
LINE
  5
3FC
100
AcDbEntity
  8
0
100
AcDbLine
 62
7
  6
CONTINUOUS
 10
128.4041097359
 20
144.6952038162
 11
128.4041097359
 21
145.6750208261
  0
LINE
  5
3FD
100
AcDbEntity
  8
0
100
AcDbLine
 62
7
  6
CONTINUOUS
 10
84.8718216243
 20
52.457045517
 11
84.1343689436
 21
52.0312795548
  0
LINE
  5
3FE
100
AcDbEntity
  8
0
100
AcDbLine
 62
7
  6
CONTINUOUS
 10
84.3161639947
 20
52.0021428648
 11
83.3969290063
 21
51.4714254647
  0
LINE
  5
3FF
100
AcDbEntity
  8
INTFCLR_74
100
AcDbLine
 62
7
420
3604575
  6
CONTINUOUS
 10
85.1343774271
 20
51.4539324604
 11
84.6343710253
 21
51.1652553529
  0
LINE
  5
400
100
AcDbEntity
  8
0
100
AcDbLine
 62
7
  6
CONTINUOUS
 10
85.053603932
 20
51.4072881628
 11
84.1343689436
 21
50.8765707628
  0
LINE
  5
401
100
AcDbEntity
  8
0
100
AcDbLine
 62
7
  6
CONTINUOUS
 10
85.2000511511
 20
50.4712139002
 11
84.2808161628
 21
49.9404965002
  0
LINE
  5
402
100
AcDbEntity
  8
0
100
AcDbLine
 62
7
  6
CONTINUOUS
 10
85.8718130443
 20
50.7249897559
 11
85.134373107
 21
50.299231151
  0
LINE
  5
403
100
AcDbEntity
  8
0
100
AcDbLine
 62
7
  6
CONTINUOUS
 10
83.9057538737
 20
49.5446508297
 11
83.6936227225
 21
49.4221775836
  0
LINE
  5
404
100
AcDbEntity
  8
0
100
AcDbLine
 62
7
  6
CONTINUOUS
 10
84.0876695591
 20
49.0297141019
 11
84.2842207751
 21
49.143192322
  0
LINE
  5
405
100
AcDbEntity
  8
0
100
AcDbLine
 62
7
  6
CONTINUOUS
 10
85.3932036427
 20
48.5209251517
 11
85.1810724916
 21
48.3984519056
  0
LINE
  5
406
100
AcDbEntity
  8
0
100
AcDbLine
 62
7
  6
CONTINUOUS
 10
86.6702397842
 20
49.10750103
 11
86.0343647577
 21
48.7403806037
  0
LINE
  5
407
100
AcDbEntity
  8
0
100
AcDbLine
 62
7
  6
CONTINUOUS
 10
85.5751193281
 20
48.3359195863
 11
85.7872504793
 21
48.4583928325
  0
LINE
  5
408
100
AcDbEntity
  8
0
100
AcDbLine
 62
7
  6
CONTINUOUS
 10
86.4743007921
 20
47.8167886703
 11
86.3314343657
 21
47.7343051929
  0
LINE
  5
409
100
AcDbEntity
  8
0
100
AcDbLine
 62
7
  6
CONTINUOUS
 10
86.6849916721
 20
47.6951489859
 11
86.5435672832
 21
47.6134980643
  0
LINE
  5
40A
100
AcDbEntity
  8
0
100
AcDbLine
 62
7
  6
CONTINUOUS
 10
87.4628099259
 20
47.2460855669
 11
87.6749410771
 21
47.368558813
  0
LINE
  5
40B
100
AcDbEntity
  8
0
100
AcDbLine
 62
7
  6
CONTINUOUS
 10
87.4628099259
 20
47.0827850834
 11
87.6749410771
 21
47.2052583296
  0
LINE
  5
40C
100
AcDbEntity
  8
0
100
AcDbLine
 62
7
  6
CONTINUOUS
 10
68.8304533597
 20
36.039268905
 11
66.9919833829
 21
34.9778341049
  0
LINE
  5
40D
100
AcDbEntity
  8
0
100
AcDbLine
 62
7
  6
CONTINUOUS
 10
86.1040709899
 20
48.4387873192
 11
86.1841130652
 21
48.4810065054
  0
LINE
  5
40E
100
AcDbEntity
  8
0
100
AcDbLine
 62
7
  6
CONTINUOUS
 10
129.1112194611
 20
43.203963821
 11
129.1112194611
 21
41.5709589868
  0
LINE
  5
40F
100
AcDbEntity
  8
0
100
AcDbLine
 62
7
  6
CONTINUOUS
 10
129.1112194611
 20
146.0832683793
 11
129.1112194611
 21
147.7162732136
  0
LINE
  5
410
100
AcDbEntity
  8
0
100
AcDbLine
 62
7
  6
CONTINUOUS
 10
129.8890401588
 20
143.8378982317
 11
129.8890401588
 21
142.5314943643
  0
LINE
  5
411
100
AcDbEntity
  8
0
100
AcDbLine
 62
7
  6
CONTINUOUS
 10
129.8890401588
 20
138.9388837289
 11
129.8890401588
 21
49.4483621647
  0
LINE
  5
412
100
AcDbEntity
  8
0
100
AcDbLine
 62
7
  6
CONTINUOUS
 10
129.8890401588
 20
45.8594648229
 11
129.8890401588
 21
44.7145047922
  0
LINE
  5
413
100
AcDbEntity
  8
0
100
AcDbLine
 62
7
  6
CONTINUOUS
 10
86.5435672832
 20
45.735539683
 11
86.4021453382
 21
45.6538901724
  0
LINE
  5
414
100
AcDbEntity
  8
0
100
AcDbLine
 62
7
  6
CONTINUOUS
 10
68.8304533597
 20
31.1402544022
 11
66.9919833829
 21
30.0788196021
  0
LINE
  5
415
100
AcDbEntity
  8
0
100
AcDbLine
 62
7
  6
CONTINUOUS
 10
71.6942746288
 20
31.2831691439
 11
70.1386063512
 21
30.3850090063
  0
LINE
  5
416
100
AcDbEntity
  8
0
100
AcDbLine
 62
7
  6
CONTINUOUS
 10
72.401384354
 20
30.8749283894
 11
69.0072460996
 21
28.9153334517
  0
LINE
  5
417
100
AcDbEntity
  8
0
100
AcDbLine
 62
7
  6
CONTINUOUS
 10
116.9136656101
 20
142.3478538706
 11
112.6894159232
 21
144.7866703911
  0
LINE
  5
418
100
AcDbEntity
  8
0
100
AcDbLine
 62
7
  6
CONTINUOUS
 10
107.9856744092
 20
147.5023153843
 11
103.8321356949
 21
149.9003078292
  0
LINE
  5
419
100
AcDbEntity
  8
0
100
AcDbLine
 62
7
  6
CONTINUOUS
 10
99.2359224814
 20
152.5538727336
 11
95.0116727945
 21
154.9926892541
  0
LINE
  5
41A
100
AcDbEntity
  8
0
100
AcDbLine
 62
7
  6
CONTINUOUS
 10
90.3079312806
 20
157.7083342473
 11
86.1543925662
 21
160.1063266923
  0
LINE
  5
41B
100
AcDbEntity
  8
0
100
AcDbLine
 62
7
  6
CONTINUOUS
 10
81.5581793527
 20
162.7598915966
 11
77.3339296659
 21
165.1987081171
  0
LINE
  5
41C
100
AcDbEntity
  8
0
100
AcDbLine
 62
7
  6
CONTINUOUS
 10
72.6301881519
 20
167.9143531103
 11
68.4766494375
 21
170.3123455553
  0
LINE
  5
41D
100
AcDbEntity
  8
0
100
AcDbLine
 62
7
  6
CONTINUOUS
 10
63.8804362241
 20
172.9659104596
 11
59.6561865372
 21
175.4047269801
  0
LINE
  5
41E
100
AcDbEntity
  8
0
100
AcDbLine
 62
7
  6
CONTINUOUS
 10
54.9524450232
 20
178.1203719733
 11
50.7989063089
 21
180.5183644183
  0
LINE
  5
41F
100
AcDbEntity
  8
0
100
AcDbLine
 62
7
  6
CONTINUOUS
 10
50.6928398501
 20
180.6612507732
 11
50.7989063089
 21
180.60001466
  0
LINE
  5
420
100
AcDbEntity
  8
0
100
AcDbLine
 62
7
  6
CONTINUOUS
 10
63.8804362241
 20
173.0475607014
 11
63.9865026828
 21
172.9863245882
  0
LINE
  5
421
100
AcDbEntity
  8
0
100
AcDbLine
 62
7
  6
CONTINUOUS
 10
68.3705829788
 20
170.4552319102
 11
68.4766494375
 21
170.393995797
  0
LINE
  5
422
100
AcDbEntity
  8
0
100
AcDbLine
 62
7
  6
CONTINUOUS
 10
81.5581793527
 20
162.8415418383
 11
81.6642458115
 21
162.7803057252
  0
LINE
  5
423
100
AcDbEntity
  8
0
100
AcDbLine
 62
7
  6
CONTINUOUS
 10
86.0483261074
 20
160.2492130471
 11
86.1543925662
 21
160.187976934
  0
LINE
  5
424
100
AcDbEntity
  8
0
100
AcDbLine
 62
7
  6
CONTINUOUS
 10
99.2359224814
 20
152.6355229753
 11
99.3419889402
 21
152.5742868622
  0
LINE
  5
425
100
AcDbEntity
  8
0
100
AcDbLine
 62
7
  6
CONTINUOUS
 10
103.7260692361
 20
150.0431941841
 11
103.8321356949
 21
149.981958071
  0
LINE
  5
426
100
AcDbEntity
  8
0
100
AcDbLine
 62
7
  6
CONTINUOUS
 10
116.9136656101
 20
142.4295041123
 11
117.0197320689
 21
142.3682679992
  0
LINE
  5
427
100
AcDbEntity
  8
0
100
AcDbLine
 62
7
  6
CONTINUOUS
 10
72.5781502116
 20
29.3439787614
 11
69.0072460996
 21
27.2823286175
  0
LINE
  5
428
100
AcDbEntity
  8
0
100
AcDbLine
 62
7
  6
CONTINUOUS
 10
72.5781502116
 20
29.1807093186
 11
70.5628874949
 21
28.0172037918
  0
LINE
  5
429
100
AcDbEntity
  8
0
100
AcDbLine
 62
7
  6
CONTINUOUS
 10
128.4041097359
 20
144.6952038162
 11
129.8890401588
 21
143.8378982317
  0
LINE
  5
42A
100
AcDbEntity
  8
0
100
AcDbLine
 62
7
  6
CONTINUOUS
 10
125.6110409971
 20
147.4509061595
 11
112.6002232763
 21
154.9625353373
  0
LINE
  5
42B
100
AcDbEntity
  8
0
100
AcDbLine
 62
7
  6
CONTINUOUS
 10
107.9332978684
 20
157.6569250225
 11
94.9224801477
 21
165.1685542003
  0
LINE
  5
42C
100
AcDbEntity
  8
0
100
AcDbLine
 62
7
  6
CONTINUOUS
 10
90.2555547398
 20
167.8629438856
 11
77.244737019
 21
175.3745730633
  0
LINE
  5
42D
100
AcDbEntity
  8
0
100
AcDbLine
 62
7
  6
CONTINUOUS
 10
72.5778116111
 20
178.0689627486
 11
59.5669938903
 21
185.5805919263
  0
LINE
  5
42E
100
AcDbEntity
  8
0
100
AcDbLine
 62
7
  6
CONTINUOUS
 10
125.6817531915
 20
147.4917316203
 11
112.6002232763
 21
155.044185579
  0
LINE
  5
42F
100
AcDbEntity
  8
0
100
AcDbLine
 62
7
  6
CONTINUOUS
 10
108.0040100629
 20
157.6977504833
 11
94.9224801477
 21
165.250204442
  0
LINE
  5
430
100
AcDbEntity
  8
0
100
AcDbLine
 62
7
  6
CONTINUOUS
 10
90.3262669342
 20
167.9037693464
 11
77.244737019
 21
175.456223305
  0
LINE
  5
431
100
AcDbEntity
  8
0
100
AcDbLine
 62
7
  6
CONTINUOUS
 10
72.6485238055
 20
178.1097882094
 11
59.5669938903
 21
185.662242168
  0
LINE
  5
432
100
AcDbEntity
  8
0
100
AcDbLine
 62
7
  6
CONTINUOUS
 10
129.1112194611
 20
147.7162732136
 11
112.9891177277
 21
157.0241624166
  0
LINE
  5
433
100
AcDbEntity
  8
0
100
AcDbLine
 62
7
  6
CONTINUOUS
 10
111.4334763324
 20
157.9222920766
 11
95.3113745991
 21
167.2301812796
  0
LINE
  5
434
100
AcDbEntity
  8
0
100
AcDbLine
 62
7
  6
CONTINUOUS
 10
93.7557332037
 20
168.1283109396
 11
77.6336314704
 21
177.4362001427
  0
LINE
  5
435
100
AcDbEntity
  8
0
100
AcDbLine
 62
7
  6
CONTINUOUS
 10
76.0779900751
 20
178.3343298026
 11
59.9558883417
 21
187.6422190057
  0
LINE
  5
436
100
AcDbEntity
  8
0
100
AcDbLine
 62
7
  6
CONTINUOUS
 10
86.6142764894
 20
29.6504406802
 11
86.4021453382
 21
29.5279674341
  0
LINE
  5
437
100
AcDbEntity
  8
0
100
AcDbLine
 62
7
  6
CONTINUOUS
 10
86.4021453382
 20
29.1605399354
 11
86.3314343657
 21
29.1197151801
  0
LINE
  5
438
100
AcDbEntity
  8
0
100
AcDbLine
 62
7
  6
CONTINUOUS
 10
87.4628099259
 20
24.9537129324
 11
129.8890401588
 21
49.4483621647
  0
LINE
  5
439
100
AcDbEntity
  8
0
100
AcDbLine
 62
7
  6
CONTINUOUS
 10
129.8890401588
 20
45.8594648229
 11
87.4628099259
 21
21.3648155907
  0
LINE
  5
43A
100
AcDbEntity
  8
0
100
AcDbLine
 62
7
  6
CONTINUOUS
 10
87.4628099259
 20
20.2198555599
 11
129.8890401588
 21
44.7145047922
  0
LINE
  5
43B
100
AcDbEntity
  8
0
100
AcDbLine
 62
7
  6
CONTINUOUS
 10
128.4041097359
 20
43.6122045755
 11
85.9778795031
 21
19.1175553432
  0
LINE
  5
43C
100
AcDbEntity
  8
0
100
AcDbLine
 62
7
  6
CONTINUOUS
 10
129.1112194611
 20
43.203963821
 11
86.6849892283
 21
18.7093145887
  0
LINE
  5
43D
100
AcDbEntity
  8
0
100
AcDbLine
 62
7
  6
CONTINUOUS
 10
129.1112194611
 20
41.5709589868
 11
86.6849892283
 21
17.0763097545
  0
ARC
  5
43E
100
AcDbEntity
  8
0
100
AcDbCircle
 62
7
  6
CONTINUOUS
 10
71.9657140048
 20
158.9909511756
 40
7.688272687
100
AcDbArc
 50
221.508883657
 51
222.1133233784
  0
ARC
  5
43F
100
AcDbEntity
  8
0
100
AcDbCircle
 62
7
  6
CONTINUOUS
 10
54.2879708748
 20
169.1969700375
 40
7.6882726853
100
AcDbArc
 50
221.508883657
 51
222.1133233785
  0
ARC
  5
440
100
AcDbEntity
  8
0
100
AcDbCircle
 62
7
  6
CONTINUOUS
 10
55.3491694318
 20
171.8101766474
 40
7.0604968751
100
AcDbArc
 50
180.0036498725
 51
181.1396641563
  0
ARC
  5
441
100
AcDbEntity
  8
0
100
AcDbCircle
 62
7
  6
CONTINUOUS
 10
73.0269125604
 20
161.6041577844
 40
7.0604968749
100
AcDbArc
 50
180.0036498724
 51
181.1396641563
  0
ARC
  5
442
100
AcDbEntity
  8
0
100
AcDbCircle
 62
7
  6
CONTINUOUS
 10
50.5211463776
 20
145.6560829916
 40
6.5107085265
100
AcDbArc
 50
234.5865321893
 51
234.8599000952
  0
ARC
  5
443
100
AcDbEntity
  8
0
100
AcDbCircle
 62
7
  6
CONTINUOUS
 10
32.8434032481
 20
155.8621018534
 40
6.5107085251
100
AcDbArc
 50
234.5865321893
 51
234.8599000953
  0
ARC
  5
444
100
AcDbEntity
  8
0
100
AcDbCircle
 62
7
  6
CONTINUOUS
 10
68.1988895048
 20
135.4500641265
 40
6.510708524
100
AcDbArc
 50
234.5865321893
 51
234.8599000952
  0
ARC
  5
445
100
AcDbEntity
  8
0
100
AcDbCircle
 62
7
  6
CONTINUOUS
 10
32.7848506027
 20
155.7786110248
 40
6.4087325479
100
AcDbArc
 50
234.8583426542
 51
235.717304199
  0
ARC
  5
446
100
AcDbEntity
  8
0
100
AcDbCircle
 62
7
  6
CONTINUOUS
 10
68.1403368598
 20
135.3665732983
 40
6.4087325474
100
AcDbArc
 50
234.8583426542
 51
235.717304199
  0
ARC
  5
447
100
AcDbEntity
  8
0
100
AcDbCircle
 62
7
  6
CONTINUOUS
 10
50.4625937309
 20
145.572592161
 40
6.408732547
100
AcDbArc
 50
234.8583426542
 51
235.7173041991
  0
ARC
  5
448
100
AcDbEntity
  8
0
100
AcDbCircle
 62
7
  6
CONTINUOUS
 10
52.8084962076
 20
174.1105803897
 40
2.5347845577
100
AcDbArc
 50
125.8192033453
 51
127.8473516213
  0
ARC
  5
449
100
AcDbEntity
  8
0
100
AcDbCircle
 62
7
  6
CONTINUOUS
 10
70.4862393363
 20
163.9045615267
 40
2.5347845578
100
AcDbArc
 50
125.8192033453
 51
127.8473516213
  0
ARC
  5
44A
100
AcDbEntity
  8
0
100
AcDbCircle
 62
7
  6
CONTINUOUS
 10
52.6330187523
 20
173.9103678142
 40
2.5205794788
100
AcDbArc
 50
108.6339159993
 51
114.5874168677
  0
ARC
  5
44B
100
AcDbEntity
  8
0
100
AcDbCircle
 62
7
  6
CONTINUOUS
 10
70.310761881
 20
163.7043489512
 40
2.5205794788
100
AcDbArc
 50
108.6339159993
 51
114.5874168677
  0
ARC
  5
44C
100
AcDbEntity
  8
0
100
AcDbCircle
 62
7
  6
CONTINUOUS
 10
52.7960299918
 20
174.1279280972
 40
2.5134222651
100
AcDbArc
 50
120.0054307193
 51
125.8202049501
  0
ARC
  5
44D
100
AcDbEntity
  8
0
100
AcDbCircle
 62
7
  6
CONTINUOUS
 10
70.4737731205
 20
163.9219092342
 40
2.5134222651
100
AcDbArc
 50
120.0054307193
 51
125.8202049501
  0
ARC
  5
44E
100
AcDbEntity
  8
0
100
AcDbCircle
 62
7
  6
CONTINUOUS
 10
52.6162979543
 20
173.9482395424
 40
2.4791845282
100
AcDbArc
 50
114.6001977668
 51
119.9934874602
  0
ARC
  5
44F
100
AcDbEntity
  8
0
100
AcDbCircle
 62
7
  6
CONTINUOUS
 10
70.2940410829
 20
163.7422206794
 40
2.4791845282
100
AcDbArc
 50
114.6001977668
 51
119.9934874602
  0
ARC
  5
450
100
AcDbEntity
  8
0
100
AcDbCircle
 62
7
  6
CONTINUOUS
 10
37.8497845044
 20
132.6215476197
 40
1.8527367294
100
AcDbArc
 50
163.3599331479
 51
165.18385441
  0
ARC
  5
451
100
AcDbEntity
  8
0
100
AcDbCircle
 62
7
  6
CONTINUOUS
 10
36.2293253364
 20
132.474830354
 40
1.0415168125
100
AcDbArc
 50
110.2845098172
 51
126.2029278177
  0
ARC
  5
452
100
AcDbEntity
  8
0
100
AcDbCircle
 62
7
  6
CONTINUOUS
 10
38.2909315988
 20
128.9021518362
 40
1.0335608716
100
AcDbArc
 50
300.0184615685
 51
303.3913208322
  0
ARC
  5
453
100
AcDbEntity
  8
0
100
AcDbCircle
 62
7
  6
CONTINUOUS
 10
86.8991886815
 20
52.354329363
 40
4.1637458682
100
AcDbArc
 50
222.8327799558
 51
223.5781458183
  0
ARC
  5
454
100
AcDbEntity
  8
0
100
AcDbCircle
 62
7
  6
CONTINUOUS
 10
85.4710210269
 20
104.6064527057
 40
3.0286903665
100
AcDbArc
 50
180.0216902353
 51
182.7588977599
  0
ARC
  5
455
100
AcDbEntity
  8
0
100
AcDbCircle
 62
7
  6
CONTINUOUS
 10
85.4608958435
 20
52.4318603631
 40
3.0185651518
100
AcDbArc
 50
180.0200947768
 51
182.6381203313
  0
ARC
  5
456
100
AcDbEntity
  8
0
100
AcDbCircle
 62
7
  6
CONTINUOUS
 10
130.3600632418
 20
48.5120619773
 40
1.9559536875
100
AcDbArc
 50
176.6023906977
 51
180.0246910525
  0
ARC
  5
457
100
AcDbEntity
  8
0
100
AcDbCircle
 62
7
  6
CONTINUOUS
 10
84.9470674382
 20
49.7703199889
 40
1.8680407617
100
AcDbArc
 50
343.9023465778
 51
345.2037698905
  0
ARC
  5
458
100
AcDbEntity
  8
0
100
AcDbCircle
 62
7
  6
CONTINUOUS
 10
85.2262356435
 20
53.0948840043
 40
1.8528403067
100
AcDbArc
 50
163.3599671085
 51
165.1877037893
  0
ARC
  5
459
100
AcDbEntity
  8
0
100
AcDbCircle
 62
7
  6
CONTINUOUS
 10
85.2261360892
 20
105.2694170669
 40
1.8527367293
100
AcDbArc
 50
163.3599331479
 51
165.18385441
  0
ARC
  5
45A
100
AcDbEntity
  8
0
100
AcDbCircle
 62
7
  6
CONTINUOUS
 10
85.8306466906
 20
49.9317647461
 40
1.474010864
100
AcDbArc
 50
263.3141111539
 51
268.3129167182
  0
ARC
  5
45B
100
AcDbEntity
  8
0
100
AcDbCircle
 62
7
  6
CONTINUOUS
 10
83.6056802429
 20
52.9481901548
 40
1.0415229698
100
AcDbArc
 50
110.2845098172
 51
126.2064911098
  0
ARC
  5
45C
100
AcDbEntity
  8
0
100
AcDbCircle
 62
7
  6
CONTINUOUS
 10
83.6056769212
 20
105.1226998012
 40
1.0415168125
100
AcDbArc
 50
110.2845098172
 51
126.2029278177
  0
ARC
  5
45D
100
AcDbEntity
  8
0
100
AcDbCircle
 62
7
  6
CONTINUOUS
 10
85.6662847789
 20
49.3763669966
 40
1.0347808995
100
AcDbArc
 50
300.0427629221
 51
303.2022581472
  0
ARC
  5
45E
100
AcDbEntity
  8
0
100
AcDbCircle
 62
7
  6
CONTINUOUS
 10
85.6679220934
 20
101.5497341139
 40
1.033022097
100
AcDbArc
 50
299.9957555479
 51
304.5956249804
  0
ARC
  5
45F
100
AcDbEntity
  8
0
100
AcDbCircle
 62
7
  6
CONTINUOUS
 10
107.3212002629
 20
138.5789134503
 40
7.6882726881
100
AcDbArc
 50
221.5088836571
 51
222.1133233784
  0
ARC
  5
460
100
AcDbEntity
  8
0
100
AcDbCircle
 62
7
  6
CONTINUOUS
 10
89.6434571327
 20
148.7849323119
 40
7.688272686
100
AcDbArc
 50
221.508883657
 51
222.1133233784
  0
ARC
  5
461
100
AcDbEntity
  8
0
100
AcDbCircle
 62
7
  6
CONTINUOUS
 10
90.7046556893
 20
151.3981389214
 40
7.0604968752
100
AcDbArc
 50
180.0036498725
 51
181.1396641563
  0
ARC
  5
462
100
AcDbEntity
  8
0
100
AcDbCircle
 62
7
  6
CONTINUOUS
 10
108.382398818
 20
141.1921200584
 40
7.0604968752
100
AcDbArc
 50
180.0036498725
 51
181.1396641563
  0
ARC
  5
463
100
AcDbEntity
  8
0
100
AcDbCircle
 62
7
  6
CONTINUOUS
 10
85.8766326372
 20
125.2440452688
 40
6.5107085305
100
AcDbArc
 50
234.5865321894
 51
234.8599000951
  0
ARC
  5
464
100
AcDbEntity
  8
0
100
AcDbCircle
 62
7
  6
CONTINUOUS
 10
85.8180799882
 20
125.160554435
 40
6.408732547
100
AcDbArc
 50
234.8583426541
 51
235.7173041991
  0
ARC
  5
465
100
AcDbEntity
  8
0
100
AcDbCircle
 62
7
  6
CONTINUOUS
 10
88.1639821344
 20
153.6985430987
 40
2.5347840115
100
AcDbArc
 50
125.8190656908
 51
127.8473517542
  0
ARC
  5
466
100
AcDbEntity
  8
0
100
AcDbCircle
 62
7
  6
CONTINUOUS
 10
105.8417252631
 20
143.4925242357
 40
2.5347840114
100
AcDbArc
 50
125.8190656908
 51
127.8473517543
  0
ARC
  5
467
100
AcDbEntity
  8
0
100
AcDbCircle
 62
7
  6
CONTINUOUS
 10
87.9885050097
 20
153.4983300882
 40
2.5205794788
100
AcDbArc
 50
108.6339159993
 51
114.5874168677
  0
ARC
  5
468
100
AcDbEntity
  8
0
100
AcDbCircle
 62
7
  6
CONTINUOUS
 10
105.6662481383
 20
143.2923112252
 40
2.5205794788
100
AcDbArc
 50
108.6339159993
 51
114.5874168677
  0
ARC
  5
469
100
AcDbEntity
  8
0
100
AcDbCircle
 62
7
  6
CONTINUOUS
 10
88.1515160246
 20
153.7158907225
 40
2.5134218486
100
AcDbArc
 50
120.0054302912
 51
125.8200669684
  0
ARC
  5
46A
100
AcDbEntity
  8
0
100
AcDbCircle
 62
7
  6
CONTINUOUS
 10
105.8292591533
 20
143.5098718595
 40
2.5134218487
100
AcDbArc
 50
120.0054302913
 51
125.8200669683
  0
ARC
  5
46B
100
AcDbEntity
  8
0
100
AcDbCircle
 62
7
  6
CONTINUOUS
 10
87.9717842116
 20
153.5362018164
 40
2.4791845282
100
AcDbArc
 50
114.6001977668
 51
119.9934874602
  0
ARC
  5
46C
100
AcDbEntity
  8
0
100
AcDbCircle
 62
7
  6
CONTINUOUS
 10
105.6495273403
 20
143.3301829534
 40
2.4791845282
100
AcDbArc
 50
114.6001977668
 51
119.9934874602
  0
SPLINE
  5
46D
100
AcDbEntity
  8
0
100
AcDbSpline
 62
7
  6
CONTINUOUS
 70
0
 71
3
 72
11
 73
7
 74
0
 42
0.0000001
 43
0.0000001
 44
0.0000000001
 40
0.0
 40
0.0
 40
0.0
 40
0.0
 40
0.2666115873
 40
0.5231738469
 40
0.7680465275
 40
1.0
 40
1.0
 40
1.0
 40
1.0
 10
50.6461332549
 20
99.0363710327
 30
0.0
 10
50.3489843199
 20
98.0357885061
 30
0.0
 10
49.8361358962
 20
96.0504979347
 30
0.0
 10
49.3127403723
 20
93.086229711
 30
0.0
 10
49.0546861394
 20
90.2230958
 30
0.0
 10
49.0622770747
 20
88.3526488756
 30
0.0
 10
49.1152220684
 20
87.4461053425
 30
0.0
  0
SPLINE
  5
46E
100
AcDbEntity
  8
0
100
AcDbSpline
 62
7
  6
CONTINUOUS
 70
0
 71
3
 72
9
 73
5
 74
0
 42
0.0000001
 43
0.0000001
 44
0.0000000001
 40
0.0
 40
0.0
 40
0.0
 40
0.0
 40
0.5206784724
 40
1.0
 40
1.0
 40
1.0
 40
1.0
 10
49.1152220684
 20
87.4461053425
 30
0.0
 10
49.1777546689
 20
86.3753993029
 30
0.0
 10
49.4294889773
 20
84.3233698231
 30
0.0
 10
49.9996250386
 20
82.3317113683
 30
0.0
 10
50.3613402309
 20
81.4130147365
 30
0.0
  0
SPLINE
  5
46F
100
AcDbEntity
  8
0
100
AcDbSpline
 62
7
  6
CONTINUOUS
 70
0
 71
3
 72
13
 73
9
 74
0
 42
0.0000001
 43
0.0000001
 44
0.0000000001
 40
0.0
 40
0.0
 40
0.0
 40
0.0
 40
0.304474653
 40
0.5714591491
 40
0.689993648
 40
0.7993531892
 40
0.9016242574
 40
1.0
 40
1.0
 40
1.0
 40
1.0
 10
47.3309656441
 20
59.9871347003
 30
0.0
 10
47.2444071646
 20
59.8987069188
 30
0.0
 10
47.0670091019
 20
59.7463822032
 30
0.0
 10
46.81566768
 20
59.6138170105
 30
0.0
 10
46.6197332082
 20
59.5644898575
 30
0.0
 10
46.4849018408
 20
59.5560856334
 30
0.0
 10
46.3593460748
 20
59.5755088139
 30
0.0
 10
46.2832172782
 20
59.6074121014
 30
0.0
 10
46.2485986832
 20
59.6274123729
 30
0.0
  0
SPLINE
  5
470
100
AcDbEntity
  8
0
100
AcDbSpline
 62
7
  6
CONTINUOUS
 70
0
 71
3
 72
11
 73
7
 74
0
 42
0.0000001
 43
0.0000001
 44
0.0000000001
 40
0.0
 40
0.0
 40
0.0
 40
0.0
 40
0.2651582035
 40
0.5277373141
 40
0.7758893678
 40
1.0
 40
1.0
 40
1.0
 40
1.0
 10
37.2216254601
 20
66.842538394
 30
0.0
 10
37.1456006876
 20
66.7417151191
 30
0.0
 10
37.009908906
 20
66.5288111267
 30
0.0
 10
36.8597344419
 20
66.1896391513
 30
0.0
 10
36.770469126
 20
65.8496902351
 30
0.0
 10
36.7547324684
 20
65.6232455136
 30
0.0
 10
36.7609550102
 20
65.5167008783
 30
0.0
  0
SPLINE
  5
471
100
AcDbEntity
  8
0
100
AcDbSpline
 62
7
  6
CONTINUOUS
 70
0
 71
3
 72
11
 73
7
 74
0
 42
0.0000001
 43
0.0000001
 44
0.0000000001
 40
0.0
 40
0.0
 40
0.0
 40
0.0
 40
0.285780759
 40
0.5438830885
 40
0.7785978139
 40
1.0
 40
1.0
 40
1.0
 40
1.0
 10
36.7609550102
 20
65.5167008783
 30
0.0
 10
36.7647241058
 20
65.4521650465
 30
0.0
 10
36.7816204916
 20
65.329515766
 30
0.0
 10
36.8405388135
 20
65.1619944955
 30
0.0
 10
36.9312649194
 20
65.025945963
 30
0.0
 10
37.0128063856
 20
64.9595960346
 30
0.0
 10
37.0561722563
 20
64.9345421817
 30
0.0
  0
SPLINE
  5
472
100
AcDbEntity
  8
0
100
AcDbSpline
 62
7
  6
CONTINUOUS
 70
0
 71
3
 72
11
 73
7
 74
0
 42
0.0000001
 43
0.0000001
 44
0.0000000001
 40
0.0
 40
0.0
 40
0.0
 40
0.0
 40
0.2214021861
 40
0.4561169115
 40
0.714219241
 40
1.0
 40
1.0
 40
1.0
 40
1.0
 10
46.2485986832
 20
59.6274123729
 30
0.0
 10
46.2052328126
 20
59.6524662258
 30
0.0
 10
46.1236913464
 20
59.7188161543
 30
0.0
 10
46.0329652404
 20
59.8548646867
 30
0.0
 10
45.9740469186
 20
60.0223859572
 30
0.0
 10
45.9571505327
 20
60.1450352378
 30
0.0
 10
45.9533814372
 20
60.2095710695
 30
0.0
  0
SPLINE
  5
473
100
AcDbEntity
  8
0
100
AcDbSpline
 62
7
  6
CONTINUOUS
 70
0
 71
3
 72
11
 73
7
 74
0
 42
0.0000001
 43
0.0000001
 44
0.0000000001
 40
0.0
 40
0.0
 40
0.0
 40
0.0
 40
0.2241106322
 40
0.4722626859
 40
0.7348417965
 40
1.0
 40
1.0
 40
1.0
 40
1.0
 10
45.9533814372
 20
60.2095710695
 30
0.0
 10
45.9471588953
 20
60.3161157048
 30
0.0
 10
45.962895553
 20
60.5425604263
 30
0.0
 10
46.0521608688
 20
60.8825093426
 30
0.0
 10
46.202335333
 20
61.221681318
 30
0.0
 10
46.3380271145
 20
61.4345853103
 30
0.0
 10
46.414051887
 20
61.5354085853
 30
0.0
  0
SPLINE
  5
474
100
AcDbEntity
  8
0
100
AcDbSpline
 62
7
  6
CONTINUOUS
 70
0
 71
3
 72
11
 73
7
 74
0
 42
0.0000001
 43
0.0000001
 44
0.0000000001
 40
0.0
 40
0.0
 40
0.0
 40
0.0
 40
0.2400172754
 40
0.5027955364
 40
0.7640613418
 40
1.0
 40
1.0
 40
1.0
 40
1.0
 10
129.8890401588
 20
45.859464823
 30
0.0
 10
129.6762631709
 20
45.993488379
 30
0.0
 10
129.2763015272
 20
46.3479331627
 30
0.0
 10
128.8105421542
 20
47.0059153647
 30
0.0
 10
128.4941108563
 20
47.7426994948
 30
0.0
 10
128.4041097359
 20
48.264023877
 30
0.0
 10
128.4041097359
 20
48.5112190783
 30
0.0
  0
SPLINE
  5
475
100
AcDbEntity
  8
0
100
AcDbSpline
 62
7
  6
CONTINUOUS
 70
0
 71
3
 72
11
 73
7
 74
0
 42
0.0000001
 43
0.0000001
 44
0.0000000001
 40
0.0
 40
0.0
 40
0.0
 40
0.0
 40
0.2372523758
 40
0.4999990758
 40
0.7627462798
 40
1.0
 40
1.0
 40
1.0
 40
1.0
 10
129.8890401588
 20
138.9388837289
 30
0.0
 10
129.668171918
 20
139.0663991823
 30
0.0
 10
129.2501982716
 20
139.4181259415
 30
0.0
 10
128.7625523582
 20
140.0847940344
 30
0.0
 10
128.4290199914
 20
140.840441733
 30
0.0
 10
128.3333987634
 20
141.3782820273
 30
0.0
 10
128.3333987634
 20
141.6333187065
 30
0.0
  0
SPLINE
  5
476
100
AcDbEntity
  8
0
100
AcDbSpline
 62
7
  6
CONTINUOUS
 70
0
 71
3
 72
17
 73
13
 74
0
 42
0.0000001
 43
0.0000001
 44
0.0000000001
 40
0.0
 40
0.0
 40
0.0
 40
0.0
 40
0.042857965
 40
0.0874854797
 40
0.1353180708
 40
0.1872814984
 40
0.3045423159
 40
0.4382097446
 40
0.5825520305
 40
0.7297107839
 40
0.8713099826
 40
1.0
 40
1.0
 40
1.0
 40
1.0
 10
86.0343396416
 20
100.9149283815
 30
0.0
 10
85.9653286858
 20
100.875048151
 30
0.0
 10
85.8131527529
 20
100.8118323684
 30
0.0
 10
85.5619905854
 20
100.7749946745
 30
0.0
 10
85.2922535915
 20
100.7948713571
 30
0.0
 10
84.9003235361
 20
100.899087594
 30
0.0
 10
84.3993007381
 20
101.1730479814
 30
0.0
 10
83.8457530758
 20
101.66326659
 30
0.0
 10
83.356439233
 20
102.2895649278
 30
0.0
 10
82.971329313
 20
103.0013511356
 30
0.0
 10
82.7214247176
 20
103.7402571566
 30
0.0
 10
82.6544637949
 20
104.2435018731
 30
0.0
 10
82.6544637949
 20
104.4828339201
 30
0.0
  0
SPLINE
  5
477
100
AcDbEntity
  8
0
100
AcDbSpline
 62
7
  6
CONTINUOUS
 70
0
 71
3
 72
9
 73
5
 74
0
 42
0.0000001
 43
0.0000001
 44
0.0000000001
 40
0.0
 40
0.0
 40
0.0
 40
0.0
 40
0.4876187205
 40
1.0
 40
1.0
 40
1.0
 40
1.0
 10
86.2544522989
 20
100.6993712674
 30
0.0
 10
86.3280595268
 20
100.7501410298
 30
0.0
 10
86.4657229134
 20
100.8745842851
 30
0.0
 10
86.5696526237
 20
101.0277146964
 30
0.0
 10
86.6142782557
 20
101.1103998811
 30
0.0
  0
SPLINE
  5
478
100
AcDbEntity
  8
0
100
AcDbSpline
 62
7
  6
CONTINUOUS
 70
0
 71
3
 72
17
 73
13
 74
0
 42
0.0000001
 43
0.0000001
 44
0.0000000001
 40
0.0
 40
0.0
 40
0.0
 40
0.0
 40
0.042857965
 40
0.0874854797
 40
0.1353180708
 40
0.1872814984
 40
0.3045423159
 40
0.4382097446
 40
0.5825520305
 40
0.7297107839
 40
0.8713099826
 40
1.0
 40
1.0
 40
1.0
 40
1.0
 10
38.6579880567
 20
128.2670589344
 30
0.0
 10
38.5889771009
 20
128.2271787038
 30
0.0
 10
38.4368011681
 20
128.1639629212
 30
0.0
 10
38.1856390005
 20
128.1271252274
 30
0.0
 10
37.9159020067
 20
128.14700191
 30
0.0
 10
37.5239719512
 20
128.2512181468
 30
0.0
 10
37.0229491533
 20
128.5251785343
 30
0.0
 10
36.4694014909
 20
129.0153971429
 30
0.0
 10
35.9800876482
 20
129.6416954806
 30
0.0
 10
35.5949777282
 20
130.3534816885
 30
0.0
 10
35.3450731327
 20
131.0923877095
 30
0.0
 10
35.2781122101
 20
131.5956324259
 30
0.0
 10
35.2781122101
 20
131.834964473
 30
0.0
  0
SPLINE
  5
479
100
AcDbEntity
  8
0
100
AcDbSpline
 62
7
  6
CONTINUOUS
 70
0
 71
3
 72
9
 73
5
 74
0
 42
0.0000001
 43
0.0000001
 44
0.0000000001
 40
0.0
 40
0.0
 40
0.0
 40
0.0
 40
0.472909972
 40
1.0
 40
1.0
 40
1.0
 40
1.0
 10
38.8597562388
 20
128.0391995755
 30
0.0
 10
38.983457079
 20
128.1207334423
 30
0.0
 10
39.2080592606
 20
128.3531072416
 30
0.0
 10
39.3302279942
 20
128.6481629925
 30
0.0
 10
39.3735141989
 20
128.8075164059
 30
0.0
  0
SPLINE
  5
47A
100
AcDbEntity
  8
0
100
AcDbSpline
 62
7
  6
CONTINUOUS
 70
0
 71
3
 72
9
 73
5
 74
0
 42
0.0000001
 43
0.0000001
 44
0.0000000001
 40
0.0
 40
0.0
 40
0.0
 40
0.0
 40
0.2368323624
 40
1.0
 40
1.0
 40
1.0
 40
1.0
 10
39.3735141989
 20
128.8075164059
 30
0.0
 10
39.3864397717
 20
128.8551004841
 30
0.0
 10
39.4330911188
 20
129.0581573006
 30
0.0
 10
39.4500595884
 20
129.2674529446
 30
0.0
 10
39.4500595884
 20
129.4263440213
 30
0.0
  0
SPLINE
  5
47B
100
AcDbEntity
  8
0
100
AcDbSpline
 62
7
  6
CONTINUOUS
 70
0
 71
3
 72
11
 73
7
 74
0
 42
0.0000001
 43
0.0000001
 44
0.0000000001
 40
0.0
 40
0.0
 40
0.0
 40
0.0
 40
0.2868634218
 40
0.5454856068
 40
0.779727008
 40
1.0
 40
1.0
 40
1.0
 40
1.0
 10
87.4628099259
 20
24.9537129324
 30
0.0
 10
87.3718753408
 20
25.0014350715
 30
0.0
 10
87.1911700839
 20
25.0786881734
 30
0.0
 10
86.9153766713
 20
25.1350763448
 30
0.0
 10
86.6571977283
 20
25.1214735996
 30
0.0
 10
86.5018626154
 20
25.0630503981
 30
0.0
 10
86.4335791541
 20
25.0236068148
 30
0.0
  0
SPLINE
  5
47C
100
AcDbEntity
  8
0
100
AcDbSpline
 62
7
  6
CONTINUOUS
 70
0
 71
3
 72
11
 73
7
 74
0
 42
0.0000001
 43
0.0000001
 44
0.0000000001
 40
0.0
 40
0.0
 40
0.0
 40
0.0
 40
0.2321458996
 40
0.4887849398
 40
0.7514188273
 40
1.0
 40
1.0
 40
1.0
 40
1.0
 10
72.5781502116
 20
31.7527321442
 30
0.0
 10
72.5781502116
 20
32.1484042013
 30
0.0
 10
72.4490074775
 20
32.9823197173
 30
0.0
 10
71.9825219784
 20
34.1832914406
 30
0.0
 10
71.2807048966
 20
35.2969559994
 30
0.0
 10
70.6739757749
 20
35.9340339422
 30
0.0
 10
70.3453240741
 20
36.201422483
 30
0.0
  0
SPLINE
  5
47D
100
AcDbEntity
  8
0
100
AcDbSpline
 62
7
  6
CONTINUOUS
 70
0
 71
3
 72
12
 73
8
 74
0
 42
0.0000001
 43
0.0000001
 44
0.0000000001
 40
0.0
 40
0.0
 40
0.0
 40
0.0
 40
0.2994103928
 40
0.5628759907
 40
0.7919212127
 40
0.8974653813
 40
1.0
 40
1.0
 40
1.0
 40
1.0
 10
70.3453240741
 20
36.201422483
 30
0.0
 10
70.1321297196
 20
36.374875799
 30
0.0
 10
69.7025197516
 20
36.6687960891
 30
0.0
 10
69.0219473415
 20
36.9428936667
 30
0.0
 10
68.4631924953
 20
36.9934418302
 30
0.0
 10
68.0679649079
 20
36.9108341139
 30
0.0
 10
67.8915895419
 20
36.8331442372
 30
0.0
 10
67.8100847568
 20
36.7860728719
 30
0.0
  0
SPLINE
  5
47E
100
AcDbEntity
  8
0
100
AcDbSpline
 62
7
  6
CONTINUOUS
 70
0
 71
3
 72
11
 73
7
 74
0
 42
0.0000001
 43
0.0000001
 44
0.0000000001
 40
0.0
 40
0.0
 40
0.0
 40
0.0
 40
0.2321458996
 40
0.4887849398
 40
0.7514188273
 40
1.0
 40
1.0
 40
1.0
 40
1.0
 10
54.9004070829
 20
41.9587510072
 30
0.0
 10
54.9004070829
 20
42.3544230643
 30
0.0
 10
54.7712643488
 20
43.1883385803
 30
0.0
 10
54.3047788497
 20
44.3893103036
 30
0.0
 10
53.6029617679
 20
45.5029748624
 30
0.0
 10
52.9962326463
 20
46.1400528052
 30
0.0
 10
52.6675809454
 20
46.407441346
 30
0.0
  0
SPLINE
  5
47F
100
AcDbEntity
  8
0
100
AcDbSpline
 62
7
  6
CONTINUOUS
 70
0
 71
3
 72
12
 73
8
 74
0
 42
0.0000001
 43
0.0000001
 44
0.0000000001
 40
0.0
 40
0.0
 40
0.0
 40
0.0
 40
0.2994103928
 40
0.5628759907
 40
0.7919212127
 40
0.8974653813
 40
1.0
 40
1.0
 40
1.0
 40
1.0
 10
52.6675809454
 20
46.407441346
 30
0.0
 10
52.4543865909
 20
46.580894662
 30
0.0
 10
52.024776623
 20
46.8748149521
 30
0.0
 10
51.3442042128
 20
47.1489125298
 30
0.0
 10
50.7854493666
 20
47.1994606932
 30
0.0
 10
50.3902217793
 20
47.1168529769
 30
0.0
 10
50.2138464132
 20
47.0391631002
 30
0.0
 10
50.1323416281
 20
46.9920917349
 30
0.0
  0
SPLINE
  5
480
100
AcDbEntity
  8
0
100
AcDbSpline
 62
7
  6
CONTINUOUS
 70
0
 71
3
 72
11
 73
7
 74
0
 42
0.0000001
 43
0.0000001
 44
0.0000000001
 40
0.0
 40
0.0
 40
0.0
 40
0.0
 40
0.2321458996
 40
0.4887849398
 40
0.7514188273
 40
1.0
 40
1.0
 40
1.0
 40
1.0
 10
37.2226639542
 20
52.1647698702
 30
0.0
 10
37.2226639542
 20
52.5604419273
 30
0.0
 10
37.0935212201
 20
53.3943574433
 30
0.0
 10
36.627035721
 20
54.5953291666
 30
0.0
 10
35.9252186393
 20
55.7089937254
 30
0.0
 10
35.3184895176
 20
56.3460716682
 30
0.0
 10
34.9898378167
 20
56.613460209
 30
0.0
  0
SPLINE
  5
481
100
AcDbEntity
  8
0
100
AcDbSpline
 62
7
  6
CONTINUOUS
 70
0
 71
3
 72
12
 73
8
 74
0
 42
0.0000001
 43
0.0000001
 44
0.0000000001
 40
0.0
 40
0.0
 40
0.0
 40
0.0
 40
0.2994103928
 40
0.5628759907
 40
0.7919212127
 40
0.8974653813
 40
1.0
 40
1.0
 40
1.0
 40
1.0
 10
34.9898378167
 20
56.613460209
 30
0.0
 10
34.7766434623
 20
56.786913525
 30
0.0
 10
34.3470334943
 20
57.0808338151
 30
0.0
 10
33.6664610841
 20
57.3549313928
 30
0.0
 10
33.107706238
 20
57.4054795562
 30
0.0
 10
32.7124786506
 20
57.3228718399
 30
0.0
 10
32.5361032845
 20
57.2451819632
 30
0.0
 10
32.4545984994
 20
57.198110598
 30
0.0
  0
SPLINE
  5
482
100
AcDbEntity
  8
0
100
AcDbSpline
 62
7
  6
CONTINUOUS
 70
0
 71
3
 72
11
 73
7
 74
0
 42
0.0000001
 43
0.0000001
 44
0.0000000001
 40
0.0
 40
0.0
 40
0.0
 40
0.0
 40
0.2372539654
 40
0.5000012591
 40
0.7627478695
 40
1.0
 40
1.0
 40
1.0
 40
1.0
 10
18.236767834
 20
63.1260341291
 30
0.0
 10
18.236767834
 20
63.3694784836
 30
0.0
 10
18.1454928762
 20
63.8828718352
 30
0.0
 10
17.8271207902
 20
64.6041720619
 30
0.0
 10
17.3616405901
 20
65.2405367407
 30
0.0
 10
16.9626659685
 20
65.5762756189
 30
0.0
 10
16.7518374112
 20
65.6979947895
 30
0.0
  0
SPLINE
  5
483
100
AcDbEntity
  8
0
100
AcDbSpline
 62
7
  6
CONTINUOUS
 70
0
 71
3
 72
11
 73
7
 74
0
 42
0.0000001
 43
0.0000001
 44
0.0000000001
 40
0.0
 40
0.0
 40
0.0
 40
0.0
 40
0.2372539654
 40
0.5000012591
 40
0.7627478695
 40
1.0
 40
1.0
 40
1.0
 40
1.0
 10
18.3074788065
 20
156.1664856064
 30
0.0
 10
18.3074788065
 20
156.4215225492
 30
0.0
 10
18.2118574221
 20
156.9593632032
 30
0.0
 10
17.8783247606
 20
157.7150110598
 30
0.0
 10
17.3906788367
 20
158.3816788185
 30
0.0
 10
16.9727054236
 20
158.7334052624
 30
0.0
 10
16.7518374112
 20
158.860920584
 30
0.0
  0
SPLINE
  5
484
100
AcDbEntity
  8
0
100
AcDbSpline
 62
7
  6
CONTINUOUS
 70
0
 71
3
 72
11
 73
7
 74
0
 42
0.0000001
 43
0.0000001
 44
0.0000000001
 40
0.0
 40
0.0
 40
0.0
 40
0.0
 40
0.2895391946
 40
0.5491157945
 40
0.7822541179
 40
1.0
 40
1.0
 40
1.0
 40
1.0
 10
87.4628099259
 20
118.036845132
 30
0.0
 10
87.3663327587
 20
118.0925449903
 30
0.0
 10
87.1742484307
 20
118.18380112
 30
0.0
 10
86.8791312226
 20
118.2552330681
 30
0.0
 10
86.6020821179
 20
118.2482734674
 30
0.0
 10
86.4354310463
 20
118.187581171
 30
0.0
 10
86.3628763993
 20
118.1456919414
 30
0.0
  0
SPLINE
  5
485
100
AcDbEntity
  8
0
100
AcDbSpline
 62
7
  6
CONTINUOUS
 70
0
 71
3
 72
11
 73
7
 74
0
 42
0.0000001
 43
0.0000001
 44
0.0000000001
 40
0.0
 40
0.0
 40
0.0
 40
0.0
 40
0.2176907916
 40
0.4508868986
 40
0.7106214304
 40
1.0
 40
1.0
 40
1.0
 40
1.0
 10
74.6734088989
 20
32.3286338613
 30
0.0
 10
74.7113427926
 20
32.350496599
 30
0.0
 10
74.782322878
 20
32.4101475293
 30
0.0
 10
74.8579635925
 20
32.5337288779
 30
0.0
 10
74.9026655632
 20
32.6860481968
 30
0.0
 10
74.9116123046
 20
32.7968435922
 30
0.0
 10
74.9116123046
 20
32.8550449057
 30
0.0
  0
SPLINE
  5
486
100
AcDbEntity
  8
0
100
AcDbSpline
 62
7
  6
CONTINUOUS
 70
0
 71
3
 72
17
 73
13
 74
0
 42
0.0000001
 43
0.0000001
 44
0.0000000001
 40
0.0
 40
0.0
 40
0.0
 40
0.0
 40
0.1266146605
 40
0.2656912944
 40
0.4106567689
 40
0.5539615808
 40
0.6883213355
 40
0.8080359259
 40
0.8615981943
 40
0.910995433
 40
0.9567824972
 40
1.0
 40
1.0
 40
1.0
 40
1.0
 10
86.8264111733
 20
49.8997090139
 30
0.0
 10
86.8264111733
 20
50.1530314298
 30
0.0
 10
86.758592585
 20
50.6852157744
 30
0.0
 10
86.5034060675
 20
51.4700415909
 30
0.0
 10
86.1079265787
 20
52.2323336376
 30
0.0
 10
85.6016613262
 20
52.9144559734
 30
0.0
 10
85.0227633875
 20
53.4653314599
 30
0.0
 10
84.4942646459
 20
53.79377368
 30
0.0
 10
84.0733994203
 20
53.9446090357
 30
0.0
 10
83.7791527729
 20
53.9987657183
 30
0.0
 10
83.5004117345
 20
53.9960165581
 30
0.0
 10
83.3252116995
 20
53.9548178928
 30
0.0
 10
83.2441112326
 20
53.9248309183
 30
0.0
  0
SPLINE
  5
487
100
AcDbEntity
  8
0
100
AcDbSpline
 62
7
  6
CONTINUOUS
 70
0
 71
3
 72
17
 73
13
 74
0
 42
0.0000001
 43
0.0000001
 44
0.0000000001
 40
0.0
 40
0.0
 40
0.0
 40
0.0
 40
0.1286958261
 40
0.2702808406
 40
0.4174358233
 40
0.56177813
 40
0.6954484073
 40
0.8127114953
 40
0.8646776576
 40
0.9125100977
 40
0.9571398542
 40
1.0
 40
1.0
 40
1.0
 40
1.0
 10
29.1969685738
 20
150.6960804039
 30
0.0
 10
29.1969685738
 20
151.1320278975
 30
0.0
 10
29.0750216217
 20
152.0486325753
 30
0.0
 10
28.6197906837
 20
153.3944402241
 30
0.0
 10
27.9184200239
 20
154.6908857799
 30
0.0
 10
27.0271955029
 20
155.8316580798
 30
0.0
 10
26.0189527668
 20
156.7246312463
 30
0.0
 10
25.1063293166
 20
157.2235345646
 30
0.0
 10
24.3924734637
 20
157.4135626739
 30
0.0
 10
23.9011444518
 20
157.4495864408
 30
0.0
 10
23.4436240275
 20
157.3826403157
 30
0.0
 10
23.166482437
 20
157.2673892491
 30
0.0
 10
23.0407353227
 20
157.1948185622
 30
0.0
  0
SPLINE
  5
488
100
AcDbEntity
  8
0
100
AcDbSpline
 62
7
  6
CONTINUOUS
 70
0
 71
3
 72
17
 73
13
 74
0
 42
0.0000001
 43
0.0000001
 44
0.0000000001
 40
0.0
 40
0.0
 40
0.0
 40
0.0
 40
0.1286958261
 40
0.2702808406
 40
0.4174358233
 40
0.56177813
 40
0.6954484073
 40
0.8127114953
 40
0.8646776576
 40
0.9125100977
 40
0.9571398542
 40
1.0
 40
1.0
 40
1.0
 40
1.0
 10
46.8747117025
 20
140.4900615409
 30
0.0
 10
46.8747117025
 20
140.9260090345
 30
0.0
 10
46.7527647503
 20
141.8426137122
 30
0.0
 10
46.2975338123
 20
143.1884213611
 30
0.0
 10
45.5961631526
 20
144.4848669169
 30
0.0
 10
44.7049386316
 20
145.6256392168
 30
0.0
 10
43.6966958955
 20
146.5186123833
 30
0.0
 10
42.7840724453
 20
147.0175157016
 30
0.0
 10
42.0702165923
 20
147.2075438109
 30
0.0
 10
41.5788875805
 20
147.2435675778
 30
0.0
 10
41.1213671562
 20
147.1766214527
 30
0.0
 10
40.8442255656
 20
147.0613703861
 30
0.0
 10
40.7184784514
 20
146.9887996992
 30
0.0
  0
SPLINE
  5
489
100
AcDbEntity
  8
0
100
AcDbSpline
 62
7
  6
CONTINUOUS
 70
0
 71
3
 72
17
 73
13
 74
0
 42
0.0000001
 43
0.0000001
 44
0.0000000001
 40
0.0
 40
0.0
 40
0.0
 40
0.0
 40
0.1286958261
 40
0.2702808406
 40
0.4174358233
 40
0.56177813
 40
0.6954484073
 40
0.8127114953
 40
0.8646776576
 40
0.9125100977
 40
0.9571398542
 40
1.0
 40
1.0
 40
1.0
 40
1.0
 10
64.5524548312
 20
130.2840426779
 30
0.0
 10
64.5524548312
 20
130.7199901715
 30
0.0
 10
64.430507879
 20
131.6365948492
 30
0.0
 10
63.975276941
 20
132.9824024981
 30
0.0
 10
63.2739062813
 20
134.2788480539
 30
0.0
 10
62.3826817602
 20
135.4196203538
 30
0.0
 10
61.3744390241
 20
136.3125935203
 30
0.0
 10
60.4618155739
 20
136.8114968386
 30
0.0
 10
59.747959721
 20
137.0015249479
 30
0.0
 10
59.2566307092
 20
137.0375487148
 30
0.0
 10
58.7991102848
 20
136.9706025897
 30
0.0
 10
58.5219686943
 20
136.8553515231
 30
0.0
 10
58.39622158
 20
136.7827808362
 30
0.0
  0
SPLINE
  5
48A
100
AcDbEntity
  8
0
100
AcDbSpline
 62
7
  6
CONTINUOUS
 70
0
 71
3
 72
17
 73
13
 74
0
 42
0.0000001
 43
0.0000001
 44
0.0000000001
 40
0.0
 40
0.0
 40
0.0
 40
0.0
 40
0.1286958261
 40
0.2702808406
 40
0.4174358233
 40
0.56177813
 40
0.6954484073
 40
0.8127114953
 40
0.8646776576
 40
0.9125100977
 40
0.9571398542
 40
1.0
 40
1.0
 40
1.0
 40
1.0
 10
82.2301979598
 20
120.0780238149
 30
0.0
 10
82.2301979598
 20
120.5139713085
 30
0.0
 10
82.1082510077
 20
121.4305759862
 30
0.0
 10
81.6530200697
 20
122.7763836351
 30
0.0
 10
80.95164941
 20
124.0728291909
 30
0.0
 10
80.0604248889
 20
125.2136014908
 30
0.0
 10
79.0521821528
 20
126.1065746573
 30
0.0
 10
78.1395587026
 20
126.6054779756
 30
0.0
 10
77.4257028497
 20
126.7955060848
 30
0.0
 10
76.9343738378
 20
126.8315298518
 30
0.0
 10
76.4768534135
 20
126.7645837267
 30
0.0
 10
76.199711823
 20
126.6493326601
 30
0.0
 10
76.0739647087
 20
126.5767619732
 30
0.0
  0
SPLINE
  5
48B
100
AcDbEntity
  8
0
100
AcDbSpline
 62
7
  6
CONTINUOUS
 70
0
 71
3
 72
15
 73
11
 74
0
 42
0.0000001
 43
0.0000001
 44
0.0000000001
 40
0.0
 40
0.0
 40
0.0
 40
0.0
 40
0.1287972074
 40
0.2706054898
 40
0.4178799053
 40
0.562375555
 40
0.6961915357
 40
0.8135903033
 40
0.913065596
 40
1.0
 40
1.0
 40
1.0
 40
1.0
 10
48.6071305291
 20
136.2238620238
 30
0.0
 10
48.6071305291
 20
136.3221329814
 30
0.0
 10
48.5795769942
 20
136.5288281849
 30
0.0
 10
48.4770263562
 20
136.8323112175
 30
0.0
 10
48.3187663846
 20
137.1246313081
 30
0.0
 10
48.1179264991
 20
137.3818062374
 30
0.0
 10
47.8903577827
 20
137.5833191447
 30
0.0
 10
47.6530530704
 20
137.7129639767
 30
0.0
 10
47.4207224835
 20
137.7595441883
 30
0.0
 10
47.2764502659
 20
137.7223481885
 30
0.0
 10
47.2189815669
 20
137.6892268036
 30
0.0
  0
SPLINE
  5
48C
100
AcDbEntity
  8
0
100
AcDbSpline
 62
7
  6
CONTINUOUS
 70
0
 71
3
 72
15
 73
11
 74
0
 42
0.0000001
 43
0.0000001
 44
0.0000000001
 40
0.0
 40
0.0
 40
0.0
 40
0.0
 40
0.1287972074
 40
0.2706054898
 40
0.4178799053
 40
0.562375555
 40
0.6961915357
 40
0.8135903033
 40
0.913065596
 40
1.0
 40
1.0
 40
1.0
 40
1.0
 10
30.9293874004
 20
146.4298808868
 30
0.0
 10
30.9293874004
 20
146.5281518444
 30
0.0
 10
30.9018338656
 20
146.7348470479
 30
0.0
 10
30.7992832275
 20
147.0383300805
 30
0.0
 10
30.6410232559
 20
147.3306501711
 30
0.0
 10
30.4401833704
 20
147.5878251004
 30
0.0
 10
30.212614654
 20
147.7893380077
 30
0.0
 10
29.9753099417
 20
147.9189828397
 30
0.0
 10
29.7429793549
 20
147.9655630513
 30
0.0
 10
29.5987071372
 20
147.9283670515
 30
0.0
 10
29.5412384382
 20
147.8952456666
 30
0.0
  0
SPLINE
  5
48D
100
AcDbEntity
  8
0
100
AcDbSpline
 62
7
  6
CONTINUOUS
 70
0
 71
3
 72
15
 73
11
 74
0
 42
0.0000001
 43
0.0000001
 44
0.0000000001
 40
0.0
 40
0.0
 40
0.0
 40
0.0
 40
0.1287972074
 40
0.2706054898
 40
0.4178799053
 40
0.562375555
 40
0.6961915357
 40
0.8135903033
 40
0.913065596
 40
1.0
 40
1.0
 40
1.0
 40
1.0
 10
74.9116123046
 20
121.0373059556
 30
0.0
 10
74.9116123046
 20
121.1355769132
 30
0.0
 10
74.8840587697
 20
121.3422721168
 30
0.0
 10
74.7815081317
 20
121.6457551494
 30
0.0
 10
74.62324816
 20
121.9380752399
 30
0.0
 10
74.4224082746
 20
122.1952501692
 30
0.0
 10
74.1948395581
 20
122.3967630766
 30
0.0
 10
73.9575348459
 20
122.5264079085
 30
0.0
 10
73.725204259
 20
122.5729881202
 30
0.0
 10
73.5809320414
 20
122.5357921204
 30
0.0
 10
73.5234633424
 20
122.5026707354
 30
0.0
  0
SPLINE
  5
48E
100
AcDbEntity
  8
0
100
AcDbSpline
 62
7
  6
CONTINUOUS
 70
0
 71
3
 72
11
 73
7
 74
0
 42
0.0000001
 43
0.0000001
 44
0.0000000001
 40
0.0
 40
0.0
 40
0.0
 40
0.0
 40
0.289775222
 40
0.5490688033
 40
0.782225076
 40
1.0
 40
1.0
 40
1.0
 40
1.0
 10
25.5907089756
 20
62.2279901923
 30
0.0
 10
25.3668690676
 20
62.3572212998
 30
0.0
 10
24.9217390196
 20
62.5690849284
 30
0.0
 10
24.2374553531
 20
62.7341787111
 30
0.0
 10
23.5954943525
 20
62.7179876053
 30
0.0
 10
23.2089609561
 20
62.5776538881
 30
0.0
 10
23.040739136
 20
62.4805315488
 30
0.0
  0
SPLINE
  5
48F
100
AcDbEntity
  8
0
100
AcDbSpline
 62
7
  6
CONTINUOUS
 70
0
 71
3
 72
13
 73
9
 74
0
 42
0.0000001
 43
0.0000001
 44
0.0000000001
 40
0.0
 40
0.0
 40
0.0
 40
0.0
 40
0.114249308
 40
0.237548547
 40
0.5000010844
 40
0.7624530283
 40
0.8857515741
 40
1.0
 40
1.0
 40
1.0
 40
1.0
 10
29.1969685738
 20
55.9818000169
 30
0.0
 10
29.1969685738
 20
56.2668493052
 30
0.0
 10
29.1447599331
 20
56.8601264215
 30
0.0
 10
28.8612154228
 20
58.0780378919
 30
0.0
 10
28.2026014682
 20
59.5718452142
 30
0.0
 10
27.2382282982
 20
60.8891196849
 30
0.0
 10
26.3252567719
 20
61.7436227225
 30
0.0
 10
25.8375683908
 20
62.0854690667
 30
0.0
 10
25.5907089756
 20
62.2279901923
 30
0.0
  0
SPLINE
  5
490
100
AcDbEntity
  8
0
100
AcDbSpline
 62
7
  6
CONTINUOUS
 70
0
 71
3
 72
11
 73
7
 74
0
 42
0.0000001
 43
0.0000001
 44
0.0000000001
 40
0.0
 40
0.0
 40
0.0
 40
0.0
 40
0.289775222
 40
0.5490688033
 40
0.782225076
 40
1.0
 40
1.0
 40
1.0
 40
1.0
 10
43.2684521042
 20
52.0219713293
 30
0.0
 10
43.0446121963
 20
52.1512024368
 30
0.0
 10
42.5994821483
 20
52.3630660654
 30
0.0
 10
41.9151984818
 20
52.5281598481
 30
0.0
 10
41.2732374812
 20
52.5119687423
 30
0.0
 10
40.8867040848
 20
52.3716350251
 30
0.0
 10
40.7184822647
 20
52.2745126858
 30
0.0
  0
SPLINE
  5
491
100
AcDbEntity
  8
0
100
AcDbSpline
 62
7
  6
CONTINUOUS
 70
0
 71
3
 72
13
 73
9
 74
0
 42
0.0000001
 43
0.0000001
 44
0.0000000001
 40
0.0
 40
0.0
 40
0.0
 40
0.0
 40
0.114249308
 40
0.237548547
 40
0.5000010844
 40
0.7624530283
 40
0.8857515741
 40
1.0
 40
1.0
 40
1.0
 40
1.0
 10
46.8747117025
 20
45.7757811539
 30
0.0
 10
46.8747117025
 20
46.0608304422
 30
0.0
 10
46.8225030618
 20
46.6541075585
 30
0.0
 10
46.5389585515
 20
47.8720190289
 30
0.0
 10
45.8803445969
 20
49.3658263512
 30
0.0
 10
44.9159714269
 20
50.6831008219
 30
0.0
 10
44.0029999006
 20
51.5376038595
 30
0.0
 10
43.5153115195
 20
51.8794502037
 30
0.0
 10
43.2684521042
 20
52.0219713293
 30
0.0
  0
SPLINE
  5
492
100
AcDbEntity
  8
0
100
AcDbSpline
 62
7
  6
CONTINUOUS
 70
0
 71
3
 72
11
 73
7
 74
0
 42
0.0000001
 43
0.0000001
 44
0.0000000001
 40
0.0
 40
0.0
 40
0.0
 40
0.0
 40
0.289775222
 40
0.5490688033
 40
0.782225076
 40
1.0
 40
1.0
 40
1.0
 40
1.0
 10
60.9461952329
 20
41.8159524663
 30
0.0
 10
60.722355325
 20
41.9451835738
 30
0.0
 10
60.277225277
 20
42.1570472024
 30
0.0
 10
59.5929416105
 20
42.3221409851
 30
0.0
 10
58.9509806099
 20
42.3059498793
 30
0.0
 10
58.5644472134
 20
42.1656161621
 30
0.0
 10
58.3962253934
 20
42.0684938228
 30
0.0
  0
SPLINE
  5
493
100
AcDbEntity
  8
0
100
AcDbSpline
 62
7
  6
CONTINUOUS
 70
0
 71
3
 72
13
 73
9
 74
0
 42
0.0000001
 43
0.0000001
 44
0.0000000001
 40
0.0
 40
0.0
 40
0.0
 40
0.0
 40
0.114249308
 40
0.237548547
 40
0.5000010844
 40
0.7624530283
 40
0.8857515741
 40
1.0
 40
1.0
 40
1.0
 40
1.0
 10
64.5524548312
 20
35.5697622909
 30
0.0
 10
64.5524548312
 20
35.8548115792
 30
0.0
 10
64.5002461905
 20
36.4480886955
 30
0.0
 10
64.2167016802
 20
37.6660001659
 30
0.0
 10
63.5580877256
 20
39.1598074882
 30
0.0
 10
62.5937145555
 20
40.4770819589
 30
0.0
 10
61.6807430292
 20
41.3315849965
 30
0.0
 10
61.1930546482
 20
41.6734313407
 30
0.0
 10
60.9461952329
 20
41.8159524663
 30
0.0
  0
SPLINE
  5
494
100
AcDbEntity
  8
0
100
AcDbSpline
 62
7
  6
CONTINUOUS
 70
0
 71
3
 72
11
 73
7
 74
0
 42
0.0000001
 43
0.0000001
 44
0.0000000001
 40
0.0
 40
0.0
 40
0.0
 40
0.0
 40
0.289775222
 40
0.5490688033
 40
0.782225076
 40
1.0
 40
1.0
 40
1.0
 40
1.0
 10
78.6239383616
 20
31.6099336033
 30
0.0
 10
78.4000984537
 20
31.7391647108
 30
0.0
 10
77.9549684056
 20
31.9510283394
 30
0.0
 10
77.2706847392
 20
32.116122122
 30
0.0
 10
76.6287237386
 20
32.0999310162
 30
0.0
 10
76.2421903421
 20
31.9595972991
 30
0.0
 10
76.0739685221
 20
31.8624749598
 30
0.0
  0
SPLINE
  5
495
100
AcDbEntity
  8
0
100
AcDbSpline
 62
7
  6
CONTINUOUS
 70
0
 71
3
 72
13
 73
9
 74
0
 42
0.0000001
 43
0.0000001
 44
0.0000000001
 40
0.0
 40
0.0
 40
0.0
 40
0.0
 40
0.114249308
 40
0.237548547
 40
0.5000010844
 40
0.7624530283
 40
0.8857515741
 40
1.0
 40
1.0
 40
1.0
 40
1.0
 10
82.2301979598
 20
25.3637434278
 30
0.0
 10
82.2301979598
 20
25.6487927162
 30
0.0
 10
82.1779893192
 20
26.2420698325
 30
0.0
 10
81.8944448089
 20
27.4599813029
 30
0.0
 10
81.2358308542
 20
28.9537886252
 30
0.0
 10
80.2714576842
 20
30.2710630959
 30
0.0
 10
79.3584861579
 20
31.1255661335
 30
0.0
 10
78.8707977768
 20
31.4674124777
 30
0.0
 10
78.6239383616
 20
31.6099336033
 30
0.0
  0
SPLINE
  5
496
100
AcDbEntity
  8
0
100
AcDbSpline
 62
7
  6
CONTINUOUS
 70
0
 71
3
 72
15
 73
11
 74
0
 42
0.0000001
 43
0.0000001
 44
0.0000000001
 40
0.0
 40
0.0
 40
0.0
 40
0.0
 40
0.1287972074
 40
0.2706054898
 40
0.4178799053
 40
0.562375555
 40
0.6961915357
 40
0.8135903033
 40
0.913065596
 40
1.0
 40
1.0
 40
1.0
 40
1.0
 10
48.6071305291
 20
48.0416009738
 30
0.0
 10
48.6071305291
 20
48.1398719314
 30
0.0
 10
48.5795769942
 20
48.346567135
 30
0.0
 10
48.4770263562
 20
48.6500501675
 30
0.0
 10
48.3187663846
 20
48.9423702581
 30
0.0
 10
48.1179264991
 20
49.1995451874
 30
0.0
 10
47.8903577827
 20
49.4010580947
 30
0.0
 10
47.6530530704
 20
49.5307029267
 30
0.0
 10
47.4207224835
 20
49.5772831384
 30
0.0
 10
47.2764502659
 20
49.5400871386
 30
0.0
 10
47.2189815669
 20
49.5069657536
 30
0.0
  0
SPLINE
  5
497
100
AcDbEntity
  8
0
100
AcDbSpline
 62
7
  6
CONTINUOUS
 70
0
 71
3
 72
15
 73
11
 74
0
 42
0.0000001
 43
0.0000001
 44
0.0000000001
 40
0.0
 40
0.0
 40
0.0
 40
0.0
 40
0.1287972074
 40
0.2706054898
 40
0.4178799053
 40
0.562375555
 40
0.6961915357
 40
0.8135903033
 40
0.913065596
 40
1.0
 40
1.0
 40
1.0
 40
1.0
 10
30.9293874004
 20
58.2476198368
 30
0.0
 10
30.9293874004
 20
58.3458907944
 30
0.0
 10
30.9018338656
 20
58.552585998
 30
0.0
 10
30.7992832275
 20
58.8560690306
 30
0.0
 10
30.6410232559
 20
59.1483891211
 30
0.0
 10
30.4401833704
 20
59.4055640504
 30
0.0
 10
30.212614654
 20
59.6070769578
 30
0.0
 10
29.9753099417
 20
59.7367217897
 30
0.0
 10
29.7429793549
 20
59.7833020014
 30
0.0
 10
29.5987071372
 20
59.7461060016
 30
0.0
 10
29.5412384382
 20
59.7129846166
 30
0.0
  0
SPLINE
  5
498
100
AcDbEntity
  8
0
100
AcDbSpline
 62
7
  6
CONTINUOUS
 70
0
 71
3
 72
15
 73
11
 74
0
 42
0.0000001
 43
0.0000001
 44
0.0000000001
 40
0.0
 40
0.0
 40
0.0
 40
0.0
 40
0.1287972074
 40
0.2706054898
 40
0.4178799053
 40
0.562375555
 40
0.6961915357
 40
0.8135903033
 40
0.913065596
 40
1.0
 40
1.0
 40
1.0
 40
1.0
 10
74.9116123046
 20
32.8550449057
 30
0.0
 10
74.9116123046
 20
32.9533158632
 30
0.0
 10
74.8840587697
 20
33.1600110668
 30
0.0
 10
74.7815081317
 20
33.4634940994
 30
0.0
 10
74.62324816
 20
33.75581419
 30
0.0
 10
74.4224082746
 20
34.0129891192
 30
0.0
 10
74.1948395581
 20
34.2145020266
 30
0.0
 10
73.9575348459
 20
34.3441468586
 30
0.0
 10
73.725204259
 20
34.3907270702
 30
0.0
 10
73.5809320414
 20
34.3535310704
 30
0.0
 10
73.5234633424
 20
34.3204096854
 30
0.0
  0
SPLINE
  5
499
100
AcDbEntity
  8
0
100
AcDbSpline
 62
7
  6
CONTINUOUS
 70
0
 71
3
 72
17
 73
13
 74
0
 42
0.0000001
 43
0.0000001
 44
0.0000000001
 40
0.0
 40
0.0
 40
0.0
 40
0.0
 40
0.1266146605
 40
0.2656912944
 40
0.4106567689
 40
0.5539615808
 40
0.6883213355
 40
0.8080359259
 40
0.8615981943
 40
0.910995433
 40
0.9567824972
 40
1.0
 40
1.0
 40
1.0
 40
1.0
 10
39.4500595884
 20
129.4263440213
 30
0.0
 10
39.4500595884
 20
129.6796664372
 30
0.0
 10
39.3822410002
 20
130.2118507818
 30
0.0
 10
39.1270544826
 20
130.9966765983
 30
0.0
 10
38.7315749938
 20
131.758968645
 30
0.0
 10
38.2253097414
 20
132.4410909808
 30
0.0
 10
37.6464118026
 20
132.9919664673
 30
0.0
 10
37.1179130611
 20
133.3204086874
 30
0.0
 10
36.6970478355
 20
133.4712440431
 30
0.0
 10
36.4028011881
 20
133.5254007257
 30
0.0
 10
36.1240601496
 20
133.5226515656
 30
0.0
 10
35.9488601146
 20
133.4814529002
 30
0.0
 10
35.8677596477
 20
133.4514659257
 30
0.0
  0
SPLINE
  5
49A
100
AcDbEntity
  8
0
100
AcDbSpline
 62
7
  6
CONTINUOUS
 70
0
 71
3
 72
17
 73
13
 74
0
 42
0.0000001
 43
0.0000001
 44
0.0000000001
 40
0.0
 40
0.0
 40
0.0
 40
0.0
 40
0.1266146605
 40
0.2656912944
 40
0.4106567689
 40
0.5539615808
 40
0.6883213355
 40
0.8080359259
 40
0.8615981943
 40
0.910995433
 40
0.9567824972
 40
1.0
 40
1.0
 40
1.0
 40
1.0
 10
86.8264111733
 20
102.0742134684
 30
0.0
 10
86.8264111733
 20
102.3275358844
 30
0.0
 10
86.758592585
 20
102.859720229
 30
0.0
 10
86.5034060675
 20
103.6445460455
 30
0.0
 10
86.1079265787
 20
104.4068380922
 30
0.0
 10
85.6016613262
 20
105.088960428
 30
0.0
 10
85.0227633875
 20
105.6398359145
 30
0.0
 10
84.4942646459
 20
105.9682781346
 30
0.0
 10
84.0733994203
 20
106.1191134902
 30
0.0
 10
83.7791527729
 20
106.1732701728
 30
0.0
 10
83.5004117345
 20
106.1705210127
 30
0.0
 10
83.3252116995
 20
106.1293223474
 30
0.0
 10
83.2441112326
 20
106.0993353729
 30
0.0
  0
SPLINE
  5
49B
100
AcDbEntity
  8
0
100
AcDbSpline
 62
7
  6
CONTINUOUS
 70
0
 71
3
 72
9
 73
5
 74
0
 42
0.0000001
 43
0.0000001
 44
0.0000000001
 40
0.0
 40
0.0
 40
0.0
 40
0.0
 40
0.2277435414
 40
1.0
 40
1.0
 40
1.0
 40
1.0
 10
86.6142782557
 20
101.1103998811
 30
0.0
 10
86.6500751061
 20
101.1767265425
 30
0.0
 10
86.7836674652
 20
101.4807910215
 30
0.0
 10
86.8264111733
 20
101.8186409616
 30
0.0
 10
86.8264111733
 20
102.0742134684
 30
0.0
  0
SPLINE
  5
49C
100
AcDbEntity
  8
0
100
AcDbSpline
 62
7
  6
CONTINUOUS
 70
0
 71
3
 72
11
 73
7
 74
0
 42
0.0000001
 43
0.0000001
 44
0.0000000001
 40
0.0
 40
0.0
 40
0.0
 40
0.0
 40
0.2176907916
 40
0.4508868986
 40
0.7106214304
 40
1.0
 40
1.0
 40
1.0
 40
1.0
 10
30.6911839948
 20
57.7212087924
 30
0.0
 10
30.7291178884
 20
57.7430715302
 30
0.0
 10
30.8000979738
 20
57.8027224604
 30
0.0
 10
30.8757386884
 20
57.926303809
 30
0.0
 10
30.920440659
 20
58.0786231279
 30
0.0
 10
30.9293874004
 20
58.1894185234
 30
0.0
 10
30.9293874004
 20
58.2476198368
 30
0.0
  0
SPLINE
  5
49D
100
AcDbEntity
  8
0
100
AcDbSpline
 62
7
  6
CONTINUOUS
 70
0
 71
3
 72
11
 73
7
 74
0
 42
0.0000001
 43
0.0000001
 44
0.0000000001
 40
0.0
 40
0.0
 40
0.0
 40
0.0
 40
0.2176907916
 40
0.4508868986
 40
0.7106214304
 40
1.0
 40
1.0
 40
1.0
 40
1.0
 10
48.3689271234
 20
47.5151899294
 30
0.0
 10
48.4068610171
 20
47.5370526672
 30
0.0
 10
48.4778411025
 20
47.5967035974
 30
0.0
 10
48.5534818171
 20
47.720284946
 30
0.0
 10
48.5981837877
 20
47.8726042649
 30
0.0
 10
48.6071305291
 20
47.9833996604
 30
0.0
 10
48.6071305291
 20
48.0416009738
 30
0.0
  0
SPLINE
  5
49E
100
AcDbEntity
  8
0
100
AcDbSpline
 62
7
  6
CONTINUOUS
 70
0
 71
3
 72
11
 73
7
 74
0
 42
0.0000001
 43
0.0000001
 44
0.0000000001
 40
0.0
 40
0.0
 40
0.0
 40
0.0
 40
0.2896413964
 40
0.5491107671
 40
0.7822355978
 40
1.0
 40
1.0
 40
1.0
 40
1.0
 10
82.6544637949
 20
52.3083294656
 30
0.0
 10
82.6544637949
 20
52.4501696701
 30
0.0
 10
82.6760235585
 20
52.7199833124
 30
0.0
 10
82.7852274075
 20
53.0906985852
 30
0.0
 10
82.9691808846
 20
53.3915867478
 30
0.0
 10
83.1420695881
 20
53.5367292481
 30
0.0
 10
83.2344024091
 20
53.5900867788
 30
0.0
  0
SPLINE
  5
49F
100
AcDbEntity
  8
0
100
AcDbSpline
 62
7
  6
CONTINUOUS
 70
0
 71
3
 72
11
 73
7
 74
0
 42
0.0000001
 43
0.0000001
 44
0.0000000001
 40
0.0
 40
0.0
 40
0.0
 40
0.0
 40
0.2177793823
 40
0.4509223235
 40
0.7102594935
 40
1.0
 40
1.0
 40
1.0
 40
1.0
 10
81.1739120144
 20
23.0290609656
 30
0.0
 10
81.3421579077
 20
23.126158383
 30
0.0
 10
81.6568969405
 20
23.3908227542
 30
0.0
 10
81.9919856508
 20
23.9386657424
 30
0.0
 10
82.1910737909
 20
24.6138679004
 30
0.0
 10
82.2301979598
 20
25.1053019203
 30
0.0
 10
82.2301979598
 20
25.3637434278
 30
0.0
  0
SPLINE
  5
4A0
100
AcDbEntity
  8
0
100
AcDbSpline
 62
7
  6
CONTINUOUS
 70
0
 71
3
 72
11
 73
7
 74
0
 42
0.0000001
 43
0.0000001
 44
0.0000000001
 40
0.0
 40
0.0
 40
0.0
 40
0.0
 40
0.2176907916
 40
0.4508868986
 40
0.7106214304
 40
1.0
 40
1.0
 40
1.0
 40
1.0
 10
74.6734088989
 20
120.5108949112
 30
0.0
 10
74.7113427926
 20
120.532757649
 30
0.0
 10
74.782322878
 20
120.5924085792
 30
0.0
 10
74.8579635925
 20
120.7159899278
 30
0.0
 10
74.9026655632
 20
120.8683092467
 30
0.0
 10
74.9116123046
 20
120.9791046422
 30
0.0
 10
74.9116123046
 20
121.0373059556
 30
0.0
  0
SPLINE
  5
4A1
100
AcDbEntity
  8
0
100
AcDbSpline
 62
7
  6
CONTINUOUS
 70
0
 71
3
 72
11
 73
7
 74
0
 42
0.0000001
 43
0.0000001
 44
0.0000000001
 40
0.0
 40
0.0
 40
0.0
 40
0.0
 40
0.2176907916
 40
0.4508868986
 40
0.7106214304
 40
1.0
 40
1.0
 40
1.0
 40
1.0
 10
30.6911839948
 20
145.9034698424
 30
0.0
 10
30.7291178884
 20
145.9253325801
 30
0.0
 10
30.8000979738
 20
145.9849835104
 30
0.0
 10
30.8757386884
 20
146.108564859
 30
0.0
 10
30.920440659
 20
146.2608841779
 30
0.0
 10
30.9293874004
 20
146.3716795733
 30
0.0
 10
30.9293874004
 20
146.4298808868
 30
0.0
  0
SPLINE
  5
4A2
100
AcDbEntity
  8
0
100
AcDbSpline
 62
7
  6
CONTINUOUS
 70
0
 71
3
 72
11
 73
7
 74
0
 42
0.0000001
 43
0.0000001
 44
0.0000000001
 40
0.0
 40
0.0
 40
0.0
 40
0.0
 40
0.2176907916
 40
0.4508868986
 40
0.7106214304
 40
1.0
 40
1.0
 40
1.0
 40
1.0
 10
48.3689271234
 20
135.6974509794
 30
0.0
 10
48.4068610171
 20
135.7193137171
 30
0.0
 10
48.4778411025
 20
135.7789646474
 30
0.0
 10
48.5534818171
 20
135.902545996
 30
0.0
 10
48.5981837877
 20
136.0548653149
 30
0.0
 10
48.6071305291
 20
136.1656607103
 30
0.0
 10
48.6071305291
 20
136.2238620238
 30
0.0
  0
SPLINE
  5
4A3
100
AcDbEntity
  8
0
100
AcDbSpline
 62
7
  6
CONTINUOUS
 70
0
 71
3
 72
11
 73
7
 74
0
 42
0.0000001
 43
0.0000001
 44
0.0000000001
 40
0.0
 40
0.0
 40
0.0
 40
0.0
 40
0.2177793823
 40
0.4509223235
 40
0.7102594935
 40
1.0
 40
1.0
 40
1.0
 40
1.0
 10
63.4961688858
 20
33.2350798286
 30
0.0
 10
63.664414779
 20
33.332177246
 30
0.0
 10
63.9791538118
 20
33.5968416172
 30
0.0
 10
64.3142425222
 20
34.1446846054
 30
0.0
 10
64.5133306622
 20
34.8198867634
 30
0.0
 10
64.5524548312
 20
35.3113207833
 30
0.0
 10
64.5524548312
 20
35.5697622909
 30
0.0
  0
SPLINE
  5
4A4
100
AcDbEntity
  8
0
100
AcDbSpline
 62
7
  6
CONTINUOUS
 70
0
 71
3
 72
13
 73
9
 74
0
 42
0.0000001
 43
0.0000001
 44
0.0000000001
 40
0.0
 40
0.0
 40
0.0
 40
0.0
 40
0.1142250362
 40
0.2375584228
 40
0.4999988469
 40
0.762439898
 40
0.8857740437
 40
1.0
 40
1.0
 40
1.0
 40
1.0
 10
27.217144952
 20
80.6403923669
 30
0.0
 10
27.0235697253
 20
80.7521505479
 30
0.0
 10
26.6410867162
 20
81.0203246968
 30
0.0
 10
25.9249635742
 20
81.6904453621
 30
0.0
 10
25.1686161787
 20
82.7236512181
 30
0.0
 10
24.6520013589
 20
83.8952690366
 30
0.0
 10
24.429714348
 20
84.8505131442
 30
0.0
 10
24.3887060515
 20
85.3158430986
 30
0.0
 10
24.3887060515
 20
85.5393650535
 30
0.0
  0
SPLINE
  5
4A5
100
AcDbEntity
  8
0
100
AcDbSpline
 62
7
  6
CONTINUOUS
 70
0
 71
3
 72
11
 73
7
 74
0
 42
0.0000001
 43
0.0000001
 44
0.0000000001
 40
0.0
 40
0.0
 40
0.0
 40
0.0
 40
0.2897033281
 40
0.5490895198
 40
0.7822165953
 40
1.0
 40
1.0
 40
1.0
 40
1.0
 10
24.3887060515
 20
115.7499544873
 30
0.0
 10
24.3887060515
 20
115.9526270649
 30
0.0
 10
24.4194341961
 20
116.3380673529
 30
0.0
 10
24.5755328884
 20
116.8676421102
 30
0.0
 10
24.8383512438
 20
117.2973620774
 30
0.0
 10
25.085217453
 20
117.5049021731
 30
0.0
 10
25.2171638855
 20
117.5810809683
 30
0.0
  0
SPLINE
  5
4A6
100
AcDbEntity
  8
0
100
AcDbSpline
 62
7
  6
CONTINUOUS
 70
0
 71
3
 72
11
 73
7
 74
0
 42
0.0000001
 43
0.0000001
 44
0.0000000001
 40
0.0
 40
0.0
 40
0.0
 40
0.0
 40
0.2895391946
 40
0.5491157945
 40
0.7822541179
 40
1.0
 40
1.0
 40
1.0
 40
1.0
 10
71.623536774
 20
129.304298795
 30
0.0
 10
71.5270596068
 20
129.3599986534
 30
0.0
 10
71.3349752788
 20
129.4512547831
 30
0.0
 10
71.0398580707
 20
129.5226867311
 30
0.0
 10
70.762808966
 20
129.5157271305
 30
0.0
 10
70.5961578944
 20
129.4550348341
 30
0.0
 10
70.5236032473
 20
129.4131456045
 30
0.0
  0
SPLINE
  5
4A7
100
AcDbEntity
  8
0
100
AcDbSpline
 62
7
  6
CONTINUOUS
 70
0
 71
3
 72
9
 73
5
 74
0
 42
0.0000001
 43
0.0000001
 44
0.0000000001
 40
0.0
 40
0.0
 40
0.0
 40
0.0
 40
0.524878868
 40
1.0
 40
1.0
 40
1.0
 40
1.0
 10
72.5829219068
 20
128.3680854593
 30
0.0
 10
72.4509786087
 20
128.5637273599
 30
0.0
 10
72.1643694537
 20
128.9139884982
 30
0.0
 10
71.8085260824
 20
129.1974975842
 30
0.0
 10
71.623536774
 20
129.304298795
 30
0.0
  0
SPLINE
  5
4A8
100
AcDbEntity
  8
0
100
AcDbSpline
 62
7
  6
CONTINUOUS
 70
0
 71
3
 72
11
 73
7
 74
0
 42
0.0000001
 43
0.0000001
 44
0.0000000001
 40
0.0
 40
0.0
 40
0.0
 40
0.0
 40
0.2177793823
 40
0.4509223235
 40
0.7102594935
 40
1.0
 40
1.0
 40
1.0
 40
1.0
 10
45.8184257571
 20
43.4410986916
 30
0.0
 10
45.9866716503
 20
43.538196109
 30
0.0
 10
46.3014106831
 20
43.8028604802
 30
0.0
 10
46.6364993935
 20
44.3507034684
 30
0.0
 10
46.8355875335
 20
45.0259056264
 30
0.0
 10
46.8747117025
 20
45.5173396463
 30
0.0
 10
46.8747117025
 20
45.7757811539
 30
0.0
  0
SPLINE
  5
4A9
100
AcDbEntity
  8
0
100
AcDbSpline
 62
7
  6
CONTINUOUS
 70
0
 71
3
 72
11
 73
7
 74
0
 42
0.0000001
 43
0.0000001
 44
0.0000000001
 40
0.0
 40
0.0
 40
0.0
 40
0.0
 40
0.2895391946
 40
0.5491157945
 40
0.7822541179
 40
1.0
 40
1.0
 40
1.0
 40
1.0
 10
53.9457936453
 20
139.510317658
 30
0.0
 10
53.8493164782
 20
139.5660175164
 30
0.0
 10
53.6572321501
 20
139.6572736461
 30
0.0
 10
53.362114942
 20
139.7287055941
 30
0.0
 10
53.0850658373
 20
139.7217459935
 30
0.0
 10
52.9184147657
 20
139.6610536971
 30
0.0
 10
52.8458601187
 20
139.6191644675
 30
0.0
  0
SPLINE
  5
4AA
100
AcDbEntity
  8
0
100
AcDbSpline
 62
7
  6
CONTINUOUS
 70
0
 71
3
 72
9
 73
5
 74
0
 42
0.0000001
 43
0.0000001
 44
0.0000000001
 40
0.0
 40
0.0
 40
0.0
 40
0.0
 40
0.524878868
 40
1.0
 40
1.0
 40
1.0
 40
1.0
 10
54.9051787782
 20
138.5741043223
 30
0.0
 10
54.7732354801
 20
138.7697462229
 30
0.0
 10
54.486626325
 20
139.1200073612
 30
0.0
 10
54.1307829538
 20
139.4035164472
 30
0.0
 10
53.9457936453
 20
139.510317658
 30
0.0
  0
SPLINE
  5
4AB
100
AcDbEntity
  8
0
100
AcDbSpline
 62
7
  6
CONTINUOUS
 70
0
 71
3
 72
11
 73
7
 74
0
 42
0.0000001
 43
0.0000001
 44
0.0000000001
 40
0.0
 40
0.0
 40
0.0
 40
0.0
 40
0.2895391946
 40
0.5491157945
 40
0.7822541179
 40
1.0
 40
1.0
 40
1.0
 40
1.0
 10
36.2680505167
 20
149.716336521
 30
0.0
 10
36.1715733495
 20
149.7720363794
 30
0.0
 10
35.9794890215
 20
149.8632925091
 30
0.0
 10
35.6843718133
 20
149.9347244571
 30
0.0
 10
35.4073227086
 20
149.9277648565
 30
0.0
 10
35.240671637
 20
149.8670725601
 30
0.0
 10
35.16811699
 20
149.8251833305
 30
0.0
  0
SPLINE
  5
4AC
100
AcDbEntity
  8
0
100
AcDbSpline
 62
7
  6
CONTINUOUS
 70
0
 71
3
 72
9
 73
5
 74
0
 42
0.0000001
 43
0.0000001
 44
0.0000000001
 40
0.0
 40
0.0
 40
0.0
 40
0.0
 40
0.524878868
 40
1.0
 40
1.0
 40
1.0
 40
1.0
 10
37.2274356495
 20
148.7801231853
 30
0.0
 10
37.0954923514
 20
148.9757650859
 30
0.0
 10
36.8088831963
 20
149.3260262242
 30
0.0
 10
36.4530398251
 20
149.6095353102
 30
0.0
 10
36.2680505167
 20
149.716336521
 30
0.0
  0
SPLINE
  5
4AD
100
AcDbEntity
  8
0
100
AcDbSpline
 62
7
  6
CONTINUOUS
 70
0
 71
3
 72
13
 73
9
 74
0
 42
0.0000001
 43
0.0000001
 44
0.0000000001
 40
0.0
 40
0.0
 40
0.0
 40
0.0
 40
0.1142484259
 40
0.2375469717
 40
0.4999989156
 40
0.762451453
 40
0.885750692
 40
1.0
 40
1.0
 40
1.0
 40
1.0
 10
28.4191243244
 20
150.2469225401
 30
0.0
 10
28.1722649092
 20
150.3894436656
 30
0.0
 10
27.6845765281
 20
150.7312900098
 30
0.0
 10
26.7716050018
 20
151.5857930474
 30
0.0
 10
25.8072318318
 20
152.9030675182
 30
0.0
 10
25.1486178771
 20
154.3968748404
 30
0.0
 10
24.8650733668
 20
155.6147863108
 30
0.0
 10
24.8128647262
 20
156.2080634271
 30
0.0
 10
24.8128647262
 20
156.4931127155
 30
0.0
  0
SPLINE
  5
4AE
100
AcDbEntity
  8
0
100
AcDbSpline
 62
7
  6
CONTINUOUS
 70
0
 71
3
 72
9
 73
5
 74
0
 42
0.0000001
 43
0.0000001
 44
0.0000000001
 40
0.0
 40
0.0
 40
0.0
 40
0.0
 40
0.2590427934
 40
1.0
 40
1.0
 40
1.0
 40
1.0
 10
24.8128647262
 20
156.4931127155
 30
0.0
 10
24.8128647262
 20
156.5547499401
 30
0.0
 10
24.8174594812
 20
156.7926447703
 30
0.0
 10
24.8409025398
 20
157.0303702005
 30
0.0
 10
24.8709716627
 20
157.2040921312
 30
0.0
  0
SPLINE
  5
4AF
100
AcDbEntity
  8
0
100
AcDbSpline
 62
7
  6
CONTINUOUS
 70
0
 71
3
 72
11
 73
7
 74
0
 42
0.0000001
 43
0.0000001
 44
0.0000000001
 40
0.0
 40
0.0
 40
0.0
 40
0.0
 40
0.2177793823
 40
0.4509223235
 40
0.7102594935
 40
1.0
 40
1.0
 40
1.0
 40
1.0
 10
28.1406826284
 20
53.6471175546
 30
0.0
 10
28.3089285217
 20
53.744214972
 30
0.0
 10
28.6236675544
 20
54.0088793432
 30
0.0
 10
28.9587562648
 20
54.5567223314
 30
0.0
 10
29.1578444049
 20
55.2319244894
 30
0.0
 10
29.1969685738
 20
55.7233585093
 30
0.0
 10
29.1969685738
 20
55.9818000169
 30
0.0
  0
SPLINE
  5
4B0
100
AcDbEntity
  8
0
100
AcDbSpline
 62
7
  6
CONTINUOUS
 70
0
 71
3
 72
9
 73
5
 74
0
 42
0.0000001
 43
0.0000001
 44
0.0000000001
 40
0.0
 40
0.0
 40
0.0
 40
0.0
 40
0.2419900696
 40
1.0
 40
1.0
 40
1.0
 40
1.0
 10
29.0706250202
 20
150.5559290385
 30
0.0
 10
28.990021785
 20
150.6132389332
 30
0.0
 10
28.6623318652
 20
150.8576153935
 30
0.0
 10
28.3560543561
 20
151.1302850346
 30
0.0
 10
28.1362710137
 20
151.3486169503
 30
0.0
  0
SPLINE
  5
4B1
100
AcDbEntity
  8
0
100
AcDbSpline
 62
7
  6
CONTINUOUS
 70
0
 71
3
 72
9
 73
5
 74
0
 42
0.0000001
 43
0.0000001
 44
0.0000000001
 40
0.0
 40
0.0
 40
0.0
 40
0.0
 40
0.4998733516
 40
1.0
 40
1.0
 40
1.0
 40
1.0
 10
28.8846814177
 20
152.1700866883
 30
0.0
 10
28.3932270491
 20
152.6993744196
 30
0.0
 10
27.5347146167
 20
153.8776148061
 30
0.0
 10
26.9383239839
 20
155.207847444
 30
0.0
 10
26.7226619664
 20
155.8975514479
 30
0.0
  0
SPLINE
  5
4B2
100
AcDbEntity
  8
0
100
AcDbSpline
 62
7
  6
CONTINUOUS
 70
0
 71
3
 72
16
 73
12
 74
0
 42
0.0000001
 43
0.0000001
 44
0.0000000001
 40
0.0
 40
0.0
 40
0.0
 40
0.0
 40
0.1500091717
 40
0.3003370643
 40
0.4459386532
 40
0.5822567417
 40
0.7058510956
 40
0.8151509304
 40
0.9114141012
 40
0.9562508431
 40
1.0
 40
1.0
 40
1.0
 40
1.0
 10
43.0298477462
 20
161.44098069
 30
0.0
 10
42.8871495082
 20
161.7954446452
 30
0.0
 10
42.5527664975
 20
162.4864438893
 30
0.0
 10
41.9287935365
 20
163.4392476993
 30
0.0
 10
41.2067341616
 20
164.2751554629
 30
0.0
 10
40.4218146905
 20
164.9530741732
 30
0.0
 10
39.6104798298
 20
165.4399582577
 30
0.0
 10
38.8090485534
 20
165.711667602
 30
0.0
 10
38.1593658465
 20
165.7402084116
 30
0.0
 10
37.6986506931
 20
165.6315172118
 30
0.0
 10
37.4914625022
 20
165.5378777207
 30
0.0
 10
37.3949432181
 20
165.4821748858
 30
0.0
  0
SPLINE
  5
4B3
100
AcDbEntity
  8
0
100
AcDbSpline
 62
7
  6
CONTINUOUS
 70
0
 71
3
 72
11
 73
7
 74
0
 42
0.0000001
 43
0.0000001
 44
0.0000000001
 40
0.0
 40
0.0
 40
0.0
 40
0.0
 40
0.2617394749
 40
0.5228503714
 40
0.7720982904
 40
1.0
 40
1.0
 40
1.0
 40
1.0
 10
39.8513773871
 20
159.5940819834
 30
0.0
 10
39.5833165518
 20
159.9353883778
 30
0.0
 10
39.0999203581
 20
160.6595916599
 30
0.0
 10
38.5496957414
 20
161.8205939963
 30
0.0
 10
38.198189951
 20
162.9981748751
 30
0.0
 10
38.1064168658
 20
163.7902198337
 30
0.0
 10
38.1064168658
 20
164.1681028083
 30
0.0
  0
SPLINE
  5
4B4
100
AcDbEntity
  8
0
100
AcDbSpline
 62
7
  6
CONTINUOUS
 70
0
 71
3
 72
9
 73
5
 74
0
 42
0.0000001
 43
0.0000001
 44
0.0000000001
 40
0.0
 40
0.0
 40
0.0
 40
0.0
 40
0.2724534301
 40
1.0
 40
1.0
 40
1.0
 40
1.0
 10
38.1064168658
 20
164.1681028083
 30
0.0
 10
38.1064168658
 20
164.3064697394
 30
0.0
 10
38.1282555508
 20
164.8132059749
 30
0.0
 10
38.2451446902
 20
165.322323636
 30
0.0
 10
38.4052562781
 20
165.655319084
 30
0.0
  0
SPLINE
  5
4B5
100
AcDbEntity
  8
0
100
AcDbSpline
 62
7
  6
CONTINUOUS
 70
0
 71
3
 72
11
 73
7
 74
0
 42
0.0000001
 43
0.0000001
 44
0.0000000001
 40
0.0
 40
0.0
 40
0.0
 40
0.0
 40
0.2879789324
 40
0.5531979132
 40
0.7906887199
 40
1.0
 40
1.0
 40
1.0
 40
1.0
 10
63.5452576419
 20
177.6500698264
 30
0.0
 10
63.1906238242
 20
178.0493847082
 30
0.0
 10
62.4571656029
 20
178.7725981459
 30
0.0
 10
61.260402703
 20
179.6320203937
 30
0.0
 10
60.0552524487
 20
180.192703551
 30
0.0
 10
59.2295248137
 20
180.3545858369
 30
0.0
 10
58.8415161279
 20
180.3657148196
 30
0.0
  0
SPLINE
  5
4B6
100
AcDbEntity
  8
0
100
AcDbSpline
 62
7
  6
CONTINUOUS
 70
0
 71
3
 72
11
 73
7
 74
0
 42
0.0000001
 43
0.0000001
 44
0.0000000001
 40
0.0
 40
0.0
 40
0.0
 40
0.0
 40
0.217745073
 40
0.4508830113
 40
0.7104597664
 40
1.0
 40
1.0
 40
1.0
 40
1.0
 10
17.8017739594
 20
62.1647854104
 30
0.0
 10
17.8710322632
 20
62.2047715051
 30
0.0
 10
18.0007456186
 20
62.3135711228
 30
0.0
 10
18.1387290811
 20
62.5392816799
 30
0.0
 10
18.2205306562
 20
62.8173443523
 30
0.0
 10
18.236767834
 20
63.0196930056
 30
0.0
 10
18.236767834
 20
63.1260341291
 30
0.0
  0
SPLINE
  5
4B7
100
AcDbEntity
  8
0
100
AcDbSpline
 62
7
  6
CONTINUOUS
 70
0
 71
3
 72
11
 73
7
 74
0
 42
0.0000001
 43
0.0000001
 44
0.0000000001
 40
0.0
 40
0.0
 40
0.0
 40
0.0
 40
0.2177739674
 40
0.4509298424
 40
0.7102237828
 40
1.0
 40
1.0
 40
1.0
 40
1.0
 10
81.1739082011
 20
117.743347979
 30
0.0
 10
81.3421337794
 20
117.8404724882
 30
0.0
 10
81.6569411064
 20
118.1050595349
 30
0.0
 10
81.9919492727
 20
118.6529343866
 30
0.0
 10
82.1911157579
 20
119.3281089179
 30
0.0
 10
82.2301979598
 20
119.8195494169
 30
0.0
 10
82.2301979598
 20
120.0780238149
 30
0.0
  0
SPLINE
  5
4B8
100
AcDbEntity
  8
0
100
AcDbSpline
 62
7
  6
CONTINUOUS
 70
0
 71
3
 72
9
 73
5
 74
0
 42
0.0000001
 43
0.0000001
 44
0.0000000001
 40
0.0
 40
0.0
 40
0.0
 40
0.0
 40
0.2404067816
 40
1.0
 40
1.0
 40
1.0
 40
1.0
 10
82.1531215076
 20
119.3036883257
 30
0.0
 10
82.0946187417
 20
119.3240962355
 30
0.0
 10
81.8535386138
 20
119.4154440756
 30
0.0
 10
81.621896646
 20
119.530982506
 30
0.0
 10
81.4523537104
 20
119.628865951
 30
0.0
  0
SPLINE
  5
4B9
100
AcDbEntity
  8
0
100
AcDbSpline
 62
7
  6
CONTINUOUS
 70
0
 71
3
 72
16
 73
12
 74
0
 42
0.0000001
 43
0.0000001
 44
0.0000000001
 40
0.0
 40
0.0
 40
0.0
 40
0.0
 40
0.1505991945
 40
0.3010866552
 40
0.4465393529
 40
0.5825517642
 40
0.705838829
 40
0.8149596467
 40
0.9112427535
 40
0.9561552864
 40
1.0
 40
1.0
 40
1.0
 40
1.0
 10
60.8953313586
 20
171.1653413704
 30
0.0
 10
60.6809561737
 20
171.6783385224
 30
0.0
 10
60.1832309169
 20
172.6763751661
 30
0.0
 10
59.2635510464
 20
174.0497390217
 30
0.0
 10
58.2065105473
 20
175.2505611622
 30
0.0
 10
57.0624818696
 20
176.2212253429
 30
0.0
 10
55.8832662644
 20
176.9154776977
 30
0.0
 10
54.720347319
 20
177.2995884272
 30
0.0
 10
53.7791167934
 20
177.3348681197
 30
0.0
 10
53.1112885562
 20
177.175007472
 30
0.0
 10
52.8106643781
 20
177.0386137396
 30
0.0
 10
52.6704806951
 20
176.9576836676
 30
0.0
  0
SPLINE
  5
4BA
100
AcDbEntity
  8
0
100
AcDbSpline
 62
7
  6
CONTINUOUS
 70
0
 71
3
 72
11
 73
7
 74
0
 42
0.0000001
 43
0.0000001
 44
0.0000000001
 40
0.0
 40
0.0
 40
0.0
 40
0.0
 40
0.2588309118
 40
0.520510374
 40
0.7714644005
 40
1.0
 40
1.0
 40
1.0
 40
1.0
 10
101.5638144019
 20
133.4836170925
 30
0.0
 10
101.2583640145
 20
133.8287505461
 30
0.0
 10
100.7045917442
 20
134.5782233967
 30
0.0
 10
100.0713575198
 20
135.803689844
 30
0.0
 10
99.6626412971
 20
137.0647890969
 30
0.0
 10
99.5541825034
 20
137.9195612722
 30
0.0
 10
99.5541825034
 20
138.3265031595
 30
0.0
  0
SPLINE
  5
4BB
100
AcDbEntity
  8
0
100
AcDbSpline
 62
7
  6
CONTINUOUS
 70
0
 71
3
 72
15
 73
11
 74
0
 42
0.0000001
 43
0.0000001
 44
0.0000000001
 40
0.0
 40
0.0
 40
0.0
 40
0.0
 40
0.1474472005
 40
0.2951408445
 40
0.4388212648
 40
0.5745808354
 40
0.6993123182
 40
0.8112227861
 40
0.9104920327
 40
1.0
 40
1.0
 40
1.0
 40
1.0
 10
59.5003389647
 20
170.3605641917
 30
0.0
 10
59.3030426473
 20
170.8350233079
 30
0.0
 10
58.8480750028
 20
171.7608396473
 30
0.0
 10
58.0126593211
 20
173.045926002
 30
0.0
 10
57.0522253874
 20
174.1884630261
 30
0.0
 10
56.0072030428
 20
175.1398490091
 30
0.0
 10
54.9205749852
 20
175.8603651886
 30
0.0
 10
53.8342050471
 20
176.3189213064
 30
0.0
 10
52.7889826764
 20
176.492578361
 30
0.0
 10
52.1232027107
 20
176.3985405762
 30
0.0
 10
51.827642489
 20
176.2988170985
 30
0.0
  0
SPLINE
  5
4BC
100
AcDbEntity
  8
0
100
AcDbSpline
 62
7
  6
CONTINUOUS
 70
0
 71
3
 72
12
 73
8
 74
0
 42
0.0000001
 43
0.0000001
 44
0.0000000001
 40
0.0
 40
0.0
 40
0.0
 40
0.0
 40
0.2895549604
 40
0.5486516043
 40
0.7816332992
 40
0.8918403153
 40
1.0
 40
1.0
 40
1.0
 40
1.0
 10
48.2886725711
 20
171.8097268776
 30
0.0
 10
48.2886725711
 20
172.18476542
 30
0.0
 10
48.3455663277
 20
172.8979172134
 30
0.0
 10
48.6337913883
 20
173.8772423406
 30
0.0
 10
49.0483495424
 20
174.552803556
 30
0.0
 10
49.4666814363
 20
174.9644908093
 30
0.0
 10
49.6999961954
 20
175.1272392773
 30
0.0
 10
49.8213192947
 20
175.1972835505
 30
0.0
  0
SPLINE
  5
4BD
100
AcDbEntity
  8
0
100
AcDbSpline
 62
7
  6
CONTINUOUS
 70
0
 71
3
 72
11
 73
7
 74
0
 42
0.0000001
 43
0.0000001
 44
0.0000000001
 40
0.0
 40
0.0
 40
0.0
 40
0.0
 40
0.289748519
 40
0.5490831644
 40
0.7822238581
 40
1.0
 40
1.0
 40
1.0
 40
1.0
 10
46.5209531174
 20
168.9445597485
 30
0.0
 10
46.5209531174
 20
169.1979409784
 30
0.0
 10
46.5593104454
 20
169.6797446346
 30
0.0
 10
46.754499783
 20
170.3417090589
 30
0.0
 10
47.0830148812
 20
170.8788053537
 30
0.0
 10
47.3915830887
 20
171.138271651
 30
0.0
 10
47.5565270706
 20
171.2334649734
 30
0.0
  0
SPLINE
  5
4BE
100
AcDbEntity
  8
0
100
AcDbSpline
 62
7
  6
CONTINUOUS
 70
0
 71
3
 72
11
 73
7
 74
0
 42
0.0000001
 43
0.0000001
 44
0.0000000001
 40
0.0
 40
0.0
 40
0.0
 40
0.0
 40
0.2177739674
 40
0.4509298424
 40
0.7102237828
 40
1.0
 40
1.0
 40
1.0
 40
1.0
 10
63.4961650724
 20
127.9493668421
 30
0.0
 10
63.6643906507
 20
128.0464913512
 30
0.0
 10
63.9791979777
 20
128.3110783979
 30
0.0
 10
64.314206144
 20
128.8589532496
 30
0.0
 10
64.5133726292
 20
129.5341277809
 30
0.0
 10
64.5524548312
 20
130.0255682799
 30
0.0
 10
64.5524548312
 20
130.2840426779
 30
0.0
  0
SPLINE
  5
4BF
100
AcDbEntity
  8
0
100
AcDbSpline
 62
7
  6
CONTINUOUS
 70
0
 71
3
 72
13
 73
9
 74
0
 42
0.0000001
 43
0.0000001
 44
0.0000000001
 40
0.0
 40
0.0
 40
0.0
 40
0.0
 40
0.1142484259
 40
0.2375469717
 40
0.4999989156
 40
0.762451453
 40
0.885750692
 40
1.0
 40
1.0
 40
1.0
 40
1.0
 10
46.0968674531
 20
140.040903677
 30
0.0
 10
45.8500080378
 20
140.1834248026
 30
0.0
 10
45.3623196568
 20
140.5252711468
 30
0.0
 10
44.4493481305
 20
141.3797741844
 30
0.0
 10
43.4849749604
 20
142.6970486552
 30
0.0
 10
42.8263610058
 20
144.1908559774
 30
0.0
 10
42.5428164955
 20
145.4087674478
 30
0.0
 10
42.4906078548
 20
146.0020445641
 30
0.0
 10
42.4906078548
 20
146.2870938525
 30
0.0
  0
SPLINE
  5
4C0
100
AcDbEntity
  8
0
100
AcDbSpline
 62
7
  6
CONTINUOUS
 70
0
 71
3
 72
9
 73
5
 74
0
 42
0.0000001
 43
0.0000001
 44
0.0000000001
 40
0.0
 40
0.0
 40
0.0
 40
0.0
 40
0.2590427934
 40
1.0
 40
1.0
 40
1.0
 40
1.0
 10
42.4906078548
 20
146.2870938525
 30
0.0
 10
42.4906078548
 20
146.3487310771
 30
0.0
 10
42.4952026099
 20
146.5866259073
 30
0.0
 10
42.5186456685
 20
146.8243513375
 30
0.0
 10
42.5487147914
 20
146.9980732682
 30
0.0
  0
SPLINE
  5
4C1
100
AcDbEntity
  8
0
100
AcDbSpline
 62
7
  6
CONTINUOUS
 70
0
 71
3
 72
9
 73
5
 74
0
 42
0.0000001
 43
0.0000001
 44
0.0000000001
 40
0.0
 40
0.0
 40
0.0
 40
0.0
 40
0.2404067816
 40
1.0
 40
1.0
 40
1.0
 40
1.0
 10
64.4753783789
 20
129.5097071887
 30
0.0
 10
64.416875613
 20
129.5301150985
 30
0.0
 10
64.1757954851
 20
129.6214629386
 30
0.0
 10
63.9441535173
 20
129.737001369
 30
0.0
 10
63.7746105818
 20
129.834884814
 30
0.0
  0
SPLINE
  5
4C2
100
AcDbEntity
  8
0
100
AcDbSpline
 62
7
  6
CONTINUOUS
 70
0
 71
3
 72
9
 73
5
 74
0
 42
0.0000001
 43
0.0000001
 44
0.0000000001
 40
0.0
 40
0.0
 40
0.0
 40
0.0
 40
0.2419900696
 40
1.0
 40
1.0
 40
1.0
 40
1.0
 10
46.7483681489
 20
140.3499101755
 30
0.0
 10
46.6677649137
 20
140.4072200702
 30
0.0
 10
46.3400749938
 20
140.6515965305
 30
0.0
 10
46.0337974847
 20
140.9242661716
 30
0.0
 10
45.8140141423
 20
141.1425980873
 30
0.0
  0
SPLINE
  5
4C3
100
AcDbEntity
  8
0
100
AcDbSpline
 62
7
  6
CONTINUOUS
 70
0
 71
3
 72
11
 73
7
 74
0
 42
0.0000001
 43
0.0000001
 44
0.0000000001
 40
0.0
 40
0.0
 40
0.0
 40
0.0
 40
0.2588309118
 40
0.520510374
 40
0.7714644005
 40
1.0
 40
1.0
 40
1.0
 40
1.0
 10
83.8860712732
 20
143.6896359555
 30
0.0
 10
83.5806208858
 20
144.0347694091
 30
0.0
 10
83.0268486155
 20
144.7842422597
 30
0.0
 10
82.3936143911
 20
146.0097087071
 30
0.0
 10
81.9848981684
 20
147.2708079599
 30
0.0
 10
81.8764393748
 20
148.1255801352
 30
0.0
 10
81.8764393748
 20
148.5325220225
 30
0.0
  0
SPLINE
  5
4C4
100
AcDbEntity
  8
0
100
AcDbSpline
 62
7
  6
CONTINUOUS
 70
0
 71
3
 72
9
 73
5
 74
0
 42
0.0000001
 43
0.0000001
 44
0.0000000001
 40
0.0
 40
0.0
 40
0.0
 40
0.0
 40
0.4998733516
 40
1.0
 40
1.0
 40
1.0
 40
1.0
 10
46.5624245463
 20
141.9640678253
 30
0.0
 10
46.0709701778
 20
142.4933555566
 30
0.0
 10
45.2124577454
 20
143.671595943
 30
0.0
 10
44.6160671126
 20
145.0018285809
 30
0.0
 10
44.4004050951
 20
145.6915325849
 30
0.0
  0
SPLINE
  5
4C5
100
AcDbEntity
  8
0
100
AcDbSpline
 62
7
  6
CONTINUOUS
 70
0
 71
3
 72
16
 73
12
 74
0
 42
0.0000001
 43
0.0000001
 44
0.0000000001
 40
0.0
 40
0.0
 40
0.0
 40
0.0
 40
0.1500091717
 40
0.3003370643
 40
0.4459386532
 40
0.5822567417
 40
0.7058510956
 40
0.8151509304
 40
0.9114141012
 40
0.9562508431
 40
1.0
 40
1.0
 40
1.0
 40
1.0
 10
60.7075908749
 20
151.234961827
 30
0.0
 10
60.5648926369
 20
151.5894257822
 30
0.0
 10
60.2305096261
 20
152.2804250263
 30
0.0
 10
59.6065366652
 20
153.2332288363
 30
0.0
 10
58.8844772903
 20
154.0691365999
 30
0.0
 10
58.0995578192
 20
154.7470553102
 30
0.0
 10
57.2882229585
 20
155.2339393947
 30
0.0
 10
56.4867916821
 20
155.505648739
 30
0.0
 10
55.8371089751
 20
155.5341895486
 30
0.0
 10
55.3763938218
 20
155.4254983488
 30
0.0
 10
55.1692056309
 20
155.3318588577
 30
0.0
 10
55.0726863468
 20
155.2761560228
 30
0.0
  0
SPLINE
  5
4C6
100
AcDbEntity
  8
0
100
AcDbSpline
 62
7
  6
CONTINUOUS
 70
0
 71
3
 72
11
 73
7
 74
0
 42
0.0000001
 43
0.0000001
 44
0.0000000001
 40
0.0
 40
0.0
 40
0.0
 40
0.0
 40
0.2617394749
 40
0.5228503714
 40
0.7720982904
 40
1.0
 40
1.0
 40
1.0
 40
1.0
 10
57.5291205158
 20
149.3880631204
 30
0.0
 10
57.2610596804
 20
149.7293695148
 30
0.0
 10
56.7776634868
 20
150.4535727969
 30
0.0
 10
56.2274388701
 20
151.6145751333
 30
0.0
 10
55.8759330797
 20
152.7921560121
 30
0.0
 10
55.7841599945
 20
153.5842009707
 30
0.0
 10
55.7841599945
 20
153.9620839452
 30
0.0
  0
SPLINE
  5
4C7
100
AcDbEntity
  8
0
100
AcDbSpline
 62
7
  6
CONTINUOUS
 70
0
 71
3
 72
9
 73
5
 74
0
 42
0.0000001
 43
0.0000001
 44
0.0000000001
 40
0.0
 40
0.0
 40
0.0
 40
0.0
 40
0.2724534301
 40
1.0
 40
1.0
 40
1.0
 40
1.0
 10
55.7841599945
 20
153.9620839452
 30
0.0
 10
55.7841599945
 20
154.1004508764
 30
0.0
 10
55.8059986795
 20
154.6071871119
 30
0.0
 10
55.9228878188
 20
155.116304773
 30
0.0
 10
56.0829994068
 20
155.449300221
 30
0.0
  0
SPLINE
  5
4C8
100
AcDbEntity
  8
0
100
AcDbSpline
 62
7
  6
CONTINUOUS
 70
0
 71
3
 72
11
 73
7
 74
0
 42
0.0000001
 43
0.0000001
 44
0.0000000001
 40
0.0
 40
0.0
 40
0.0
 40
0.0
 40
0.2879789324
 40
0.5531979132
 40
0.7906887199
 40
1.0
 40
1.0
 40
1.0
 40
1.0
 10
81.2230007705
 20
167.4440509634
 30
0.0
 10
80.8683669529
 20
167.8433658452
 30
0.0
 10
80.1349087316
 20
168.5665792828
 30
0.0
 10
78.9381458317
 20
169.4260015307
 30
0.0
 10
77.7329955774
 20
169.986684688
 30
0.0
 10
76.9072679424
 20
170.1485669739
 30
0.0
 10
76.5192592566
 20
170.1596959566
 30
0.0
  0
SPLINE
  5
4C9
100
AcDbEntity
  8
0
100
AcDbSpline
 62
7
  6
CONTINUOUS
 70
0
 71
3
 72
11
 73
7
 74
0
 42
0.0000001
 43
0.0000001
 44
0.0000000001
 40
0.0
 40
0.0
 40
0.0
 40
0.0
 40
0.2177739674
 40
0.4509298424
 40
0.7102237828
 40
1.0
 40
1.0
 40
1.0
 40
1.0
 10
45.8184219438
 20
138.1553857051
 30
0.0
 10
45.986647522
 20
138.2525102142
 30
0.0
 10
46.301454849
 20
138.5170972609
 30
0.0
 10
46.6364630153
 20
139.0649721126
 30
0.0
 10
46.8356295005
 20
139.7401466439
 30
0.0
 10
46.8747117025
 20
140.2315871429
 30
0.0
 10
46.8747117025
 20
140.4900615409
 30
0.0
  0
SPLINE
  5
4CA
100
AcDbEntity
  8
0
100
AcDbSpline
 62
7
  6
CONTINUOUS
 70
0
 71
3
 72
9
 73
5
 74
0
 42
0.0000001
 43
0.0000001
 44
0.0000000001
 40
0.0
 40
0.0
 40
0.0
 40
0.0
 40
0.2404067816
 40
1.0
 40
1.0
 40
1.0
 40
1.0
 10
46.7976352502
 20
139.7157260517
 30
0.0
 10
46.7391324843
 20
139.7361339615
 30
0.0
 10
46.4980523565
 20
139.8274818016
 30
0.0
 10
46.2664103887
 20
139.943020232
 30
0.0
 10
46.0968674531
 20
140.040903677
 30
0.0
  0
SPLINE
  5
4CB
100
AcDbEntity
  8
0
100
AcDbSpline
 62
7
  6
CONTINUOUS
 70
0
 71
3
 72
16
 73
12
 74
0
 42
0.0000001
 43
0.0000001
 44
0.0000000001
 40
0.0
 40
0.0
 40
0.0
 40
0.0
 40
0.1505991945
 40
0.3010866552
 40
0.4465393529
 40
0.5825517642
 40
0.705838829
 40
0.8149596467
 40
0.9112427535
 40
0.9561552864
 40
1.0
 40
1.0
 40
1.0
 40
1.0
 10
78.5730744873
 20
160.9593225074
 30
0.0
 10
78.3586993024
 20
161.4723196594
 30
0.0
 10
77.8609740456
 20
162.4703563031
 30
0.0
 10
76.941294175
 20
163.8437201587
 30
0.0
 10
75.8842536759
 20
165.0445422992
 30
0.0
 10
74.7402249982
 20
166.0152064799
 30
0.0
 10
73.561009393
 20
166.7094588347
 30
0.0
 10
72.3980904477
 20
167.0935695642
 30
0.0
 10
71.456859922
 20
167.1288492567
 30
0.0
 10
70.7890316849
 20
166.968988609
 30
0.0
 10
70.4884075068
 20
166.8325948766
 30
0.0
 10
70.3482238238
 20
166.7516648046
 30
0.0
  0
SPLINE
  5
4CC
100
AcDbEntity
  8
0
100
AcDbSpline
 62
7
  6
CONTINUOUS
 70
0
 71
3
 72
11
 73
7
 74
0
 42
0.0000001
 43
0.0000001
 44
0.0000000001
 40
0.0
 40
0.0
 40
0.0
 40
0.0
 40
0.2588309118
 40
0.520510374
 40
0.7714644005
 40
1.0
 40
1.0
 40
1.0
 40
1.0
 10
66.2083281446
 20
153.8956548185
 30
0.0
 10
65.9028777571
 20
154.2407882722
 30
0.0
 10
65.3491054868
 20
154.9902611227
 30
0.0
 10
64.7158712624
 20
156.2157275701
 30
0.0
 10
64.3071550397
 20
157.4768268229
 30
0.0
 10
64.1986962461
 20
158.3315989982
 30
0.0
 10
64.1986962461
 20
158.7385408855
 30
0.0
  0
SPLINE
  5
4CD
100
AcDbEntity
  8
0
100
AcDbSpline
 62
7
  6
CONTINUOUS
 70
0
 71
3
 72
15
 73
11
 74
0
 42
0.0000001
 43
0.0000001
 44
0.0000000001
 40
0.0
 40
0.0
 40
0.0
 40
0.0
 40
0.1474472005
 40
0.2951408445
 40
0.4388212648
 40
0.5745808354
 40
0.6993123182
 40
0.8112227861
 40
0.9104920327
 40
1.0
 40
1.0
 40
1.0
 40
1.0
 10
77.1780820934
 20
160.1545453287
 30
0.0
 10
76.980785776
 20
160.6290044449
 30
0.0
 10
76.5258181315
 20
161.5548207843
 30
0.0
 10
75.6904024498
 20
162.839907139
 30
0.0
 10
74.729968516
 20
163.9824441631
 30
0.0
 10
73.6849461715
 20
164.9338301461
 30
0.0
 10
72.5983181139
 20
165.6543463256
 30
0.0
 10
71.5119481758
 20
166.1129024434
 30
0.0
 10
70.4667258051
 20
166.286559498
 30
0.0
 10
69.8009458393
 20
166.1925217132
 30
0.0
 10
69.5053856177
 20
166.0927982355
 30
0.0
  0
SPLINE
  5
4CE
100
AcDbEntity
  8
0
100
AcDbSpline
 62
7
  6
CONTINUOUS
 70
0
 71
3
 72
12
 73
8
 74
0
 42
0.0000001
 43
0.0000001
 44
0.0000000001
 40
0.0
 40
0.0
 40
0.0
 40
0.0
 40
0.2895549604
 40
0.5486516043
 40
0.7816332992
 40
0.8918403153
 40
1.0
 40
1.0
 40
1.0
 40
1.0
 10
65.9664156998
 20
161.6037080146
 30
0.0
 10
65.9664156998
 20
161.978746557
 30
0.0
 10
66.0233094564
 20
162.6918983504
 30
0.0
 10
66.311534517
 20
163.6712234776
 30
0.0
 10
66.7260926711
 20
164.346784693
 30
0.0
 10
67.144424565
 20
164.7584719463
 30
0.0
 10
67.3777393241
 20
164.9212204143
 30
0.0
 10
67.4990624234
 20
164.9912646875
 30
0.0
  0
SPLINE
  5
4CF
100
AcDbEntity
  8
0
100
AcDbSpline
 62
7
  6
CONTINUOUS
 70
0
 71
3
 72
11
 73
7
 74
0
 42
0.0000001
 43
0.0000001
 44
0.0000000001
 40
0.0
 40
0.0
 40
0.0
 40
0.0
 40
0.289748519
 40
0.5490831644
 40
0.7822238581
 40
1.0
 40
1.0
 40
1.0
 40
1.0
 10
64.1986962461
 20
158.7385408855
 30
0.0
 10
64.1986962461
 20
158.9919221154
 30
0.0
 10
64.237053574
 20
159.4737257716
 30
0.0
 10
64.4322429117
 20
160.1356901959
 30
0.0
 10
64.7607580099
 20
160.6727864907
 30
0.0
 10
65.0693262174
 20
160.932252788
 30
0.0
 10
65.2342701993
 20
161.0274461104
 30
0.0
  0
SPLINE
  5
4D0
100
AcDbEntity
  8
0
100
AcDbSpline
 62
7
  6
CONTINUOUS
 70
0
 71
3
 72
11
 73
7
 74
0
 42
0.0000001
 43
0.0000001
 44
0.0000000001
 40
0.0
 40
0.0
 40
0.0
 40
0.0
 40
0.2177739674
 40
0.4509298424
 40
0.7102237828
 40
1.0
 40
1.0
 40
1.0
 40
1.0
 10
28.1406788151
 20
148.3614045681
 30
0.0
 10
28.3089043934
 20
148.4585290772
 30
0.0
 10
28.6237117203
 20
148.7231161239
 30
0.0
 10
28.9587198867
 20
149.2709909756
 30
0.0
 10
29.1578863719
 20
149.9461655069
 30
0.0
 10
29.1969685738
 20
150.4376060059
 30
0.0
 10
29.1969685738
 20
150.6960804039
 30
0.0
  0
SPLINE
  5
4D1
100
AcDbEntity
  8
0
100
AcDbSpline
 62
7
  6
CONTINUOUS
 70
0
 71
3
 72
13
 73
9
 74
0
 42
0.0000001
 43
0.0000001
 44
0.0000000001
 40
0.0
 40
0.0
 40
0.0
 40
0.0
 40
0.1142484259
 40
0.2375469717
 40
0.4999989156
 40
0.762451453
 40
0.885750692
 40
1.0
 40
1.0
 40
1.0
 40
1.0
 10
63.7746105818
 20
129.834884814
 30
0.0
 10
63.5277511665
 20
129.9774059396
 30
0.0
 10
63.0400627854
 20
130.3192522838
 30
0.0
 10
62.1270912591
 20
131.1737553214
 30
0.0
 10
61.1627180891
 20
132.4910297921
 30
0.0
 10
60.5041041345
 20
133.9848371144
 30
0.0
 10
60.2205596242
 20
135.2027485848
 30
0.0
 10
60.1683509835
 20
135.7960257011
 30
0.0
 10
60.1683509835
 20
136.0810749895
 30
0.0
  0
SPLINE
  5
4D2
100
AcDbEntity
  8
0
100
AcDbSpline
 62
7
  6
CONTINUOUS
 70
0
 71
3
 72
9
 73
5
 74
0
 42
0.0000001
 43
0.0000001
 44
0.0000000001
 40
0.0
 40
0.0
 40
0.0
 40
0.0
 40
0.2590427934
 40
1.0
 40
1.0
 40
1.0
 40
1.0
 10
60.1683509835
 20
136.0810749895
 30
0.0
 10
60.1683509835
 20
136.1427122141
 30
0.0
 10
60.1729457385
 20
136.3806070442
 30
0.0
 10
60.1963887971
 20
136.6183324745
 30
0.0
 10
60.2264579201
 20
136.7920544052
 30
0.0
  0
SPLINE
  5
4D3
100
AcDbEntity
  8
0
100
AcDbSpline
 62
7
  6
CONTINUOUS
 70
0
 71
3
 72
9
 73
5
 74
0
 42
0.0000001
 43
0.0000001
 44
0.0000000001
 40
0.0
 40
0.0
 40
0.0
 40
0.0
 40
0.2404067816
 40
1.0
 40
1.0
 40
1.0
 40
1.0
 10
29.1198921216
 20
149.9217449147
 30
0.0
 10
29.0613893556
 20
149.9421528245
 30
0.0
 10
28.8203092278
 20
150.0335006647
 30
0.0
 10
28.58866726
 20
150.149039095
 30
0.0
 10
28.4191243244
 20
150.2469225401
 30
0.0
  0
SPLINE
  5
4D4
100
AcDbEntity
  8
0
100
AcDbSpline
 62
7
  6
CONTINUOUS
 70
0
 71
3
 72
9
 73
5
 74
0
 42
0.0000001
 43
0.0000001
 44
0.0000000001
 40
0.0
 40
0.0
 40
0.0
 40
0.0
 40
0.2419900696
 40
1.0
 40
1.0
 40
1.0
 40
1.0
 10
64.4261112776
 20
130.1438913125
 30
0.0
 10
64.3455080423
 20
130.2012012072
 30
0.0
 10
64.0178181225
 20
130.4455776675
 30
0.0
 10
63.7115406134
 20
130.7182473085
 30
0.0
 10
63.491757271
 20
130.9365792243
 30
0.0
  0
SPLINE
  5
4D5
100
AcDbEntity
  8
0
100
AcDbSpline
 62
7
  6
CONTINUOUS
 70
0
 71
3
 72
11
 73
7
 74
0
 42
0.0000001
 43
0.0000001
 44
0.0000000001
 40
0.0
 40
0.0
 40
0.0
 40
0.0
 40
0.2588309118
 40
0.520510374
 40
0.7714644005
 40
1.0
 40
1.0
 40
1.0
 40
1.0
 10
48.5305850159
 20
164.1016736815
 30
0.0
 10
48.2251346285
 20
164.4468071352
 30
0.0
 10
47.6713623582
 20
165.1962799858
 30
0.0
 10
47.0381281338
 20
166.4217464331
 30
0.0
 10
46.6294119111
 20
167.6828456859
 30
0.0
 10
46.5209531174
 20
168.5376178612
 30
0.0
 10
46.5209531174
 20
168.9445597485
 30
0.0
  0
SPLINE
  5
4D6
100
AcDbEntity
  8
0
100
AcDbSpline
 62
7
  6
CONTINUOUS
 70
0
 71
3
 72
9
 73
5
 74
0
 42
0.0000001
 43
0.0000001
 44
0.0000000001
 40
0.0
 40
0.0
 40
0.0
 40
0.0
 40
0.4998733516
 40
1.0
 40
1.0
 40
1.0
 40
1.0
 10
64.240167675
 20
131.7580489623
 30
0.0
 10
63.7487133064
 20
132.2873366936
 30
0.0
 10
62.8902008741
 20
133.46557708
 30
0.0
 10
62.2938102413
 20
134.7958097179
 30
0.0
 10
62.0781482238
 20
135.4855137219
 30
0.0
  0
SPLINE
  5
4D7
100
AcDbEntity
  8
0
100
AcDbSpline
 62
7
  6
CONTINUOUS
 70
0
 71
3
 72
16
 73
12
 74
0
 42
0.0000001
 43
0.0000001
 44
0.0000000001
 40
0.0
 40
0.0
 40
0.0
 40
0.0
 40
0.1500091717
 40
0.3003370643
 40
0.4459386532
 40
0.5822567417
 40
0.7058510956
 40
0.8151509304
 40
0.9114141012
 40
0.9562508431
 40
1.0
 40
1.0
 40
1.0
 40
1.0
 10
78.3853340035
 20
141.028942964
 30
0.0
 10
78.2426357656
 20
141.3834069191
 30
0.0
 10
77.9082527548
 20
142.0744061632
 30
0.0
 10
77.2842797938
 20
143.0272099733
 30
0.0
 10
76.562220419
 20
143.8631177369
 30
0.0
 10
75.7773009479
 20
144.5410364472
 30
0.0
 10
74.9659660872
 20
145.0279205317
 30
0.0
 10
74.1645348108
 20
145.299629876
 30
0.0
 10
73.5148521038
 20
145.3281706856
 30
0.0
 10
73.0541369504
 20
145.2194794858
 30
0.0
 10
72.8469487595
 20
145.1258399947
 30
0.0
 10
72.7504294755
 20
145.0701371598
 30
0.0
  0
SPLINE
  5
4D8
100
AcDbEntity
  8
0
100
AcDbSpline
 62
7
  6
CONTINUOUS
 70
0
 71
3
 72
11
 73
7
 74
0
 42
0.0000001
 43
0.0000001
 44
0.0000000001
 40
0.0
 40
0.0
 40
0.0
 40
0.0
 40
0.2617394749
 40
0.5228503714
 40
0.7720982904
 40
1.0
 40
1.0
 40
1.0
 40
1.0
 10
75.2068636445
 20
139.1820442574
 30
0.0
 10
74.9388028091
 20
139.5233506518
 30
0.0
 10
74.4554066154
 20
140.2475539339
 30
0.0
 10
73.9051819988
 20
141.4085562703
 30
0.0
 10
73.5536762084
 20
142.5861371491
 30
0.0
 10
73.4619031231
 20
143.3781821077
 30
0.0
 10
73.4619031231
 20
143.7560650822
 30
0.0
  0
SPLINE
  5
4D9
100
AcDbEntity
  8
0
100
AcDbSpline
 62
7
  6
CONTINUOUS
 70
0
 71
3
 72
9
 73
5
 74
0
 42
0.0000001
 43
0.0000001
 44
0.0000000001
 40
0.0
 40
0.0
 40
0.0
 40
0.0
 40
0.2724534301
 40
1.0
 40
1.0
 40
1.0
 40
1.0
 10
73.4619031231
 20
143.7560650822
 30
0.0
 10
73.4619031231
 20
143.8944320134
 30
0.0
 10
73.4837418082
 20
144.4011682488
 30
0.0
 10
73.6006309475
 20
144.91028591
 30
0.0
 10
73.7607425354
 20
145.243281358
 30
0.0
  0
SPLINE
  5
4DA
100
AcDbEntity
  8
0
100
AcDbSpline
 62
7
  6
CONTINUOUS
 70
0
 71
3
 72
11
 73
7
 74
0
 42
0.0000001
 43
0.0000001
 44
0.0000000001
 40
0.0
 40
0.0
 40
0.0
 40
0.0
 40
0.2879789324
 40
0.5531979132
 40
0.7906887199
 40
1.0
 40
1.0
 40
1.0
 40
1.0
 10
98.9007438992
 20
157.2380321004
 30
0.0
 10
98.5461100815
 20
157.6373469822
 30
0.0
 10
97.8126518603
 20
158.3605604198
 30
0.0
 10
96.6158889603
 20
159.2199826677
 30
0.0
 10
95.410738706
 20
159.780665825
 30
0.0
 10
94.585011071
 20
159.9425481109
 30
0.0
 10
94.1970023852
 20
159.9536770936
 30
0.0
  0
SPLINE
  5
4DB
100
AcDbEntity
  8
0
100
AcDbSpline
 62
7
  6
CONTINUOUS
 70
0
 71
3
 72
11
 73
7
 74
0
 42
0.0000001
 43
0.0000001
 44
0.0000000001
 40
0.0
 40
0.0
 40
0.0
 40
0.0
 40
0.2177839466
 40
0.4509170841
 40
0.710307871
 40
1.0
 40
1.0
 40
1.0
 40
1.0
 10
36.4045625804
 20
143.4378066559
 30
0.0
 10
36.5348498911
 20
143.5130513374
 30
0.0
 10
36.7786506803
 20
143.7179719524
 30
0.0
 10
37.0381826838
 20
144.1423399037
 30
0.0
 10
37.1923210773
 20
144.6652952333
 30
0.0
 10
37.2226639542
 20
145.0459137128
 30
0.0
 10
37.2226639542
 20
145.2460454229
 30
0.0
  0
SPLINE
  5
4DC
100
AcDbEntity
  8
0
100
AcDbSpline
 62
7
  6
CONTINUOUS
 70
0
 71
3
 72
11
 73
7
 74
0
 42
0.0000001
 43
0.0000001
 44
0.0000000001
 40
0.0
 40
0.0
 40
0.0
 40
0.0
 40
0.2177839466
 40
0.4509170841
 40
0.710307871
 40
1.0
 40
1.0
 40
1.0
 40
1.0
 10
54.082305709
 20
133.2317877929
 30
0.0
 10
54.2125930197
 20
133.3070324744
 30
0.0
 10
54.456393809
 20
133.5119530894
 30
0.0
 10
54.7159258125
 20
133.9363210407
 30
0.0
 10
54.870064206
 20
134.4592763703
 30
0.0
 10
54.9004070829
 20
134.8398948498
 30
0.0
 10
54.9004070829
 20
135.0400265599
 30
0.0
  0
SPLINE
  5
4DD
100
AcDbEntity
  8
0
100
AcDbSpline
 62
7
  6
CONTINUOUS
 70
0
 71
3
 72
11
 73
7
 74
0
 42
0.0000001
 43
0.0000001
 44
0.0000000001
 40
0.0
 40
0.0
 40
0.0
 40
0.0
 40
0.2177839466
 40
0.4509170841
 40
0.710307871
 40
1.0
 40
1.0
 40
1.0
 40
1.0
 10
71.7600488377
 20
123.0257689299
 30
0.0
 10
71.8903361484
 20
123.1010136114
 30
0.0
 10
72.1341369377
 20
123.3059342264
 30
0.0
 10
72.3936689412
 20
123.7303021777
 30
0.0
 10
72.5478073346
 20
124.2532575073
 30
0.0
 10
72.5781502116
 20
124.6338759867
 30
0.0
 10
72.5781502116
 20
124.8340076969
 30
0.0
  0
SPLINE
  5
4DE
100
AcDbEntity
  8
0
100
AcDbSpline
 62
7
  6
CONTINUOUS
 70
0
 71
3
 72
16
 73
12
 74
0
 42
0.0000001
 43
0.0000001
 44
0.0000000001
 40
0.0
 40
0.0
 40
0.0
 40
0.0
 40
0.1505991945
 40
0.3010866552
 40
0.4465393529
 40
0.5825517642
 40
0.705838829
 40
0.8149596467
 40
0.9112427535
 40
0.9561552864
 40
1.0
 40
1.0
 40
1.0
 40
1.0
 10
96.250817616
 20
150.7533036444
 30
0.0
 10
96.036442431
 20
151.2663007964
 30
0.0
 10
95.5387171742
 20
152.2643374401
 30
0.0
 10
94.6190373037
 20
153.6377012957
 30
0.0
 10
93.5619968046
 20
154.8385234361
 30
0.0
 10
92.4179681269
 20
155.8091876169
 30
0.0
 10
91.2387525217
 20
156.5034399717
 30
0.0
 10
90.0758335764
 20
156.8875507012
 30
0.0
 10
89.1346030507
 20
156.9228303936
 30
0.0
 10
88.4667748135
 20
156.7629697459
 30
0.0
 10
88.1661506355
 20
156.6265760136
 30
0.0
 10
88.0259669525
 20
156.5456459416
 30
0.0
  0
SPLINE
  5
4DF
100
AcDbEntity
  8
0
100
AcDbSpline
 62
7
  6
CONTINUOUS
 70
0
 71
3
 72
11
 73
7
 74
0
 42
0.0000001
 43
0.0000001
 44
0.0000000001
 40
0.0
 40
0.0
 40
0.0
 40
0.0
 40
0.2177843137
 40
0.4509117637
 40
0.7102976701
 40
1.0
 40
1.0
 40
1.0
 40
1.0
 10
76.5934776035
 20
53.0901819835
 30
0.0
 10
76.4615341478
 20
53.0140049068
 30
0.0
 10
76.1583735456
 20
52.9039854414
 30
0.0
 10
75.6548289515
 20
52.8912357894
 30
0.0
 10
75.1181684253
 20
53.0208297393
 30
0.0
 10
74.7690118331
 20
53.186930303
 30
0.0
 10
74.5934965369
 20
53.2882618141
 30
0.0
  0
SPLINE
  5
4E0
100
AcDbEntity
  8
0
100
AcDbSpline
 62
7
  6
CONTINUOUS
 70
0
 71
3
 72
15
 73
11
 74
0
 42
0.0000001
 43
0.0000001
 44
0.0000000001
 40
0.0
 40
0.0
 40
0.0
 40
0.0
 40
0.1474472005
 40
0.2951408445
 40
0.4388212648
 40
0.5745808354
 40
0.6993123182
 40
0.8112227861
 40
0.9104920327
 40
1.0
 40
1.0
 40
1.0
 40
1.0
 10
94.855825222
 20
149.9485264656
 30
0.0
 10
94.6585289047
 20
150.4229855819
 30
0.0
 10
94.2035612602
 20
151.3488019212
 30
0.0
 10
93.3681455784
 20
152.6338882759
 30
0.0
 10
92.4077116447
 20
153.7764253001
 30
0.0
 10
91.3626893002
 20
154.7278112831
 30
0.0
 10
90.2760612426
 20
155.4483274626
 30
0.0
 10
89.1896913044
 20
155.9068835804
 30
0.0
 10
88.1444689337
 20
156.080540635
 30
0.0
 10
87.478688968
 20
155.9865028502
 30
0.0
 10
87.1831287464
 20
155.8867793725
 30
0.0
  0
SPLINE
  5
4E1
100
AcDbEntity
  8
0
100
AcDbSpline
 62
7
  6
CONTINUOUS
 70
0
 71
3
 72
13
 73
9
 74
0
 42
0.0000001
 43
0.0000001
 44
0.0000000001
 40
0.0
 40
0.0
 40
0.0
 40
0.0
 40
0.0978764882
 40
0.1997725505
 40
0.3089524282
 40
0.4275276948
 40
0.6950419537
 40
1.0
 40
1.0
 40
1.0
 40
1.0
 10
86.0343396416
 20
48.740423927
 30
0.0
 10
85.9655251456
 20
48.7006572271
 30
0.0
 10
85.8138336066
 20
48.6375745501
 30
0.0
 10
85.5634983643
 20
48.6005946533
 30
0.0
 10
85.2946502655
 20
48.6200026237
 30
0.0
 10
84.9039937487
 20
48.7231728293
 30
0.0
 10
84.4044492737
 20
48.9949820588
 30
0.0
 10
84.0535338496
 20
49.3046865625
 30
0.0
 10
83.882826074
 20
49.4840791518
 30
0.0
  0
SPLINE
  5
4E2
100
AcDbEntity
  8
0
100
AcDbSpline
 62
7
  6
CONTINUOUS
 70
0
 71
3
 72
11
 73
7
 74
0
 42
0.0000001
 43
0.0000001
 44
0.0000000001
 40
0.0
 40
0.0
 40
0.0
 40
0.0
 40
0.2575581693
 40
0.519419875
 40
0.7711197848
 40
1.0
 40
1.0
 40
1.0
 40
1.0
 10
83.845743024
 20
49.5235610448
 30
0.0
 10
83.6654273307
 20
49.718055354
 30
0.0
 10
83.337867779
 20
50.1448758763
 30
0.0
 10
82.9625716152
 20
50.8485888883
 30
0.0
 10
82.7194177322
 20
51.5772078884
 30
0.0
 10
82.6544637949
 20
52.0726403007
 30
0.0
 10
82.6544637949
 20
52.3083294656
 30
0.0
  0
SPLINE
  5
4E3
100
AcDbEntity
  8
0
100
AcDbSpline
 62
7
  6
CONTINUOUS
 70
0
 71
3
 72
12
 73
8
 74
0
 42
0.0000001
 43
0.0000001
 44
0.0000000001
 40
0.0
 40
0.0
 40
0.0
 40
0.0
 40
0.2895549604
 40
0.5486516043
 40
0.7816332992
 40
0.8918403153
 40
1.0
 40
1.0
 40
1.0
 40
1.0
 10
83.6441588284
 20
151.3976891516
 30
0.0
 10
83.6441588284
 20
151.772727694
 30
0.0
 10
83.7010525851
 20
152.4858794874
 30
0.0
 10
83.9892776457
 20
153.4652046146
 30
0.0
 10
84.4038357998
 20
154.14076583
 30
0.0
 10
84.8221676937
 20
154.5524530833
 30
0.0
 10
85.0554824528
 20
154.7152015513
 30
0.0
 10
85.1768055521
 20
154.7852458245
 30
0.0
  0
SPLINE
  5
4E4
100
AcDbEntity
  8
0
100
AcDbSpline
 62
7
  6
CONTINUOUS
 70
0
 71
3
 72
9
 73
5
 74
0
 42
0.0000001
 43
0.0000001
 44
0.0000000001
 40
0.0
 40
0.0
 40
0.0
 40
0.0
 40
0.4742123076
 40
1.0
 40
1.0
 40
1.0
 40
1.0
 10
86.2329268691
 20
48.5105215996
 30
0.0
 10
86.3538601994
 20
48.5896593634
 30
0.0
 10
86.5742500544
 20
48.8133076571
 30
0.0
 10
86.6974204575
 20
49.0984004548
 30
0.0
 10
86.741863276
 20
49.2523584191
 30
0.0
  0
SPLINE
  5
4E5
100
AcDbEntity
  8
0
100
AcDbSpline
 62
7
  6
CONTINUOUS
 70
0
 71
3
 72
9
 73
5
 74
0
 42
0.0000001
 43
0.0000001
 44
0.0000000001
 40
0.0
 40
0.0
 40
0.0
 40
0.0
 40
0.2371648371
 40
1.0
 40
1.0
 40
1.0
 40
1.0
 10
86.7531643308
 20
49.2932557354
 30
0.0
 10
86.7655202122
 20
49.3400198816
 30
0.0
 10
86.8100934122
 20
49.5391730114
 30
0.0
 10
86.8264111733
 20
49.7441314867
 30
0.0
 10
86.8264111733
 20
49.8997090139
 30
0.0
  0
SPLINE
  5
4E6
100
AcDbEntity
  8
0
100
AcDbSpline
 62
7
  6
CONTINUOUS
 70
0
 71
3
 72
11
 73
7
 74
0
 42
0.0000001
 43
0.0000001
 44
0.0000000001
 40
0.0
 40
0.0
 40
0.0
 40
0.0
 40
0.289748519
 40
0.5490831644
 40
0.7822238581
 40
1.0
 40
1.0
 40
1.0
 40
1.0
 10
81.8764393748
 20
148.5325220225
 30
0.0
 10
81.8764393748
 20
148.7859032524
 30
0.0
 10
81.9147967027
 20
149.2677069086
 30
0.0
 10
82.1099860403
 20
149.9296713329
 30
0.0
 10
82.4385011386
 20
150.4667676277
 30
0.0
 10
82.7470693461
 20
150.726233925
 30
0.0
 10
82.912013328
 20
150.8214272474
 30
0.0
  0
SPLINE
  5
4E7
100
AcDbEntity
  8
0
100
AcDbSpline
 62
7
  6
CONTINUOUS
 70
0
 71
3
 72
11
 73
7
 74
0
 42
0.0000001
 43
0.0000001
 44
0.0000000001
 40
0.0
 40
0.0
 40
0.0
 40
0.0
 40
0.217745073
 40
0.4508830113
 40
0.7104597664
 40
1.0
 40
1.0
 40
1.0
 40
1.0
 10
17.8517709379
 20
155.1594631392
 30
0.0
 10
17.9243272561
 20
155.2013533336
 30
0.0
 10
18.060217438
 20
155.3153338855
 30
0.0
 10
18.2047715416
 20
155.5517925644
 30
0.0
 10
18.2904684298
 20
155.8430963164
 30
0.0
 10
18.3074788065
 20
156.0550806198
 30
0.0
 10
18.3074788065
 20
156.1664856064
 30
0.0
  0
SPLINE
  5
4E8
100
AcDbEntity
  8
0
100
AcDbSpline
 62
7
  6
CONTINUOUS
 70
0
 71
3
 72
13
 73
9
 74
0
 42
0.0000001
 43
0.0000001
 44
0.0000000001
 40
0.0
 40
0.0
 40
0.0
 40
0.0
 40
0.1142484259
 40
0.2375469717
 40
0.4999989156
 40
0.762451453
 40
0.885750692
 40
1.0
 40
1.0
 40
1.0
 40
1.0
 10
81.4523537104
 20
119.628865951
 30
0.0
 10
81.2054942952
 20
119.7713870766
 30
0.0
 10
80.7178059141
 20
120.1132334208
 30
0.0
 10
79.8048343878
 20
120.9677364584
 30
0.0
 10
78.8404612178
 20
122.2850109291
 30
0.0
 10
78.1818472632
 20
123.7788182514
 30
0.0
 10
77.8983027529
 20
124.9967297218
 30
0.0
 10
77.8460941122
 20
125.5900068381
 30
0.0
 10
77.8460941122
 20
125.8750561264
 30
0.0
  0
SPLINE
  5
4E9
100
AcDbEntity
  8
0
100
AcDbSpline
 62
7
  6
CONTINUOUS
 70
0
 71
3
 72
9
 73
5
 74
0
 42
0.0000001
 43
0.0000001
 44
0.0000000001
 40
0.0
 40
0.0
 40
0.0
 40
0.0
 40
0.2590427934
 40
1.0
 40
1.0
 40
1.0
 40
1.0
 10
77.8460941122
 20
125.8750561264
 30
0.0
 10
77.8460941122
 20
125.9366933511
 30
0.0
 10
77.8506888672
 20
126.1745881812
 30
0.0
 10
77.8741319258
 20
126.4123136115
 30
0.0
 10
77.9042010487
 20
126.5860355422
 30
0.0
  0
SPLINE
  5
4EA
100
AcDbEntity
  8
0
100
AcDbSpline
 62
7
  6
CONTINUOUS
 70
0
 71
3
 72
9
 73
5
 74
0
 42
0.0000001
 43
0.0000001
 44
0.0000000001
 40
0.0
 40
0.0
 40
0.0
 40
0.0
 40
0.2419900696
 40
1.0
 40
1.0
 40
1.0
 40
1.0
 10
82.1038544063
 20
119.9378724495
 30
0.0
 10
82.023251171
 20
119.9951823442
 30
0.0
 10
81.6955612512
 20
120.2395588045
 30
0.0
 10
81.3892837421
 20
120.5122284455
 30
0.0
 10
81.1695003997
 20
120.7305603613
 30
0.0
  0
SPLINE
  5
4EB
100
AcDbEntity
  8
0
100
AcDbSpline
 62
7
  6
CONTINUOUS
 70
0
 71
3
 72
9
 73
5
 74
0
 42
0.0000001
 43
0.0000001
 44
0.0000000001
 40
0.0
 40
0.0
 40
0.0
 40
0.0
 40
0.4998733516
 40
1.0
 40
1.0
 40
1.0
 40
1.0
 10
81.9179108037
 20
121.5520300993
 30
0.0
 10
81.4264564351
 20
122.0813178306
 30
0.0
 10
80.5679440027
 20
123.259558217
 30
0.0
 10
79.97155337
 20
124.5897908549
 30
0.0
 10
79.7558913525
 20
125.2794948589
 30
0.0
  0
SPLINE
  5
4EC
100
AcDbEntity
  8
0
100
AcDbSpline
 62
7
  6
CONTINUOUS
 70
0
 71
3
 72
16
 73
12
 74
0
 42
0.0000001
 43
0.0000001
 44
0.0000000001
 40
0.0
 40
0.0
 40
0.0
 40
0.0
 40
0.1500091717
 40
0.3003370643
 40
0.4459386532
 40
0.5822567417
 40
0.7058510956
 40
0.8151509304
 40
0.9114141012
 40
0.9562508431
 40
1.0
 40
1.0
 40
1.0
 40
1.0
 10
96.0630771322
 20
130.822924101
 30
0.0
 10
95.9203788943
 20
131.1773880561
 30
0.0
 10
95.5859958835
 20
131.8683873002
 30
0.0
 10
94.9620229225
 20
132.8211911103
 30
0.0
 10
94.2399635476
 20
133.6570988739
 30
0.0
 10
93.4550440765
 20
134.3350175842
 30
0.0
 10
92.6437092158
 20
134.8219016687
 30
0.0
 10
91.8422779395
 20
135.093611013
 30
0.0
 10
91.1925952325
 20
135.1221518226
 30
0.0
 10
90.7318800791
 20
135.0134606227
 30
0.0
 10
90.5246918882
 20
134.9198211317
 30
0.0
 10
90.4281726042
 20
134.8641182968
 30
0.0
  0
SPLINE
  5
4ED
100
AcDbEntity
  8
0
100
AcDbSpline
 62
7
  6
CONTINUOUS
 70
0
 71
3
 72
11
 73
7
 74
0
 42
0.0000001
 43
0.0000001
 44
0.0000000001
 40
0.0
 40
0.0
 40
0.0
 40
0.0
 40
0.2617394749
 40
0.5228503714
 40
0.7720982904
 40
1.0
 40
1.0
 40
1.0
 40
1.0
 10
92.8846067731
 20
128.9760253944
 30
0.0
 10
92.6165459378
 20
129.3173317888
 30
0.0
 10
92.1331497441
 20
130.0415350709
 30
0.0
 10
91.5829251274
 20
131.2025374073
 30
0.0
 10
91.231419337
 20
132.3801182861
 30
0.0
 10
91.1396462518
 20
133.1721632447
 30
0.0
 10
91.1396462518
 20
133.5500462192
 30
0.0
  0
SPLINE
  5
4EE
100
AcDbEntity
  8
0
100
AcDbSpline
 62
7
  6
CONTINUOUS
 70
0
 71
3
 72
9
 73
5
 74
0
 42
0.0000001
 43
0.0000001
 44
0.0000000001
 40
0.0
 40
0.0
 40
0.0
 40
0.0
 40
0.2724534301
 40
1.0
 40
1.0
 40
1.0
 40
1.0
 10
91.1396462518
 20
133.5500462192
 30
0.0
 10
91.1396462518
 20
133.6884131504
 30
0.0
 10
91.1614849368
 20
134.1951493858
 30
0.0
 10
91.2783740762
 20
134.704267047
 30
0.0
 10
91.4384856641
 20
135.037262495
 30
0.0
  0
SPLINE
  5
4EF
100
AcDbEntity
  8
0
100
AcDbSpline
 62
7
  6
CONTINUOUS
 70
0
 71
3
 72
11
 73
7
 74
0
 42
0.0000001
 43
0.0000001
 44
0.0000000001
 40
0.0
 40
0.0
 40
0.0
 40
0.0
 40
0.2879789324
 40
0.5531979132
 40
0.7906887199
 40
1.0
 40
1.0
 40
1.0
 40
1.0
 10
116.5784870279
 20
147.0320132374
 30
0.0
 10
116.2238532102
 20
147.4313281192
 30
0.0
 10
115.4903949889
 20
148.1545415568
 30
0.0
 10
114.293632089
 20
149.0139638047
 30
0.0
 10
113.0884818347
 20
149.574646962
 30
0.0
 10
112.2627541997
 20
149.7365292479
 30
0.0
 10
111.8747455139
 20
149.7476582306
 30
0.0
  0
SPLINE
  5
4F0
100
AcDbEntity
  8
0
100
AcDbSpline
 62
7
  6
CONTINUOUS
 70
0
 71
3
 72
16
 73
12
 74
0
 42
0.0000001
 43
0.0000001
 44
0.0000000001
 40
0.0
 40
0.0
 40
0.0
 40
0.0
 40
0.1505991945
 40
0.3010866552
 40
0.4465393529
 40
0.5825517642
 40
0.705838829
 40
0.8149596467
 40
0.9112427535
 40
0.9561552864
 40
1.0
 40
1.0
 40
1.0
 40
1.0
 10
113.9285607446
 20
140.5472847814
 30
0.0
 10
113.7141855597
 20
141.0602819334
 30
0.0
 10
113.2164603029
 20
142.0583185771
 30
0.0
 10
112.2967804324
 20
143.4316824327
 30
0.0
 10
111.2397399333
 20
144.6325045731
 30
0.0
 10
110.0957112556
 20
145.6031687539
 30
0.0
 10
108.9164956504
 20
146.2974211087
 30
0.0
 10
107.7535767051
 20
146.6815318382
 30
0.0
 10
106.8123461794
 20
146.7168115306
 30
0.0
 10
106.1445179422
 20
146.5569508829
 30
0.0
 10
105.8438937642
 20
146.4205571506
 30
0.0
 10
105.7037100812
 20
146.3396270786
 30
0.0
  0
SPLINE
  5
4F1
100
AcDbEntity
  8
0
100
AcDbSpline
 62
7
  6
CONTINUOUS
 70
0
 71
3
 72
15
 73
11
 74
0
 42
0.0000001
 43
0.0000001
 44
0.0000000001
 40
0.0
 40
0.0
 40
0.0
 40
0.0
 40
0.1474472005
 40
0.2951408445
 40
0.4388212648
 40
0.5745808354
 40
0.6993123182
 40
0.8112227861
 40
0.9104920327
 40
1.0
 40
1.0
 40
1.0
 40
1.0
 10
112.5335683507
 20
139.7425076026
 30
0.0
 10
112.3362720334
 20
140.2169667189
 30
0.0
 10
111.8813043888
 20
141.1427830582
 30
0.0
 10
111.0458887071
 20
142.4278694129
 30
0.0
 10
110.0854547734
 20
143.5704064371
 30
0.0
 10
109.0404324288
 20
144.5217924201
 30
0.0
 10
107.9538043712
 20
145.2423085996
 30
0.0
 10
106.8674344331
 20
145.7008647174
 30
0.0
 10
105.8222120624
 20
145.874521772
 30
0.0
 10
105.1564320967
 20
145.7804839872
 30
0.0
 10
104.8608718751
 20
145.6807605095
 30
0.0
  0
SPLINE
  5
4F2
100
AcDbEntity
  8
0
100
AcDbSpline
 62
7
  6
CONTINUOUS
 70
0
 71
3
 72
12
 73
8
 74
0
 42
0.0000001
 43
0.0000001
 44
0.0000000001
 40
0.0
 40
0.0
 40
0.0
 40
0.0
 40
0.2895549604
 40
0.5486516043
 40
0.7816332992
 40
0.8918403153
 40
1.0
 40
1.0
 40
1.0
 40
1.0
 10
101.3219019571
 20
141.1916702886
 30
0.0
 10
101.3219019571
 20
141.566708831
 30
0.0
 10
101.3787957138
 20
142.2798606244
 30
0.0
 10
101.6670207744
 20
143.2591857516
 30
0.0
 10
102.0815789285
 20
143.934746967
 30
0.0
 10
102.4999108223
 20
144.3464342203
 30
0.0
 10
102.7332255815
 20
144.5091826883
 30
0.0
 10
102.8545486807
 20
144.5792269615
 30
0.0
  0
SPLINE
  5
4F3
100
AcDbEntity
  8
0
100
AcDbSpline
 62
7
  6
CONTINUOUS
 70
0
 71
3
 72
11
 73
7
 74
0
 42
0.0000001
 43
0.0000001
 44
0.0000000001
 40
0.0
 40
0.0
 40
0.0
 40
0.0
 40
0.289748519
 40
0.5490831644
 40
0.7822238581
 40
1.0
 40
1.0
 40
1.0
 40
1.0
 10
99.5541825034
 20
138.3265031595
 30
0.0
 10
99.5541825034
 20
138.5798843894
 30
0.0
 10
99.5925398314
 20
139.0616880456
 30
0.0
 10
99.787729169
 20
139.7236524699
 30
0.0
 10
100.1162442672
 20
140.2607487647
 30
0.0
 10
100.4248124747
 20
140.520215062
 30
0.0
 10
100.5897564566
 20
140.6154083844
 30
0.0
  0
SPLINE
  5
4F4
100
AcDbEntity
  8
0
100
AcDbSpline
 62
7
  6
CONTINUOUS
 70
0
 71
3
 72
11
 73
7
 74
0
 42
0.0000001
 43
0.0000001
 44
0.0000000001
 40
0.0
 40
0.0
 40
0.0
 40
0.0
 40
0.2896413964
 40
0.5491107671
 40
0.7822355978
 40
1.0
 40
1.0
 40
1.0
 40
1.0
 10
82.6544637949
 20
104.4828339201
 30
0.0
 10
82.6544637949
 20
104.6246741246
 30
0.0
 10
82.6760235585
 20
104.894487767
 30
0.0
 10
82.7852274075
 20
105.2652030397
 30
0.0
 10
82.9691808846
 20
105.5660912023
 30
0.0
 10
83.1420695881
 20
105.7112337027
 30
0.0
 10
83.2344024091
 20
105.7645912334
 30
0.0
  0
SPLINE
  5
4F5
100
AcDbEntity
  8
0
100
AcDbSpline
 62
7
  6
CONTINUOUS
 70
0
 71
3
 72
11
 73
7
 74
0
 42
0.0000001
 43
0.0000001
 44
0.0000000001
 40
0.0
 40
0.0
 40
0.0
 40
0.0
 40
0.2896413964
 40
0.5491107671
 40
0.7822355978
 40
1.0
 40
1.0
 40
1.0
 40
1.0
 10
35.2781122101
 20
131.834964473
 30
0.0
 10
35.2781122101
 20
131.9768046775
 30
0.0
 10
35.2996719736
 20
132.2466183198
 30
0.0
 10
35.4088758227
 20
132.6173335926
 30
0.0
 10
35.5928292997
 20
132.9182217552
 30
0.0
 10
35.7657180032
 20
133.0633642556
 30
0.0
 10
35.8580508242
 20
133.1167217862
 30
0.0
  0
SPLINE
  5
4F6
100
AcDbEntity
  8
0
100
AcDbSpline
 62
7
  6
CONTINUOUS
 70
0
 71
3
 72
11
 73
7
 74
0
 42
0.0000001
 43
0.0000001
 44
0.0000000001
 40
0.0
 40
0.0
 40
0.0
 40
0.0
 40
0.2093112801
 40
0.4468020868
 40
0.7120210676
 40
1.0
 40
1.0
 40
1.0
 40
1.0
 10
72.6301881519
 20
167.9143531103
 30
0.0
 10
73.0181968377
 20
167.9032241276
 30
0.0
 10
73.8439244727
 20
167.7413418417
 30
0.0
 10
75.049074727
 20
167.1806586844
 30
0.0
 10
76.2458376269
 20
166.3212364366
 30
0.0
 10
76.9792958482
 20
165.5980229989
 30
0.0
 10
77.3339296659
 20
165.1987081171
 30
0.0
  0
SPLINE
  5
4F7
100
AcDbEntity
  8
0
100
AcDbSpline
 62
7
  6
CONTINUOUS
 70
0
 71
3
 72
11
 73
7
 74
0
 42
0.0000001
 43
0.0000001
 44
0.0000000001
 40
0.0
 40
0.0
 40
0.0
 40
0.0
 40
0.2176907916
 40
0.4508868986
 40
0.7106214304
 40
1.0
 40
1.0
 40
1.0
 40
1.0
 10
73.5234633424
 20
122.5026707354
 30
0.0
 10
73.4855294487
 20
122.4808079977
 30
0.0
 10
73.4145493633
 20
122.4211570674
 30
0.0
 10
73.3389086487
 20
122.2975757188
 30
0.0
 10
73.2942066781
 20
122.1452563999
 30
0.0
 10
73.2852599367
 20
122.0344610045
 30
0.0
 10
73.2852599367
 20
121.976259691
 30
0.0
  0
SPLINE
  5
4F8
100
AcDbEntity
  8
0
100
AcDbSpline
 62
7
  6
CONTINUOUS
 70
0
 71
3
 72
16
 73
12
 74
0
 42
0.0000001
 43
0.0000001
 44
0.0000000001
 40
0.0
 40
0.0
 40
0.0
 40
0.0
 40
0.0438438871
 40
0.0887561463
 40
0.1850394353
 40
0.2941604771
 40
0.4174466788
 40
0.5534569546
 40
0.6989078681
 40
0.8493964033
 40
1.0
 40
1.0
 40
1.0
 40
1.0
 10
86.8945988073
 20
155.8924587774
 30
0.0
 10
87.0347762136
 20
155.973388337
 30
0.0
 10
87.3353937984
 20
156.1097741164
 30
0.0
 10
88.0032049238
 20
156.2696400773
 30
0.0
 10
88.9444215811
 20
156.2343674506
 30
0.0
 10
90.1073239102
 20
155.8502773492
 30
0.0
 10
91.2865187295
 20
155.1560536742
 30
0.0
 10
92.4305274577
 20
154.1854315117
 30
0.0
 10
93.4875591226
 20
152.98465069
 30
0.0
 10
94.4072537302
 20
151.6113123926
 30
0.0
 10
94.9049903612
 20
150.6132793508
 30
0.0
 10
95.1193787481
 20
150.1002799328
 30
0.0
  0
SPLINE
  5
4F9
100
AcDbEntity
  8
0
100
AcDbSpline
 62
7
  6
CONTINUOUS
 70
0
 71
3
 72
11
 73
7
 74
0
 42
0.0000001
 43
0.0000001
 44
0.0000000001
 40
0.0
 40
0.0
 40
0.0
 40
0.0
 40
0.289702329
 40
0.5490881649
 40
0.7822156415
 40
1.0
 40
1.0
 40
1.0
 40
1.0
 10
37.2580194405
 20
123.1800681227
 30
0.0
 10
37.0825041442
 20
123.2813996339
 30
0.0
 10
36.733347624
 20
123.4475002356
 30
0.0
 10
36.1966871049
 20
123.5770941358
 30
0.0
 10
35.6931425374
 20
123.5643444787
 30
0.0
 10
35.3899818217
 20
123.4543251073
 30
0.0
 10
35.258038374
 20
123.3781479534
 30
0.0
  0
SPLINE
  5
4FA
100
AcDbEntity
  8
0
100
AcDbSpline
 62
7
  6
CONTINUOUS
 70
0
 71
3
 72
11
 73
7
 74
0
 42
0.0000001
 43
0.0000001
 44
0.0000000001
 40
0.0
 40
0.0
 40
0.0
 40
0.0
 40
0.2176907916
 40
0.4508868986
 40
0.7106214304
 40
1.0
 40
1.0
 40
1.0
 40
1.0
 10
29.5412384382
 20
147.8952456666
 30
0.0
 10
29.5033045446
 20
147.8733829288
 30
0.0
 10
29.4323244592
 20
147.8137319986
 30
0.0
 10
29.3566837446
 20
147.69015065
 30
0.0
 10
29.311981774
 20
147.5378313311
 30
0.0
 10
29.3030350326
 20
147.4270359356
 30
0.0
 10
29.3030350326
 20
147.3688346222
 30
0.0
  0
SPLINE
  5
4FB
100
AcDbEntity
  8
0
100
AcDbSpline
 62
7
  6
CONTINUOUS
 70
0
 71
3
 72
11
 73
7
 74
0
 42
0.0000001
 43
0.0000001
 44
0.0000000001
 40
0.0
 40
0.0
 40
0.0
 40
0.0
 40
0.2177793823
 40
0.4509223235
 40
0.7102594935
 40
1.0
 40
1.0
 40
1.0
 40
1.0
 10
72.7504294755
 20
145.0701371598
 30
0.0
 10
72.5821835822
 20
144.9730397425
 30
0.0
 10
72.2674445495
 20
144.7083753712
 30
0.0
 10
71.9323558391
 20
144.160532383
 30
0.0
 10
71.7332676991
 20
143.485330225
 30
0.0
 10
71.6941435301
 20
142.9938962051
 30
0.0
 10
71.6941435301
 20
142.7354546976
 30
0.0
  0
SPLINE
  5
4FC
100
AcDbEntity
  8
0
100
AcDbSpline
 62
7
  6
CONTINUOUS
 70
0
 71
3
 72
11
 73
7
 74
0
 42
0.0000001
 43
0.0000001
 44
0.0000000001
 40
0.0
 40
0.0
 40
0.0
 40
0.0
 40
0.2176907916
 40
0.4508868986
 40
0.7106214304
 40
1.0
 40
1.0
 40
1.0
 40
1.0
 10
73.5234633424
 20
34.3204096854
 30
0.0
 10
73.4855294487
 20
34.2985469477
 30
0.0
 10
73.4145493633
 20
34.2388960174
 30
0.0
 10
73.3389086487
 20
34.1153146688
 30
0.0
 10
73.2942066781
 20
33.9629953499
 30
0.0
 10
73.2852599367
 20
33.8521999545
 30
0.0
 10
73.2852599367
 20
33.793998641
 30
0.0
  0
SPLINE
  5
4FD
100
AcDbEntity
  8
0
100
AcDbSpline
 62
7
  6
CONTINUOUS
 70
0
 71
3
 72
11
 73
7
 74
0
 42
0.0000001
 43
0.0000001
 44
0.0000000001
 40
0.0
 40
0.0
 40
0.0
 40
0.0
 40
0.2176907916
 40
0.4508868986
 40
0.7106214304
 40
1.0
 40
1.0
 40
1.0
 40
1.0
 10
47.2189815669
 20
137.6892268036
 30
0.0
 10
47.1810476733
 20
137.6673640658
 30
0.0
 10
47.1100675878
 20
137.6077131356
 30
0.0
 10
47.0344268733
 20
137.484131787
 30
0.0
 10
46.9897249026
 20
137.331812468
 30
0.0
 10
46.9807781613
 20
137.2210170726
 30
0.0
 10
46.9807781613
 20
137.1628157592
 30
0.0
  0
SPLINE
  5
4FE
100
AcDbEntity
  8
0
100
AcDbSpline
 62
7
  6
CONTINUOUS
 70
0
 71
3
 72
11
 73
7
 74
0
 42
0.0000001
 43
0.0000001
 44
0.0000000001
 40
0.0
 40
0.0
 40
0.0
 40
0.0
 40
0.217745073
 40
0.4508830113
 40
0.7104597664
 40
1.0
 40
1.0
 40
1.0
 40
1.0
 10
52.8458601187
 20
139.6191644675
 30
0.0
 10
52.7733038004
 20
139.5772742731
 30
0.0
 10
52.6374136186
 20
139.4632937212
 30
0.0
 10
52.4928595149
 20
139.2268350423
 30
0.0
 10
52.4071626268
 20
138.9355312903
 30
0.0
 10
52.39015225
 20
138.7235469868
 30
0.0
 10
52.39015225
 20
138.6121420003
 30
0.0
  0
SPLINE
  5
4FF
100
AcDbEntity
  8
0
100
AcDbSpline
 62
7
  6
CONTINUOUS
 70
0
 71
3
 72
11
 73
7
 74
0
 42
0.0000001
 43
0.0000001
 44
0.0000000001
 40
0.0
 40
0.0
 40
0.0
 40
0.0
 40
0.2177793823
 40
0.4509223235
 40
0.7102594935
 40
1.0
 40
1.0
 40
1.0
 40
1.0
 10
40.7184784514
 20
146.9887996992
 30
0.0
 10
40.5502325581
 20
146.8917022819
 30
0.0
 10
40.2354935254
 20
146.6270379107
 30
0.0
 10
39.900404815
 20
146.0791949224
 30
0.0
 10
39.7013166749
 20
145.4039927644
 30
0.0
 10
39.662192506
 20
144.9125587445
 30
0.0
 10
39.662192506
 20
144.654117237
 30
0.0
  0
SPLINE
  5
500
100
AcDbEntity
  8
0
100
AcDbSpline
 62
7
  6
CONTINUOUS
 70
0
 71
3
 72
9
 73
5
 74
0
 42
0.0000001
 43
0.0000001
 44
0.0000000001
 40
0.0
 40
0.0
 40
0.0
 40
0.0
 40
0.5127851062
 40
1.0
 40
1.0
 40
1.0
 40
1.0
 10
85.5751193281
 20
48.3359195863
 30
0.0
 10
85.6678211793
 20
48.3332606837
 30
0.0
 10
85.8498576831
 20
48.3460905886
 30
0.0
 10
86.0242062591
 20
48.4015588408
 30
0.0
 10
86.1040709899
 20
48.4387873192
 30
0.0
  0
SPLINE
  5
501
100
AcDbEntity
  8
0
100
AcDbSpline
 62
7
  6
CONTINUOUS
 70
0
 71
3
 72
16
 73
12
 74
0
 42
0.0000001
 43
0.0000001
 44
0.0000000001
 40
0.0
 40
0.0
 40
0.0
 40
0.0
 40
0.0433405957
 40
0.0878900545
 40
0.1842272671
 40
0.2945871407
 40
0.4198297532
 40
0.5576958265
 40
0.7039525259
 40
0.8532844728
 40
1.0
 40
1.0
 40
1.0
 40
1.0
 10
65.2342701993
 20
161.0274461104
 30
0.0
 10
65.3346467601
 20
161.0853759494
 30
0.0
 10
65.551221846
 20
161.1816926261
 30
0.0
 10
66.035470922
 20
161.2870227884
 30
0.0
 10
66.7195606571
 20
161.2355964744
 30
0.0
 10
67.5565901886
 20
160.9157563159
 30
0.0
 10
68.3966690922
 20
160.3643180028
 30
0.0
 10
69.1974029504
 20
159.6112198748
 30
0.0
 10
69.9169604165
 20
158.6974898885
 30
0.0
 10
70.5156811193
 20
157.6734957366
 30
0.0
 10
70.8190444505
 20
156.9388033391
 30
0.0
 10
70.9407847851
 20
156.5658497928
 30
0.0
  0
SPLINE
  5
502
100
AcDbEntity
  8
0
100
AcDbSpline
 62
7
  6
CONTINUOUS
 70
0
 71
3
 72
16
 73
12
 74
0
 42
0.0000001
 43
0.0000001
 44
0.0000000001
 40
0.0
 40
0.0
 40
0.0
 40
0.0
 40
0.0438306218
 40
0.0887326996
 40
0.1850125615
 40
0.2941567557
 40
0.4174834299
 40
0.5535342788
 40
0.6990055199
 40
0.8494739373
 40
1.0
 40
1.0
 40
1.0
 40
1.0
 10
67.4990624234
 20
164.9912646875
 30
0.0
 10
67.6375982938
 20
165.0712465246
 30
0.0
 10
67.9347361211
 20
165.2059946945
 30
0.0
 10
68.5949155023
 20
165.3637080448
 30
0.0
 10
69.5254360737
 20
165.3280474043
 30
0.0
 10
70.6748864905
 20
164.94705915
 30
0.0
 10
71.8401888566
 20
164.2592538351
 30
0.0
 10
72.97030275
 20
163.2981378096
 30
0.0
 10
74.0138940162
 20
162.1096391692
 30
0.0
 10
74.9210812974
 20
160.7509548887
 30
0.0
 10
75.4114291776
 20
159.7638427262
 30
0.0
 10
75.6223756863
 20
159.2565889093
 30
0.0
  0
SPLINE
  5
503
100
AcDbEntity
  8
0
100
AcDbSpline
 62
7
  6
CONTINUOUS
 70
0
 71
3
 72
9
 73
5
 74
0
 42
0.0000001
 43
0.0000001
 44
0.0000000001
 40
0.0
 40
0.0
 40
0.0
 40
0.0
 40
0.460577573
 40
1.0
 40
1.0
 40
1.0
 40
1.0
 10
70.3052587613
 20
36.1415022816
 30
0.0
 10
70.2232065095
 20
36.037639006
 30
0.0
 10
70.0987577745
 20
35.7692534296
 30
0.0
 10
70.0678953787
 20
35.4798702311
 30
0.0
 10
70.0678953787
 20
35.3248475845
 30
0.0
  0
SPLINE
  5
504
100
AcDbEntity
  8
0
100
AcDbSpline
 62
7
  6
CONTINUOUS
 70
0
 71
3
 72
9
 73
5
 74
0
 42
0.0000001
 43
0.0000001
 44
0.0000000001
 40
0.0
 40
0.0
 40
0.0
 40
0.0
 40
0.4779431061
 40
1.0
 40
1.0
 40
1.0
 40
1.0
 10
82.445529865
 20
52.2929229981
 30
0.0
 10
82.4622048976
 20
51.9282897573
 30
0.0
 10
82.6242498828
 20
51.1706051818
 30
0.0
 10
82.9553202738
 20
50.4751319137
 30
0.0
 10
83.1646710608
 20
50.1358122678
 30
0.0
  0
SPLINE
  5
505
100
AcDbEntity
  8
0
100
AcDbSpline
 62
7
  6
CONTINUOUS
 70
0
 71
3
 72
9
 73
5
 74
0
 42
0.0000001
 43
0.0000001
 44
0.0000000001
 40
0.0
 40
0.0
 40
0.0
 40
0.0
 40
0.2532441277
 40
1.0
 40
1.0
 40
1.0
 40
1.0
 10
83.1646710608
 20
50.1358122678
 30
0.0
 10
83.2040712679
 20
50.0719516799
 30
0.0
 10
83.3649324493
 20
49.8230930362
 30
0.0
 10
83.5466939807
 20
49.5876181881
 30
0.0
 10
83.6936227225
 20
49.4221775836
 30
0.0
  0
SPLINE
  5
506
100
AcDbEntity
  8
0
100
AcDbSpline
 62
7
  6
CONTINUOUS
 70
0
 71
3
 72
16
 73
12
 74
0
 42
0.0000001
 43
0.0000001
 44
0.0000000001
 40
0.0
 40
0.0
 40
0.0
 40
0.0
 40
0.1467183652
 40
0.2960476017
 40
0.4423023164
 40
0.5801671107
 40
0.7054078245
 40
0.8157661093
 40
0.9121048161
 40
0.956656239
 40
1.0
 40
1.0
 40
1.0
 40
1.0
 10
74.4051984389
 20
158.5674604991
 30
0.0
 10
74.2834120111
 20
158.940341649
 30
0.0
 10
73.9799983088
 20
159.674875605
 30
0.0
 10
73.3812555374
 20
160.6986326289
 30
0.0
 10
72.6617347346
 20
161.6121358068
 30
0.0
 10
71.8610703852
 20
162.3650326814
 30
0.0
 10
71.0210894553
 20
162.9163082558
 30
0.0
 10
70.1841748449
 20
163.2360272232
 30
0.0
 10
69.5001845099
 20
163.2874174667
 30
0.0
 10
69.0160042151
 20
163.1820639099
 30
0.0
 10
68.7994478935
 20
163.0857658424
 30
0.0
 10
68.6990795016
 20
163.0278416195
 30
0.0
  0
SPLINE
  5
507
100
AcDbEntity
  8
0
100
AcDbSpline
 62
7
  6
CONTINUOUS
 70
0
 71
3
 72
11
 73
7
 74
0
 42
0.0000001
 43
0.0000001
 44
0.0000000001
 40
0.0
 40
0.0
 40
0.0
 40
0.0
 40
0.2177739674
 40
0.4509298424
 40
0.7102237828
 40
1.0
 40
1.0
 40
1.0
 40
1.0
 10
58.3962253934
 20
42.0684938228
 30
0.0
 10
58.2279998151
 20
41.9713693137
 30
0.0
 10
57.9131924881
 20
41.706782267
 30
0.0
 10
57.5781843218
 20
41.1589074152
 30
0.0
 10
57.3790178366
 20
40.4837328839
 30
0.0
 10
57.3399356347
 20
39.9922923849
 30
0.0
 10
57.3399356347
 20
39.733817987
 30
0.0
  0
SPLINE
  5
508
100
AcDbEntity
  8
0
100
AcDbSpline
 62
7
  6
CONTINUOUS
 70
0
 71
3
 72
9
 73
5
 74
0
 42
0.0000001
 43
0.0000001
 44
0.0000000001
 40
0.0
 40
0.0
 40
0.0
 40
0.0
 40
0.2569892672
 40
1.0
 40
1.0
 40
1.0
 40
1.0
 10
85.3932036427
 20
48.5209251517
 30
0.0
 10
85.4155789667
 20
48.5146611098
 30
0.0
 10
85.5030731908
 20
48.4918607103
 30
0.0
 10
85.5923054015
 20
48.4755508571
 30
0.0
 10
85.659033311
 20
48.4677781085
 30
0.0
  0
SPLINE
  5
509
100
AcDbEntity
  8
0
100
AcDbSpline
 62
7
  6
CONTINUOUS
 70
0
 71
3
 72
16
 73
12
 74
0
 42
0.0000001
 43
0.0000001
 44
0.0000000001
 40
0.0
 40
0.0
 40
0.0
 40
0.0
 40
0.0438438871
 40
0.0887561463
 40
0.1850394353
 40
0.2941604771
 40
0.4174466788
 40
0.5534569546
 40
0.6989078681
 40
0.8493964033
 40
1.0
 40
1.0
 40
1.0
 40
1.0
 10
69.2168556786
 20
166.0984776405
 30
0.0
 10
69.3570330849
 20
166.1794072
 30
0.0
 10
69.6576506697
 20
166.3157929794
 30
0.0
 10
70.3254617952
 20
166.4756589403
 30
0.0
 10
71.2666784524
 20
166.4403863136
 30
0.0
 10
72.4295807815
 20
166.0562962123
 30
0.0
 10
73.6087756009
 20
165.3620725372
 30
0.0
 10
74.7527843291
 20
164.3914503747
 30
0.0
 10
75.809815994
 20
163.190669553
 30
0.0
 10
76.7295106015
 20
161.8173312556
 30
0.0
 10
77.2272472326
 20
160.8192982138
 30
0.0
 10
77.4416356194
 20
160.3062987958
 30
0.0
  0
SPLINE
  5
50A
100
AcDbEntity
  8
0
100
AcDbSpline
 62
7
  6
CONTINUOUS
 70
0
 71
3
 72
17
 73
13
 74
0
 42
0.0000001
 43
0.0000001
 44
0.0000000001
 40
0.0
 40
0.0
 40
0.0
 40
0.0
 40
0.042857965
 40
0.0874854797
 40
0.1353180708
 40
0.1872814984
 40
0.3045423159
 40
0.4382097446
 40
0.5825520305
 40
0.7297107839
 40
0.8713099826
 40
1.0
 40
1.0
 40
1.0
 40
1.0
 10
35.8580508242
 20
133.1167217862
 30
0.0
 10
35.92706178
 20
133.1566020168
 30
0.0
 10
36.0792377129
 20
133.2198177994
 30
0.0
 10
36.3303998804
 20
133.2566554932
 30
0.0
 10
36.6001368743
 20
133.2367788106
 30
0.0
 10
36.9920669297
 20
133.1325625738
 30
0.0
 10
37.4930897277
 20
132.8586021864
 30
0.0
 10
38.04663739
 20
132.3683835778
 30
0.0
 10
38.5359512328
 20
131.74208524
 30
0.0
 10
38.9210611528
 20
131.0302990321
 30
0.0
 10
39.1709657482
 20
130.2913930112
 30
0.0
 10
39.2379266709
 20
129.7881482947
 30
0.0
 10
39.2379266709
 20
129.5488162477
 30
0.0
  0
SPLINE
  5
50B
100
AcDbEntity
  8
0
100
AcDbSpline
 62
7
  6
CONTINUOUS
 70
0
 71
3
 72
11
 73
7
 74
0
 42
0.0000001
 43
0.0000001
 44
0.0000000001
 40
0.0
 40
0.0
 40
0.0
 40
0.0
 40
0.2177793823
 40
0.4509223235
 40
0.7102594935
 40
1.0
 40
1.0
 40
1.0
 40
1.0
 10
55.0726863468
 20
155.2761560228
 30
0.0
 10
54.9044404536
 20
155.1790586055
 30
0.0
 10
54.5897014208
 20
154.9143942342
 30
0.0
 10
54.2546127104
 20
154.366551246
 30
0.0
 10
54.0555245704
 20
153.691349088
 30
0.0
 10
54.0164004014
 20
153.1999150681
 30
0.0
 10
54.0164004014
 20
152.9414735606
 30
0.0
  0
SPLINE
  5
50C
100
AcDbEntity
  8
0
100
AcDbSpline
 62
7
  6
CONTINUOUS
 70
0
 71
3
 72
11
 73
7
 74
0
 42
0.0000001
 43
0.0000001
 44
0.0000000001
 40
0.0
 40
0.0
 40
0.0
 40
0.0
 40
0.217745073
 40
0.4508830113
 40
0.7104597664
 40
1.0
 40
1.0
 40
1.0
 40
1.0
 10
35.16811699
 20
149.8251833305
 30
0.0
 10
35.0955606718
 20
149.7832931361
 30
0.0
 10
34.9596704899
 20
149.6693125842
 30
0.0
 10
34.8151163863
 20
149.4328539053
 30
0.0
 10
34.7294194981
 20
149.1415501533
 30
0.0
 10
34.7124091213
 20
148.9295658498
 30
0.0
 10
34.7124091213
 20
148.8181608633
 30
0.0
  0
SPLINE
  5
50D
100
AcDbEntity
  8
0
100
AcDbSpline
 62
7
  6
CONTINUOUS
 70
0
 71
3
 72
13
 73
9
 74
0
 42
0.0000001
 43
0.0000001
 44
0.0000000001
 40
0.0
 40
0.0
 40
0.0
 40
0.0
 40
0.1142250362
 40
0.2375584228
 40
0.4999988469
 40
0.762439898
 40
0.8857740437
 40
1.0
 40
1.0
 40
1.0
 40
1.0
 10
74.5934965369
 20
90.0308705849
 30
0.0
 10
74.7870717637
 20
89.9191124039
 30
0.0
 10
75.1695547728
 20
89.650938255
 30
0.0
 10
75.8856779147
 20
88.9808175897
 30
0.0
 10
76.6420253103
 20
87.9476117338
 30
0.0
 10
77.15864013
 20
86.7759939153
 30
0.0
 10
77.3809271409
 20
85.8207498076
 30
0.0
 10
77.4219354375
 20
85.3554198532
 30
0.0
 10
77.4219354375
 20
85.1318978983
 30
0.0
  0
SPLINE
  5
50E
100
AcDbEntity
  8
0
100
AcDbSpline
 62
7
  6
CONTINUOUS
 70
0
 71
3
 72
11
 73
7
 74
0
 42
0.0000001
 43
0.0000001
 44
0.0000000001
 40
0.0
 40
0.0
 40
0.0
 40
0.0
 40
0.2897033281
 40
0.5490895198
 40
0.7822165953
 40
1.0
 40
1.0
 40
1.0
 40
1.0
 10
77.4219354375
 20
54.9213084645
 30
0.0
 10
77.4219354375
 20
54.7186358869
 30
0.0
 10
77.3912072929
 20
54.3331955989
 30
0.0
 10
77.2351086006
 20
53.8036208416
 30
0.0
 10
76.9722902451
 20
53.3739008744
 30
0.0
 10
76.7254240359
 20
53.1663607788
 30
0.0
 10
76.5934776035
 20
53.0901819835
 30
0.0
  0
SPLINE
  5
50F
100
AcDbEntity
  8
0
100
AcDbSpline
 62
7
  6
CONTINUOUS
 70
0
 71
3
 72
11
 73
7
 74
0
 42
0.0000001
 43
0.0000001
 44
0.0000000001
 40
0.0
 40
0.0
 40
0.0
 40
0.0
 40
0.2179706252
 40
0.4527992041
 40
0.7126866467
 40
1.0
 40
1.0
 40
1.0
 40
1.0
 10
35.6141566571
 20
133.3152616521
 30
0.0
 10
35.5252968045
 20
133.2502314235
 30
0.0
 10
35.3616853105
 20
133.084558616
 30
0.0
 10
35.1892066504
 20
132.7641798983
 30
0.0
 10
35.0865407031
 20
132.3797714409
 30
0.0
 10
35.0659792925
 20
132.1025805989
 30
0.0
 10
35.0659792925
 20
131.9574366993
 30
0.0
  0
SPLINE
  5
510
100
AcDbEntity
  8
0
100
AcDbSpline
 62
7
  6
CONTINUOUS
 70
0
 71
3
 72
11
 73
7
 74
0
 42
0.0000001
 43
0.0000001
 44
0.0000000001
 40
0.0
 40
0.0
 40
0.0
 40
0.0
 40
0.2177793823
 40
0.4509223235
 40
0.7102594935
 40
1.0
 40
1.0
 40
1.0
 40
1.0
 10
23.0407353227
 20
157.1948185622
 30
0.0
 10
22.8724894294
 20
157.0977211449
 30
0.0
 10
22.5577503967
 20
156.8330567737
 30
0.0
 10
22.2226616863
 20
156.2852137855
 30
0.0
 10
22.0235735463
 20
155.6100116274
 30
0.0
 10
21.9844493773
 20
155.1185776075
 30
0.0
 10
21.9844493773
 20
154.8601361
 30
0.0
  0
SPLINE
  5
511
100
AcDbEntity
  8
0
100
AcDbSpline
 62
7
  6
CONTINUOUS
 70
0
 71
3
 72
13
 73
9
 74
0
 42
0.0000001
 43
0.0000001
 44
0.0000000001
 40
0.0
 40
0.0
 40
0.0
 40
0.0
 40
0.114249308
 40
0.237548547
 40
0.5000010844
 40
0.7624530283
 40
0.8857515741
 40
1.0
 40
1.0
 40
1.0
 40
1.0
 10
21.9844493773
 20
154.8601361
 30
0.0
 10
21.9844493773
 20
154.5750868116
 30
0.0
 10
22.036658018
 20
153.9818096953
 30
0.0
 10
22.3202025283
 20
152.763898225
 30
0.0
 10
22.9788164829
 20
151.2700909027
 30
0.0
 10
23.9431896529
 20
149.9528164319
 30
0.0
 10
24.8561611792
 20
149.0983133943
 30
0.0
 10
25.3438495603
 20
148.7564670502
 30
0.0
 10
25.5907089756
 20
148.6139459246
 30
0.0
  0
SPLINE
  5
512
100
AcDbEntity
  8
0
100
AcDbSpline
 62
7
  6
CONTINUOUS
 70
0
 71
3
 72
11
 73
7
 74
0
 42
0.0000001
 43
0.0000001
 44
0.0000000001
 40
0.0
 40
0.0
 40
0.0
 40
0.0
 40
0.289775222
 40
0.5490688033
 40
0.782225076
 40
1.0
 40
1.0
 40
1.0
 40
1.0
 10
25.5907089756
 20
148.6139459246
 30
0.0
 10
25.8145488835
 20
148.4847148171
 30
0.0
 10
26.2596789315
 20
148.2728511884
 30
0.0
 10
26.943962598
 20
148.1077574058
 30
0.0
 10
27.5859235986
 20
148.1239485116
 30
0.0
 10
27.972456995
 20
148.2642822288
 30
0.0
 10
28.1406788151
 20
148.3614045681
 30
0.0
  0
SPLINE
  5
513
100
AcDbEntity
  8
0
100
AcDbSpline
 62
7
  6
CONTINUOUS
 70
0
 71
3
 72
13
 73
9
 74
0
 42
0.0000001
 43
0.0000001
 44
0.0000000001
 40
0.0
 40
0.0
 40
0.0
 40
0.0
 40
0.114249308
 40
0.237548547
 40
0.5000010844
 40
0.7624530283
 40
0.8857515741
 40
1.0
 40
1.0
 40
1.0
 40
1.0
 10
39.662192506
 20
144.654117237
 30
0.0
 10
39.662192506
 20
144.3690679486
 30
0.0
 10
39.7144011467
 20
143.7757908323
 30
0.0
 10
39.997945657
 20
142.557879362
 30
0.0
 10
40.6565596116
 20
141.0640720397
 30
0.0
 10
41.6209327816
 20
139.7467975689
 30
0.0
 10
42.5339043079
 20
138.8922945313
 30
0.0
 10
43.021592689
 20
138.5504481871
 30
0.0
 10
43.2684521042
 20
138.4079270616
 30
0.0
  0
SPLINE
  5
514
100
AcDbEntity
  8
0
100
AcDbSpline
 62
7
  6
CONTINUOUS
 70
0
 71
3
 72
16
 73
12
 74
0
 42
0.0000001
 43
0.0000001
 44
0.0000000001
 40
0.0
 40
0.0
 40
0.0
 40
0.0
 40
0.0433405957
 40
0.0878900545
 40
0.1842272671
 40
0.2945871407
 40
0.4198297532
 40
0.5576958265
 40
0.7039525259
 40
0.8532844728
 40
1.0
 40
1.0
 40
1.0
 40
1.0
 10
47.5565270706
 20
171.2334649734
 30
0.0
 10
47.6569036315
 20
171.2913948124
 30
0.0
 10
47.8734787173
 20
171.3877114891
 30
0.0
 10
48.3577277933
 20
171.4930416514
 30
0.0
 10
49.0418175284
 20
171.4416153374
 30
0.0
 10
49.8788470599
 20
171.1217751789
 30
0.0
 10
50.7189259635
 20
170.5703368658
 30
0.0
 10
51.5196598217
 20
169.8172387378
 30
0.0
 10
52.2392172878
 20
168.9035087515
 30
0.0
 10
52.8379379907
 20
167.8795145996
 30
0.0
 10
53.1413013218
 20
167.1448222021
 30
0.0
 10
53.2630416565
 20
166.7718686558
 30
0.0
  0
SPLINE
  5
515
100
AcDbEntity
  8
0
100
AcDbSpline
 62
7
  6
CONTINUOUS
 70
0
 71
3
 72
11
 73
7
 74
0
 42
0.0000001
 43
0.0000001
 44
0.0000000001
 40
0.0
 40
0.0
 40
0.0
 40
0.0
 40
0.289775222
 40
0.5490688033
 40
0.782225076
 40
1.0
 40
1.0
 40
1.0
 40
1.0
 10
43.2684521042
 20
138.4079270616
 30
0.0
 10
43.4922920122
 20
138.2786959541
 30
0.0
 10
43.9374220602
 20
138.0668323254
 30
0.0
 10
44.6217057267
 20
137.9017385428
 30
0.0
 10
45.2636667273
 20
137.9179296486
 30
0.0
 10
45.6502001237
 20
138.0582633658
 30
0.0
 10
45.8184219438
 20
138.1553857051
 30
0.0
  0
SPLINE
  5
516
100
AcDbEntity
  8
0
100
AcDbSpline
 62
7
  6
CONTINUOUS
 70
0
 71
3
 72
11
 73
7
 74
0
 42
0.0000001
 43
0.0000001
 44
0.0000000001
 40
0.0
 40
0.0
 40
0.0
 40
0.0
 40
0.2279017096
 40
0.4771496286
 40
0.7382605251
 40
1.0
 40
1.0
 40
1.0
 40
1.0
 10
54.0164004014
 20
152.9414735606
 30
0.0
 10
54.0164004014
 20
152.563590586
 30
0.0
 10
54.1081734866
 20
151.7715456274
 30
0.0
 10
54.459679277
 20
150.5939647487
 30
0.0
 10
55.0099038937
 20
149.4329624122
 30
0.0
 10
55.4933000874
 20
148.7087591302
 30
0.0
 10
55.7613609228
 20
148.3674527357
 30
0.0
  0
SPLINE
  5
517
100
AcDbEntity
  8
0
100
AcDbSpline
 62
7
  6
CONTINUOUS
 70
0
 71
3
 72
16
 73
12
 74
0
 42
0.0000001
 43
0.0000001
 44
0.0000000001
 40
0.0
 40
0.0
 40
0.0
 40
0.0
 40
0.0438306218
 40
0.0887326996
 40
0.1850125615
 40
0.2941567557
 40
0.4174834299
 40
0.5535342788
 40
0.6990055199
 40
0.8494739373
 40
1.0
 40
1.0
 40
1.0
 40
1.0
 10
49.8213192947
 20
175.1972835505
 30
0.0
 10
49.9598551651
 20
175.2772653876
 30
0.0
 10
50.2569929925
 20
175.4120135575
 30
0.0
 10
50.9171723736
 20
175.5697269078
 30
0.0
 10
51.847692945
 20
175.5340662673
 30
0.0
 10
52.9971433618
 20
175.153078013
 30
0.0
 10
54.1624457279
 20
174.4652726981
 30
0.0
 10
55.2925596213
 20
173.5041566726
 30
0.0
 10
56.3361508875
 20
172.3156580322
 30
0.0
 10
57.2433381687
 20
170.9569737518
 30
0.0
 10
57.7336860489
 20
169.9698615892
 30
0.0
 10
57.9446325577
 20
169.4626077723
 30
0.0
  0
SPLINE
  5
518
100
AcDbEntity
  8
0
100
AcDbSpline
 62
7
  6
CONTINUOUS
 70
0
 71
3
 72
13
 73
9
 74
0
 42
0.0000001
 43
0.0000001
 44
0.0000000001
 40
0.0
 40
0.0
 40
0.0
 40
0.0
 40
0.114249308
 40
0.237548547
 40
0.5000010844
 40
0.7624530283
 40
0.8857515741
 40
1.0
 40
1.0
 40
1.0
 40
1.0
 10
57.3399356347
 20
134.448098374
 30
0.0
 10
57.3399356347
 20
134.1630490856
 30
0.0
 10
57.3921442753
 20
133.5697719693
 30
0.0
 10
57.6756887856
 20
132.3518604989
 30
0.0
 10
58.3343027402
 20
130.8580531767
 30
0.0
 10
59.2986759103
 20
129.5407787059
 30
0.0
 10
60.2116474366
 20
128.6862756683
 30
0.0
 10
60.6993358177
 20
128.3444293241
 30
0.0
 10
60.9461952329
 20
128.2019081986
 30
0.0
  0
SPLINE
  5
519
100
AcDbEntity
  8
0
100
AcDbSpline
 62
7
  6
CONTINUOUS
 70
0
 71
3
 72
11
 73
7
 74
0
 42
0.0000001
 43
0.0000001
 44
0.0000000001
 40
0.0
 40
0.0
 40
0.0
 40
0.0
 40
0.2279017096
 40
0.4771496286
 40
0.7382605251
 40
1.0
 40
1.0
 40
1.0
 40
1.0
 10
71.6941435301
 20
142.7354546976
 30
0.0
 10
71.6941435301
 20
142.357571723
 30
0.0
 10
71.7859166153
 20
141.5655267644
 30
0.0
 10
72.1374224057
 20
140.3879458856
 30
0.0
 10
72.6876470224
 20
139.2269435492
 30
0.0
 10
73.1710432161
 20
138.5027402671
 30
0.0
 10
73.4391040514
 20
138.1614338727
 30
0.0
  0
SPLINE
  5
51A
100
AcDbEntity
  8
0
100
AcDbSpline
 62
7
  6
CONTINUOUS
 70
0
 71
3
 72
11
 73
7
 74
0
 42
0.0000001
 43
0.0000001
 44
0.0000000001
 40
0.0
 40
0.0
 40
0.0
 40
0.0
 40
0.289775222
 40
0.5490688033
 40
0.782225076
 40
1.0
 40
1.0
 40
1.0
 40
1.0
 10
60.9461952329
 20
128.2019081986
 30
0.0
 10
61.1700351408
 20
128.0726770911
 30
0.0
 10
61.6151651888
 20
127.8608134624
 30
0.0
 10
62.2994488553
 20
127.6957196798
 30
0.0
 10
62.9414098559
 20
127.7119107856
 30
0.0
 10
63.3279432524
 20
127.8522445027
 30
0.0
 10
63.4961650724
 20
127.9493668421
 30
0.0
  0
SPLINE
  5
51B
100
AcDbEntity
  8
0
100
AcDbSpline
 62
7
  6
CONTINUOUS
 70
0
 71
3
 72
13
 73
9
 74
0
 42
0.0000001
 43
0.0000001
 44
0.0000000001
 40
0.0
 40
0.0
 40
0.0
 40
0.0
 40
0.114249308
 40
0.237548547
 40
0.5000010844
 40
0.7624530283
 40
0.8857515741
 40
1.0
 40
1.0
 40
1.0
 40
1.0
 10
75.0176787633
 20
124.242079511
 30
0.0
 10
75.0176787633
 20
123.9570302226
 30
0.0
 10
75.069887404
 20
123.3637531063
 30
0.0
 10
75.3534319143
 20
122.1458416359
 30
0.0
 10
76.0120458689
 20
120.6520343137
 30
0.0
 10
76.9764190389
 20
119.3347598429
 30
0.0
 10
77.8893905653
 20
118.4802568053
 30
0.0
 10
78.3770789463
 20
118.1384104611
 30
0.0
 10
78.6239383616
 20
117.9958893355
 30
0.0
  0
SPLINE
  5
51C
100
AcDbEntity
  8
0
100
AcDbSpline
 62
7
  6
CONTINUOUS
 70
0
 71
3
 72
11
 73
7
 74
0
 42
0.0000001
 43
0.0000001
 44
0.0000000001
 40
0.0
 40
0.0
 40
0.0
 40
0.0
 40
0.289775222
 40
0.5490688033
 40
0.782225076
 40
1.0
 40
1.0
 40
1.0
 40
1.0
 10
78.6239383616
 20
117.9958893355
 30
0.0
 10
78.8477782695
 20
117.8666582281
 30
0.0
 10
79.2929083175
 20
117.6547945994
 30
0.0
 10
79.977191984
 20
117.4897008168
 30
0.0
 10
80.6191529846
 20
117.5058919226
 30
0.0
 10
81.0056863811
 20
117.6462256397
 30
0.0
 10
81.1739082011
 20
117.743347979
 30
0.0
  0
SPLINE
  5
51D
100
AcDbEntity
  8
0
100
AcDbSpline
 62
7
  6
CONTINUOUS
 70
0
 71
3
 72
11
 73
7
 74
0
 42
0.0000001
 43
0.0000001
 44
0.0000000001
 40
0.0
 40
0.0
 40
0.0
 40
0.0
 40
0.2093112801
 40
0.4468020868
 40
0.7120210676
 40
1.0
 40
1.0
 40
1.0
 40
1.0
 10
90.3079312806
 20
157.7083342473
 30
0.0
 10
90.6959399664
 20
157.6972052646
 30
0.0
 10
91.5216676014
 20
157.5353229787
 30
0.0
 10
92.7268178557
 20
156.9746398214
 30
0.0
 10
93.9235807556
 20
156.1152175735
 30
0.0
 10
94.6570389768
 20
155.3920041359
 30
0.0
 10
95.0116727945
 20
154.9926892541
 30
0.0
  0
SPLINE
  5
51E
100
AcDbEntity
  8
0
100
AcDbSpline
 62
7
  6
CONTINUOUS
 70
0
 71
3
 72
16
 73
12
 74
0
 42
0.0000001
 43
0.0000001
 44
0.0000000001
 40
0.0
 40
0.0
 40
0.0
 40
0.0
 40
0.0438438871
 40
0.0887561463
 40
0.1850394353
 40
0.2941604771
 40
0.4174466788
 40
0.5534569546
 40
0.6989078681
 40
0.8493964033
 40
1.0
 40
1.0
 40
1.0
 40
1.0
 10
51.5391125499
 20
176.3044965035
 30
0.0
 10
51.6792899562
 20
176.385426063
 30
0.0
 10
51.979907541
 20
176.5218118424
 30
0.0
 10
52.6477186665
 20
176.6816778033
 30
0.0
 10
53.5889353237
 20
176.6464051766
 30
0.0
 10
54.7518376528
 20
176.2623150753
 30
0.0
 10
55.9310324722
 20
175.5680914002
 30
0.0
 10
57.0750412004
 20
174.5974692377
 30
0.0
 10
58.1320728653
 20
173.396688416
 30
0.0
 10
59.0517674728
 20
172.0233501186
 30
0.0
 10
59.5495041039
 20
171.0253170768
 30
0.0
 10
59.7638924907
 20
170.5123176588
 30
0.0
  0
SPLINE
  5
51F
100
AcDbEntity
  8
0
100
AcDbSpline
 62
7
  6
CONTINUOUS
 70
0
 71
3
 72
15
 73
11
 74
0
 42
0.0000001
 43
0.0000001
 44
0.0000000001
 40
0.0
 40
0.0
 40
0.0
 40
0.0
 40
0.1287972074
 40
0.2706054898
 40
0.4178799053
 40
0.562375555
 40
0.6961915357
 40
0.8135903033
 40
0.913065596
 40
1.0
 40
1.0
 40
1.0
 40
1.0
 10
46.9807781613
 20
137.1628157592
 30
0.0
 10
46.9807781613
 20
137.0645448016
 30
0.0
 10
47.0083316961
 20
136.857849598
 30
0.0
 10
47.1108823341
 20
136.5543665654
 30
0.0
 10
47.2691423058
 20
136.2620464749
 30
0.0
 10
47.4699821912
 20
136.0048715456
 30
0.0
 10
47.6975509077
 20
135.8033586382
 30
0.0
 10
47.93485562
 20
135.6737138063
 30
0.0
 10
48.1671862068
 20
135.6271335946
 30
0.0
 10
48.3114584244
 20
135.6643295944
 30
0.0
 10
48.3689271234
 20
135.6974509794
 30
0.0
  0
SPLINE
  5
520
100
AcDbEntity
  8
0
100
AcDbSpline
 62
7
  6
CONTINUOUS
 70
0
 71
3
 72
15
 73
11
 74
0
 42
0.0000001
 43
0.0000001
 44
0.0000000001
 40
0.0
 40
0.0
 40
0.0
 40
0.0
 40
0.1287972074
 40
0.2706054898
 40
0.4178799053
 40
0.562375555
 40
0.6961915357
 40
0.8135903033
 40
0.913065596
 40
1.0
 40
1.0
 40
1.0
 40
1.0
 10
29.3030350326
 20
147.3688346222
 30
0.0
 10
29.3030350326
 20
147.2705636646
 30
0.0
 10
29.3305885674
 20
147.063868461
 30
0.0
 10
29.4331392055
 20
146.7603854284
 30
0.0
 10
29.5913991771
 20
146.4680653379
 30
0.0
 10
29.7922390626
 20
146.2108904086
 30
0.0
 10
30.019807779
 20
146.0093775012
 30
0.0
 10
30.2571124913
 20
145.8797326693
 30
0.0
 10
30.4894430781
 20
145.8331524576
 30
0.0
 10
30.6337152958
 20
145.8703484574
 30
0.0
 10
30.6911839948
 20
145.9034698424
 30
0.0
  0
SPLINE
  5
521
100
AcDbEntity
  8
0
100
AcDbSpline
 62
7
  6
CONTINUOUS
 70
0
 71
3
 72
15
 73
11
 74
0
 42
0.0000001
 43
0.0000001
 44
0.0000000001
 40
0.0
 40
0.0
 40
0.0
 40
0.0
 40
0.1287972074
 40
0.2706054898
 40
0.4178799053
 40
0.562375555
 40
0.6961915357
 40
0.8135903033
 40
0.913065596
 40
1.0
 40
1.0
 40
1.0
 40
1.0
 10
73.2852599367
 20
121.976259691
 30
0.0
 10
73.2852599367
 20
121.8779887334
 30
0.0
 10
73.3128134716
 20
121.6712935299
 30
0.0
 10
73.4153641096
 20
121.3678104973
 30
0.0
 10
73.5736240812
 20
121.0754904067
 30
0.0
 10
73.7744639667
 20
120.8183154774
 30
0.0
 10
74.0020326831
 20
120.6168025701
 30
0.0
 10
74.2393373954
 20
120.4871577381
 30
0.0
 10
74.4716679823
 20
120.4405775265
 30
0.0
 10
74.6159401999
 20
120.4777735263
 30
0.0
 10
74.6734088989
 20
120.5108949112
 30
0.0
  0
SPLINE
  5
522
100
AcDbEntity
  8
0
100
AcDbSpline
 62
7
  6
CONTINUOUS
 70
0
 71
3
 72
11
 73
7
 74
0
 42
0.0000001
 43
0.0000001
 44
0.0000000001
 40
0.0
 40
0.0
 40
0.0
 40
0.0
 40
0.2177793823
 40
0.4509223235
 40
0.7102594935
 40
1.0
 40
1.0
 40
1.0
 40
1.0
 10
37.3949432181
 20
165.4821748858
 30
0.0
 10
37.2266973249
 20
165.3850774685
 30
0.0
 10
36.9119582921
 20
165.1204130973
 30
0.0
 10
36.5768695818
 20
164.572570109
 30
0.0
 10
36.3777814417
 20
163.897367951
 30
0.0
 10
36.3386572728
 20
163.4059339311
 30
0.0
 10
36.3386572728
 20
163.1474924236
 30
0.0
  0
SPLINE
  5
523
100
AcDbEntity
  8
0
100
AcDbSpline
 62
7
  6
CONTINUOUS
 70
0
 71
3
 72
9
 73
5
 74
0
 42
0.0000001
 43
0.0000001
 44
0.0000000001
 40
0.0
 40
0.0
 40
0.0
 40
0.0
 40
0.246211187
 40
1.0
 40
1.0
 40
1.0
 40
1.0
 10
39.170140977
 20
128.392781446
 30
0.0
 10
39.1572342911
 20
128.3926631188
 30
0.0
 10
39.104807912
 20
128.3929390943
 30
0.0
 10
39.0524051242
 20
128.3961946451
 30
0.0
 10
39.0130897082
 20
128.4001728554
 30
0.0
  0
SPLINE
  5
524
100
AcDbEntity
  8
0
100
AcDbSpline
 62
7
  6
CONTINUOUS
 70
0
 71
3
 72
17
 73
13
 74
0
 42
0.0000001
 43
0.0000001
 44
0.0000000001
 40
0.0
 40
0.0
 40
0.0
 40
0.0
 40
0.1286958261
 40
0.2702808406
 40
0.4174358233
 40
0.56177813
 40
0.6954484073
 40
0.8127114953
 40
0.8646776576
 40
0.9125100977
 40
0.9571398542
 40
1.0
 40
1.0
 40
1.0
 40
1.0
 10
21.9844493773
 20
60.145855713
 30
0.0
 10
21.9844493773
 20
59.7099082194
 30
0.0
 10
22.1063963294
 20
58.7933035416
 30
0.0
 10
22.5616272675
 20
57.4474958927
 30
0.0
 10
23.2629979272
 20
56.1510503369
 30
0.0
 10
24.1542224482
 20
55.0102780371
 30
0.0
 10
25.1624651843
 20
54.1173048706
 30
0.0
 10
26.0750886345
 20
53.6184015522
 30
0.0
 10
26.7889444874
 20
53.428373443
 30
0.0
 10
27.2802734993
 20
53.392349676
 30
0.0
 10
27.7377939236
 20
53.4592958011
 30
0.0
 10
28.0149355142
 20
53.5745468677
 30
0.0
 10
28.1406826284
 20
53.6471175546
 30
0.0
  0
SPLINE
  5
525
100
AcDbEntity
  8
0
100
AcDbSpline
 62
7
  6
CONTINUOUS
 70
0
 71
3
 72
15
 73
11
 74
0
 42
0.0000001
 43
0.0000001
 44
0.0000000001
 40
0.0
 40
0.0
 40
0.0
 40
0.0
 40
0.1026398948
 40
0.2184353618
 40
0.3453582989
 40
0.479773795
 40
0.6171548538
 40
0.7526200551
 40
0.881553713
 40
1.0
 40
1.0
 40
1.0
 40
1.0
 10
37.0447947351
 20
144.3736466632
 30
0.0
 10
36.8239673236
 20
144.4272905389
 30
0.0
 10
36.369981343
 20
144.6095910546
 30
0.0
 10
35.7309967412
 20
145.0363808789
 30
0.0
 10
35.1205742234
 20
145.6111278298
 30
0.0
 10
34.5697740103
 20
146.3045264847
 30
0.0
 10
34.1065136518
 20
147.0811558637
 30
0.0
 10
33.7544950184
 20
147.9011651005
 30
0.0
 10
33.5321225574
 20
148.7220466549
 30
0.0
 10
33.4749671023
 20
149.2703364038
 30
0.0
 10
33.4749671023
 20
149.5325821837
 30
0.0
  0
SPLINE
  5
526
100
AcDbEntity
  8
0
100
AcDbSpline
 62
7
  6
CONTINUOUS
 70
0
 71
3
 72
15
 73
11
 74
0
 42
0.0000001
 43
0.0000001
 44
0.0000000001
 40
0.0
 40
0.0
 40
0.0
 40
0.0
 40
0.1026398948
 40
0.2184353618
 40
0.3453582989
 40
0.479773795
 40
0.6171548538
 40
0.7526200551
 40
0.881553713
 40
1.0
 40
1.0
 40
1.0
 40
1.0
 10
54.7225378638
 20
134.1676278002
 30
0.0
 10
54.5017104523
 20
134.2212716759
 30
0.0
 10
54.0477244717
 20
134.4035721915
 30
0.0
 10
53.4087398699
 20
134.8303620158
 30
0.0
 10
52.7983173521
 20
135.4051089668
 30
0.0
 10
52.247517139
 20
136.0985076217
 30
0.0
 10
51.7842567804
 20
136.8751370007
 30
0.0
 10
51.4322381471
 20
137.6951462375
 30
0.0
 10
51.2098656861
 20
138.5160277919
 30
0.0
 10
51.152710231
 20
139.0643175408
 30
0.0
 10
51.152710231
 20
139.3265633207
 30
0.0
  0
SPLINE
  5
527
100
AcDbEntity
  8
0
100
AcDbSpline
 62
7
  6
CONTINUOUS
 70
0
 71
3
 72
15
 73
11
 74
0
 42
0.0000001
 43
0.0000001
 44
0.0000000001
 40
0.0
 40
0.0
 40
0.0
 40
0.0
 40
0.1026398948
 40
0.2184353618
 40
0.3453582989
 40
0.479773795
 40
0.6171548538
 40
0.7526200551
 40
0.881553713
 40
1.0
 40
1.0
 40
1.0
 40
1.0
 10
72.4002809924
 20
123.9616089372
 30
0.0
 10
72.179453581
 20
124.0152528129
 30
0.0
 10
71.7254676004
 20
124.1975533285
 30
0.0
 10
71.0864829986
 20
124.6243431528
 30
0.0
 10
70.4760604808
 20
125.1990901038
 30
0.0
 10
69.9252602676
 20
125.8924887587
 30
0.0
 10
69.4619999091
 20
126.6691181377
 30
0.0
 10
69.1099812758
 20
127.4891273745
 30
0.0
 10
68.8876088148
 20
128.3100089289
 30
0.0
 10
68.8304533597
 20
128.8582986778
 30
0.0
 10
68.8304533597
 20
129.1205444577
 30
0.0
  0
SPLINE
  5
528
100
AcDbEntity
  8
0
100
AcDbSpline
 62
7
  6
CONTINUOUS
 70
0
 71
3
 72
11
 73
7
 74
0
 42
0.0000001
 43
0.0000001
 44
0.0000000001
 40
0.0
 40
0.0
 40
0.0
 40
0.0
 40
0.217745073
 40
0.4508830113
 40
0.7104597664
 40
1.0
 40
1.0
 40
1.0
 40
1.0
 10
86.3628763993
 20
118.1456919414
 30
0.0
 10
86.290320081
 20
118.103801747
 30
0.0
 10
86.1544298991
 20
117.9898211951
 30
0.0
 10
86.0098757955
 20
117.7533625162
 30
0.0
 10
85.9241789074
 20
117.4620587642
 30
0.0
 10
85.9071685306
 20
117.2500744607
 30
0.0
 10
85.9071685306
 20
117.1386694742
 30
0.0
  0
SPLINE
  5
529
100
AcDbEntity
  8
0
100
AcDbSpline
 62
7
  6
CONTINUOUS
 70
0
 71
3
 72
11
 73
7
 74
0
 42
0.0000001
 43
0.0000001
 44
0.0000000001
 40
0.0
 40
0.0
 40
0.0
 40
0.0
 40
0.2177843137
 40
0.4509117637
 40
0.7102976701
 40
1.0
 40
1.0
 40
1.0
 40
1.0
 10
25.2171638855
 20
117.5810809683
 30
0.0
 10
25.3491073411
 20
117.657258045
 30
0.0
 10
25.6522679433
 20
117.7672775104
 30
0.0
 10
26.1558125374
 20
117.7800271624
 30
0.0
 10
26.6924730637
 20
117.6504332125
 30
0.0
 10
27.0416296558
 20
117.4843326489
 30
0.0
 10
27.217144952
 20
117.3830011377
 30
0.0
  0
SPLINE
  5
52A
100
AcDbEntity
  8
0
100
AcDbSpline
 62
7
  6
CONTINUOUS
 70
0
 71
3
 72
11
 73
7
 74
0
 42
0.0000001
 43
0.0000001
 44
0.0000000001
 40
0.0
 40
0.0
 40
0.0
 40
0.0
 40
0.2372539654
 40
0.5000012591
 40
0.7627478695
 40
1.0
 40
1.0
 40
1.0
 40
1.0
 10
70.0678953787
 20
128.4061231373
 30
0.0
 10
70.0678953787
 20
128.1510861944
 30
0.0
 10
70.1635167631
 20
127.6132455404
 30
0.0
 10
70.4970494246
 20
126.8575976838
 30
0.0
 10
70.9846953485
 20
126.1909299251
 30
0.0
 10
71.4026687616
 20
125.8392034813
 30
0.0
 10
71.623536774
 20
125.7116881597
 30
0.0
  0
SPLINE
  5
52B
100
AcDbEntity
  8
0
100
AcDbSpline
 62
7
  6
CONTINUOUS
 70
0
 71
3
 72
11
 73
7
 74
0
 42
0.0000001
 43
0.0000001
 44
0.0000000001
 40
0.0
 40
0.0
 40
0.0
 40
0.0
 40
0.284592763
 40
0.5446238159
 40
0.7811057374
 40
1.0
 40
1.0
 40
1.0
 40
1.0
 10
71.623536774
 20
125.7116881597
 30
0.0
 10
71.7055813166
 20
125.6643207925
 30
0.0
 10
71.8691828303
 20
125.5843172454
 30
0.0
 10
72.1199820777
 20
125.510245049
 30
0.0
 10
72.3592837291
 20
125.4910121571
 30
0.0
 10
72.5108303603
 20
125.5167691364
 30
0.0
 10
72.5801515477
 20
125.5392208826
 30
0.0
  0
SPLINE
  5
52C
100
AcDbEntity
  8
0
100
AcDbSpline
 62
7
  6
CONTINUOUS
 70
0
 71
3
 72
11
 73
7
 74
0
 42
0.0000001
 43
0.0000001
 44
0.0000000001
 40
0.0
 40
0.0
 40
0.0
 40
0.0
 40
0.2177833598
 40
0.4509104088
 40
0.7102966711
 40
1.0
 40
1.0
 40
1.0
 40
1.0
 10
86.6343520919
 20
58.8872489684
 30
0.0
 10
86.7662984613
 20
58.9634278092
 30
0.0
 10
87.0131646952
 20
59.1709677595
 30
0.0
 10
87.2759830596
 20
59.6006877524
 30
0.0
 10
87.4320817123
 20
60.1302625407
 30
0.0
 10
87.4628099259
 20
60.515702872
 30
0.0
 10
87.4628099259
 20
60.7183754495
 30
0.0
  0
SPLINE
  5
52D
100
AcDbEntity
  8
0
100
AcDbSpline
 62
7
  6
CONTINUOUS
 70
0
 71
3
 72
17
 73
13
 74
0
 42
0.0000001
 43
0.0000001
 44
0.0000000001
 40
0.0
 40
0.0
 40
0.0
 40
0.0
 40
0.1286958261
 40
0.2702808406
 40
0.4174358233
 40
0.56177813
 40
0.6954484073
 40
0.8127114953
 40
0.8646776576
 40
0.9125100977
 40
0.9571398542
 40
1.0
 40
1.0
 40
1.0
 40
1.0
 10
39.662192506
 20
49.93983685
 30
0.0
 10
39.662192506
 20
49.5038893564
 30
0.0
 10
39.7841394581
 20
48.5872846786
 30
0.0
 10
40.2393703961
 20
47.2414770297
 30
0.0
 10
40.9407410559
 20
45.9450314739
 30
0.0
 10
41.8319655769
 20
44.8042591741
 30
0.0
 10
42.840208313
 20
43.9112860076
 30
0.0
 10
43.7528317632
 20
43.4123826892
 30
0.0
 10
44.4666876161
 20
43.22235458
 30
0.0
 10
44.958016628
 20
43.186330813
 30
0.0
 10
45.4155370523
 20
43.2532769381
 30
0.0
 10
45.6926786428
 20
43.3685280047
 30
0.0
 10
45.8184257571
 20
43.4410986916
 30
0.0
  0
SPLINE
  5
52E
100
AcDbEntity
  8
0
100
AcDbSpline
 62
7
  6
CONTINUOUS
 70
0
 71
3
 72
17
 73
13
 74
0
 42
0.0000001
 43
0.0000001
 44
0.0000000001
 40
0.0
 40
0.0
 40
0.0
 40
0.0
 40
0.042857965
 40
0.0874854797
 40
0.1353180708
 40
0.1872814984
 40
0.3045423159
 40
0.4382097446
 40
0.5825520305
 40
0.7297107839
 40
0.8713099826
 40
1.0
 40
1.0
 40
1.0
 40
1.0
 10
83.2344024091
 20
53.5900867788
 30
0.0
 10
83.3034133649
 20
53.6299670094
 30
0.0
 10
83.4555892978
 20
53.693182792
 30
0.0
 10
83.7067514653
 20
53.7300204858
 30
0.0
 10
83.9764884591
 20
53.7101438032
 30
0.0
 10
84.3684185146
 20
53.6059275664
 30
0.0
 10
84.8694413125
 20
53.3319671789
 30
0.0
 10
85.4229889749
 20
52.8417485703
 30
0.0
 10
85.9123028177
 20
52.2154502326
 30
0.0
 10
86.2974127377
 20
51.5036640247
 30
0.0
 10
86.5473173331
 20
50.7647580037
 30
0.0
 10
86.6142782557
 20
50.2615132873
 30
0.0
 10
86.6142782557
 20
50.0221812402
 30
0.0
  0
SPLINE
  5
52F
100
AcDbEntity
  8
0
100
AcDbSpline
 62
7
  6
CONTINUOUS
 70
0
 71
3
 72
11
 73
7
 74
0
 42
0.0000001
 43
0.0000001
 44
0.0000000001
 40
0.0
 40
0.0
 40
0.0
 40
0.0
 40
0.2179709781
 40
0.4528005346
 40
0.7126881084
 40
1.0
 40
1.0
 40
1.0
 40
1.0
 10
82.9904556603
 20
53.7885881614
 30
0.0
 10
82.9016034844
 20
53.723555083
 30
0.0
 10
82.7380076769
 20
53.5578805497
 30
0.0
 10
82.5655462292
 20
53.2375100019
 30
0.0
 10
82.4628904279
 20
52.8531169353
 30
0.0
 10
82.4423308774
 20
52.5759386709
 30
0.0
 10
82.4423308774
 20
52.4308016919
 30
0.0
  0
SPLINE
  5
530
100
AcDbEntity
  8
0
100
AcDbSpline
 62
7
  6
CONTINUOUS
 70
0
 71
3
 72
9
 73
5
 74
0
 42
0.0000001
 43
0.0000001
 44
0.0000000001
 40
0.0
 40
0.0
 40
0.0
 40
0.0
 40
0.5312985905
 40
1.0
 40
1.0
 40
1.0
 40
1.0
 10
84.0876695591
 20
49.0297141019
 30
0.0
 10
84.2569804127
 20
48.8816142935
 30
0.0
 10
84.5992841632
 20
48.6281514127
 30
0.0
 10
84.9899785179
 20
48.4519492608
 30
0.0
 10
85.1810724916
 20
48.3984519056
 30
0.0
  0
SPLINE
  5
531
100
AcDbEntity
  8
0
100
AcDbSpline
 62
7
  6
CONTINUOUS
 70
0
 71
3
 72
16
 73
12
 74
0
 42
0.0000001
 43
0.0000001
 44
0.0000000001
 40
0.0
 40
0.0
 40
0.0
 40
0.0
 40
0.1467183652
 40
0.2960476017
 40
0.4423023164
 40
0.5801671107
 40
0.7054078245
 40
0.8157661093
 40
0.9121048161
 40
0.956656239
 40
1.0
 40
1.0
 40
1.0
 40
1.0
 10
92.0829415676
 20
148.3614416361
 30
0.0
 10
91.9611551398
 20
148.734322786
 30
0.0
 10
91.6577414375
 20
149.468856742
 30
0.0
 10
91.0589986661
 20
150.4926137659
 30
0.0
 10
90.3394778632
 20
151.4061169438
 30
0.0
 10
89.5388135138
 20
152.1590138184
 30
0.0
 10
88.698832584
 20
152.7102893928
 30
0.0
 10
87.8619179735
 20
153.0300083602
 30
0.0
 10
87.1779276386
 20
153.0813986037
 30
0.0
 10
86.6937473438
 20
152.9760450469
 30
0.0
 10
86.4771910221
 20
152.8797469794
 30
0.0
 10
86.3768226303
 20
152.8218227565
 30
0.0
  0
SPLINE
  5
532
100
AcDbEntity
  8
0
100
AcDbSpline
 62
7
  6
CONTINUOUS
 70
0
 71
3
 72
17
 73
13
 74
0
 42
0.0000001
 43
0.0000001
 44
0.0000000001
 40
0.0
 40
0.0
 40
0.0
 40
0.0
 40
0.1286958261
 40
0.2702808406
 40
0.4174358233
 40
0.56177813
 40
0.6954484073
 40
0.8127114953
 40
0.8646776576
 40
0.9125100977
 40
0.9571398542
 40
1.0
 40
1.0
 40
1.0
 40
1.0
 10
57.3399356347
 20
39.733817987
 30
0.0
 10
57.3399356347
 20
39.2978704934
 30
0.0
 10
57.4618825868
 20
38.3812658156
 30
0.0
 10
57.9171135248
 20
37.0354581667
 30
0.0
 10
58.6184841845
 20
35.7390126109
 30
0.0
 10
59.5097087056
 20
34.5982403111
 30
0.0
 10
60.5179514417
 20
33.7052671446
 30
0.0
 10
61.4305748919
 20
33.2063638262
 30
0.0
 10
62.1444307448
 20
33.016335717
 30
0.0
 10
62.6357597567
 20
32.98031195
 30
0.0
 10
63.093280181
 20
33.0472580751
 30
0.0
 10
63.3704217715
 20
33.1625091417
 30
0.0
 10
63.4961688858
 20
33.2350798286
 30
0.0
  0
SPLINE
  5
533
100
AcDbEntity
  8
0
100
AcDbSpline
 62
7
  6
CONTINUOUS
 70
0
 71
3
 72
17
 73
13
 74
0
 42
0.0000001
 43
0.0000001
 44
0.0000000001
 40
0.0
 40
0.0
 40
0.0
 40
0.0
 40
0.1286958261
 40
0.2702808406
 40
0.4174358233
 40
0.56177813
 40
0.6954484073
 40
0.8127114953
 40
0.8646776576
 40
0.9125100977
 40
0.9571398542
 40
1.0
 40
1.0
 40
1.0
 40
1.0
 10
75.0176787633
 20
29.527799124
 30
0.0
 10
75.0176787633
 20
29.0918516304
 30
0.0
 10
75.1396257155
 20
28.1752469526
 30
0.0
 10
75.5948566535
 20
26.8294393037
 30
0.0
 10
76.2962273132
 20
25.5329937479
 30
0.0
 10
77.1874518343
 20
24.392221448
 30
0.0
 10
78.1956945704
 20
23.4992482816
 30
0.0
 10
79.1083180206
 20
23.0003449632
 30
0.0
 10
79.8221738735
 20
22.810316854
 30
0.0
 10
80.3135028853
 20
22.774293087
 30
0.0
 10
80.7710233097
 20
22.8412392121
 30
0.0
 10
81.0481649002
 20
22.9564902787
 30
0.0
 10
81.1739120144
 20
23.0290609656
 30
0.0
  0
SPLINE
  5
534
100
AcDbEntity
  8
0
100
AcDbSpline
 62
7
  6
CONTINUOUS
 70
0
 71
3
 72
11
 73
7
 74
0
 42
0.0000001
 43
0.0000001
 44
0.0000000001
 40
0.0
 40
0.0
 40
0.0
 40
0.0
 40
0.2359388748
 40
0.4972047601
 40
0.7599829438
 40
1.0
 40
1.0
 40
1.0
 40
1.0
 10
85.9778795031
 20
24.016569846
 30
0.0
 10
85.9778795031
 20
23.7693744177
 30
0.0
 10
86.0678807546
 20
23.2480497251
 30
0.0
 10
86.3843123027
 20
22.5112654525
 30
0.0
 10
86.850071685
 20
21.8532835358
 30
0.0
 10
87.2500331324
 20
21.4988390243
 30
0.0
 10
87.4628099259
 20
21.3648155907
 30
0.0
  0
SPLINE
  5
535
100
AcDbEntity
  8
0
100
AcDbSpline
 62
7
  6
CONTINUOUS
 70
0
 71
3
 72
15
 73
11
 74
0
 42
0.0000001
 43
0.0000001
 44
0.0000000001
 40
0.0
 40
0.0
 40
0.0
 40
0.0
 40
0.1287972074
 40
0.2706054898
 40
0.4178799053
 40
0.562375555
 40
0.6961915357
 40
0.8135903033
 40
0.913065596
 40
1.0
 40
1.0
 40
1.0
 40
1.0
 10
46.9807781613
 20
48.9805547092
 30
0.0
 10
46.9807781613
 20
48.8822837516
 30
0.0
 10
47.0083316961
 20
48.6755885481
 30
0.0
 10
47.1108823341
 20
48.3721055155
 30
0.0
 10
47.2691423058
 20
48.0797854249
 30
0.0
 10
47.4699821912
 20
47.8226104956
 30
0.0
 10
47.6975509077
 20
47.6210975883
 30
0.0
 10
47.93485562
 20
47.4914527563
 30
0.0
 10
48.1671862068
 20
47.4448725446
 30
0.0
 10
48.3114584244
 20
47.4820685445
 30
0.0
 10
48.3689271234
 20
47.5151899294
 30
0.0
  0
SPLINE
  5
536
100
AcDbEntity
  8
0
100
AcDbSpline
 62
7
  6
CONTINUOUS
 70
0
 71
3
 72
9
 73
5
 74
0
 42
0.0000001
 43
0.0000001
 44
0.0000000001
 40
0.0
 40
0.0
 40
0.0
 40
0.0
 40
0.460577573
 40
1.0
 40
1.0
 40
1.0
 40
1.0
 10
52.6275156326
 20
46.3475211446
 30
0.0
 10
52.5454633809
 20
46.2436578691
 30
0.0
 10
52.4210146458
 20
45.9752722926
 30
0.0
 10
52.39015225
 20
45.6858890941
 30
0.0
 10
52.39015225
 20
45.5308664476
 30
0.0
  0
SPLINE
  5
537
100
AcDbEntity
  8
0
100
AcDbSpline
 62
7
  6
CONTINUOUS
 70
0
 71
3
 72
11
 73
7
 74
0
 42
0.0000001
 43
0.0000001
 44
0.0000000001
 40
0.0
 40
0.0
 40
0.0
 40
0.0
 40
0.2177568254
 40
0.4508880495
 40
0.7104270882
 40
1.0
 40
1.0
 40
1.0
 40
1.0
 10
86.4335791541
 20
25.0236068148
 30
0.0
 10
86.3610279634
 20
24.9816980001
 30
0.0
 10
86.2251375437
 20
24.8677186537
 30
0.0
 10
86.080599157
 20
24.6312645434
 30
0.0
 10
85.9948662771
 20
24.3399754406
 30
0.0
 10
85.9778795031
 20
24.1279878711
 30
0.0
 10
85.9778795031
 20
24.016569846
 30
0.0
  0
SPLINE
  5
538
100
AcDbEntity
  8
0
100
AcDbSpline
 62
7
  6
CONTINUOUS
 70
0
 71
3
 72
15
 73
11
 74
0
 42
0.0000001
 43
0.0000001
 44
0.0000000001
 40
0.0
 40
0.0
 40
0.0
 40
0.0
 40
0.1287972074
 40
0.2706054898
 40
0.4178799053
 40
0.562375555
 40
0.6961915357
 40
0.8135903033
 40
0.913065596
 40
1.0
 40
1.0
 40
1.0
 40
1.0
 10
29.3030350326
 20
59.1865735722
 30
0.0
 10
29.3030350326
 20
59.0883026146
 30
0.0
 10
29.3305885674
 20
58.8816074111
 30
0.0
 10
29.4331392055
 20
58.5781243785
 30
0.0
 10
29.5913991771
 20
58.2858042879
 30
0.0
 10
29.7922390626
 20
58.0286293586
 30
0.0
 10
30.019807779
 20
57.8271164513
 30
0.0
 10
30.2571124913
 20
57.6974716193
 30
0.0
 10
30.4894430781
 20
57.6508914076
 30
0.0
 10
30.6337152958
 20
57.6880874075
 30
0.0
 10
30.6911839948
 20
57.7212087924
 30
0.0
  0
SPLINE
  5
539
100
AcDbEntity
  8
0
100
AcDbSpline
 62
7
  6
CONTINUOUS
 70
0
 71
3
 72
11
 73
7
 74
0
 42
0.0000001
 43
0.0000001
 44
0.0000000001
 40
0.0
 40
0.0
 40
0.0
 40
0.0
 40
0.2177739674
 40
0.4509298424
 40
0.7102237828
 40
1.0
 40
1.0
 40
1.0
 40
1.0
 10
40.7184822647
 20
52.2745126858
 30
0.0
 10
40.5502566864
 20
52.1773881767
 30
0.0
 10
40.2354493595
 20
51.91280113
 30
0.0
 10
39.9004411931
 20
51.3649262782
 30
0.0
 10
39.7012747079
 20
50.6897517469
 30
0.0
 10
39.662192506
 20
50.1983112479
 30
0.0
 10
39.662192506
 20
49.93983685
 30
0.0
  0
SPLINE
  5
53A
100
AcDbEntity
  8
0
100
AcDbSpline
 62
7
  6
CONTINUOUS
 70
0
 71
3
 72
11
 73
7
 74
0
 42
0.0000001
 43
0.0000001
 44
0.0000000001
 40
0.0
 40
0.0
 40
0.0
 40
0.0
 40
0.2372539654
 40
0.5000012591
 40
0.7627478695
 40
1.0
 40
1.0
 40
1.0
 40
1.0
 10
52.39015225
 20
138.6121420003
 30
0.0
 10
52.39015225
 20
138.3571050574
 30
0.0
 10
52.4857736344
 20
137.8192644034
 30
0.0
 10
52.8193062959
 20
137.0636165468
 30
0.0
 10
53.3069522198
 20
136.3969487882
 30
0.0
 10
53.7249256329
 20
136.0452223443
 30
0.0
 10
53.9457936453
 20
135.9177070227
 30
0.0
  0
SPLINE
  5
53B
100
AcDbEntity
  8
0
100
AcDbSpline
 62
7
  6
CONTINUOUS
 70
0
 71
3
 72
11
 73
7
 74
0
 42
0.0000001
 43
0.0000001
 44
0.0000000001
 40
0.0
 40
0.0
 40
0.0
 40
0.0
 40
0.284592763
 40
0.5446238159
 40
0.7811057374
 40
1.0
 40
1.0
 40
1.0
 40
1.0
 10
53.9457936453
 20
135.9177070227
 30
0.0
 10
54.027838188
 20
135.8703396555
 30
0.0
 10
54.1914397016
 20
135.7903361084
 30
0.0
 10
54.4422389491
 20
135.716263912
 30
0.0
 10
54.6815406004
 20
135.6970310201
 30
0.0
 10
54.8330872316
 20
135.7227879994
 30
0.0
 10
54.902408419
 20
135.7452397457
 30
0.0
  0
SPLINE
  5
53C
100
AcDbEntity
  8
0
100
AcDbSpline
 62
7
  6
CONTINUOUS
 70
0
 71
3
 72
15
 73
11
 74
0
 42
0.0000001
 43
0.0000001
 44
0.0000000001
 40
0.0
 40
0.0
 40
0.0
 40
0.0
 40
0.1287972074
 40
0.2706054898
 40
0.4178799053
 40
0.562375555
 40
0.6961915357
 40
0.8135903033
 40
0.913065596
 40
1.0
 40
1.0
 40
1.0
 40
1.0
 10
73.2852599367
 20
33.793998641
 30
0.0
 10
73.2852599367
 20
33.6957276835
 30
0.0
 10
73.3128134716
 20
33.4890324799
 30
0.0
 10
73.4153641096
 20
33.1855494473
 30
0.0
 10
73.5736240812
 20
32.8932293567
 30
0.0
 10
73.7744639667
 20
32.6360544275
 30
0.0
 10
74.0020326831
 20
32.4345415201
 30
0.0
 10
74.2393373954
 20
32.3048966881
 30
0.0
 10
74.4716679823
 20
32.2583164765
 30
0.0
 10
74.6159401999
 20
32.2955124763
 30
0.0
 10
74.6734088989
 20
32.3286338613
 30
0.0
  0
SPLINE
  5
53D
100
AcDbEntity
  8
0
100
AcDbSpline
 62
7
  6
CONTINUOUS
 70
0
 71
3
 72
13
 73
9
 74
0
 42
0.0000001
 43
0.0000001
 44
0.0000000001
 40
0.0
 40
0.0
 40
0.0
 40
0.0
 40
0.2811828571
 40
0.4221068541
 40
0.5581299441
 40
0.6858943499
 40
0.8028930884
 40
1.0
 40
1.0
 40
1.0
 40
1.0
 10
35.2781122101
 20
130.7486786593
 30
0.0
 10
35.4082024898
 20
130.3574272692
 30
0.0
 10
35.6788396847
 20
129.7922361944
 30
0.0
 10
36.1533233195
 20
129.1239183044
 30
0.0
 10
36.5535016269
 20
128.683696378
 30
0.0
 10
36.9829982193
 20
128.322683417
 30
0.0
 10
37.5359678375
 20
127.9861745371
 30
0.0
 10
38.0008667049
 20
127.8518461123
 30
0.0
 10
38.2896792661
 20
127.8629863679
 30
0.0
  0
SPLINE
  5
53E
100
AcDbEntity
  8
0
100
AcDbSpline
 62
7
  6
CONTINUOUS
 70
0
 71
3
 72
9
 73
5
 74
0
 42
0.0000001
 43
0.0000001
 44
0.0000000001
 40
0.0
 40
0.0
 40
0.0
 40
0.0
 40
0.5101506973
 40
1.0
 40
1.0
 40
1.0
 40
1.0
 10
38.2896792661
 20
127.8629863679
 30
0.0
 10
38.381787151
 20
127.8665392098
 30
0.0
 10
38.5623900213
 20
127.892876875
 30
0.0
 10
38.7313625121
 20
127.9629527201
 30
0.0
 10
38.8080004193
 20
128.007228426
 30
0.0
  0
SPLINE
  5
53F
100
AcDbEntity
  8
0
100
AcDbSpline
 62
7
  6
CONTINUOUS
 70
0
 71
3
 72
9
 73
5
 74
0
 42
0.0000001
 43
0.0000001
 44
0.0000000001
 40
0.0
 40
0.0
 40
0.0
 40
0.0
 40
0.2434871532
 40
1.0
 40
1.0
 40
1.0
 40
1.0
 10
35.0659792925
 20
131.9574366993
 30
0.0
 10
35.0659792925
 20
131.9259817659
 30
0.0
 10
35.0680741599
 20
131.7968009177
 30
0.0
 10
35.0782512046
 20
131.6677853493
 30
0.0
 10
35.089895923
 20
131.5707513193
 30
0.0
  0
SPLINE
  5
540
100
AcDbEntity
  8
0
100
AcDbSpline
 62
7
  6
CONTINUOUS
 70
0
 71
3
 72
9
 73
5
 74
0
 42
0.0000001
 43
0.0000001
 44
0.0000000001
 40
0.0
 40
0.0
 40
0.0
 40
0.0
 40
0.2408047235
 40
1.0
 40
1.0
 40
1.0
 40
1.0
 10
35.089895923
 20
131.5707513193
 30
0.0
 10
35.0979695418
 20
131.5034748303
 30
0.0
 10
35.1394319696
 20
131.2250671892
 30
0.0
 10
35.2107097554
 20
130.9513940669
 30
0.0
 10
35.2781122101
 20
130.7486786593
 30
0.0
  0
SPLINE
  5
541
100
AcDbEntity
  8
0
100
AcDbSpline
 62
7
  6
CONTINUOUS
 70
0
 71
3
 72
17
 73
13
 74
0
 42
0.0000001
 43
0.0000001
 44
0.0000000001
 40
0.0
 40
0.0
 40
0.0
 40
0.0
 40
0.042857965
 40
0.0874854797
 40
0.1353180708
 40
0.1872814984
 40
0.3045423159
 40
0.4382097446
 40
0.5825520305
 40
0.7297107839
 40
0.8713099826
 40
1.0
 40
1.0
 40
1.0
 40
1.0
 10
83.2344024091
 20
105.7645912334
 30
0.0
 10
83.3034133649
 20
105.8044714639
 30
0.0
 10
83.4555892978
 20
105.8676872465
 30
0.0
 10
83.7067514653
 20
105.9045249404
 30
0.0
 10
83.9764884591
 20
105.8846482578
 30
0.0
 10
84.3684185146
 20
105.7804320209
 30
0.0
 10
84.8694413125
 20
105.5064716335
 30
0.0
 10
85.4229889749
 20
105.0162530249
 30
0.0
 10
85.9123028177
 20
104.3899546871
 30
0.0
 10
86.2974127377
 20
103.6781684793
 30
0.0
 10
86.5473173331
 20
102.9392624583
 30
0.0
 10
86.6142782557
 20
102.4360177418
 30
0.0
 10
86.6142782557
 20
102.1966856948
 30
0.0
  0
SPLINE
  5
542
100
AcDbEntity
  8
0
100
AcDbSpline
 62
7
  6
CONTINUOUS
 70
0
 71
3
 72
15
 73
11
 74
0
 42
0.0000001
 43
0.0000001
 44
0.0000000001
 40
0.0
 40
0.0
 40
0.0
 40
0.0
 40
0.1271397101
 40
0.2649327719
 40
0.4077482509
 40
0.5491123409
 40
0.6827820163
 40
0.8036760252
 40
0.9090431102
 40
1.0
 40
1.0
 40
1.0
 40
1.0
 10
82.4458411437
 20
104.4606720124
 30
0.0
 10
82.4573146767
 20
104.2207227497
 30
0.0
 10
82.5368516042
 20
103.722768704
 30
0.0
 10
82.7874249129
 20
102.9911074685
 30
0.0
 10
83.1585957023
 20
102.2820305885
 30
0.0
 10
83.6263815958
 20
101.6422650931
 30
0.0
 10
84.1602386465
 20
101.1131506292
 30
0.0
 10
84.7272975567
 20
100.7289329814
 30
0.0
 10
85.2938566047
 20
100.5138573585
 30
0.0
 10
85.6749297955
 20
100.4990081047
 30
0.0
 10
85.843877164
 20
100.5305034264
 30
0.0
  0
SPLINE
  5
543
100
AcDbEntity
  8
0
100
AcDbSpline
 62
7
  6
CONTINUOUS
 70
0
 71
3
 72
9
 73
5
 74
0
 42
0.0000001
 43
0.0000001
 44
0.0000000001
 40
0.0
 40
0.0
 40
0.0
 40
0.0
 40
0.2546690528
 40
1.0
 40
1.0
 40
1.0
 40
1.0
 10
85.843877164
 20
100.5305034264
 30
0.0
 10
85.874215259
 20
100.5361590816
 30
0.0
 10
85.992402296
 20
100.5630901982
 30
0.0
 10
86.1061433587
 20
100.6099213739
 30
0.0
 10
86.184366867
 20
100.6550724748
 30
0.0
  0
SPLINE
  5
544
100
AcDbEntity
  8
0
100
AcDbSpline
 62
7
  6
CONTINUOUS
 70
0
 71
3
 72
11
 73
7
 74
0
 42
0.0000001
 43
0.0000001
 44
0.0000000001
 40
0.0
 40
0.0
 40
0.0
 40
0.0
 40
0.2279017096
 40
0.4771496286
 40
0.7382605251
 40
1.0
 40
1.0
 40
1.0
 40
1.0
 10
89.3718866588
 20
132.5294358346
 30
0.0
 10
89.3718866588
 20
132.15155286
 30
0.0
 10
89.463659744
 20
131.3595079014
 30
0.0
 10
89.8151655344
 20
130.1819270226
 30
0.0
 10
90.3653901511
 20
129.0209246862
 30
0.0
 10
90.8487863448
 20
128.2967214041
 30
0.0
 10
91.1168471801
 20
127.9554150097
 30
0.0
  0
SPLINE
  5
545
100
AcDbEntity
  8
0
100
AcDbSpline
 62
7
  6
CONTINUOUS
 70
0
 71
3
 72
11
 73
7
 74
0
 42
0.0000001
 43
0.0000001
 44
0.0000000001
 40
0.0
 40
0.0
 40
0.0
 40
0.0
 40
0.2093112801
 40
0.4468020868
 40
0.7120210676
 40
1.0
 40
1.0
 40
1.0
 40
1.0
 10
107.9856744092
 20
147.5023153843
 30
0.0
 10
108.373683095
 20
147.4911864016
 30
0.0
 10
109.19941073
 20
147.3293041157
 30
0.0
 10
110.4045609843
 20
146.7686209584
 30
0.0
 10
111.6013238843
 20
145.9091987105
 30
0.0
 10
112.3347821055
 20
145.1859852729
 30
0.0
 10
112.6894159232
 20
144.7866703911
 30
0.0
  0
SPLINE
  5
546
100
AcDbEntity
  8
0
100
AcDbSpline
 62
7
  6
CONTINUOUS
 70
0
 71
3
 72
11
 73
7
 74
0
 42
0.0000001
 43
0.0000001
 44
0.0000000001
 40
0.0
 40
0.0
 40
0.0
 40
0.0
 40
0.2372539654
 40
0.5000012591
 40
0.7627478695
 40
1.0
 40
1.0
 40
1.0
 40
1.0
 10
34.7124091213
 20
148.8181608633
 30
0.0
 10
34.7124091213
 20
148.5631239204
 30
0.0
 10
34.8080305057
 20
148.0252832665
 30
0.0
 10
35.1415631672
 20
147.2696354098
 30
0.0
 10
35.6292090911
 20
146.6029676512
 30
0.0
 10
36.0471825042
 20
146.2512412073
 30
0.0
 10
36.2680505167
 20
146.1237258857
 30
0.0
  0
SPLINE
  5
547
100
AcDbEntity
  8
0
100
AcDbSpline
 62
7
  6
CONTINUOUS
 70
0
 71
3
 72
11
 73
7
 74
0
 42
0.0000001
 43
0.0000001
 44
0.0000000001
 40
0.0
 40
0.0
 40
0.0
 40
0.0
 40
0.284592763
 40
0.5446238159
 40
0.7811057374
 40
1.0
 40
1.0
 40
1.0
 40
1.0
 10
36.2680505167
 20
146.1237258857
 30
0.0
 10
36.3500950593
 20
146.0763585185
 30
0.0
 10
36.5136965729
 20
145.9963549714
 30
0.0
 10
36.7644958204
 20
145.922282775
 30
0.0
 10
37.0037974717
 20
145.9030498831
 30
0.0
 10
37.1553441029
 20
145.9288068624
 30
0.0
 10
37.2246652903
 20
145.9512586087
 30
0.0
  0
SPLINE
  5
548
100
AcDbEntity
  8
0
100
AcDbSpline
 62
7
  6
CONTINUOUS
 70
0
 71
3
 72
16
 73
12
 74
0
 42
0.0000001
 43
0.0000001
 44
0.0000000001
 40
0.0
 40
0.0
 40
0.0
 40
0.0
 40
0.1467183652
 40
0.2960476017
 40
0.4423023164
 40
0.5801671107
 40
0.7054078245
 40
0.8157661093
 40
0.9121048161
 40
0.956656239
 40
1.0
 40
1.0
 40
1.0
 40
1.0
 10
109.7606846963
 20
138.1554227731
 30
0.0
 10
109.6388982684
 20
138.528303923
 30
0.0
 10
109.3354845661
 20
139.262837879
 30
0.0
 10
108.7367417948
 20
140.2865949028
 30
0.0
 10
108.0172209919
 20
141.2000980808
 30
0.0
 10
107.2165566425
 20
141.9529949554
 30
0.0
 10
106.3765757127
 20
142.5042705298
 30
0.0
 10
105.5396611022
 20
142.8239894972
 30
0.0
 10
104.8556707672
 20
142.8753797407
 30
0.0
 10
104.3714904725
 20
142.7700261839
 30
0.0
 10
104.1549341508
 20
142.6737281164
 30
0.0
 10
104.054565759
 20
142.6158038935
 30
0.0
  0
SPLINE
  5
549
100
AcDbEntity
  8
0
100
AcDbSpline
 62
7
  6
CONTINUOUS
 70
0
 71
3
 72
11
 73
7
 74
0
 42
0.0000001
 43
0.0000001
 44
0.0000000001
 40
0.0
 40
0.0
 40
0.0
 40
0.0
 40
0.2176907916
 40
0.4508868986
 40
0.7106214304
 40
1.0
 40
1.0
 40
1.0
 40
1.0
 10
29.5412384382
 20
59.7129846166
 30
0.0
 10
29.5033045446
 20
59.6911218789
 30
0.0
 10
29.4323244592
 20
59.6314709486
 30
0.0
 10
29.3566837446
 20
59.5078896
 30
0.0
 10
29.311981774
 20
59.3555702811
 30
0.0
 10
29.3030350326
 20
59.2447748857
 30
0.0
 10
29.3030350326
 20
59.1865735722
 30
0.0
  0
SPLINE
  5
54A
100
AcDbEntity
  8
0
100
AcDbSpline
 62
7
  6
CONTINUOUS
 70
0
 71
3
 72
11
 73
7
 74
0
 42
0.0000001
 43
0.0000001
 44
0.0000000001
 40
0.0
 40
0.0
 40
0.0
 40
0.0
 40
0.2176907916
 40
0.4508868986
 40
0.7106214304
 40
1.0
 40
1.0
 40
1.0
 40
1.0
 10
47.2189815669
 20
49.5069657536
 30
0.0
 10
47.1810476733
 20
49.4851030158
 30
0.0
 10
47.1100675878
 20
49.4254520856
 30
0.0
 10
47.0344268733
 20
49.301870737
 30
0.0
 10
46.9897249026
 20
49.1495514181
 30
0.0
 10
46.9807781613
 20
49.0387560227
 30
0.0
 10
46.9807781613
 20
48.9805547092
 30
0.0
  0
SPLINE
  5
54B
100
AcDbEntity
  8
0
100
AcDbSpline
 62
7
  6
CONTINUOUS
 70
0
 71
3
 72
9
 73
5
 74
0
 42
0.0000001
 43
0.0000001
 44
0.0000000001
 40
0.0
 40
0.0
 40
0.0
 40
0.0
 40
0.460577573
 40
1.0
 40
1.0
 40
1.0
 40
1.0
 10
34.9497725039
 20
56.5535400076
 30
0.0
 10
34.8677202522
 20
56.4496767321
 30
0.0
 10
34.7432715171
 20
56.1812911556
 30
0.0
 10
34.7124091213
 20
55.8919079571
 30
0.0
 10
34.7124091213
 20
55.7368853106
 30
0.0
  0
SPLINE
  5
54C
100
AcDbEntity
  8
0
100
AcDbSpline
 62
7
  6
CONTINUOUS
 70
0
 71
3
 72
11
 73
7
 74
0
 42
0.0000001
 43
0.0000001
 44
0.0000000001
 40
0.0
 40
0.0
 40
0.0
 40
0.0
 40
0.2177739674
 40
0.4509298424
 40
0.7102237828
 40
1.0
 40
1.0
 40
1.0
 40
1.0
 10
23.040739136
 20
62.4805315488
 30
0.0
 10
22.8725135578
 20
62.3834070397
 30
0.0
 10
22.5577062308
 20
62.118819993
 30
0.0
 10
22.2226980645
 20
61.5709451413
 30
0.0
 10
22.0235315793
 20
60.8957706099
 30
0.0
 10
21.9844493773
 20
60.4043301109
 30
0.0
 10
21.9844493773
 20
60.145855713
 30
0.0
  0
SPLINE
  5
54D
100
AcDbEntity
  8
0
100
AcDbSpline
 62
7
  6
CONTINUOUS
 70
0
 71
3
 72
9
 73
5
 74
0
 42
0.0000001
 43
0.0000001
 44
0.0000000001
 40
0.0
 40
0.0
 40
0.0
 40
0.0
 40
0.2646028731
 40
1.0
 40
1.0
 40
1.0
 40
1.0
 10
68.8304533597
 20
36.039268905
 30
0.0
 10
68.8304533597
 20
36.1139230263
 30
0.0
 10
68.8390348442
 20
36.3958551805
 30
0.0
 10
68.8831307094
 20
36.6777563745
 30
0.0
 10
68.9418553007
 20
36.8767547377
 30
0.0
  0
SPLINE
  5
54E
100
AcDbEntity
  8
0
100
AcDbSpline
 62
7
  6
CONTINUOUS
 70
0
 71
3
 72
11
 73
7
 74
0
 42
0.0000001
 43
0.0000001
 44
0.0000000001
 40
0.0
 40
0.0
 40
0.0
 40
0.0
 40
0.2372539654
 40
0.5000012591
 40
0.7627478695
 40
1.0
 40
1.0
 40
1.0
 40
1.0
 10
70.0678953787
 20
35.3248475845
 30
0.0
 10
70.0678953787
 20
35.0698106417
 30
0.0
 10
70.1635167631
 20
34.5319699877
 30
0.0
 10
70.4970494246
 20
33.7763221311
 30
0.0
 10
70.9846953485
 20
33.1096543724
 30
0.0
 10
71.4026687616
 20
32.7579279286
 30
0.0
 10
71.623536774
 20
32.6304126069
 30
0.0
  0
SPLINE
  5
54F
100
AcDbEntity
  8
0
100
AcDbSpline
 62
7
  6
CONTINUOUS
 70
0
 71
3
 72
9
 73
5
 74
0
 42
0.0000001
 43
0.0000001
 44
0.0000000001
 40
0.0
 40
0.0
 40
0.0
 40
0.0
 40
0.5393520166
 40
1.0
 40
1.0
 40
1.0
 40
1.0
 10
71.623536774
 20
32.6304126069
 30
0.0
 10
71.7575570821
 20
32.5530376964
 30
0.0
 10
72.0231421842
 20
32.435234396
 30
0.0
 10
72.3172488099
 20
32.4085752869
 30
0.0
 10
72.4480631485
 20
32.4274601623
 30
0.0
  0
SPLINE
  5
550
100
AcDbEntity
  8
0
100
AcDbSpline
 62
7
  6
CONTINUOUS
 70
0
 71
3
 72
11
 73
7
 74
0
 42
0.0000001
 43
0.0000001
 44
0.0000000001
 40
0.0
 40
0.0
 40
0.0
 40
0.0
 40
0.2279017096
 40
0.4771496286
 40
0.7382605251
 40
1.0
 40
1.0
 40
1.0
 40
1.0
 10
36.3386572728
 20
163.1474924236
 30
0.0
 10
36.3386572728
 20
162.7696094491
 30
0.0
 10
36.430430358
 20
161.9775644904
 30
0.0
 10
36.7819361484
 20
160.7999836117
 30
0.0
 10
37.3321607651
 20
159.6389812753
 30
0.0
 10
37.8155569587
 20
158.9147779932
 30
0.0
 10
38.0836177941
 20
158.5734715987
 30
0.0
  0
SPLINE
  5
551
100
AcDbEntity
  8
0
100
AcDbSpline
 62
7
  6
CONTINUOUS
 70
0
 71
3
 72
9
 73
5
 74
0
 42
0.0000001
 43
0.0000001
 44
0.0000000001
 40
0.0
 40
0.0
 40
0.0
 40
0.0
 40
0.2646028731
 40
1.0
 40
1.0
 40
1.0
 40
1.0
 10
51.152710231
 20
46.245287768
 30
0.0
 10
51.152710231
 20
46.3199418893
 30
0.0
 10
51.1612917156
 20
46.6018740436
 30
0.0
 10
51.2053875807
 20
46.8837752375
 30
0.0
 10
51.264112172
 20
47.0827736007
 30
0.0
  0
SPLINE
  5
552
100
AcDbEntity
  8
0
100
AcDbSpline
 62
7
  6
CONTINUOUS
 70
0
 71
3
 72
11
 73
7
 74
0
 42
0.0000001
 43
0.0000001
 44
0.0000000001
 40
0.0
 40
0.0
 40
0.0
 40
0.0
 40
0.2372539654
 40
0.5000012591
 40
0.7627478695
 40
1.0
 40
1.0
 40
1.0
 40
1.0
 10
52.39015225
 20
45.5308664476
 30
0.0
 10
52.39015225
 20
45.2758295047
 30
0.0
 10
52.4857736344
 20
44.7379888507
 30
0.0
 10
52.8193062959
 20
43.9823409941
 30
0.0
 10
53.3069522198
 20
43.3156732354
 30
0.0
 10
53.7249256329
 20
42.9639467916
 30
0.0
 10
53.9457936453
 20
42.8364314699
 30
0.0
  0
SPLINE
  5
553
100
AcDbEntity
  8
0
100
AcDbSpline
 62
7
  6
CONTINUOUS
 70
0
 71
3
 72
9
 73
5
 74
0
 42
0.0000001
 43
0.0000001
 44
0.0000000001
 40
0.0
 40
0.0
 40
0.0
 40
0.0
 40
0.5393520166
 40
1.0
 40
1.0
 40
1.0
 40
1.0
 10
53.9457936453
 20
42.8364314699
 30
0.0
 10
54.0798139535
 20
42.7590565594
 30
0.0
 10
54.3453990555
 20
42.641253259
 30
0.0
 10
54.6395056812
 20
42.6145941499
 30
0.0
 10
54.7703200198
 20
42.6334790253
 30
0.0
  0
SPLINE
  5
554
100
AcDbEntity
  8
0
100
AcDbSpline
 62
7
  6
CONTINUOUS
 70
0
 71
3
 72
11
 73
7
 74
0
 42
0.0000001
 43
0.0000001
 44
0.0000000001
 40
0.0
 40
0.0
 40
0.0
 40
0.0
 40
0.2179706252
 40
0.4527992041
 40
0.7126866467
 40
1.0
 40
1.0
 40
1.0
 40
1.0
 10
82.990508242
 20
105.9631310993
 30
0.0
 10
82.9016483894
 20
105.8981008706
 30
0.0
 10
82.7380368953
 20
105.7324280632
 30
0.0
 10
82.5655582353
 20
105.4120493455
 30
0.0
 10
82.4628922879
 20
105.027640888
 30
0.0
 10
82.4423308774
 20
104.750450046
 30
0.0
 10
82.4423308774
 20
104.6053061465
 30
0.0
  0
SPLINE
  5
555
100
AcDbEntity
  8
0
100
AcDbSpline
 62
7
  6
CONTINUOUS
 70
0
 71
3
 72
11
 73
7
 74
0
 42
0.0000001
 43
0.0000001
 44
0.0000000001
 40
0.0
 40
0.0
 40
0.0
 40
0.0
 40
0.2093112801
 40
0.4468020868
 40
0.7120210676
 40
1.0
 40
1.0
 40
1.0
 40
1.0
 10
54.9524450232
 20
178.1203719733
 30
0.0
 10
55.340453709
 20
178.1092429906
 30
0.0
 10
56.166181344
 20
177.9473607047
 30
0.0
 10
57.3713315983
 20
177.3866775475
 30
0.0
 10
58.5680944982
 20
176.5272552996
 30
0.0
 10
59.3015527195
 20
175.8040418619
 30
0.0
 10
59.6561865372
 20
175.4047269801
 30
0.0
  0
SPLINE
  5
556
100
AcDbEntity
  8
0
100
AcDbSpline
 62
7
  6
CONTINUOUS
 70
0
 71
3
 72
9
 73
5
 74
0
 42
0.0000001
 43
0.0000001
 44
0.0000000001
 40
0.0
 40
0.0
 40
0.0
 40
0.0
 40
0.2646028731
 40
1.0
 40
1.0
 40
1.0
 40
1.0
 10
33.4749671023
 20
56.451306631
 30
0.0
 10
33.4749671023
 20
56.5259607523
 30
0.0
 10
33.4835485869
 20
56.8078929066
 30
0.0
 10
33.5276444521
 20
57.0897941005
 30
0.0
 10
33.5863690434
 20
57.2887924638
 30
0.0
  0
SPLINE
  5
557
100
AcDbEntity
  8
0
100
AcDbSpline
 62
7
  6
CONTINUOUS
 70
0
 71
3
 72
11
 73
7
 74
0
 42
0.0000001
 43
0.0000001
 44
0.0000000001
 40
0.0
 40
0.0
 40
0.0
 40
0.0
 40
0.2372539654
 40
0.5000012591
 40
0.7627478695
 40
1.0
 40
1.0
 40
1.0
 40
1.0
 10
34.7124091213
 20
55.7368853106
 30
0.0
 10
34.7124091213
 20
55.4818483677
 30
0.0
 10
34.8080305057
 20
54.9440077137
 30
0.0
 10
35.1415631672
 20
54.1883598571
 30
0.0
 10
35.6292090911
 20
53.5216920984
 30
0.0
 10
36.0471825042
 20
53.1699656546
 30
0.0
 10
36.2680505167
 20
53.0424503329
 30
0.0
  0
SPLINE
  5
558
100
AcDbEntity
  8
0
100
AcDbSpline
 62
7
  6
CONTINUOUS
 70
0
 71
3
 72
9
 73
5
 74
0
 42
0.0000001
 43
0.0000001
 44
0.0000000001
 40
0.0
 40
0.0
 40
0.0
 40
0.0
 40
0.5393520166
 40
1.0
 40
1.0
 40
1.0
 40
1.0
 10
36.2680505167
 20
53.0424503329
 30
0.0
 10
36.4020708248
 20
52.9650754224
 30
0.0
 10
36.6676559269
 20
52.847272122
 30
0.0
 10
36.9617625525
 20
52.8206130129
 30
0.0
 10
37.0925768911
 20
52.8394978884
 30
0.0
  0
SPLINE
  5
559
100
AcDbEntity
  8
0
100
AcDbSpline
 62
7
  6
CONTINUOUS
 70
0
 71
3
 72
11
 73
7
 74
0
 42
0.0000001
 43
0.0000001
 44
0.0000000001
 40
0.0
 40
0.0
 40
0.0
 40
0.0
 40
0.2177839466
 40
0.4509170841
 40
0.710307871
 40
1.0
 40
1.0
 40
1.0
 40
1.0
 10
32.4545984994
 20
57.198110598
 30
0.0
 10
32.3243111887
 20
57.1228659165
 30
0.0
 10
32.0805103995
 20
56.9179453014
 30
0.0
 10
31.820978396
 20
56.4935773502
 30
0.0
 10
31.6668400025
 20
55.9706220205
 30
0.0
 10
31.6364971256
 20
55.5900035411
 30
0.0
 10
31.6364971256
 20
55.3898718309
 30
0.0
  0
SPLINE
  5
55A
100
AcDbEntity
  8
0
100
AcDbSpline
 62
7
  6
CONTINUOUS
 70
0
 71
3
 72
9
 73
5
 74
0
 42
0.0000001
 43
0.0000001
 44
0.0000000001
 40
0.0
 40
0.0
 40
0.0
 40
0.0
 40
0.2456047522
 40
1.0
 40
1.0
 40
1.0
 40
1.0
 10
86.6287224276
 20
101.0440168291
 30
0.0
 10
86.6131310446
 20
101.0428902743
 30
0.0
 10
86.5495680151
 20
101.0394756437
 30
0.0
 10
86.4857742446
 20
101.0406845863
 30
0.0
 10
86.437870064
 20
101.0439459074
 30
0.0
  0
SPLINE
  5
55B
100
AcDbEntity
  8
0
100
AcDbSpline
 62
7
  6
CONTINUOUS
 70
0
 71
3
 72
9
 73
5
 74
0
 42
0.0000001
 43
0.0000001
 44
0.0000000001
 40
0.0
 40
0.0
 40
0.0
 40
0.0
 40
0.2418324446
 40
1.0
 40
1.0
 40
1.0
 40
1.0
 10
86.437870064
 20
101.0439459074
 30
0.0
 10
86.4110517618
 20
101.0457717
 30
0.0
 10
86.3003696384
 20
101.056360329
 30
0.0
 10
86.1909333902
 20
101.0787816575
 30
0.0
 10
86.1096709209
 20
101.1011036344
 30
0.0
  0
SPLINE
  5
55C
100
AcDbEntity
  8
0
100
AcDbSpline
 62
7
  6
CONTINUOUS
 70
0
 71
3
 72
11
 73
7
 74
0
 42
0.0000001
 43
0.0000001
 44
0.0000000001
 40
0.0
 40
0.0
 40
0.0
 40
0.0
 40
0.2177839466
 40
0.4509170841
 40
0.710307871
 40
1.0
 40
1.0
 40
1.0
 40
1.0
 10
50.1323416281
 20
46.9920917349
 30
0.0
 10
50.0020543174
 20
46.9168470534
 30
0.0
 10
49.7582535281
 20
46.7119264384
 30
0.0
 10
49.4987215246
 20
46.2875584872
 30
0.0
 10
49.3445831312
 20
45.7646031575
 30
0.0
 10
49.3142402542
 20
45.3839846781
 30
0.0
 10
49.3142402542
 20
45.1838529679
 30
0.0
  0
SPLINE
  5
55D
100
AcDbEntity
  8
0
100
AcDbSpline
 62
7
  6
CONTINUOUS
 70
0
 71
3
 72
11
 73
7
 74
0
 42
0.0000001
 43
0.0000001
 44
0.0000000001
 40
0.0
 40
0.0
 40
0.0
 40
0.0
 40
0.2177839466
 40
0.4509170841
 40
0.710307871
 40
1.0
 40
1.0
 40
1.0
 40
1.0
 10
67.8100847568
 20
36.7860728719
 30
0.0
 10
67.6797974461
 20
36.7108281904
 30
0.0
 10
67.4359966568
 20
36.5059075754
 30
0.0
 10
67.1764646533
 20
36.0815396241
 30
0.0
 10
67.0223262599
 20
35.5585842945
 30
0.0
 10
66.9919833829
 20
35.1779658151
 30
0.0
 10
66.9919833829
 20
34.9778341049
 30
0.0
  0
SPLINE
  5
55E
100
AcDbEntity
  8
0
100
AcDbSpline
 62
7
  6
CONTINUOUS
 70
0
 71
3
 72
11
 73
7
 74
0
 42
0.0000001
 43
0.0000001
 44
0.0000000001
 40
0.0
 40
0.0
 40
0.0
 40
0.0
 40
0.2177793823
 40
0.4509223235
 40
0.7102594935
 40
1.0
 40
1.0
 40
1.0
 40
1.0
 10
76.0739647087
 20
126.5767619732
 30
0.0
 10
75.9057188155
 20
126.4796645559
 30
0.0
 10
75.5909797827
 20
126.2150001846
 30
0.0
 10
75.2558910723
 20
125.6671571964
 30
0.0
 10
75.0568029323
 20
124.9919550384
 30
0.0
 10
75.0176787633
 20
124.5005210185
 30
0.0
 10
75.0176787633
 20
124.242079511
 30
0.0
  0
SPLINE
  5
55F
100
AcDbEntity
  8
0
100
AcDbSpline
 62
7
  6
CONTINUOUS
 70
0
 71
3
 72
11
 73
7
 74
0
 42
0.0000001
 43
0.0000001
 44
0.0000000001
 40
0.0
 40
0.0
 40
0.0
 40
0.0
 40
0.2895391946
 40
0.5491157945
 40
0.7822541179
 40
1.0
 40
1.0
 40
1.0
 40
1.0
 10
16.7518374112
 20
62.2686846376
 30
0.0
 10
16.8439292526
 20
62.215516591
 30
0.0
 10
17.0272824748
 20
62.1284084672
 30
0.0
 10
17.3089852644
 20
62.0602234259
 30
0.0
 10
17.573441228
 20
62.066866681
 30
0.0
 10
17.7325172509
 20
62.1248002367
 30
0.0
 10
17.8017739594
 20
62.1647854104
 30
0.0
  0
SPLINE
  5
560
100
AcDbEntity
  8
0
100
AcDbSpline
 62
7
  6
CONTINUOUS
 70
0
 71
3
 72
16
 73
12
 74
0
 42
0.0000001
 43
0.0000001
 44
0.0000000001
 40
0.0
 40
0.0
 40
0.0
 40
0.0
 40
0.0433405957
 40
0.0878900545
 40
0.1842272671
 40
0.2945871407
 40
0.4198297532
 40
0.5576958265
 40
0.7039525259
 40
0.8532844728
 40
1.0
 40
1.0
 40
1.0
 40
1.0
 10
100.5897564566
 20
140.6154083844
 30
0.0
 10
100.6901330175
 20
140.6733382234
 30
0.0
 10
100.9067081034
 20
140.7696549001
 30
0.0
 10
101.3909571794
 20
140.8749850623
 30
0.0
 10
102.0750469144
 20
140.8235587484
 30
0.0
 10
102.912076446
 20
140.5037185899
 30
0.0
 10
103.7521553495
 20
139.9522802768
 30
0.0
 10
104.5528892077
 20
139.1991821487
 30
0.0
 10
105.2724466738
 20
138.2854521625
 30
0.0
 10
105.8711673767
 20
137.2614580106
 30
0.0
 10
106.1745307078
 20
136.5267656131
 30
0.0
 10
106.2962710425
 20
136.1538120668
 30
0.0
  0
SPLINE
  5
561
100
AcDbEntity
  8
0
100
AcDbSpline
 62
7
  6
CONTINUOUS
 70
0
 71
3
 72
16
 73
12
 74
0
 42
0.0000001
 43
0.0000001
 44
0.0000000001
 40
0.0
 40
0.0
 40
0.0
 40
0.0
 40
0.0438306218
 40
0.0887326996
 40
0.1850125615
 40
0.2941567557
 40
0.4174834299
 40
0.5535342788
 40
0.6990055199
 40
0.8494739373
 40
1.0
 40
1.0
 40
1.0
 40
1.0
 10
102.8545486807
 20
144.5792269615
 30
0.0
 10
102.9930845511
 20
144.6592087985
 30
0.0
 10
103.2902223785
 20
144.7939569685
 30
0.0
 10
103.9504017597
 20
144.9516703188
 30
0.0
 10
104.880922331
 20
144.9160096783
 30
0.0
 10
106.0303727478
 20
144.535021424
 30
0.0
 10
107.1956751139
 20
143.8472161091
 30
0.0
 10
108.3257890073
 20
142.8861000836
 30
0.0
 10
109.3693802735
 20
141.6976014432
 30
0.0
 10
110.2765675547
 20
140.3389171627
 30
0.0
 10
110.766915435
 20
139.3518050002
 30
0.0
 10
110.9778619437
 20
138.8445511833
 30
0.0
  0
SPLINE
  5
562
100
AcDbEntity
  8
0
100
AcDbSpline
 62
7
  6
CONTINUOUS
 70
0
 71
3
 72
11
 73
7
 74
0
 42
0.0000001
 43
0.0000001
 44
0.0000000001
 40
0.0
 40
0.0
 40
0.0
 40
0.0
 40
0.2895391946
 40
0.5491157945
 40
0.7822541179
 40
1.0
 40
1.0
 40
1.0
 40
1.0
 10
16.7518374112
 20
155.2683099486
 30
0.0
 10
16.8483145784
 20
155.2126100903
 30
0.0
 10
17.0403989064
 20
155.1213539606
 30
0.0
 10
17.3355161146
 20
155.0499220125
 30
0.0
 10
17.6125652193
 20
155.0568816131
 30
0.0
 10
17.7792162908
 20
155.1175739096
 30
0.0
 10
17.8517709379
 20
155.1594631392
 30
0.0
  0
SPLINE
  5
563
100
AcDbEntity
  8
0
100
AcDbSpline
 62
7
  6
CONTINUOUS
 70
0
 71
3
 72
11
 73
7
 74
0
 42
0.0000001
 43
0.0000001
 44
0.0000000001
 40
0.0
 40
0.0
 40
0.0
 40
0.0
 40
0.2372539654
 40
0.5000012591
 40
0.7627478695
 40
1.0
 40
1.0
 40
1.0
 40
1.0
 10
85.9071685306
 20
117.1386694742
 30
0.0
 10
85.9071685306
 20
116.8836325313
 30
0.0
 10
86.002789915
 20
116.3457918774
 30
0.0
 10
86.3363225765
 20
115.5901440207
 30
0.0
 10
86.8239685004
 20
114.9234762621
 30
0.0
 10
87.2419419135
 20
114.5717498182
 30
0.0
 10
87.4628099259
 20
114.4442344966
 30
0.0
  0
SPLINE
  5
564
100
AcDbEntity
  8
0
100
AcDbSpline
 62
7
  6
CONTINUOUS
 70
0
 71
3
 72
9
 73
5
 74
0
 42
0.0000001
 43
0.0000001
 44
0.0000000001
 40
0.0
 40
0.0
 40
0.0
 40
0.0
 40
0.2772895597
 40
1.0
 40
1.0
 40
1.0
 40
1.0
 10
86.6142782557
 20
102.1966856948
 30
0.0
 10
86.6142782557
 20
102.1065583732
 30
0.0
 10
86.5978772313
 20
101.782774895
 30
0.0
 10
86.5069836973
 20
101.4552920165
 30
0.0
 10
86.3820214799
 20
101.2563861685
 30
0.0
  0
SPLINE
  5
565
100
AcDbEntity
  8
0
100
AcDbSpline
 62
7
  6
CONTINUOUS
 70
0
 71
3
 72
9
 73
5
 74
0
 42
0.0000001
 43
0.0000001
 44
0.0000000001
 40
0.0
 40
0.0
 40
0.0
 40
0.0
 40
0.5101481516
 40
1.0
 40
1.0
 40
1.0
 40
1.0
 10
86.3820214799
 20
101.2563861685
 30
0.0
 10
86.3376053759
 20
101.1856878165
 30
0.0
 10
86.235282912
 20
101.0558114608
 30
0.0
 10
86.1037537818
 20
100.9550416054
 30
0.0
 10
86.0343396416
 20
100.9149283815
 30
0.0
  0
SPLINE
  5
566
100
AcDbEntity
  8
0
100
AcDbSpline
 62
7
  6
CONTINUOUS
 70
0
 71
3
 72
16
 73
12
 74
0
 42
0.0000001
 43
0.0000001
 44
0.0000000001
 40
0.0
 40
0.0
 40
0.0
 40
0.0
 40
0.1467183652
 40
0.2960476017
 40
0.4423023164
 40
0.5801671107
 40
0.7054078245
 40
0.8157661093
 40
0.9121048161
 40
0.956656239
 40
1.0
 40
1.0
 40
1.0
 40
1.0
 10
56.7274553102
 20
168.7734793621
 30
0.0
 10
56.6056688824
 20
169.146360512
 30
0.0
 10
56.3022551801
 20
169.880894468
 30
0.0
 10
55.7035124087
 20
170.9046514919
 30
0.0
 10
54.9839916059
 20
171.8181546698
 30
0.0
 10
54.1833272565
 20
172.5710515444
 30
0.0
 10
53.3433463266
 20
173.1223271188
 30
0.0
 10
52.5064317162
 20
173.4420460862
 30
0.0
 10
51.8224413812
 20
173.4934363297
 30
0.0
 10
51.3382610865
 20
173.3880827729
 30
0.0
 10
51.1217047648
 20
173.2917847054
 30
0.0
 10
51.0213363729
 20
173.2338604825
 30
0.0
  0
SPLINE
  5
567
100
AcDbEntity
  8
0
100
AcDbSpline
 62
7
  6
CONTINUOUS
 70
0
 71
3
 72
11
 73
7
 74
0
 42
0.0000001
 43
0.0000001
 44
0.0000000001
 40
0.0
 40
0.0
 40
0.0
 40
0.0
 40
0.2896413964
 40
0.5491107671
 40
0.7822355978
 40
1.0
 40
1.0
 40
1.0
 40
1.0
 10
39.2379266709
 20
129.5488162477
 30
0.0
 10
39.2379266709
 20
129.4069760431
 30
0.0
 10
39.2163669074
 20
129.1371624008
 30
0.0
 10
39.1071630583
 20
128.766447128
 30
0.0
 10
38.9232095812
 20
128.4655589654
 30
0.0
 10
38.7503208778
 20
128.3204164651
 30
0.0
 10
38.6579880567
 20
128.2670589344
 30
0.0
  0
SPLINE
  5
568
100
AcDbEntity
  8
0
100
AcDbSpline
 62
7
  6
CONTINUOUS
 70
0
 71
3
 72
16
 73
12
 74
0
 42
0.0000001
 43
0.0000001
 44
0.0000000001
 40
0.0
 40
0.0
 40
0.0
 40
0.0
 40
0.0438438871
 40
0.0887561463
 40
0.1850394353
 40
0.2941604771
 40
0.4174466788
 40
0.5534569546
 40
0.6989078681
 40
0.8493964033
 40
1.0
 40
1.0
 40
1.0
 40
1.0
 10
104.5723419359
 20
145.6864399144
 30
0.0
 10
104.7125193422
 20
145.767369474
 30
0.0
 10
105.013136927
 20
145.9037552534
 30
0.0
 10
105.6809480525
 20
146.0636212143
 30
0.0
 10
106.6221647098
 20
146.0283485876
 30
0.0
 10
107.7850670388
 20
145.6442584862
 30
0.0
 10
108.9642618582
 20
144.9500348112
 30
0.0
 10
110.1082705864
 20
143.9794126487
 30
0.0
 10
111.1653022513
 20
142.778631827
 30
0.0
 10
112.0849968588
 20
141.4052935296
 30
0.0
 10
112.5827334899
 20
140.4072604878
 30
0.0
 10
112.7971218768
 20
139.8942610698
 30
0.0
  0
SPLINE
  5
569
100
AcDbEntity
  8
0
100
AcDbSpline
 62
7
  6
CONTINUOUS
 70
0
 71
3
 72
17
 73
13
 74
0
 42
0.0000001
 43
0.0000001
 44
0.0000000001
 40
0.0
 40
0.0
 40
0.0
 40
0.0
 40
0.1286930371
 40
0.2702795962
 40
0.4174375935
 40
0.5617786795
 40
0.6954478243
 40
0.81271112
 40
0.8646738576
 40
0.9125098523
 40
0.9571380034
 40
1.0
 40
1.0
 40
1.0
 40
1.0
 10
31.6364971256
 20
148.4711473837
 30
0.0
 10
31.6364971256
 20
148.1335101316
 30
0.0
 10
31.7309415931
 20
147.4235964032
 30
0.0
 10
32.0835168432
 20
146.3812508061
 30
0.0
 10
32.6267461358
 20
145.3771414881
 30
0.0
 10
33.3170301529
 20
144.4936130511
 30
0.0
 10
34.0979175336
 20
143.802034385
 30
0.0
 10
34.8047121935
 20
143.4155225418
 30
0.0
 10
35.3576184086
 20
143.2684770935
 30
0.0
 10
35.7381527227
 20
143.2404125503
 30
0.0
 10
36.092482003
 20
143.2924337892
 30
0.0
 10
36.3071837062
 20
143.3815675461
 30
0.0
 10
36.4045625804
 20
143.4378066559
 30
0.0
  0
SPLINE
  5
56A
100
AcDbEntity
  8
0
100
AcDbSpline
 62
7
  6
CONTINUOUS
 70
0
 71
3
 72
13
 73
9
 74
0
 42
0.0000001
 43
0.0000001
 44
0.0000000001
 40
0.0
 40
0.0
 40
0.0
 40
0.0
 40
0.1142259181
 40
0.2375599982
 40
0.5000010158
 40
0.7624414734
 40
0.8857749255
 40
1.0
 40
1.0
 40
1.0
 40
1.0
 10
87.4628099259
 20
90.9289648833
 30
0.0
 10
87.4628099259
 20
91.1524867633
 30
0.0
 10
87.4218017166
 20
91.6178165199
 30
0.0
 10
87.1995147589
 20
92.5730603662
 30
0.0
 10
86.6829001467
 20
93.744678116
 30
0.0
 10
85.9265527954
 20
94.7778841861
 30
0.0
 10
85.2104294538
 20
95.4480050281
 30
0.0
 10
84.8279463169
 20
95.7161793515
 30
0.0
 10
84.6343710253
 20
95.8279375699
 30
0.0
  0
SPLINE
  5
56B
100
AcDbEntity
  8
0
100
AcDbSpline
 62
7
  6
CONTINUOUS
 70
0
 71
3
 72
11
 73
7
 74
0
 42
0.0000001
 43
0.0000001
 44
0.0000000001
 40
0.0
 40
0.0
 40
0.0
 40
0.0
 40
0.2177793823
 40
0.4509223235
 40
0.7102594935
 40
1.0
 40
1.0
 40
1.0
 40
1.0
 10
90.4281726042
 20
134.8641182968
 30
0.0
 10
90.2599267109
 20
134.7670208794
 30
0.0
 10
89.9451876782
 20
134.5023565082
 30
0.0
 10
89.6100989678
 20
133.95451352
 30
0.0
 10
89.4110108277
 20
133.279311362
 30
0.0
 10
89.3718866588
 20
132.7878773421
 30
0.0
 10
89.3718866588
 20
132.5294358346
 30
0.0
  0
SPLINE
  5
56C
100
AcDbEntity
  8
0
100
AcDbSpline
 62
7
  6
CONTINUOUS
 70
0
 71
3
 72
17
 73
13
 74
0
 42
0.0000001
 43
0.0000001
 44
0.0000000001
 40
0.0
 40
0.0
 40
0.0
 40
0.0
 40
0.1286930371
 40
0.2702795962
 40
0.4174375935
 40
0.5617786795
 40
0.6954478243
 40
0.81271112
 40
0.8646738576
 40
0.9125098523
 40
0.9571380034
 40
1.0
 40
1.0
 40
1.0
 40
1.0
 10
49.3142402542
 20
138.2651285206
 30
0.0
 10
49.3142402542
 20
137.9274912686
 30
0.0
 10
49.4086847218
 20
137.2175775402
 30
0.0
 10
49.7612599719
 20
136.1752319431
 30
0.0
 10
50.3044892645
 20
135.1711226251
 30
0.0
 10
50.9947732816
 20
134.2875941881
 30
0.0
 10
51.7756606623
 20
133.596015522
 30
0.0
 10
52.4824553222
 20
133.2095036787
 30
0.0
 10
53.0353615372
 20
133.0624582305
 30
0.0
 10
53.4158958514
 20
133.0343936873
 30
0.0
 10
53.7702251316
 20
133.0864149262
 30
0.0
 10
53.9849268349
 20
133.1755486831
 30
0.0
 10
54.082305709
 20
133.2317877929
 30
0.0
  0
SPLINE
  5
56D
100
AcDbEntity
  8
0
100
AcDbSpline
 62
7
  6
CONTINUOUS
 70
0
 71
3
 72
11
 73
7
 74
0
 42
0.0000001
 43
0.0000001
 44
0.0000000001
 40
0.0
 40
0.0
 40
0.0
 40
0.0
 40
0.217745073
 40
0.4508830113
 40
0.7104597664
 40
1.0
 40
1.0
 40
1.0
 40
1.0
 10
70.5236032473
 20
129.4131456045
 30
0.0
 10
70.4510469291
 20
129.37125541
 30
0.0
 10
70.3151567472
 20
129.2572748581
 30
0.0
 10
70.1706026436
 20
129.0208161792
 30
0.0
 10
70.0849057555
 20
128.7295124273
 30
0.0
 10
70.0678953787
 20
128.5175281238
 30
0.0
 10
70.0678953787
 20
128.4061231373
 30
0.0
  0
SPLINE
  5
56E
100
AcDbEntity
  8
0
100
AcDbSpline
 62
7
  6
CONTINUOUS
 70
0
 71
3
 72
11
 73
7
 74
0
 42
0.0000001
 43
0.0000001
 44
0.0000000001
 40
0.0
 40
0.0
 40
0.0
 40
0.0
 40
0.2177793823
 40
0.4509223235
 40
0.7102594935
 40
1.0
 40
1.0
 40
1.0
 40
1.0
 10
58.39622158
 20
136.7827808362
 30
0.0
 10
58.2279756868
 20
136.6856834189
 30
0.0
 10
57.913236654
 20
136.4210190476
 30
0.0
 10
57.5781479437
 20
135.8731760594
 30
0.0
 10
57.3790598036
 20
135.1979739014
 30
0.0
 10
57.3399356347
 20
134.7065398815
 30
0.0
 10
57.3399356347
 20
134.448098374
 30
0.0
  0
SPLINE
  5
56F
100
AcDbEntity
  8
0
100
AcDbSpline
 62
7
  6
CONTINUOUS
 70
0
 71
3
 72
11
 73
7
 74
0
 42
0.0000001
 43
0.0000001
 44
0.0000000001
 40
0.0
 40
0.0
 40
0.0
 40
0.0
 40
0.2177739674
 40
0.4509298424
 40
0.7102237828
 40
1.0
 40
1.0
 40
1.0
 40
1.0
 10
76.0739685221
 20
31.8624749598
 30
0.0
 10
75.9057429438
 20
31.7653504507
 30
0.0
 10
75.5909356168
 20
31.500763404
 30
0.0
 10
75.2559274505
 20
30.9528885522
 30
0.0
 10
75.0567609653
 20
30.2777140209
 30
0.0
 10
75.0176787633
 20
29.7862735219
 30
0.0
 10
75.0176787633
 20
29.527799124
 30
0.0
  0
SPLINE
  5
570
100
AcDbEntity
  8
0
100
AcDbSpline
 62
7
  6
CONTINUOUS
 70
0
 71
3
 72
11
 73
7
 74
0
 42
0.0000001
 43
0.0000001
 44
0.0000000001
 40
0.0
 40
0.0
 40
0.0
 40
0.0
 40
0.2896413964
 40
0.5491107671
 40
0.7822355978
 40
1.0
 40
1.0
 40
1.0
 40
1.0
 10
86.6142782557
 20
50.0221812402
 30
0.0
 10
86.6142782557
 20
49.8803410357
 30
0.0
 10
86.5927184922
 20
49.6105273934
 30
0.0
 10
86.4835146431
 20
49.2398121206
 30
0.0
 10
86.2995611661
 20
48.938923958
 30
0.0
 10
86.1266724626
 20
48.7937814576
 30
0.0
 10
86.0343396416
 20
48.740423927
 30
0.0
  0
SPLINE
  5
571
100
AcDbEntity
  8
0
100
AcDbSpline
 62
7
  6
CONTINUOUS
 70
0
 71
3
 72
17
 73
13
 74
0
 42
0.0000001
 43
0.0000001
 44
0.0000000001
 40
0.0
 40
0.0
 40
0.0
 40
0.0
 40
0.1286930371
 40
0.2702795962
 40
0.4174375935
 40
0.5617786795
 40
0.6954478243
 40
0.81271112
 40
0.8646738576
 40
0.9125098523
 40
0.9571380034
 40
1.0
 40
1.0
 40
1.0
 40
1.0
 10
66.9919833829
 20
128.0591096576
 30
0.0
 10
66.9919833829
 20
127.7214724056
 30
0.0
 10
67.0864278504
 20
127.0115586772
 30
0.0
 10
67.4390031005
 20
125.9692130801
 30
0.0
 10
67.9822323931
 20
124.9651037621
 30
0.0
 10
68.6725164102
 20
124.0815753251
 30
0.0
 10
69.453403791
 20
123.389996659
 30
0.0
 10
70.1601984509
 20
123.0034848157
 30
0.0
 10
70.7131046659
 20
122.8564393675
 30
0.0
 10
71.09363898
 20
122.8283748243
 30
0.0
 10
71.4479682603
 20
122.8803960632
 30
0.0
 10
71.6626699635
 20
122.9695298201
 30
0.0
 10
71.7600488377
 20
123.0257689299
 30
0.0
  0
SPLINE
  5
572
100
AcDbEntity
  8
0
100
AcDbSpline
 62
7
  6
CONTINUOUS
 70
0
 71
3
 72
16
 73
12
 74
0
 42
0.0000001
 43
0.0000001
 44
0.0000000001
 40
0.0
 40
0.0
 40
0.0
 40
0.0
 40
0.0433405957
 40
0.0878900545
 40
0.1842272671
 40
0.2945871407
 40
0.4198297532
 40
0.5576958265
 40
0.7039525259
 40
0.8532844728
 40
1.0
 40
1.0
 40
1.0
 40
1.0
 10
82.912013328
 20
150.8214272474
 30
0.0
 10
83.0123898888
 20
150.8793570864
 30
0.0
 10
83.2289649747
 20
150.9756737631
 30
0.0
 10
83.7132140507
 20
151.0810039253
 30
0.0
 10
84.3973037857
 20
151.0295776114
 30
0.0
 10
85.2343333173
 20
150.7097374529
 30
0.0
 10
86.0744122209
 20
150.1582991398
 30
0.0
 10
86.875146079
 20
149.4052010117
 30
0.0
 10
87.5947035451
 20
148.4914710255
 30
0.0
 10
88.193424248
 20
147.4674768736
 30
0.0
 10
88.4967875791
 20
146.7327844761
 30
0.0
 10
88.6185279138
 20
146.3598309298
 30
0.0
  0
SPLINE
  5
573
100
AcDbEntity
  8
0
100
AcDbSpline
 62
7
  6
CONTINUOUS
 70
0
 71
3
 72
16
 73
12
 74
0
 42
0.0000001
 43
0.0000001
 44
0.0000000001
 40
0.0
 40
0.0
 40
0.0
 40
0.0
 40
0.0438306218
 40
0.0887326996
 40
0.1850125615
 40
0.2941567557
 40
0.4174834299
 40
0.5535342788
 40
0.6990055199
 40
0.8494739373
 40
1.0
 40
1.0
 40
1.0
 40
1.0
 10
85.1768055521
 20
154.7852458245
 30
0.0
 10
85.3153414224
 20
154.8652276616
 30
0.0
 10
85.6124792498
 20
154.9999758315
 30
0.0
 10
86.272658631
 20
155.1576891818
 30
0.0
 10
87.2031792023
 20
155.1220285413
 30
0.0
 10
88.3526296191
 20
154.741040287
 30
0.0
 10
89.5179319852
 20
154.0532349721
 30
0.0
 10
90.6480458786
 20
153.0921189466
 30
0.0
 10
91.6916371449
 20
151.9036203062
 30
0.0
 10
92.598824426
 20
150.5449360257
 30
0.0
 10
93.0891723063
 20
149.5578238632
 30
0.0
 10
93.300118815
 20
149.0505700463
 30
0.0
  0
ENDSEC
  0
SECTION
  2
OBJECTS
  0
DICTIONARY
  5
C
100
AcDbDictionary
280
0
281
1
  3
ACAD_GROUP
350
D
  3
ACAD_MLINESTYLE
350
17
  3
ACAD_LAYOUT
350
1A
  3
ACAD_PLOTSETTINGS
350
19
  3
ACAD_PLOTSTYLENAME
350
E
  0
DICTIONARY
  5
D
102
{ACAD_REACTORS
330
C
102
}
100
AcDbDictionary
280
0
281
1
  0
ACDBDICTIONARYWDFLT
  5
E
102
{ACAD_REACTORS
330
C
102
}
100
AcDbDictionary
281
1
  3
Normal
350
F
100
AcDbDictionaryWithDefault
340
F
  0
DICTIONARY
  5
17
102
{ACAD_REACTORS
330
C
102
}
100
AcDbDictionary
280
0
281
1
  3
Standard
350
18
  0
DICTIONARY
  5
19
102
{ACAD_REACTORS
330
C
102
}
100
AcDbDictionary
281
1
  0
DICTIONARY
  5
1A
102
{ACAD_REACTORS
330
C
102
}
100
AcDbDictionary
281
1
  3
Model
350
574
  3
Layout1
350
575
  0
ACDBPLACEHOLDER
  5
F
102
{ACAD_REACTORS
330
E
102
}
  0
MLINESTYLE
  5
18
102
{ACAD_REACTORS
330
17
102
}
100
AcDbMlineStyle
  2
STANDARD
 70
0
  3

 62
256
 51
90.0
 52
90.0
 71
2
 49
0.5
 62
256
  6
BYLAYER
 49
-0.5
 62
256
  6
BYLAYER
  0
LAYOUT
  5
574
102
{ACAD_REACTORS
330
1A
102
}
100
AcDbPlotSettings
  1

  2
none_device
  4

  6

 40
0.0
 41
0.0
 42
0.0
 43
0.0
 44
210.0
 45
297.0
 46
0.0
 47
0.0
 48
0.0
 49
0.0
140
0.0
141
0.0
142
1.0
143
1.0
 70
1024
 72
1
 73
0
 74
0
  7

 75
0
147
1.0
148
0.0
149
0.0
100
AcDbLayout
  1
Model
 70
0
 71
0
 10
0.0
 20
0.0
 11
210.0
 21
297.0
 12
0.0
 22
0.0
 32
0.0
 14
0.0
 24
0.0
 34
0.0
 15
0.0
 25
0.0
 35
0.0
146
0.0
 13
0.0
 23
0.0
 33
0.0
 16
1.0
 26
0.0
 36
0.0
 17
0.0
 27
1.0
 37
0.0
 76
0
330
214
345
0
346
0
  0
LAYOUT
  5
575
102
{ACAD_REACTORS
330
1A
102
}
100
AcDbPlotSettings
  1

  2
none_device
  4

  6

 40
0.0
 41
0.0
 42
0.0
 43
0.0
 44
210.0
 45
297.0
 46
0.0
 47
0.0
 48
0.0
 49
0.0
140
0.0
141
0.0
142
1.0
143
1.0
 70
0
 72
1
 73
0
 74
0
  7

 75
0
147
1.0
148
0.0
149
0.0
100
AcDbLayout
  1
Layout1
 70
0
 71
1
 10
0.0
 20
0.0
 11
210.0
 21
297.0
 12
0.0
 22
0.0
 32
0.0
 14
0.0
 24
0.0
 34
0.0
 15
0.0
 25
0.0
 35
0.0
146
0.0
 13
0.0
 23
0.0
 33
0.0
 16
1.0
 26
0.0
 36
0.0
 17
0.0
 27
1.0
 37
0.0
 76
0
330
215
345
0
346
0
  0
ENDSEC
  0
EOF
