999
DXF file: C:\Users\SESA621925\Desktop\Projects\Drawing_creation_tool\Gen2D (3) (1)\CAD\G25B3A160_3D-CAD\drw0001_1.dxf
999
Pro/ENGINEER 2019471 by Parametric Technology Corporation
  0
SECTION
  2
HEADER
  9
$ACADVER
  1
AC1024
  9
$DWGCODEPAGE
  3
ANSI_1252
  9
$EXTMAX
 10
177.988459789
 20
251.7265359873
 30
0.0
  9
$EXTMIN
 10
0.0
 20
0.0
 30
0.0
  9
$LIMMIN
 10
0.0
 20
0.0
  9
$LIMMAX
 10
177.988459789
 20
251.7265359873
  9
$VIEWCTR
 10
88.9942298945
 20
125.8632679936
  9
$VIEWSIZE
 40
251.7265359873
  9
$CLAYER
  8
0
  9
$LTSCALE
 40
16.4088408644
  9
$CELTYPE
  6
BYLAYER
  9
$DIMSCALE
 40
1.0
  9
$DIMASZ
 40
2.1189102356
  9
$DIMEXO
 40
1.0
  9
$DIMDLI
 40
11.3370173245
  9
$DIMEXE
 40
1.0
  9
$DIMCEN
 40
2.6850830505
  9
$DIMLFAC
 40
1.0
  9
$DIMBLK
  1
_FILLED
  9
$DIMALT
 70
0
  9
$DIMALTF
 40
0.0393700787
  9
$DIMTXT
 40
2.9664743298
  9
$DIMTOL
 70
1
  9
$DIMLIM
 70
0
  9
$DIMTFAC
 40
1.0
  9
$DIMTP
 40
0.01
  9
$DIMTM
 40
0.01
  9
$DIMGAP
 40
0.625
  9
$DIMDSEP
 70
46
  9
$AUNITS
 70
0
  9
$PDMODE
 70
3
  9
$PDSIZE
 40
0.3125
  9
$HANDSEED
  5
529
  9
$TILEMODE
 70
1
  9
$MEASUREMENT
 70
1
  9
$INSUNITS
 70
4
  0
ENDSEC
  0
SECTION
  2
CLASSES
  0
CLASS
  1
ACDBDICTIONARYWDFLT
  2
AcDbDictionaryWithDefault
  3
AutoCAD 2000
 90
0
 91
1
280
0
281
0
  0
CLASS
  1
ACDBPLACEHOLDER
  2
AcDbPlaceHolder
  3
AutoCAD 2000
 90
0
 91
1
280
0
281
0
  0
CLASS
  1
LAYOUT
  2
AcDbLayout
  3
AutoCAD 2000
 90
0
 91
0
280
0
281
0
  0
ENDSEC
  0
SECTION
  2
TABLES
  0
TABLE
  2
VPORT
  5
8
100
AcDbSymbolTable
 70
2
  0
VPORT
  5
1F4
100
AcDbSymbolTableRecord
100
AcDbViewportTableRecord
  2
*ACTIVE
 70
0
 10
0.0
 20
0.0
 11
1.0
 21
1.0
 12
88.9942298945
 22
125.8632679936
 13
0.0
 23
0.0
 14
1.0
 24
1.0
 15
0.0
 25
0.0
 16
0.0
 26
0.0
 36
1.0
 17
0.0
 27
0.0
 37
0.0
 40
251.7265359873
 41
0.7070707071
 42
50.0
 43
0.0
 44
0.0
 50
0.0
 51
0.0
 71
0
 72
100
 73
1
 74
1
 75
0
 76
0
 77
0
 78
0
  0
ENDTAB
  0
TABLE
  2
LTYPE
  5
5
100
AcDbSymbolTable
 70
6
  0
LTYPE
  5
14
100
AcDbSymbolTableRecord
100
AcDbLinetypeTableRecord
  2
BYBLOCK
 70
0
  3

 72
65
 73
0
 40
0.0
  0
LTYPE
  5
15
100
AcDbSymbolTableRecord
100
AcDbLinetypeTableRecord
  2
BYLAYER
 70
0
  3

 72
65
 73
0
 40
0.0
  0
LTYPE
  5
16
100
AcDbSymbolTableRecord
100
AcDbLinetypeTableRecord
  2
CONTINUOUS
 70
64
  3
Solid line
 72
65
 73
0
 40
0.0
  0
LTYPE
  5
1F5
100
AcDbSymbolTableRecord
100
AcDbLinetypeTableRecord
  2
CENTER
 70
64
  3
____ _ ____ _ ____ _ ____ _ ____ _ ____ _ ____
 72
65
 73
4
 40
0.6
 49
0.375
 74
0
 49
-0.075
 74
0
 49
0.075
 74
0
 49
-0.075
 74
0
  0
LTYPE
  5
1F6
100
AcDbSymbolTableRecord
100
AcDbLinetypeTableRecord
  2
HIDDEN
 70
64
  3
- - - - - - - - - - - - - - - - - - - -
 72
65
 73
2
 40
0.2
 49
0.1
 74
0
 49
-0.1
 74
0
  0
LTYPE
  5
1F7
100
AcDbSymbolTableRecord
100
AcDbLinetypeTableRecord
  2
PHANTOM
 70
64
  3
_____ _ _ _____ _ _ _____ _ _ _____
 72
65
 73
6
 40
0.8
 49
0.45
 74
0
 49
-0.05
 74
0
 49
0.1
 74
0
 49
-0.05
 74
0
 49
0.1
 74
0
 49
-0.05
 74
0
  0
LTYPE
  5
1F8
100
AcDbSymbolTableRecord
100
AcDbLinetypeTableRecord
  2
DOT
 70
64
  3
. . . . . . . . . . . . . . . . . . . .
 72
65
 73
2
 40
0.2
 49
0.1
 74
0
 49
-0.1
 74
0
  0
LTYPE
  5
1F9
100
AcDbSymbolTableRecord
100
AcDbLinetypeTableRecord
  2
DASHED
 70
64
  3
- - - - - - - - - - - - - - - - - - - -
 72
65
 73
2
 40
0.2
 49
0.1
 74
0
 49
-0.1
 74
0
  0
ENDTAB
  0
TABLE
  2
LAYER
  5
2
100
AcDbSymbolTable
 70
36
  0
LAYER
  5
10
100
AcDbSymbolTableRecord
100
AcDbLayerTableRecord
  2
0
 70
0
 62
7
  6
CONTINUOUS
370
-3
390
F
  0
LAYER
  5
1FA
100
AcDbSymbolTableRecord
100
AcDbLayerTableRecord
  2
DEFAULT_1
 70
0
 62
7
  6
CENTER
370
-3
390
F
  0
LAYER
  5
1FB
100
AcDbSymbolTableRecord
100
AcDbLayerTableRecord
  2
DEFAULT_2
 70
0
 62
8
  6
HIDDEN
370
-3
390
F
  0
LAYER
  5
1FC
100
AcDbSymbolTableRecord
100
AcDbLayerTableRecord
  2
DEFAULT_3
 70
0
 62
7
  6
PHANTOM
370
-3
390
F
  0
LAYER
  5
1FD
100
AcDbSymbolTableRecord
100
AcDbLayerTableRecord
  2
00_COMPONENTS
 70
0
 62
7
  6
CONTINUOUS
370
-3
390
F
  0
LAYER
  5
1FE
100
AcDbSymbolTableRecord
100
AcDbLayerTableRecord
  2
01_1_DEFAULT_DATUMS
 70
0
 62
7
  6
CONTINUOUS
370
-3
390
F
  0
LAYER
  5
1FF
100
AcDbSymbolTableRecord
100
AcDbLayerTableRecord
  2
01_PLANES
 70
0
 62
7
  6
CONTINUOUS
370
-3
390
F
  0
LAYER
  5
200
100
AcDbSymbolTableRecord
100
AcDbLayerTableRecord
  2
02_COORD_SYS
 70
0
 62
7
  6
CONTINUOUS
370
-3
390
F
  0
LAYER
  5
201
100
AcDbSymbolTableRecord
100
AcDbLayerTableRecord
  2
03_AXES
 70
0
 62
7
  6
CONTINUOUS
370
-3
390
F
  0
LAYER
  5
202
100
AcDbSymbolTableRecord
100
AcDbLayerTableRecord
  2
04_POINTS
 70
0
 62
7
  6
CONTINUOUS
370
-3
390
F
  0
LAYER
  5
203
100
AcDbSymbolTableRecord
100
AcDbLayerTableRecord
  2
05_CURVES
 70
0
 62
7
  6
CONTINUOUS
370
-3
390
F
  0
LAYER
  5
204
100
AcDbSymbolTableRecord
100
AcDbLayerTableRecord
  2
06_SURFS
 70
0
 62
7
  6
CONTINUOUS
370
-3
390
F
  0
LAYER
  5
205
100
AcDbSymbolTableRecord
100
AcDbLayerTableRecord
  2
07_COSMETICS
 70
0
 62
7
  6
CONTINUOUS
370
-3
390
F
  0
LAYER
  5
206
100
AcDbSymbolTableRecord
100
AcDbLayerTableRecord
  2
10_NOTES
 70
0
 62
7
  6
CONTINUOUS
370
-3
390
F
  0
LAYER
  5
207
100
AcDbSymbolTableRecord
100
AcDbLayerTableRecord
  2
11_NOTES_PUB
 70
0
 62
7
  6
CONTINUOUS
370
-3
390
F
  0
LAYER
  5
208
100
AcDbSymbolTableRecord
100
AcDbLayerTableRecord
  2
13_REF_GTOL
 70
0
 62
7
  6
CONTINUOUS
370
-3
390
F
  0
LAYER
  5
209
100
AcDbSymbolTableRecord
100
AcDbLayerTableRecord
  2
16_MISC
 70
0
 62
7
  6
CONTINUOUS
370
-3
390
F
  0
LAYER
  5
20A
100
AcDbSymbolTableRecord
100
AcDbLayerTableRecord
  2
17_NO_PRINT
 70
0
 62
7
  6
CONTINUOUS
370
-3
390
F
  0
LAYER
  5
20B
100
AcDbSymbolTableRecord
100
AcDbLayerTableRecord
  2
18_DATUM_CAMS_JOINTS
 70
0
 62
7
  6
CONTINUOUS
370
-3
390
F
  0
LAYER
  5
20C
100
AcDbSymbolTableRecord
100
AcDbLayerTableRecord
  2
19_DATUM_FUNCTIONAL
 70
0
 62
7
  6
CONTINUOUS
370
-3
390
F
  0
LAYER
  5
20D
100
AcDbSymbolTableRecord
100
AcDbLayerTableRecord
  2
20_DATUM_KINEMATIC_SCHEME
 70
0
 62
7
  6
CONTINUOUS
370
-3
390
F
  0
LAYER
  5
20E
100
AcDbSymbolTableRecord
100
AcDbLayerTableRecord
  2
INTFCLR_6
 70
0
 62
7
  6
CONTINUOUS
370
-3
390
F
  0
ENDTAB
  0
TABLE
  2
STYLE
  5
3
100
AcDbSymbolTable
 70
1
  0
STYLE
  5
11
100
AcDbSymbolTableRecord
100
AcDbTextStyleTableRecord
  2
STANDARD
 70
0
 40
0.0
 41
0.8
 50
0.0
 71
0
 42
0.2
  3
txt
  4

  0
STYLE
  5
20F
100
AcDbSymbolTableRecord
100
AcDbTextStyleTableRecord
  2
TEXTSTYLE_1
 70
0
 40
0.0
 41
0.8
 50
0.0
 71
0
 42
0.2
  3
gdt
  4

  0
ENDTAB
  0
TABLE
  2
VIEW
  5
6
100
AcDbSymbolTable
 70
0
  0
ENDTAB
  0
TABLE
  2
UCS
  5
7
100
AcDbSymbolTable
 70
0
  0
ENDTAB
  0
TABLE
  2
APPID
  5
9
100
AcDbSymbolTable
 70
1
  0
APPID
  5
210
100
AcDbSymbolTableRecord
100
AcDbRegAppTableRecord
  2
ACAD
 70
0
  0
ENDTAB
  0
TABLE
  2
BLOCK_RECORD
  5
1
100
AcDbSymbolTable
 70
0
  0
BLOCK_RECORD
  5
211
100
AcDbSymbolTableRecord
100
AcDbBlockTableRecord
  2
*Model_Space
  0
BLOCK_RECORD
  5
212
100
AcDbSymbolTableRecord
100
AcDbBlockTableRecord
  2
*Paper_Space
  0
BLOCK_RECORD
  5
213
100
AcDbSymbolTableRecord
100
AcDbBlockTableRecord
  2
_FILLED
  0
ENDTAB
  0
TABLE
  2
DIMSTYLE
  5
A
100
AcDbSymbolTable
 70
1
100
AcDbDimStyleTable
 71
0
  0
DIMSTYLE
105
214
100
AcDbSymbolTableRecord
100
AcDbDimStyleTableRecord
  2
STANDARD
 70
0
  3

  4

 40
1.0
 41
2.1189102356
 42
1.0
 43
0.38
 44
1.0
 45
0.0
 46
0.0
 47
0.01
 48
0.01
140
2.9664743298
141
0.09
142
0.0
143
25.4
144
1.0
145
0.0
146
1.0
147
0.625
 71
1
 72
0
 73
0
 74
0
 75
0
 76
0
 77
1
 78
8
 79
2
170
0
171
1
172
0
173
0
174
0
175
0
176
0
177
0
178
0
270
2
179
2
271
2
272
2
273
2
274
2
275
0
280
0
281
0
282
0
283
1
284
8
285
0
286
0
287
3
288
0
340
11
278
46
341
213
342
213
343
213
344
213
  0
ENDTAB
  0
ENDSEC
  0
SECTION
  2
BLOCKS
  0
BLOCK
  5
20
100
AcDbEntity
  8
0
100
AcDbBlockBegin
  2
*Model_Space
 70
0
 10
0.0
 20
0.0
 30
0.0
  3
*Model_Space
  1

  0
ENDBLK
  5
21
100
AcDbEntity
  8
0
100
AcDbBlockEnd
  0
BLOCK
  5
1C
100
AcDbEntity
  8
0
100
AcDbBlockBegin
  2
*Paper_Space
 70
0
 10
0.0
 20
0.0
 30
0.0
  3
*Paper_Space
  1

  0
ENDBLK
  5
1D
100
AcDbEntity
  8
0
100
AcDbBlockEnd
  0
BLOCK
  5
215
100
AcDbEntity
  8
0
100
AcDbBlockBegin
  2
_FILLED
 70
64
 10
0.0
 20
0.0
  3
_FILLED
  1

  0
SOLID
  5
216
100
AcDbEntity
  8
0
  6
BYBLOCK
 62
0
100
AcDbTrace
 10
0.0
 20
0.0
 11
-1.0
 21
0.25
 12
-1.0
 22
-0.25
 13
-1.0
 23
-0.25
  0
ENDBLK
  5
217
100
AcDbEntity
  8
0
  6
BYBLOCK
 62
0
100
AcDbBlockEnd
  0
ENDSEC
  0
SECTION
  2
ENTITIES
  0
LINE
  5
218
100
AcDbEntity
  8
0
100
AcDbLine
 62
7
  6
CONTINUOUS
 10
28.2075992315
 20
197.5263832855
 11
86.777010068
 21
231.3412465506
  0
LINE
  5
219
100
AcDbEntity
  8
0
100
AcDbLine
 62
7
  6
CONTINUOUS
 10
42.3709079323
 20
203.0907619807
 11
49.7954982231
 21
207.3773255963
  0
LINE
  5
21A
100
AcDbEntity
  8
0
100
AcDbLine
 62
7
  6
CONTINUOUS
 10
51.5632578161
 20
208.397935981
 11
77.0189959558
 21
223.0947255204
  0
LINE
  5
21B
100
AcDbEntity
  8
0
100
AcDbLine
 62
7
  6
CONTINUOUS
 10
28.226224863
 20
190.0253144971
 11
27.0619338811
 21
189.3531147977
  0
LINE
  5
21C
100
AcDbEntity
  8
0
100
AcDbLine
 62
7
  6
CONTINUOUS
 10
27.0370253151
 20
189.1754150907
 11
25.9558979747
 21
188.5512296555
  0
LINE
  5
21D
100
AcDbEntity
  8
0
100
AcDbLine
 62
7
  6
CONTINUOUS
 10
57.0080174196
 20
203.2132699002
 11
58.7757770126
 21
204.2338802849
  0
LINE
  5
21E
100
AcDbEntity
  8
0
100
AcDbLine
 62
7
  6
CONTINUOUS
 10
100.6156350866
 20
20.9996311962
 11
79.8266091673
 21
33.0019093791
  0
LINE
  5
21F
100
AcDbEntity
  8
0
100
AcDbLine
 62
7
  6
CONTINUOUS
 10
73.745465531
 20
36.512779868
 11
55.0777687871
 21
47.2903357873
  0
LINE
  5
220
100
AcDbEntity
  8
0
100
AcDbLine
 62
7
  6
CONTINUOUS
 10
48.9966251509
 20
50.8012062762
 11
28.2075992315
 21
62.8034844591
  0
LINE
  5
221
100
AcDbEntity
  8
0
100
AcDbLine
 62
7
  6
CONTINUOUS
 10
79.5500176245
 20
34.6557571298
 11
79.3528348765
 21
34.769598067
  0
LINE
  5
222
100
AcDbEntity
  8
0
100
AcDbLine
 62
7
  6
CONTINUOUS
 10
76.807239866
 20
36.2392647833
 11
75.0394655531
 21
37.2598666696
  0
LINE
  5
223
100
AcDbEntity
  8
0
100
AcDbLine
 62
7
  6
CONTINUOUS
 10
54.8011772443
 20
48.944183538
 11
54.6039944963
 21
49.0580244752
  0
LINE
  5
224
100
AcDbEntity
  8
0
100
AcDbLine
 62
7
  6
CONTINUOUS
 10
52.0583994858
 20
50.5276911915
 11
50.290625173
 21
51.5482930778
  0
LINE
  5
225
100
AcDbEntity
  8
0
100
AcDbLine
 62
7
  6
CONTINUOUS
 10
26.9606394337
 20
169.6333308478
 11
26.5843022392
 21
168.8754871299
  0
LINE
  5
226
100
AcDbEntity
  8
0
100
AcDbLine
 62
7
  6
CONTINUOUS
 10
27.7156683787
 20
169.5286777761
 11
27.8091711039
 21
169.7169675702
  0
LINE
  5
227
100
AcDbEntity
  8
0
100
AcDbLine
 62
7
  6
CONTINUOUS
 10
81.3331181604
 20
216.1949802863
 11
83.7372712069
 21
217.5830104095
  0
LINE
  5
228
100
AcDbEntity
  8
0
100
AcDbLine
 62
7
  6
CONTINUOUS
 10
79.8072872437
 20
213.9380013606
 11
78.3930795693
 21
213.1215130529
  0
LINE
  5
229
100
AcDbEntity
  8
0
100
AcDbLine
 62
7
  6
CONTINUOUS
 10
78.8430775547
 20
212.3420890263
 11
77.4288698802
 21
211.5256007186
  0
LINE
  5
22A
100
AcDbEntity
  8
0
100
AcDbLine
 62
7
  6
CONTINUOUS
 10
77.7288685372
 20
211.0059847009
 11
71.3649340023
 21
207.3317873161
  0
LINE
  5
22B
100
AcDbEntity
  8
0
100
AcDbLine
 62
7
  6
CONTINUOUS
 10
60.9678318804
 20
200.9271216749
 11
62.7355914734
 21
201.9477320596
  0
LINE
  5
22C
100
AcDbEntity
  8
0
100
AcDbLine
 62
7
  6
CONTINUOUS
 10
26.8146117377
 20
179.8205280048
 11
25.0468374249
 21
178.7999091217
  0
LINE
  5
22D
100
AcDbEntity
  8
0
100
AcDbLine
 62
7
  6
CONTINUOUS
 10
86.2828862364
 20
213.3372950047
 11
88.687039283
 21
214.7253251279
  0
LINE
  5
22E
100
AcDbEntity
  8
0
100
AcDbLine
 62
7
  6
CONTINUOUS
 10
57.0080174196
 20
196.4340662595
 11
58.7757770126
 21
197.4546766442
  0
LINE
  5
22F
100
AcDbEntity
  8
0
100
AcDbLine
 62
7
  6
CONTINUOUS
 10
22.218422076
 20
174.7174252548
 11
25.0468374249
 21
176.3504018703
  0
LINE
  5
230
100
AcDbEntity
  8
0
100
AcDbLine
 62
7
  6
CONTINUOUS
 10
74.2867853446
 20
204.3415650722
 11
72.1654195114
 21
203.1168012482
  0
LINE
  5
231
100
AcDbEntity
  8
0
100
AcDbLine
 62
7
  6
CONTINUOUS
 10
57.9275907088
 20
194.1093101796
 11
60.9678318804
 21
195.8645837608
  0
LINE
  5
232
100
AcDbEntity
  8
0
100
AcDbLine
 62
7
  6
CONTINUOUS
 10
67.1199405925
 20
199.4164841799
 11
70.6201021348
 21
201.4372913259
  0
LINE
  5
233
100
AcDbEntity
  8
0
100
AcDbLine
 62
7
  6
CONTINUOUS
 10
57.0080174196
 20
196.4340662595
 11
56.8633412236
 21
196.3603271541
  0
LINE
  5
234
100
AcDbEntity
  8
0
100
AcDbLine
 62
7
  6
CONTINUOUS
 10
85.0818134195
 20
42.0766815528
 11
83.6105473838
 21
41.8843912771
  0
LINE
  5
235
100
AcDbEntity
  8
0
100
AcDbLine
 62
7
  6
CONTINUOUS
 10
99.7680637229
 20
26.0675880084
 11
98.7781101077
 21
26.6391250647
  0
LINE
  5
236
100
AcDbEntity
  8
0
100
AcDbLine
 62
7
  6
CONTINUOUS
 10
28.3499814831
 20
67.2999042149
 11
27.3600278678
 21
67.8714412712
  0
LINE
  5
237
100
AcDbEntity
  8
0
100
AcDbLine
 62
7
  6
CONTINUOUS
 10
27.0619338811
 20
69.6538604465
 11
28.0518874963
 21
69.0823233902
  0
LINE
  5
238
100
AcDbEntity
  8
0
100
AcDbLine
 62
7
  6
CONTINUOUS
 10
98.4800161209
 20
28.4215442399
 11
99.4699697361
 21
27.8500071836
  0
LINE
  5
239
100
AcDbEntity
  8
0
100
AcDbLine
 62
7
  6
CONTINUOUS
 10
77.1607947285
 20
41.1791096339
 11
76.807239866
 21
41.3832300112
  0
LINE
  5
23A
100
AcDbEntity
  8
0
100
AcDbLine
 62
7
  6
CONTINUOUS
 10
52.4119543484
 20
55.4675360421
 11
52.0583994858
 21
55.6716564194
  0
LINE
  5
23B
100
AcDbEntity
  8
0
100
AcDbLine
 62
7
  6
CONTINUOUS
 10
51.4220007332
 20
56.447324307
 11
52.4119543484
 21
55.8757872507
  0
LINE
  5
23C
100
AcDbEntity
  8
0
100
AcDbLine
 62
7
  6
CONTINUOUS
 10
76.1708411133
 20
42.1588978988
 11
77.1607947285
 21
41.5873608425
  0
LINE
  5
23D
100
AcDbEntity
  8
0
100
AcDbLine
 62
7
  6
CONTINUOUS
 10
26.8751406174
 20
70.7707695749
 11
25.9558979747
 21
71.3014825557
  0
LINE
  5
23E
100
AcDbEntity
  8
0
100
AcDbLine
 62
7
  6
CONTINUOUS
 10
99.2831764724
 20
28.966916312
 11
100.2024191151
 21
28.4362033311
  0
LINE
  5
23F
100
AcDbEntity
  8
0
100
AcDbLine
 62
7
  6
CONTINUOUS
 10
77.1607947285
 20
43.5469666436
 11
76.1708411133
 21
44.1185036999
  0
LINE
  5
240
100
AcDbEntity
  8
0
100
AcDbLine
 62
7
  6
CONTINUOUS
 10
52.4119543484
 20
57.8353930518
 11
51.4220007332
 21
58.4069301081
  0
LINE
  5
241
100
AcDbEntity
  8
0
100
AcDbLine
 62
7
  6
CONTINUOUS
 10
77.9327469721
 20
44.3260435162
 11
77.1607947285
 21
44.7717202693
  0
LINE
  5
242
100
AcDbEntity
  8
0
100
AcDbLine
 62
7
  6
CONTINUOUS
 10
53.183906592
 20
58.6144699244
 11
52.4119543484
 21
59.0601466775
  0
LINE
  5
243
100
AcDbEntity
  8
0
100
AcDbLine
 62
7
  6
CONTINUOUS
 10
26.9391405802
 20
74.9718990086
 11
25.1713662673
 21
75.9925008949
  0
LINE
  5
244
100
AcDbEntity
  8
0
100
AcDbLine
 62
7
  6
CONTINUOUS
 10
97.6501130949
 20
34.1478235566
 11
99.4178874077
 21
33.1272216703
  0
LINE
  5
245
100
AcDbEntity
  8
0
100
AcDbLine
 62
7
  6
CONTINUOUS
 10
97.5255842524
 20
34.8924296422
 11
88.756063331
 21
39.9554003672
  0
LINE
  5
246
100
AcDbEntity
  8
0
100
AcDbLine
 62
7
  6
CONTINUOUS
 10
85.0818134195
 20
42.0766815528
 11
77.5850900033
 21
46.4048189197
  0
LINE
  5
247
100
AcDbEntity
  8
0
100
AcDbLine
 62
7
  6
CONTINUOUS
 10
71.503946367
 20
49.9156894085
 11
64.0072229508
 21
54.2438267754
  0
LINE
  5
248
100
AcDbEntity
  8
0
100
AcDbLine
 62
7
  6
CONTINUOUS
 10
60.3329730394
 20
56.365107961
 11
52.8362496231
 21
60.6932453279
  0
LINE
  5
249
100
AcDbEntity
  8
0
100
AcDbLine
 62
7
  6
CONTINUOUS
 10
46.7551059869
 20
64.2041158167
 11
39.2583825707
 21
68.5322531836
  0
LINE
  5
24A
100
AcDbEntity
  8
0
100
AcDbLine
 62
7
  6
CONTINUOUS
 10
35.5841326592
 20
70.6535343692
 11
26.8146117377
 21
75.7165050942
  0
LINE
  5
24B
100
AcDbEntity
  8
0
100
AcDbLine
 62
7
  6
CONTINUOUS
 10
23.2802451632
 20
86.238772374
 11
24.960884753
 21
81.2023768705
  0
LINE
  5
24C
100
AcDbEntity
  8
0
100
AcDbLine
 62
7
  6
CONTINUOUS
 10
20.6487091414
 20
152.9407163841
 11
20.6487091414
 21
106.8573199613
  0
LINE
  5
24D
100
AcDbEntity
  8
0
100
AcDbLine
 62
7
  6
CONTINUOUS
 10
22.218422076
 20
174.7174252548
 11
22.218422076
 21
155.8762482045
  0
LINE
  5
24E
100
AcDbEntity
  8
0
100
AcDbLine
 62
7
  6
CONTINUOUS
 10
22.218422076
 20
102.2917263008
 11
22.218422076
 21
80.6563468015
  0
LINE
  5
24F
100
AcDbEntity
  8
0
100
AcDbLine
 62
7
  6
CONTINUOUS
 10
23.2790866637
 20
100.9569864003
 11
23.2790866637
 21
80.0439856697
  0
LINE
  5
250
100
AcDbEntity
  8
0
100
AcDbLine
 62
7
  6
CONTINUOUS
 10
23.8447744439
 20
81.1054471752
 11
23.8447744439
 21
84.5470398052
  0
LINE
  5
251
100
AcDbEntity
  8
0
100
AcDbLine
 62
7
  6
CONTINUOUS
 10
23.8447744439
 20
86.8343723194
 11
23.8447744439
 21
96.2107418921
  0
LINE
  5
252
100
AcDbEntity
  8
0
100
AcDbLine
 62
7
  6
CONTINUOUS
 10
25.9558979747
 20
188.5512296555
 11
25.1713662673
 21
182.9543175389
  0
LINE
  5
253
100
AcDbEntity
  8
0
100
AcDbLine
 62
7
  6
CONTINUOUS
 10
28.2075992315
 20
197.5263832855
 11
27.3600278679
 21
191.4797412053
  0
LINE
  5
254
100
AcDbEntity
  8
0
100
AcDbLine
 62
7
  6
CONTINUOUS
 10
27.0619338811
 20
189.3531147977
 11
26.8751406174
 21
188.0205166747
  0
LINE
  5
255
100
AcDbEntity
  8
0
100
AcDbLine
 62
7
  6
CONTINUOUS
 10
26.9391405802
 20
181.9337156526
 11
26.8146117377
 21
181.0453169039
  0
LINE
  5
256
100
AcDbEntity
  8
0
100
AcDbLine
 62
7
  6
CONTINUOUS
 10
28.3499814831
 20
190.908204149
 11
28.0518874963
 21
188.7815777414
  0
LINE
  5
257
100
AcDbEntity
  8
0
100
AcDbLine
 62
7
  6
CONTINUOUS
 10
27.8091711039
 20
165.3442885595
 11
28.1855082984
 21
166.1021322775
  0
LINE
  5
258
100
AcDbEntity
  8
0
100
AcDbLine
 62
7
  6
CONTINUOUS
 10
76.7361720847
 20
211.7453972703
 11
81.3331181604
 21
216.1949802863
  0
LINE
  5
259
100
AcDbEntity
  8
INTFCLR_6
100
AcDbLine
 62
7
420
3604575
  6
CONTINUOUS
 10
76.1678500107
 20
202.5991933151
 11
74.6149194524
 21
201.7026137911
  0
LINE
  5
25A
100
AcDbEntity
  8
INTFCLR_6
100
AcDbLine
 62
7
420
3604575
  6
CONTINUOUS
 10
42.3363360489
 20
183.0666762156
 11
38.2306950908
 21
180.6962974525
  0
LINE
  5
25B
100
AcDbEntity
  8
0
100
AcDbLine
 62
7
  6
CONTINUOUS
 10
76.4960305985
 20
201.7533593163
 11
73.3901694819
 21
199.9602002683
  0
LINE
  5
25C
100
AcDbEntity
  8
0
100
AcDbLine
 62
7
  6
CONTINUOUS
 10
95.4038488096
 20
212.4804659028
 11
69.9481106699
 21
197.7836763635
  0
LINE
  5
25D
100
AcDbEntity
  8
0
100
AcDbLine
 62
7
  6
CONTINUOUS
 10
68.1803510769
 20
196.7630659788
 11
60.7557607861
 21
192.4765023631
  0
LINE
  5
25E
100
AcDbEntity
  8
0
100
AcDbLine
 62
7
  6
CONTINUOUS
 10
50.290625173
 20
186.2711919042
 11
48.9966251509
 21
185.5241051026
  0
LINE
  5
25F
100
AcDbEntity
  8
0
100
AcDbLine
 62
7
  6
CONTINUOUS
 10
56.5555769465
 20
188.2552652907
 11
61.6042983442
 21
191.1701285493
  0
LINE
  5
260
100
AcDbEntity
  8
0
100
AcDbLine
 62
7
  6
CONTINUOUS
 10
26.2900791423
 20
170.7764352938
 11
25.6853306579
 21
170.4272856777
  0
LINE
  5
261
100
AcDbEntity
  8
0
100
AcDbLine
 62
7
  6
CONTINUOUS
 10
52.0583994858
 20
185.2505900179
 11
55.5939186719
 21
187.2918107872
  0
LINE
  5
262
100
AcDbEntity
  8
0
100
AcDbLine
 62
7
  6
CONTINUOUS
 10
61.9578532068
 20
190.9660081721
 11
62.664957044
 21
191.3742523259
  0
LINE
  5
263
100
AcDbEntity
  8
0
100
AcDbLine
 62
7
  6
CONTINUOUS
 10
27.2260183734
 20
170.612160171
 11
26.9606394337
 21
170.4589444833
  0
LINE
  5
264
100
AcDbEntity
  8
0
100
AcDbLine
 62
7
  6
CONTINUOUS
 10
56.3010254531
 20
187.2918124869
 11
57.0053219224
 21
187.6984358158
  0
LINE
  5
265
100
AcDbEntity
  8
0
100
AcDbLine
 62
7
  6
CONTINUOUS
 10
63.0185119066
 20
191.1701319487
 11
109.6873651627
 21
218.1142461042
  0
LINE
  5
266
100
AcDbEntity
  8
0
100
AcDbLine
 62
7
  6
CONTINUOUS
 10
27.8847813244
 20
170.1668812323
 11
26.9606394337
 21
169.6333308478
  0
LINE
  5
267
100
AcDbEntity
  8
0
100
AcDbLine
 62
7
  6
CONTINUOUS
 10
27.8091711039
 20
169.9671525806
 11
27.9773792978
 21
170.064267047
  0
LINE
  5
268
100
AcDbEntity
  8
0
100
AcDbLine
 62
7
  6
CONTINUOUS
 10
27.7156683787
 20
169.5286777761
 11
26.5843022392
 21
168.8754871299
  0
LINE
  5
269
100
AcDbEntity
  8
0
100
AcDbLine
 62
7
  6
CONTINUOUS
 10
26.8711946468
 20
168.6018629242
 11
25.7398285072
 21
167.948672278
  0
LINE
  5
26A
100
AcDbEntity
  8
0
100
AcDbLine
 62
7
  6
CONTINUOUS
 10
58.1395107385
 20
186.2303865251
 11
58.8493613582
 21
186.6402165252
  0
LINE
  5
26B
100
AcDbEntity
  8
0
100
AcDbLine
 62
7
  6
CONTINUOUS
 10
64.856997192
 20
190.1087059869
 11
111.5258504481
 21
217.0528201424
  0
LINE
  5
26C
100
AcDbEntity
  8
0
100
AcDbLine
 62
7
  6
CONTINUOUS
 10
65.2105520546
 20
189.9045856097
 11
64.5034482173
 21
189.4963414558
  0
LINE
  5
26D
100
AcDbEntity
  8
0
100
AcDbLine
 62
7
  6
CONTINUOUS
 10
58.1395136824
 20
185.8221440709
 11
54.6039944963
 21
183.7809233016
  0
LINE
  5
26E
100
AcDbEntity
  8
0
100
AcDbLine
 62
7
  6
CONTINUOUS
 10
64.8570030799
 20
189.2922210785
 11
59.8082816822
 21
186.3773578199
  0
LINE
  5
26F
100
AcDbEntity
  8
INTFCLR_6
100
AcDbLine
 62
7
420
3604575
  6
CONTINUOUS
 10
28.1832241557
 20
167.9550075689
 11
27.3803230696
 21
167.4914551778
  0
LINE
  5
270
100
AcDbEntity
  8
0
100
AcDbLine
 62
7
  6
CONTINUOUS
 10
27.7156683787
 20
167.6797587594
 11
26.5843022392
 21
167.0265681133
  0
LINE
  5
271
100
AcDbEntity
  8
0
100
AcDbLine
 62
7
  6
CONTINUOUS
 10
96.4649432164
 20
37.7910675769
 11
95.4042786287
 21
38.4034287087
  0
LINE
  5
272
100
AcDbEntity
  8
0
100
AcDbLine
 62
7
  6
CONTINUOUS
 10
23.2790866637
 20
80.0439856697
 11
22.218422076
 21
80.6563468015
  0
LINE
  5
273
100
AcDbEntity
  8
0
100
AcDbLine
 62
7
  6
CONTINUOUS
 10
26.8146117377
 20
78.9825147627
 11
25.0468374249
 21
80.003116649
  0
LINE
  5
274
100
AcDbEntity
  8
0
100
AcDbLine
 62
7
  6
CONTINUOUS
 10
97.5255842524
 20
38.1584393107
 11
99.2933585653
 21
37.1378374244
  0
LINE
  5
275
100
AcDbEntity
  8
0
100
AcDbLine
 62
7
  6
CONTINUOUS
 10
94.8385908486
 20
40.1180754214
 11
93.4950823708
 21
40.893732855
  0
LINE
  5
276
100
AcDbEntity
  8
0
100
AcDbLine
 62
7
  6
CONTINUOUS
 10
85.5754534492
 20
45.4660293056
 11
27.8045889047
 21
78.8192989499
  0
LINE
  5
277
100
AcDbEntity
  8
0
100
AcDbLine
 62
7
  6
CONTINUOUS
 10
25.9661036193
 20
79.8807249117
 11
23.8447744439
 21
81.1054471752
  0
LINE
  5
278
100
AcDbEntity
  8
0
100
AcDbLine
 62
7
  6
CONTINUOUS
 10
38.3394007528
 20
73.478461795
 11
24.960884753
 21
81.2023768705
  0
LINE
  5
279
100
AcDbEntity
  8
0
100
AcDbLine
 62
7
  6
CONTINUOUS
 10
93.4950823708
 20
42.4450121785
 11
86.9189199577
 21
46.241675426
  0
LINE
  5
27A
100
AcDbEntity
  8
0
100
AcDbLine
 62
7
  6
CONTINUOUS
 10
36.672065483
 20
78.5071762195
 11
23.2802451632
 21
86.238772374
  0
LINE
  5
27B
100
AcDbEntity
  8
0
100
AcDbLine
 62
7
  6
CONTINUOUS
 10
93.4950823708
 20
45.7927473578
 11
85.5754534492
 21
50.3650438084
  0
LINE
  5
27C
100
AcDbEntity
  8
0
100
AcDbLine
 62
7
  6
CONTINUOUS
 10
25.1713662673
 20
75.9925008949
 11
25.9558979747
 21
71.3014825557
  0
LINE
  5
27D
100
AcDbEntity
  8
0
100
AcDbLine
 62
7
  6
CONTINUOUS
 10
26.8751406174
 20
70.7707695749
 11
27.0619338811
 21
69.6538604465
  0
LINE
  5
27E
100
AcDbEntity
  8
0
100
AcDbLine
 62
7
  6
CONTINUOUS
 10
27.3600278678
 20
67.8714412712
 11
28.2075992315
 21
62.8034844591
  0
LINE
  5
27F
100
AcDbEntity
  8
0
100
AcDbLine
 62
7
  6
CONTINUOUS
 10
26.8146117377
 20
75.7165050942
 11
26.9391405802
 21
74.9718990086
  0
LINE
  5
280
100
AcDbEntity
  8
0
100
AcDbLine
 62
7
  6
CONTINUOUS
 10
28.0518874963
 20
69.0823233902
 11
28.3499814831
 21
67.2999042149
  0
LINE
  5
281
100
AcDbEntity
  8
0
100
AcDbLine
 62
7
  6
CONTINUOUS
 10
24.693306114
 20
95.7208529867
 11
24.693306114
 21
99.6395391828
  0
LINE
  5
282
100
AcDbEntity
  8
0
100
AcDbLine
 62
7
  6
CONTINUOUS
 10
25.0468374249
 20
80.003116649
 11
25.0468374249
 21
80.4114514898
  0
LINE
  5
283
100
AcDbEntity
  8
0
100
AcDbLine
 62
7
  6
CONTINUOUS
 10
25.0468374249
 20
176.3504018703
 11
25.0468374249
 21
178.7999091217
  0
LINE
  5
284
100
AcDbEntity
  8
0
100
AcDbLine
 62
7
  6
CONTINUOUS
 10
25.7398285072
 20
167.948672278
 11
25.7398285072
 21
168.9284751785
  0
LINE
  5
285
100
AcDbEntity
  8
0
100
AcDbLine
 62
7
  6
CONTINUOUS
 10
25.9661036193
 20
80.6220266167
 11
25.9661036193
 21
79.8807249117
  0
LINE
  5
286
100
AcDbEntity
  8
0
100
AcDbLine
 62
7
  6
CONTINUOUS
 10
26.8146117377
 20
78.9825147627
 11
26.8146117377
 21
75.7165050942
  0
LINE
  5
287
100
AcDbEntity
  8
0
100
AcDbLine
 62
7
  6
CONTINUOUS
 10
26.8146117377
 20
177.7793072354
 11
26.8146117377
 21
181.0453169039
  0
LINE
  5
288
100
AcDbEntity
  8
0
100
AcDbLine
 62
7
  6
CONTINUOUS
 10
26.8711946468
 20
168.6018629242
 11
26.8711946468
 21
169.04112355
  0
LINE
  5
289
100
AcDbEntity
  8
0
100
AcDbLine
 62
7
  6
CONTINUOUS
 10
26.9606394337
 20
165.0085638295
 11
26.9606394337
 21
165.834177465
  0
LINE
  5
28A
100
AcDbEntity
  8
0
100
AcDbLine
 62
7
  6
CONTINUOUS
 10
26.9606394337
 20
169.6333308478
 11
26.9606394337
 21
170.4589444833
  0
LINE
  5
28B
100
AcDbEntity
  8
0
100
AcDbLine
 62
7
  6
CONTINUOUS
 10
27.8045889047
 20
78.8192989499
 11
27.8045889047
 21
79.560600655
  0
LINE
  5
28C
100
AcDbEntity
  8
0
100
AcDbLine
 62
7
  6
CONTINUOUS
 10
27.8091711039
 20
169.9671525806
 11
27.8091711039
 21
169.1434419424
  0
LINE
  5
28D
100
AcDbEntity
  8
0
100
AcDbLine
 62
7
  6
CONTINUOUS
 10
27.8091711039
 20
165.3442885595
 11
27.8091711039
 21
164.5205779213
  0
LINE
  5
28E
100
AcDbEntity
  8
0
100
AcDbLine
 62
7
  6
CONTINUOUS
 10
28.0920055732
 20
165.9138424834
 11
28.0920055732
 21
166.4873681112
  0
LINE
  5
28F
100
AcDbEntity
  8
0
100
AcDbLine
 62
7
  6
CONTINUOUS
 10
29.0299820303
 20
167.0289471294
 11
29.0299820303
 21
166.0491442288
  0
LINE
  5
290
100
AcDbEntity
  8
0
100
AcDbLine
 62
7
  6
CONTINUOUS
 10
73.3901694819
 20
204.8592147711
 11
72.1654195114
 21
203.1168012482
  0
LINE
  5
291
100
AcDbEntity
  8
0
100
AcDbLine
 62
7
  6
CONTINUOUS
 10
28.0920055732
 20
166.4873681112
 11
26.9606394337
 21
165.834177465
  0
LINE
  5
292
100
AcDbEntity
  8
0
100
AcDbLine
 62
7
  6
CONTINUOUS
 10
56.3717688092
 20
182.7603214153
 11
55.0777687871
 21
182.0132346137
  0
LINE
  5
293
100
AcDbEntity
  8
0
100
AcDbLine
 62
7
  6
CONTINUOUS
 10
67.1197483125
 20
188.8023355724
 11
74.5443386032
 21
193.0888991881
  0
LINE
  5
294
100
AcDbEntity
  8
0
100
AcDbLine
 62
7
  6
CONTINUOUS
 10
76.3120981962
 20
194.1095095728
 11
101.7678363359
 21
208.8062991122
  0
LINE
  5
295
100
AcDbEntity
  8
0
100
AcDbLine
 62
7
  6
CONTINUOUS
 10
52.0583994858
 20
180.1066247899
 11
54.6039944963
 21
181.5763159816
  0
LINE
  5
296
100
AcDbEntity
  8
0
100
AcDbLine
 62
7
  6
CONTINUOUS
 10
29.0299820303
 20
166.5896865036
 11
28.1855082984
 21
166.1021322775
  0
LINE
  5
297
100
AcDbEntity
  8
0
100
AcDbLine
 62
7
  6
CONTINUOUS
 10
54.6039944963
 20
181.1680718278
 11
52.4119543484
 21
179.9025044127
  0
LINE
  5
298
100
AcDbEntity
  8
0
100
AcDbLine
 62
7
  6
CONTINUOUS
 10
26.9606394337
 20
165.0085638295
 11
27.9165043722
 21
165.5604294148
  0
LINE
  5
299
100
AcDbEntity
  8
0
100
AcDbLine
 62
7
  6
CONTINUOUS
 10
54.6039944963
 20
180.7598206192
 11
52.4119543484
 21
179.4942532041
  0
LINE
  5
29A
100
AcDbEntity
  8
0
100
AcDbLine
 62
7
  6
CONTINUOUS
 10
54.6039944963
 20
179.943298449
 11
51.4220007332
 21
178.1061844593
  0
LINE
  5
29B
100
AcDbEntity
  8
0
100
AcDbLine
 62
7
  6
CONTINUOUS
 10
29.7836794639
 20
164.9645963726
 11
29.0753154813
 21
164.5556246778
  0
LINE
  5
29C
100
AcDbEntity
  8
0
100
AcDbLine
 62
7
  6
CONTINUOUS
 10
54.6039944963
 20
179.0452022276
 11
54.2504396338
 21
178.8410784509
  0
LINE
  5
29D
100
AcDbEntity
  8
0
100
AcDbLine
 62
7
  6
CONTINUOUS
 10
54.2504396338
 20
178.5960910415
 11
52.4119543484
 21
177.534647403
  0
LINE
  5
29E
100
AcDbEntity
  8
0
100
AcDbLine
 62
7
  6
CONTINUOUS
 10
54.4426596401
 20
177.4823150257
 11
52.4119543484
 21
176.3098937773
  0
LINE
  5
29F
100
AcDbEntity
  8
0
100
AcDbLine
 62
7
  6
CONTINUOUS
 10
54.3056835083
 20
176.5051163167
 11
54.2504396338
 21
176.4732214412
  0
LINE
  5
2A0
100
AcDbEntity
  8
0
100
AcDbLine
 62
7
  6
CONTINUOUS
 10
30.3766269695
 20
160.5863618803
 11
21.8913809229
 21
155.6874320338
  0
LINE
  5
2A1
100
AcDbEntity
  8
0
100
AcDbLine
 62
7
  6
CONTINUOUS
 10
81.7568577997
 20
188.924843492
 11
83.5246173927
 21
189.9454538767
  0
LINE
  5
2A2
100
AcDbEntity
  8
0
100
AcDbLine
 62
7
  6
CONTINUOUS
 10
46.7551059869
 20
168.3081740008
 11
50.290625173
 21
170.3493947701
  0
LINE
  5
2A3
100
AcDbEntity
  8
0
100
AcDbLine
 62
7
  6
CONTINUOUS
 10
33.3766135388
 20
160.2892162062
 11
25.294514213
 21
155.6230418381
  0
LINE
  5
2A4
100
AcDbEntity
  8
0
100
AcDbLine
 62
7
  6
CONTINUOUS
 10
60.3329730394
 20
56.365107961
 11
58.8617070037
 21
56.1728176853
  0
LINE
  5
2A5
100
AcDbEntity
  8
0
100
AcDbLine
 62
7
  6
CONTINUOUS
 10
93.2304386135
 20
66.4070747226
 11
94.0749123455
 21
66.3540866739
  0
LINE
  5
2A6
100
AcDbEntity
  8
0
100
AcDbLine
 62
7
  6
CONTINUOUS
 10
23.8447744439
 20
96.2107418921
 11
24.693306114
 21
95.7208529867
  0
LINE
  5
2A7
100
AcDbEntity
  8
0
100
AcDbLine
 62
7
  6
CONTINUOUS
 10
38.3394007528
 20
73.478461795
 11
36.672065483
 21
78.5071762195
  0
LINE
  5
2A8
100
AcDbEntity
  8
0
100
AcDbLine
 62
7
  6
CONTINUOUS
 10
106.0819585406
 20
201.9065538781
 11
108.4861115871
 21
203.2945840013
  0
LINE
  5
2A9
100
AcDbEntity
  8
0
100
AcDbLine
 62
7
  6
CONTINUOUS
 10
104.5561276238
 20
199.6495749524
 11
103.1419199494
 21
198.8330866446
  0
LINE
  5
2AA
100
AcDbEntity
  8
0
100
AcDbLine
 62
7
  6
CONTINUOUS
 10
103.5919179348
 20
198.0536626181
 11
102.1777102604
 21
197.2371743104
  0
LINE
  5
2AB
100
AcDbEntity
  8
0
100
AcDbLine
 62
7
  6
CONTINUOUS
 10
102.4777089173
 20
196.7175582927
 11
96.1137743824
 21
193.0433609078
  0
LINE
  5
2AC
100
AcDbEntity
  8
0
100
AcDbLine
 62
7
  6
CONTINUOUS
 10
85.7166722605
 20
186.6386952667
 11
87.4844318536
 21
187.6593056514
  0
LINE
  5
2AD
100
AcDbEntity
  8
0
100
AcDbLine
 62
7
  6
CONTINUOUS
 10
111.0317266166
 20
199.0488685965
 11
113.4358796631
 21
200.4368987197
  0
LINE
  5
2AE
100
AcDbEntity
  8
0
100
AcDbLine
 62
7
  6
CONTINUOUS
 10
81.7568577997
 20
182.1456398513
 11
83.5246173927
 21
183.166250236
  0
LINE
  5
2AF
100
AcDbEntity
  8
0
100
AcDbLine
 62
7
  6
CONTINUOUS
 10
99.0356257247
 20
190.053138664
 11
96.9142598916
 21
188.82837484
  0
LINE
  5
2B0
100
AcDbEntity
  8
0
100
AcDbLine
 62
7
  6
CONTINUOUS
 10
82.6764310889
 20
179.8208837714
 11
85.7166722605
 21
181.5761573526
  0
LINE
  5
2B1
100
AcDbEntity
  8
0
100
AcDbLine
 62
7
  6
CONTINUOUS
 10
91.8687809727
 20
185.1280577717
 11
95.368942515
 21
187.1488649177
  0
LINE
  5
2B2
100
AcDbEntity
  8
0
100
AcDbLine
 62
7
  6
CONTINUOUS
 10
81.7568577997
 20
182.1456398513
 11
81.6121816038
 21
182.0719007459
  0
LINE
  5
2B3
100
AcDbEntity
  8
0
100
AcDbLine
 62
7
  6
CONTINUOUS
 10
91.6292325543
 20
69.180429575
 11
90.7847588224
 21
69.2334176236
  0
LINE
  5
2B4
100
AcDbEntity
  8
0
100
AcDbLine
 62
7
  6
CONTINUOUS
 10
61.820498407
 20
78.0463732968
 11
61.4029879674
 21
78.1442415244
  0
LINE
  5
2B5
100
AcDbEntity
  8
0
100
AcDbLine
 62
7
  6
CONTINUOUS
 10
52.2705853948
 20
82.3306210535
 11
66.4127798977
 21
74.1658059631
  0
LINE
  5
2B6
100
AcDbEntity
  8
0
100
AcDbLine
 62
7
  6
CONTINUOUS
 10
58.5745302206
 20
79.7771719457
 11
61.4029691212
 21
78.1442089276
  0
LINE
  5
2B7
100
AcDbEntity
  8
0
100
AcDbLine
 62
7
  6
CONTINUOUS
 10
77.1676285141
 20
69.3441603927
 11
51.2767007522
 21
84.2919563413
  0
LINE
  5
2B8
100
AcDbEntity
  8
0
100
AcDbLine
 62
7
  6
CONTINUOUS
 10
31.9893812895
 20
95.4272435111
 11
24.5452446852
 21
99.7250205548
  0
LINE
  5
2B9
100
AcDbEntity
  8
0
100
AcDbLine
 62
7
  6
CONTINUOUS
 10
80.0784044068
 20
69.3788416475
 11
94.8385908486
 21
60.8572368165
  0
LINE
  5
2BA
100
AcDbEntity
  8
0
100
AcDbLine
 62
7
  6
CONTINUOUS
 10
80.1491166012
 20
69.4196671083
 11
95.4042786287
 21
60.6122944546
  0
LINE
  5
2BB
100
AcDbEntity
  8
0
100
AcDbLine
 62
7
  6
CONTINUOUS
 10
58.7781868505
 20
83.9619311448
 11
54.1078147996
 21
86.6583107053
  0
LINE
  5
2BC
100
AcDbEntity
  8
0
100
AcDbLine
 62
7
  6
CONTINUOUS
 10
48.9966251509
 20
50.8012062762
 11
46.7551059869
 21
64.2041158167
  0
LINE
  5
2BD
100
AcDbEntity
  8
0
100
AcDbLine
 62
7
  6
CONTINUOUS
 10
42.9389290072
 20
139.6389967982
 11
42.9389290072
 21
105.778199242
  0
LINE
  5
2BE
100
AcDbEntity
  8
0
100
AcDbLine
 62
7
  6
CONTINUOUS
 10
46.7551059869
 20
65.4288694424
 11
46.7551059869
 21
64.2041158167
  0
LINE
  5
2BF
100
AcDbEntity
  8
0
100
AcDbLine
 62
7
  6
CONTINUOUS
 10
46.7551059869
 20
168.3081740008
 11
46.7551059869
 21
169.5329276265
  0
LINE
  5
2C0
100
AcDbEntity
  8
0
100
AcDbLine
 62
7
  6
CONTINUOUS
 10
48.0795739037
 20
136.6711112259
 11
48.0795739037
 21
134.4907065985
  0
LINE
  5
2C1
100
AcDbEntity
  8
0
100
AcDbLine
 62
7
  6
CONTINUOUS
 10
46.7551059869
 20
169.5329276265
 11
48.9966251509
 21
185.5241051026
  0
LINE
  5
2C2
100
AcDbEntity
  8
0
100
AcDbLine
 62
7
  6
CONTINUOUS
 10
55.0777687871
 20
182.0132346137
 11
52.8362496231
 21
166.0220571376
  0
LINE
  5
2C3
100
AcDbEntity
  8
0
100
AcDbLine
 62
7
  6
CONTINUOUS
 10
101.4850124648
 20
197.4569708621
 11
106.0819585406
 21
201.9065538781
  0
LINE
  5
2C4
100
AcDbEntity
  8
INTFCLR_6
100
AcDbLine
 62
7
420
3604575
  6
CONTINUOUS
 10
100.9166903908
 20
188.3107669069
 11
99.3637598325
 21
187.4141873829
  0
LINE
  5
2C5
100
AcDbEntity
  8
INTFCLR_6
100
AcDbLine
 62
7
420
3604575
  6
CONTINUOUS
 10
67.085176429
 20
168.7782498074
 11
62.979535471
 21
166.4078710443
  0
LINE
  5
2C6
100
AcDbEntity
  8
0
100
AcDbLine
 62
7
  6
CONTINUOUS
 10
101.2448709787
 20
187.4649329081
 11
98.1390098621
 21
185.6717738601
  0
LINE
  5
2C7
100
AcDbEntity
  8
0
100
AcDbLine
 62
7
  6
CONTINUOUS
 10
120.1526891898
 20
198.1920394946
 11
94.6969510501
 21
183.4952499552
  0
LINE
  5
2C8
100
AcDbEntity
  8
0
100
AcDbLine
 62
7
  6
CONTINUOUS
 10
92.929191457
 20
182.4746395706
 11
85.5046011663
 21
178.1880759549
  0
LINE
  5
2C9
100
AcDbEntity
  8
0
100
AcDbLine
 62
7
  6
CONTINUOUS
 10
75.0394655531
 20
171.9827654959
 11
73.745465531
 21
171.2356786944
  0
LINE
  5
2CA
100
AcDbEntity
  8
0
100
AcDbLine
 62
7
  6
CONTINUOUS
 10
81.3044173267
 20
173.9668388825
 11
86.3531387244
 21
176.8817021411
  0
LINE
  5
2CB
100
AcDbEntity
  8
0
100
AcDbLine
 62
7
  6
CONTINUOUS
 10
76.807239866
 20
170.9621636096
 11
80.342759052
 21
173.003384379
  0
LINE
  5
2CC
100
AcDbEntity
  8
0
100
AcDbLine
 62
7
  6
CONTINUOUS
 10
86.706693587
 20
176.6775817638
 11
87.4137974242
 21
177.0858259177
  0
LINE
  5
2CD
100
AcDbEntity
  8
0
100
AcDbLine
 62
7
  6
CONTINUOUS
 10
81.0498658332
 20
173.0033860787
 11
81.7541623025
 21
173.4100094076
  0
LINE
  5
2CE
100
AcDbEntity
  8
0
100
AcDbLine
 62
7
  6
CONTINUOUS
 10
87.7673522867
 20
176.8817055405
 11
134.4362055429
 21
203.825819696
  0
LINE
  5
2CF
100
AcDbEntity
  8
0
100
AcDbLine
 62
7
  6
CONTINUOUS
 10
82.8883511186
 20
171.9419601169
 11
83.5982017383
 21
172.3517901169
  0
LINE
  5
2D0
100
AcDbEntity
  8
0
100
AcDbLine
 62
7
  6
CONTINUOUS
 10
89.6058375721
 20
175.8202795787
 11
136.2746908282
 21
202.7643937342
  0
LINE
  5
2D1
100
AcDbEntity
  8
0
100
AcDbLine
 62
7
  6
CONTINUOUS
 10
89.9593924347
 20
175.6161592014
 11
89.2522885975
 21
175.2079150476
  0
LINE
  5
2D2
100
AcDbEntity
  8
0
100
AcDbLine
 62
7
  6
CONTINUOUS
 10
82.8883540626
 20
171.5337176627
 11
79.3528348765
 21
169.4924968934
  0
LINE
  5
2D3
100
AcDbEntity
  8
0
100
AcDbLine
 62
7
  6
CONTINUOUS
 10
89.6058434601
 20
175.0037946703
 11
84.5571220624
 21
172.0889314117
  0
LINE
  5
2D4
100
AcDbEntity
  8
0
100
AcDbLine
 62
7
  6
CONTINUOUS
 10
81.1206091894
 20
168.4718950071
 11
79.8266091673
 21
167.7248082055
  0
LINE
  5
2D5
100
AcDbEntity
  8
0
100
AcDbLine
 62
7
  6
CONTINUOUS
 10
91.8685886926
 20
174.5139091642
 11
99.2931789833
 21
178.8004727799
  0
LINE
  5
2D6
100
AcDbEntity
  8
0
100
AcDbLine
 62
7
  6
CONTINUOUS
 10
101.0609385764
 20
179.8210831646
 11
126.5166767161
 21
194.5178727039
  0
LINE
  5
2D7
100
AcDbEntity
  8
0
100
AcDbLine
 62
7
  6
CONTINUOUS
 10
76.807239866
 20
165.8181983817
 11
79.3528348765
 21
167.2878895734
  0
LINE
  5
2D8
100
AcDbEntity
  8
0
100
AcDbLine
 62
7
  6
CONTINUOUS
 10
35.5841326592
 20
70.6535343692
 11
34.1128666235
 21
70.4612440935
  0
LINE
  5
2D9
100
AcDbEntity
  8
0
100
AcDbLine
 62
7
  6
CONTINUOUS
 10
57.3944087974
 20
96.7515888247
 11
57.3334493333
 21
96.7867829915
  0
LINE
  5
2DA
100
AcDbEntity
  8
0
100
AcDbLine
 62
7
  6
CONTINUOUS
 10
57.0542312132
 20
97.6289100753
 11
42.2030473071
 21
106.2030511282
  0
LINE
  5
2DB
100
AcDbEntity
  8
0
100
AcDbLine
 62
7
  6
CONTINUOUS
 10
58.7781868505
 20
93.1267336748
 11
57.3944087974
 21
96.7515888247
  0
LINE
  5
2DC
100
AcDbEntity
  8
0
100
AcDbLine
 62
7
  6
CONTINUOUS
 10
26.5843022392
 20
167.0265681133
 11
26.9606394337
 21
165.834177465
  0
LINE
  5
2DD
100
AcDbEntity
  8
0
100
AcDbLine
 62
7
  6
CONTINUOUS
 10
28.0920055732
 20
166.4873681112
 11
27.7156683787
 21
167.6797587595
  0
LINE
  5
2DE
100
AcDbEntity
  8
0
100
AcDbLine
 62
7
  6
CONTINUOUS
 10
28.1855082984
 20
167.9510512941
 11
27.8091711039
 21
169.1434419424
  0
LINE
  5
2DF
100
AcDbEntity
  8
0
100
AcDbLine
 62
7
  6
CONTINUOUS
 10
52.8362496231
 20
60.6932453279
 11
55.0777687871
 21
47.2903357873
  0
LINE
  5
2E0
100
AcDbEntity
  8
0
100
AcDbLine
 62
7
  6
CONTINUOUS
 10
49.7954982231
 20
198.8042697511
 11
49.7954982231
 21
207.3773255963
  0
LINE
  5
2E1
100
AcDbEntity
  8
0
100
AcDbLine
 62
7
  6
CONTINUOUS
 10
50.290625173
 20
65.8372735501
 11
50.290625173
 21
51.5482930778
  0
LINE
  5
2E2
100
AcDbEntity
  8
0
100
AcDbLine
 62
7
  6
CONTINUOUS
 10
50.290625173
 20
170.3493947701
 11
50.290625173
 21
186.2711919042
  0
LINE
  5
2E3
100
AcDbEntity
  8
0
100
AcDbLine
 62
7
  6
CONTINUOUS
 10
51.4220007332
 20
58.4069301081
 11
51.4220007332
 21
56.447324307
  0
LINE
  5
2E4
100
AcDbEntity
  8
0
100
AcDbLine
 62
7
  6
CONTINUOUS
 10
51.4220007332
 20
178.1061844593
 11
51.4220007332
 21
180.0657902604
  0
LINE
  5
2E5
100
AcDbEntity
  8
0
100
AcDbLine
 62
7
  6
CONTINUOUS
 10
52.0583994858
 20
55.6716564194
 11
52.0583994858
 21
50.5276911915
  0
LINE
  5
2E6
100
AcDbEntity
  8
0
100
AcDbLine
 62
7
  6
CONTINUOUS
 10
52.0583994858
 20
180.1066247899
 11
52.0583994858
 21
185.2505900179
  0
LINE
  5
2E7
100
AcDbEntity
  8
0
100
AcDbLine
 62
7
  6
CONTINUOUS
 10
52.2705853948
 20
83.7181497566
 11
52.2705853948
 21
82.3306210535
  0
LINE
  5
2E8
100
AcDbEntity
  8
0
100
AcDbLine
 62
7
  6
CONTINUOUS
 10
52.4119543484
 20
59.0601466775
 11
52.4119543484
 21
57.8353930518
  0
LINE
  5
2E9
100
AcDbEntity
  8
0
100
AcDbLine
 62
7
  6
CONTINUOUS
 10
52.4119543484
 20
55.8757872507
 11
52.4119543484
 21
55.4675360421
  0
LINE
  5
2EA
100
AcDbEntity
  8
0
100
AcDbLine
 62
7
  6
CONTINUOUS
 10
52.4119543484
 20
176.3098937773
 11
52.4119543484
 21
177.534647403
  0
LINE
  5
2EB
100
AcDbEntity
  8
0
100
AcDbLine
 62
7
  6
CONTINUOUS
 10
52.4119543484
 20
179.4942532041
 11
52.4119543484
 21
179.9025044127
  0
LINE
  5
2EC
100
AcDbEntity
  8
0
100
AcDbLine
 62
7
  6
CONTINUOUS
 10
52.8362496231
 20
61.9179989536
 11
52.8362496231
 21
60.6932453279
  0
LINE
  5
2ED
100
AcDbEntity
  8
0
100
AcDbLine
 62
7
  6
CONTINUOUS
 10
52.8362496231
 20
164.7973035119
 11
52.8362496231
 21
166.0220571376
  0
LINE
  5
2EE
100
AcDbEntity
  8
0
100
AcDbLine
 62
7
  6
CONTINUOUS
 10
54.2504396338
 20
176.4732214412
 11
54.2504396338
 21
176.1110020855
  0
LINE
  5
2EF
100
AcDbEntity
  8
0
100
AcDbLine
 62
7
  6
CONTINUOUS
 10
54.2504396338
 20
178.4328272424
 11
54.2504396338
 21
178.8410784509
  0
LINE
  5
2F0
100
AcDbEntity
  8
0
100
AcDbLine
 62
7
  6
CONTINUOUS
 10
54.6039944963
 20
50.1232154093
 11
54.6039944963
 21
49.0580244752
  0
LINE
  5
2F1
100
AcDbEntity
  8
0
100
AcDbLine
 62
7
  6
CONTINUOUS
 10
54.6039944963
 20
178.6369580737
 11
54.6039944963
 21
183.7809233016
  0
LINE
  5
2F2
100
AcDbEntity
  8
0
100
AcDbLine
 62
7
  6
CONTINUOUS
 10
55.5939186719
 20
184.3524528792
 11
55.5939186719
 21
187.2918107872
  0
LINE
  5
2F3
100
AcDbEntity
  8
0
100
AcDbLine
 62
7
  6
CONTINUOUS
 10
56.3010254531
 20
184.7606987328
 11
56.3010254531
 21
187.2918124869
  0
LINE
  5
2F4
100
AcDbEntity
  8
0
100
AcDbLine
 62
7
  6
CONTINUOUS
 10
57.0053219224
 20
185.1673220617
 11
57.0053219224
 21
187.6984358158
  0
LINE
  5
2F5
100
AcDbEntity
  8
0
100
AcDbLine
 62
7
  6
CONTINUOUS
 10
57.0080174196
 20
196.4340662595
 11
57.0080174196
 21
203.2132699002
  0
LINE
  5
2F6
100
AcDbEntity
  8
0
100
AcDbLine
 62
7
  6
CONTINUOUS
 10
79.3528348765
 20
166.8796454195
 11
77.1607947285
 21
165.6140780045
  0
LINE
  5
2F7
100
AcDbEntity
  8
0
100
AcDbLine
 62
7
  6
CONTINUOUS
 10
79.3528348765
 20
166.471394211
 11
77.1607947285
 21
165.2058267959
  0
LINE
  5
2F8
100
AcDbEntity
  8
0
100
AcDbLine
 62
7
  6
CONTINUOUS
 10
79.3528348765
 20
165.6548720407
 11
76.1708411133
 21
163.8177580511
  0
LINE
  5
2F9
100
AcDbEntity
  8
0
100
AcDbLine
 62
7
  6
CONTINUOUS
 10
79.3528348765
 20
164.7567758193
 11
78.9992800139
 21
164.5526520427
  0
LINE
  5
2FA
100
AcDbEntity
  8
0
100
AcDbLine
 62
7
  6
CONTINUOUS
 10
78.9992800139
 20
164.3076646332
 11
77.1607947285
 21
163.2462209948
  0
LINE
  5
2FB
100
AcDbEntity
  8
0
100
AcDbLine
 62
7
  6
CONTINUOUS
 10
79.1915000202
 20
163.1938886175
 11
77.1607947285
 21
162.0214673691
  0
LINE
  5
2FC
100
AcDbEntity
  8
0
100
AcDbLine
 62
7
  6
CONTINUOUS
 10
79.0545238885
 20
162.2166899085
 11
78.9992800139
 21
162.184795033
  0
LINE
  5
2FD
100
AcDbEntity
  8
0
100
AcDbLine
 62
7
  6
CONTINUOUS
 10
106.5056981798
 20
174.6364170838
 11
108.2734577729
 21
175.6570274685
  0
LINE
  5
2FE
100
AcDbEntity
  8
0
100
AcDbLine
 62
7
  6
CONTINUOUS
 10
71.503946367
 20
154.0197475926
 11
75.0394655531
 21
156.0609683619
  0
LINE
  5
2FF
100
AcDbEntity
  8
0
100
AcDbLine
 62
7
  6
CONTINUOUS
 10
130.8307989207
 20
187.6181274699
 11
133.2349519672
 21
189.0061575931
  0
LINE
  5
300
100
AcDbEntity
  8
0
100
AcDbLine
 62
7
  6
CONTINUOUS
 10
45.8909924065
 20
107.9311714854
 11
46.5256217794
 21
107.5652929562
  0
LINE
  5
301
100
AcDbEntity
  8
0
100
AcDbLine
 62
7
  6
CONTINUOUS
 10
58.7781868505
 20
102.0771767386
 11
46.9002148843
 21
108.9347719112
  0
LINE
  5
302
100
AcDbEntity
  8
0
100
AcDbLine
 62
7
  6
CONTINUOUS
 10
90.7847588224
 20
68.2536147231
 11
91.6292325543
 21
67.3315105584
  0
LINE
  5
303
100
AcDbEntity
  8
0
100
AcDbLine
 62
7
  6
CONTINUOUS
 10
92.7605986938
 20
67.9847012046
 11
91.9161249619
 21
68.9068053693
  0
LINE
  5
304
100
AcDbEntity
  8
0
100
AcDbLine
 62
7
  6
CONTINUOUS
 10
94.0749123455
 20
67.3338895745
 11
93.2304386135
 21
68.2559937392
  0
LINE
  5
305
100
AcDbEntity
  8
0
100
AcDbLine
 62
7
  6
CONTINUOUS
 10
57.0542312132
 20
97.6289100753
 11
57.3568129458
 21
96.7163178983
  0
LINE
  5
306
100
AcDbEntity
  8
0
100
AcDbLine
 62
7
  6
CONTINUOUS
 10
58.1395136824
 20
185.8221440709
 11
58.1395107385
 21
186.2303865251
  0
LINE
  5
307
100
AcDbEntity
  8
0
100
AcDbLine
 62
7
  6
CONTINUOUS
 10
58.7757770126
 20
197.4546766442
 11
58.7757770126
 21
204.2338802849
  0
LINE
  5
308
100
AcDbEntity
  8
0
100
AcDbLine
 62
7
  6
CONTINUOUS
 10
58.7781868505
 20
130.494403897
 11
58.7781868505
 21
83.9619311448
  0
LINE
  5
309
100
AcDbEntity
  8
0
100
AcDbLine
 62
7
  6
CONTINUOUS
 10
60.9678318804
 20
194.1479180342
 11
60.9678318804
 21
200.9271216749
  0
LINE
  5
30A
100
AcDbEntity
  8
0
100
AcDbLine
 62
7
  6
CONTINUOUS
 10
61.6042983442
 20
187.4142823336
 11
61.6042983442
 21
191.1701285493
  0
LINE
  5
30B
100
AcDbEntity
  8
0
100
AcDbLine
 62
7
  6
CONTINUOUS
 10
61.9578532068
 20
187.6184061102
 11
61.9578532068
 21
190.9660081721
  0
LINE
  5
30C
100
AcDbEntity
  8
0
100
AcDbLine
 62
7
  6
CONTINUOUS
 10
62.664957044
 20
188.0266502641
 11
62.664957044
 21
191.3742523259
  0
LINE
  5
30D
100
AcDbEntity
  8
0
100
AcDbLine
 62
7
  6
CONTINUOUS
 10
63.0185119066
 20
188.2307740407
 11
63.0185119066
 21
191.1701319487
  0
LINE
  5
30E
100
AcDbEntity
  8
0
100
AcDbLine
 62
7
  6
CONTINUOUS
 10
64.5034482173
 20
189.0880973019
 11
64.5034482173
 21
189.4963414558
  0
LINE
  5
30F
100
AcDbEntity
  8
0
100
AcDbLine
 62
7
  6
CONTINUOUS
 10
64.856997192
 20
189.700461833
 11
64.856997192
 21
190.1087059869
  0
LINE
  5
310
100
AcDbEntity
  8
0
100
AcDbLine
 62
7
  6
CONTINUOUS
 10
98.1390098621
 20
190.5707883628
 11
96.9142598916
 21
188.82837484
  0
LINE
  5
311
100
AcDbEntity
  8
0
100
AcDbLine
 62
7
  6
CONTINUOUS
 10
129.304968004
 20
185.3611485442
 11
127.8907603296
 21
184.5446602364
  0
LINE
  5
312
100
AcDbEntity
  8
0
100
AcDbLine
 62
7
  6
CONTINUOUS
 10
128.340758315
 20
183.7652362099
 11
126.9265506405
 21
182.9487479022
  0
LINE
  5
313
100
AcDbEntity
  8
0
100
AcDbLine
 62
7
  6
CONTINUOUS
 10
127.2265492975
 20
182.4291318845
 11
120.8626147625
 21
178.7549344996
  0
LINE
  5
314
100
AcDbEntity
  8
0
100
AcDbLine
 62
7
  6
CONTINUOUS
 10
110.4655126407
 20
172.3502688585
 11
112.2332722337
 21
173.3708792431
  0
LINE
  5
315
100
AcDbEntity
  8
0
100
AcDbLine
 62
7
  6
CONTINUOUS
 10
135.7805669967
 20
184.7604421883
 11
138.1847200433
 21
186.1484723114
  0
LINE
  5
316
100
AcDbEntity
  8
0
100
AcDbLine
 62
7
  6
CONTINUOUS
 10
106.5056981798
 20
167.8572134431
 11
108.2734577729
 21
168.8778238278
  0
LINE
  5
317
100
AcDbEntity
  8
0
100
AcDbLine
 62
7
  6
CONTINUOUS
 10
123.7844661049
 20
175.7647122558
 11
121.6631002717
 21
174.5399484318
  0
LINE
  5
318
100
AcDbEntity
  8
0
100
AcDbLine
 62
7
  6
CONTINUOUS
 10
107.4252714691
 20
165.5324573631
 11
110.4655126407
 21
167.2877309444
  0
LINE
  5
319
100
AcDbEntity
  8
0
100
AcDbLine
 62
7
  6
CONTINUOUS
 10
116.6176213528
 20
170.8396313635
 11
120.1177828951
 21
172.8604385095
  0
LINE
  5
31A
100
AcDbEntity
  8
0
100
AcDbLine
 62
7
  6
CONTINUOUS
 10
106.5056981798
 20
167.8572134431
 11
106.3610219839
 21
167.7834743376
  0
LINE
  5
31B
100
AcDbEntity
  8
0
100
AcDbLine
 62
7
  6
CONTINUOUS
 10
73.745465531
 20
36.512779868
 11
71.503946367
 21
49.9156894085
  0
LINE
  5
31C
100
AcDbEntity
  8
0
100
AcDbLine
 62
7
  6
CONTINUOUS
 10
77.5850900033
 20
46.4048189197
 11
79.8266091673
 21
33.0019093791
  0
LINE
  5
31D
100
AcDbEntity
  8
0
100
AcDbLine
 62
7
  6
CONTINUOUS
 10
66.4127798977
 20
74.1658059631
 11
66.4127798977
 21
75.5533346661
  0
LINE
  5
31E
100
AcDbEntity
  8
0
100
AcDbLine
 62
7
  6
CONTINUOUS
 10
71.503946367
 20
51.1404430342
 11
71.503946367
 21
49.9156894085
  0
LINE
  5
31F
100
AcDbEntity
  8
0
100
AcDbLine
 62
7
  6
CONTINUOUS
 10
71.503946367
 20
154.0197475926
 11
71.503946367
 21
155.2445012183
  0
LINE
  5
320
100
AcDbEntity
  8
0
100
AcDbLine
 62
7
  6
CONTINUOUS
 10
74.5443386032
 20
184.5158433429
 11
74.5443386032
 21
193.0888991881
  0
LINE
  5
321
100
AcDbEntity
  8
0
100
AcDbLine
 62
7
  6
CONTINUOUS
 10
71.503946367
 20
155.2445012183
 11
73.745465531
 21
171.2356786944
  0
LINE
  5
322
100
AcDbEntity
  8
0
100
AcDbLine
 62
7
  6
CONTINUOUS
 10
79.8266091673
 20
167.7248082055
 11
77.5850900033
 21
151.7336307294
  0
LINE
  5
323
100
AcDbEntity
  8
0
100
AcDbLine
 62
7
  6
CONTINUOUS
 10
23.2802451632
 20
86.238772374
 11
42.2030473071
 21
106.2030511282
  0
LINE
  5
324
100
AcDbEntity
  8
0
100
AcDbLine
 62
7
  6
CONTINUOUS
 10
44.1561803373
 20
105.0754347576
 11
46.5256217794
 21
107.5652929562
  0
LINE
  5
325
100
AcDbEntity
  8
0
100
AcDbLine
 62
7
  6
CONTINUOUS
 10
46.8994461206
 20
108.9361547733
 11
45.8909064725
 21
107.93135443
  0
LINE
  5
326
100
AcDbEntity
  8
0
100
AcDbLine
 62
7
  6
CONTINUOUS
 10
126.233852845
 20
183.1685444539
 11
130.8307989207
 21
187.6181274699
  0
LINE
  5
327
100
AcDbEntity
  8
INTFCLR_6
100
AcDbLine
 62
7
420
3604575
  6
CONTINUOUS
 10
125.665530771
 20
174.0223404987
 11
124.1126002127
 21
173.1257609747
  0
LINE
  5
328
100
AcDbEntity
  8
INTFCLR_6
100
AcDbLine
 62
7
420
3604575
  6
CONTINUOUS
 10
91.8340168092
 20
154.4898233992
 11
87.7283758511
 21
152.1194446361
  0
LINE
  5
329
100
AcDbEntity
  8
0
100
AcDbLine
 62
7
  6
CONTINUOUS
 10
125.9937113588
 20
173.1765064999
 11
122.8878502422
 21
171.3833474519
  0
LINE
  5
32A
100
AcDbEntity
  8
0
100
AcDbLine
 62
7
  6
CONTINUOUS
 10
144.9015295699
 20
183.9036130864
 11
119.4457914302
 21
169.206823547
  0
LINE
  5
32B
100
AcDbEntity
  8
0
100
AcDbLine
 62
7
  6
CONTINUOUS
 10
117.6780318372
 20
168.1862131624
 11
110.2534415464
 21
163.8996495467
  0
LINE
  5
32C
100
AcDbEntity
  8
0
100
AcDbLine
 62
7
  6
CONTINUOUS
 10
100.6156350866
 20
155.7225300226
 11
159.185045923
 21
189.5373932878
  0
LINE
  5
32D
100
AcDbEntity
  8
0
100
AcDbLine
 62
7
  6
CONTINUOUS
 10
58.7781868505
 20
116.6501154632
 11
46.4911205419
 21
123.7438960213
  0
LINE
  5
32E
100
AcDbEntity
  8
0
100
AcDbLine
 62
7
  6
CONTINUOUS
 10
159.185045923
 20
60.3717939075
 11
158.1950923078
 21
60.9433309639
  0
LINE
  5
32F
100
AcDbEntity
  8
0
100
AcDbLine
 62
7
  6
CONTINUOUS
 10
25.7398285072
 20
167.948672278
 11
26.5843022392
 21
167.0265681133
  0
LINE
  5
330
100
AcDbEntity
  8
0
100
AcDbLine
 62
7
  6
CONTINUOUS
 10
27.7156683787
 20
167.6797587595
 11
26.8711946468
 21
168.6018629242
  0
LINE
  5
331
100
AcDbEntity
  8
0
100
AcDbLine
 62
7
  6
CONTINUOUS
 10
29.0299820303
 20
167.0289471294
 11
28.1855082984
 21
167.9510512941
  0
LINE
  5
332
100
AcDbEntity
  8
0
100
AcDbLine
 62
7
  6
CONTINUOUS
 10
91.6292325543
 20
67.3315105584
 11
92.0055697488
 21
66.1391199101
  0
LINE
  5
333
100
AcDbEntity
  8
0
100
AcDbLine
 62
7
  6
CONTINUOUS
 10
75.0394655531
 20
51.5488471419
 11
75.0394655531
 21
37.2598666696
  0
LINE
  5
334
100
AcDbEntity
  8
0
100
AcDbLine
 62
7
  6
CONTINUOUS
 10
75.0394655531
 20
156.0609683619
 11
75.0394655531
 21
171.9827654959
  0
LINE
  5
335
100
AcDbEntity
  8
0
100
AcDbLine
 62
7
  6
CONTINUOUS
 10
76.1708411133
 20
44.1185036999
 11
76.1708411133
 21
42.1588978988
  0
LINE
  5
336
100
AcDbEntity
  8
0
100
AcDbLine
 62
7
  6
CONTINUOUS
 10
76.1708411133
 20
163.8177580511
 11
76.1708411133
 21
165.7773638522
  0
LINE
  5
337
100
AcDbEntity
  8
0
100
AcDbLine
 62
7
  6
CONTINUOUS
 10
76.7361720847
 20
210.8394486307
 11
76.7361720847
 21
211.7453972703
  0
LINE
  5
338
100
AcDbEntity
  8
0
100
AcDbLine
 62
7
  6
CONTINUOUS
 10
76.807239866
 20
41.3832300112
 11
76.807239866
 21
36.2392647833
  0
LINE
  5
339
100
AcDbEntity
  8
0
100
AcDbLine
 62
7
  6
CONTINUOUS
 10
76.807239866
 20
165.8181983817
 11
76.807239866
 21
170.9621636096
  0
LINE
  5
33A
100
AcDbEntity
  8
0
100
AcDbLine
 62
7
  6
CONTINUOUS
 10
77.0189959558
 20
212.0191547329
 11
77.0189959558
 21
223.0947255204
  0
LINE
  5
33B
100
AcDbEntity
  8
0
100
AcDbLine
 62
7
  6
CONTINUOUS
 10
77.1607947285
 20
44.7717202693
 11
77.1607947285
 21
43.5469666436
  0
LINE
  5
33C
100
AcDbEntity
  8
0
100
AcDbLine
 62
7
  6
CONTINUOUS
 10
77.1607947285
 20
41.5873608425
 11
77.1607947285
 21
41.1791096339
  0
LINE
  5
33D
100
AcDbEntity
  8
0
100
AcDbLine
 62
7
  6
CONTINUOUS
 10
77.1607947285
 20
162.0214673691
 11
77.1607947285
 21
163.2462209948
  0
LINE
  5
33E
100
AcDbEntity
  8
0
100
AcDbLine
 62
7
  6
CONTINUOUS
 10
77.1607947285
 20
165.2058267959
 11
77.1607947285
 21
165.6140780045
  0
LINE
  5
33F
100
AcDbEntity
  8
0
100
AcDbLine
 62
7
  6
CONTINUOUS
 10
77.5850900033
 20
47.6295725454
 11
77.5850900033
 21
46.4048189197
  0
LINE
  5
340
100
AcDbEntity
  8
0
100
AcDbLine
 62
7
  6
CONTINUOUS
 10
77.5850900033
 20
150.5088771037
 11
77.5850900033
 21
151.7336307294
  0
LINE
  5
341
100
AcDbEntity
  8
0
100
AcDbLine
 62
7
  6
CONTINUOUS
 10
78.9992800139
 20
162.184795033
 11
78.9992800139
 21
161.8225756773
  0
LINE
  5
342
100
AcDbEntity
  8
0
100
AcDbLine
 62
7
  6
CONTINUOUS
 10
78.9992800139
 20
164.1444008341
 11
78.9992800139
 21
164.5526520427
  0
LINE
  5
343
100
AcDbEntity
  8
0
100
AcDbLine
 62
7
  6
CONTINUOUS
 10
79.3528348765
 20
35.834789001
 11
79.3528348765
 21
34.769598067
  0
LINE
  5
344
100
AcDbEntity
  8
0
100
AcDbLine
 62
7
  6
CONTINUOUS
 10
79.3528348765
 20
164.3485316655
 11
79.3528348765
 21
169.4924968934
  0
LINE
  5
345
100
AcDbEntity
  8
0
100
AcDbLine
 62
7
  6
CONTINUOUS
 10
80.342759052
 20
170.064026471
 11
80.342759052
 21
173.003384379
  0
LINE
  5
346
100
AcDbEntity
  8
0
100
AcDbLine
 62
7
  6
CONTINUOUS
 10
81.0498658332
 20
170.4722723246
 11
81.0498658332
 21
173.0033860787
  0
LINE
  5
347
100
AcDbEntity
  8
0
100
AcDbLine
 62
7
  6
CONTINUOUS
 10
81.0641640579
 20
71.977229895
 11
81.0641640579
 21
118.0606263178
  0
LINE
  5
348
100
AcDbEntity
  8
0
100
AcDbLine
 62
7
  6
CONTINUOUS
 10
81.7541623025
 20
170.8788956535
 11
81.7541623025
 21
173.4100094076
  0
LINE
  5
349
100
AcDbEntity
  8
0
100
AcDbLine
 62
7
  6
CONTINUOUS
 10
81.7568577997
 20
182.1456398513
 11
81.7568577997
 21
188.924843492
  0
LINE
  5
34A
100
AcDbEntity
  8
0
100
AcDbLine
 62
7
  6
CONTINUOUS
 10
82.8883540626
 20
171.5337176627
 11
82.8883511186
 21
171.9419601169
  0
LINE
  5
34B
100
AcDbEntity
  8
INTFCLR_6
100
AcDbLine
 62
7
420
3604575
  6
CONTINUOUS
 10
31.6222347927
 20
80.5252255971
 11
30.8363597971
 21
79.7791057967
  0
LINE
  5
34C
100
AcDbEntity
  8
0
100
AcDbLine
 62
7
  6
CONTINUOUS
 10
159.185045923
 20
183.9800938416
 11
99.7680637229
 21
149.6758879425
  0
LINE
  5
34D
100
AcDbEntity
  8
0
100
AcDbLine
 62
7
  6
CONTINUOUS
 10
158.1950923078
 20
182.5971081065
 11
98.4800161209
 21
148.1207985911
  0
LINE
  5
34E
100
AcDbEntity
  8
0
100
AcDbLine
 62
7
  6
CONTINUOUS
 10
159.185045923
 20
182.0255710502
 11
99.4699697361
 21
147.5492615348
  0
LINE
  5
34F
100
AcDbEntity
  8
0
100
AcDbLine
 62
7
  6
CONTINUOUS
 10
159.185045923
 20
180.8008174245
 11
99.2831764724
 21
146.2166634118
  0
LINE
  5
350
100
AcDbEntity
  8
0
100
AcDbLine
 62
7
  6
CONTINUOUS
 10
160.1042885657
 20
180.2701044436
 11
100.2024191151
 21
145.6859504309
  0
LINE
  5
351
100
AcDbEntity
  8
0
100
AcDbLine
 62
7
  6
CONTINUOUS
 10
160.1042885657
 20
175.1261392157
 11
99.4178874077
 21
140.0890383143
  0
LINE
  5
352
100
AcDbEntity
  8
0
100
AcDbLine
 62
7
  6
CONTINUOUS
 10
24.693306114
 20
96.700638956
 11
23.8447744439
 21
96.2107418921
  0
LINE
  5
353
100
AcDbEntity
  8
0
100
AcDbLine
 62
7
  6
CONTINUOUS
 10
158.3365142528
 20
69.184924458
 11
160.1042885657
 21
68.1643225717
  0
LINE
  5
354
100
AcDbEntity
  8
0
100
AcDbLine
 62
7
  6
CONTINUOUS
 10
58.7781868505
 20
130.494403897
 11
42.9389290072
 21
139.6389967982
  0
LINE
  5
355
100
AcDbEntity
  8
0
100
AcDbLine
 62
7
  6
CONTINUOUS
 10
77.1676285141
 20
125.1929257243
 11
24.5452446852
 21
155.5737858864
  0
LINE
  5
356
100
AcDbEntity
  8
0
100
AcDbLine
 62
7
  6
CONTINUOUS
 10
93.1369358884
 20
66.7923105563
 11
92.7605986938
 21
67.9847012046
  0
LINE
  5
357
100
AcDbEntity
  8
0
100
AcDbLine
 62
7
  6
CONTINUOUS
 10
93.2304386135
 20
68.2559937392
 11
92.854101419
 21
69.4483843875
  0
LINE
  5
358
100
AcDbEntity
  8
0
100
AcDbLine
 62
7
  6
CONTINUOUS
 10
98.7781101077
 20
26.6391250647
 11
98.4800161209
 21
28.4215442399
  0
LINE
  5
359
100
AcDbEntity
  8
0
100
AcDbLine
 62
7
  6
CONTINUOUS
 10
97.6501130949
 20
34.1478235566
 11
97.5255842524
 21
34.8924296422
  0
LINE
  5
35A
100
AcDbEntity
  8
0
100
AcDbLine
 62
7
  6
CONTINUOUS
 10
83.5246173927
 20
183.166250236
 11
83.5246173927
 21
189.9454538767
  0
LINE
  5
35B
100
AcDbEntity
  8
0
100
AcDbLine
 62
7
  6
CONTINUOUS
 10
85.5754534492
 20
50.3650438084
 11
85.5754534492
 21
45.4660293056
  0
LINE
  5
35C
100
AcDbEntity
  8
0
100
AcDbLine
 62
7
  6
CONTINUOUS
 10
85.7166722605
 20
179.859491626
 11
85.7166722605
 21
186.6386952667
  0
LINE
  5
35D
100
AcDbEntity
  8
0
100
AcDbLine
 62
7
  6
CONTINUOUS
 10
86.3531387244
 20
173.1258559254
 11
86.3531387244
 21
176.8817021411
  0
LINE
  5
35E
100
AcDbEntity
  8
0
100
AcDbLine
 62
7
  6
CONTINUOUS
 10
86.706693587
 20
173.329979702
 11
86.706693587
 21
176.6775817638
  0
LINE
  5
35F
100
AcDbEntity
  8
0
100
AcDbLine
 62
7
  6
CONTINUOUS
 10
86.9896611236
 20
49.548569098
 11
86.9896611236
 21
46.2825176134
  0
LINE
  5
360
100
AcDbEntity
  8
0
100
AcDbLine
 62
7
  6
CONTINUOUS
 10
87.4137974242
 20
173.7382238559
 11
87.4137974242
 21
177.0858259177
  0
LINE
  5
361
100
AcDbEntity
  8
0
100
AcDbLine
 62
7
  6
CONTINUOUS
 10
87.7673522867
 20
173.9423476325
 11
87.7673522867
 21
176.8817055405
  0
LINE
  5
362
100
AcDbEntity
  8
0
100
AcDbLine
 62
7
  6
CONTINUOUS
 10
89.2522885975
 20
174.7996708937
 11
89.2522885975
 21
175.2079150476
  0
LINE
  5
363
100
AcDbEntity
  8
0
100
AcDbLine
 62
7
  6
CONTINUOUS
 10
89.5494101045
 20
76.8761597415
 11
89.5494101045
 21
122.9595561643
  0
LINE
  5
364
100
AcDbEntity
  8
0
100
AcDbLine
 62
7
  6
CONTINUOUS
 10
89.6058375721
 20
175.4120354248
 11
89.6058375721
 21
175.8202795787
  0
LINE
  5
365
100
AcDbEntity
  8
0
100
AcDbLine
 62
7
  6
CONTINUOUS
 10
90.7847588224
 20
68.2536147231
 11
90.7847588224
 21
69.2334176236
  0
LINE
  5
366
100
AcDbEntity
  8
0
100
AcDbLine
 62
7
  6
CONTINUOUS
 10
90.7847588224
 20
130.3958138103
 11
90.7847588224
 21
131.3756167109
  0
LINE
  5
367
100
AcDbEntity
  8
0
100
AcDbLine
 62
7
  6
CONTINUOUS
 10
92.0055697488
 20
132.0804723801
 11
91.6292325543
 21
131.3226286622
  0
LINE
  5
368
100
AcDbEntity
  8
0
100
AcDbLine
 62
7
  6
CONTINUOUS
 10
92.7605986938
 20
131.9758193084
 11
92.854101419
 21
132.1641091025
  0
LINE
  5
369
100
AcDbEntity
  8
0
100
AcDbLine
 62
7
  6
CONTINUOUS
 10
122.8878502422
 20
176.2823619546
 11
121.6631002717
 21
174.5399484318
  0
LINE
  5
36A
100
AcDbEntity
  8
0
100
AcDbLine
 62
7
  6
CONTINUOUS
 10
58.7781868505
 20
99.8702579416
 11
56.6476202026
 21
97.8636617409
  0
LINE
  5
36B
100
AcDbEntity
  8
0
100
AcDbLine
 62
7
  6
CONTINUOUS
 10
57.0542312132
 20
97.6289100753
 11
36.672065483
 21
78.5071762195
  0
LINE
  5
36C
100
AcDbEntity
  8
0
100
AcDbLine
 62
7
  6
CONTINUOUS
 10
57.3944087974
 20
96.7515888247
 11
57.3568129458
 21
96.7163178983
  0
LINE
  5
36D
100
AcDbEntity
  8
0
100
AcDbLine
 62
7
  6
CONTINUOUS
 10
77.2246524278
 20
125.6418408261
 11
85.3067517536
 21
130.3080151942
  0
LINE
  5
36E
100
AcDbEntity
  8
0
100
AcDbLine
 62
7
  6
CONTINUOUS
 10
158.3435853501
 20
172.0601466088
 11
97.5326553497
 21
136.9511493758
  0
LINE
  5
36F
100
AcDbEntity
  8
0
100
AcDbLine
 62
7
  6
CONTINUOUS
 10
91.3441738559
 20
133.218285878
 11
90.7394253714
 21
132.8691362618
  0
LINE
  5
370
100
AcDbEntity
  8
0
100
AcDbLine
 62
7
  6
CONTINUOUS
 10
92.2726269232
 20
133.0583676295
 11
92.0055697488
 21
132.9041830184
  0
LINE
  5
371
100
AcDbEntity
  8
0
100
AcDbLine
 62
7
  6
CONTINUOUS
 10
92.9325978496
 20
132.6156891089
 11
92.0055697488
 21
132.0804723801
  0
LINE
  5
372
100
AcDbEntity
  8
0
100
AcDbLine
 62
7
  6
CONTINUOUS
 10
92.854101419
 20
132.4161971102
 11
93.0240667933
 21
132.5143260791
  0
LINE
  5
373
100
AcDbEntity
  8
0
100
AcDbLine
 62
7
  6
CONTINUOUS
 10
160.1042885657
 20
171.04362713
 11
99.2933585653
 21
135.9346298971
  0
LINE
  5
374
100
AcDbEntity
  8
0
100
AcDbLine
 62
7
  6
CONTINUOUS
 10
92.7605986938
 20
131.9758193084
 11
91.6292325543
 21
131.3226286622
  0
LINE
  5
375
100
AcDbEntity
  8
0
100
AcDbLine
 62
7
  6
CONTINUOUS
 10
91.9161249619
 20
131.0490044565
 11
90.7847588224
 21
130.3958138103
  0
LINE
  5
376
100
AcDbEntity
  8
0
100
AcDbLine
 62
7
  6
CONTINUOUS
 10
92.7605986939
 20
130.1269002918
 11
91.6292325543
 21
129.4737096456
  0
LINE
  5
377
100
AcDbEntity
  8
INTFCLR_6
100
AcDbLine
 62
7
420
3604575
  6
CONTINUOUS
 10
93.2327365908
 20
130.3942125892
 11
92.4344177831
 21
129.9333057619
  0
LINE
  5
378
100
AcDbEntity
  8
0
100
AcDbLine
 62
7
  6
CONTINUOUS
 10
96.4649432164
 20
131.8521460302
 11
99.2933585653
 21
133.4851226457
  0
LINE
  5
379
100
AcDbEntity
  8
0
100
AcDbLine
 62
7
  6
CONTINUOUS
 10
93.1369358884
 20
128.9345096435
 11
92.0055697488
 21
128.2813189973
  0
LINE
  5
37A
100
AcDbEntity
  8
0
100
AcDbLine
 62
7
  6
CONTINUOUS
 10
94.0749123455
 20
129.0368280359
 11
93.2304386135
 21
128.5492738098
  0
LINE
  5
37B
100
AcDbEntity
  8
0
100
AcDbLine
 62
7
  6
CONTINUOUS
 10
92.0055697488
 20
127.4576083591
 11
92.9627595353
 21
128.0102388412
  0
LINE
  5
37C
100
AcDbEntity
  8
0
100
AcDbLine
 62
7
  6
CONTINUOUS
 10
77.2246524278
 20
125.6418408261
 11
25.294514213
 21
155.6230418381
  0
LINE
  5
37D
100
AcDbEntity
  8
0
100
AcDbLine
 62
7
  6
CONTINUOUS
 10
85.3067517536
 20
130.3080151942
 11
33.3766135388
 21
160.2892162062
  0
LINE
  5
37E
100
AcDbEntity
  8
0
100
AcDbLine
 62
7
  6
CONTINUOUS
 10
100.6156350866
 20
20.9996311962
 11
99.7680637229
 21
26.0675880084
  0
LINE
  5
37F
100
AcDbEntity
  8
0
100
AcDbLine
 62
7
  6
CONTINUOUS
 10
99.4699697361
 20
27.8500071836
 11
99.2831764724
 21
28.966916312
  0
LINE
  5
380
100
AcDbEntity
  8
0
100
AcDbLine
 62
7
  6
CONTINUOUS
 10
100.2024191151
 20
28.4362033311
 11
99.4178874077
 21
33.1272216703
  0
LINE
  5
381
100
AcDbEntity
  8
0
100
AcDbLine
 62
7
  6
CONTINUOUS
 10
91.9161249619
 20
68.9068053693
 11
91.9161249619
 21
69.346065995
  0
LINE
  5
382
100
AcDbEntity
  8
0
100
AcDbLine
 62
7
  6
CONTINUOUS
 10
91.9161249619
 20
131.0490044565
 11
91.9161249619
 21
131.4882650823
  0
LINE
  5
383
100
AcDbEntity
  8
0
100
AcDbLine
 62
7
  6
CONTINUOUS
 10
92.0055697488
 20
65.3217744155
 11
92.0055697488
 21
66.1391199101
  0
LINE
  5
384
100
AcDbEntity
  8
0
100
AcDbLine
 62
7
  6
CONTINUOUS
 10
92.0055697488
 20
69.9382732929
 11
92.0055697488
 21
70.7683490748
  0
LINE
  5
385
100
AcDbEntity
  8
0
100
AcDbLine
 62
7
  6
CONTINUOUS
 10
92.0055697488
 20
127.4576083591
 11
92.0055697488
 21
128.2813189973
  0
LINE
  5
386
100
AcDbEntity
  8
0
100
AcDbLine
 62
7
  6
CONTINUOUS
 10
92.0055697488
 20
132.0804723801
 11
92.0055697488
 21
132.9041830184
  0
LINE
  5
387
100
AcDbEntity
  8
0
100
AcDbLine
 62
7
  6
CONTINUOUS
 10
92.854101419
 20
132.4161971102
 11
92.854101419
 21
131.5905834747
  0
LINE
  5
388
100
AcDbEntity
  8
0
100
AcDbLine
 62
7
  6
CONTINUOUS
 10
92.854101419
 20
127.7914300918
 11
92.854101419
 21
126.9658164564
  0
LINE
  5
389
100
AcDbEntity
  8
0
100
AcDbLine
 62
7
  6
CONTINUOUS
 10
92.854101419
 20
70.2803631667
 11
92.854101419
 21
69.4483843875
  0
LINE
  5
38A
100
AcDbEntity
  8
0
100
AcDbLine
 62
7
  6
CONTINUOUS
 10
92.854101419
 20
65.6492310047
 11
92.854101419
 21
64.8299825128
  0
LINE
  5
38B
100
AcDbEntity
  8
0
100
AcDbLine
 62
7
  6
CONTINUOUS
 10
93.1369358884
 20
66.2187849285
 11
93.1369358884
 21
66.7923105563
  0
LINE
  5
38C
100
AcDbEntity
  8
0
100
AcDbLine
 62
7
  6
CONTINUOUS
 10
93.1369358884
 20
128.3609840157
 11
93.1369358884
 21
128.9345096435
  0
LINE
  5
38D
100
AcDbEntity
  8
0
100
AcDbLine
 62
7
  6
CONTINUOUS
 10
93.4950823708
 20
40.893732855
 11
93.4950823708
 21
45.7927473578
  0
LINE
  5
38E
100
AcDbEntity
  8
0
100
AcDbLine
 62
7
  6
CONTINUOUS
 10
94.0749123455
 20
129.4760886617
 11
94.0749123455
 21
128.4962857611
  0
LINE
  5
38F
100
AcDbEntity
  8
0
100
AcDbLine
 62
7
  6
CONTINUOUS
 10
94.0749123455
 20
67.3338895745
 11
94.0749123455
 21
66.3540866739
  0
LINE
  5
390
100
AcDbEntity
  8
0
100
AcDbLine
 62
7
  6
CONTINUOUS
 10
94.8385908486
 20
60.8572368165
 11
94.8385908486
 21
40.1180754214
  0
LINE
  5
391
100
AcDbEntity
  8
0
100
AcDbLine
 62
7
  6
CONTINUOUS
 10
95.4042786287
 20
60.6122944546
 11
95.4042786287
 21
38.4034287087
  0
LINE
  5
392
100
AcDbEntity
  8
0
100
AcDbLine
 62
7
  6
CONTINUOUS
 10
96.4649432164
 20
37.7910675769
 11
96.4649432164
 21
131.8521460302
  0
LINE
  5
393
100
AcDbEntity
  8
0
100
AcDbLine
 62
7
  6
CONTINUOUS
 10
97.5255842524
 20
38.1584393107
 11
97.5255842524
 21
34.8924296422
  0
LINE
  5
394
100
AcDbEntity
  8
0
100
AcDbLine
 62
7
  6
CONTINUOUS
 10
97.5326553497
 20
136.9511493758
 11
97.5326553497
 21
140.2171590444
  0
LINE
  5
395
100
AcDbEntity
  8
0
100
AcDbLine
 62
7
  6
CONTINUOUS
 10
99.2931789833
 20
170.2274169347
 11
99.2931789833
 21
178.8004727799
  0
LINE
  5
396
100
AcDbEntity
  8
0
100
AcDbLine
 62
7
  6
CONTINUOUS
 10
99.2933585653
 20
37.1378374244
 11
99.2933585653
 21
39.4240441924
  0
LINE
  5
397
100
AcDbEntity
  8
0
100
AcDbLine
 62
7
  6
CONTINUOUS
 10
99.2933585653
 20
133.4851226457
 11
99.2933585653
 21
135.9346298971
  0
LINE
  5
398
100
AcDbEntity
  8
0
100
AcDbLine
 62
7
  6
CONTINUOUS
 10
98.4800161209
 20
148.1207985911
 11
98.7781101077
 21
150.2474249988
  0
LINE
  5
399
100
AcDbEntity
  8
0
100
AcDbLine
 62
7
  6
CONTINUOUS
 10
97.5326553497
 20
140.2171590444
 11
97.6571841921
 21
141.105557793
  0
LINE
  5
39A
100
AcDbEntity
  8
0
100
AcDbLine
 62
7
  6
CONTINUOUS
 10
99.2831764724
 20
146.2166634118
 11
99.4699697361
 21
147.5492615348
  0
LINE
  5
39B
100
AcDbEntity
  8
0
100
AcDbLine
 62
7
  6
CONTINUOUS
 10
99.7680637229
 20
149.6758879425
 11
100.6156350866
 21
155.7225300226
  0
LINE
  5
39C
100
AcDbEntity
  8
0
100
AcDbLine
 62
7
  6
CONTINUOUS
 10
99.4178874077
 20
140.0890383143
 11
100.2024191151
 21
145.6859504309
  0
LINE
  5
39D
100
AcDbEntity
  8
0
100
AcDbLine
 62
7
  6
CONTINUOUS
 10
92.854101419
 20
127.7914300918
 11
93.2304386135
 21
128.5492738098
  0
LINE
  5
39E
100
AcDbEntity
  8
0
100
AcDbLine
 62
7
  6
CONTINUOUS
 10
58.7781868505
 20
93.7853799629
 11
58.5887389173
 21
93.6229991812
  0
LINE
  5
39F
100
AcDbEntity
  8
0
100
AcDbLine
 62
7
  6
CONTINUOUS
 10
58.7781868505
 20
90.5619878793
 11
38.3394007528
 21
73.478461795
  0
LINE
  5
3A0
100
AcDbEntity
  8
0
100
AcDbLine
 62
7
  6
CONTINUOUS
 10
94.8377741774
 20
127.4064469568
 11
94.1294101948
 21
126.997475262
  0
LINE
  5
3A1
100
AcDbEntity
  8
0
100
AcDbLine
 62
7
  6
CONTINUOUS
 10
89.5494101045
 20
122.9595561643
 11
81.0641640579
 21
118.0606263178
  0
LINE
  5
3A2
100
AcDbEntity
  8
0
100
AcDbLine
 62
7
  6
CONTINUOUS
 10
24.4811939692
 20
80.7380185033
 11
23.2790866637
 21
80.0439856697
  0
LINE
  5
3A3
100
AcDbEntity
  8
0
100
AcDbLine
 62
7
  6
CONTINUOUS
 10
26.6080989056
 20
80.2513788505
 11
25.9661036193
 21
79.8807249117
  0
LINE
  5
3A4
100
AcDbEntity
  8
0
100
AcDbLine
 62
7
  6
CONTINUOUS
 10
93.2304386135
 20
128.5492738098
 11
94.0749123455
 21
128.4962857611
  0
LINE
  5
3A5
100
AcDbEntity
  8
0
100
AcDbLine
 62
7
  6
CONTINUOUS
 10
91.6292325543
 20
131.3226286622
 11
90.7847588224
 21
131.3756167109
  0
LINE
  5
3A6
100
AcDbEntity
  8
0
100
AcDbLine
 62
7
  6
CONTINUOUS
 10
96.4649432164
 20
131.8521460302
 11
22.218422076
 21
174.7174252548
  0
LINE
  5
3A7
100
AcDbEntity
  8
0
100
AcDbLine
 62
7
  6
CONTINUOUS
 10
90.7847588224
 20
130.3958138103
 11
91.6292325543
 21
129.4737096456
  0
LINE
  5
3A8
100
AcDbEntity
  8
0
100
AcDbLine
 62
7
  6
CONTINUOUS
 10
92.7605986938
 20
130.1269002918
 11
91.9161249619
 21
131.0490044565
  0
LINE
  5
3A9
100
AcDbEntity
  8
0
100
AcDbLine
 62
7
  6
CONTINUOUS
 10
94.0749123455
 20
129.4760886617
 11
93.2304386135
 21
130.3981928264
  0
LINE
  5
3AA
100
AcDbEntity
  8
0
100
AcDbLine
 62
7
  6
CONTINUOUS
 10
91.6292325543
 20
129.4737096456
 11
92.0055697488
 21
128.2813189973
  0
LINE
  5
3AB
100
AcDbEntity
  8
0
100
AcDbLine
 62
7
  6
CONTINUOUS
 10
93.1369358884
 20
128.9345096435
 11
92.7605986938
 21
130.1269002918
  0
LINE
  5
3AC
100
AcDbEntity
  8
0
100
AcDbLine
 62
7
  6
CONTINUOUS
 10
93.2304386135
 20
130.3981928264
 11
92.854101419
 21
131.5905834747
  0
LINE
  5
3AD
100
AcDbEntity
  8
0
100
AcDbLine
 62
7
  6
CONTINUOUS
 10
101.4850124648
 20
196.5510222225
 11
101.4850124648
 21
197.4569708621
  0
LINE
  5
3AE
100
AcDbEntity
  8
0
100
AcDbLine
 62
7
  6
CONTINUOUS
 10
101.7678363359
 20
197.7307283247
 11
101.7678363359
 21
208.8062991122
  0
LINE
  5
3AF
100
AcDbEntity
  8
0
100
AcDbLine
 62
7
  6
CONTINUOUS
 10
106.5056981798
 20
167.8572134431
 11
106.5056981798
 21
174.6364170838
  0
LINE
  5
3B0
100
AcDbEntity
  8
0
100
AcDbLine
 62
7
  6
CONTINUOUS
 10
108.2734577729
 20
168.8778238278
 11
108.2734577729
 21
175.6570274685
  0
LINE
  5
3B1
100
AcDbEntity
  8
0
100
AcDbLine
 62
7
  6
CONTINUOUS
 10
26.8146117377
 20
76.9412234465
 11
25.1713662673
 21
75.9925008949
  0
LINE
  5
3B2
100
AcDbEntity
  8
0
100
AcDbLine
 62
7
  6
CONTINUOUS
 10
99.2933585653
 20
133.4851226457
 11
25.0468374249
 21
176.3504018703
  0
LINE
  5
3B3
100
AcDbEntity
  8
0
100
AcDbLine
 62
7
  6
CONTINUOUS
 10
26.8146117377
 20
177.7793072354
 11
25.0468374249
 21
178.7999091217
  0
LINE
  5
3B4
100
AcDbEntity
  8
0
100
AcDbLine
 62
7
  6
CONTINUOUS
 10
97.5326553497
 20
136.9511493758
 11
99.2933585653
 21
135.9346298971
  0
LINE
  5
3B5
100
AcDbEntity
  8
0
100
AcDbLine
 62
7
  6
CONTINUOUS
 10
97.5326553497
 20
140.2171590444
 11
88.756063331
 21
145.2842121769
  0
LINE
  5
3B6
100
AcDbEntity
  8
0
100
AcDbLine
 62
7
  6
CONTINUOUS
 10
85.0818134195
 20
147.4054933625
 11
77.5850900033
 21
151.7336307294
  0
LINE
  5
3B7
100
AcDbEntity
  8
0
100
AcDbLine
 62
7
  6
CONTINUOUS
 10
71.503946367
 20
155.2445012183
 11
64.0072229508
 21
159.5726385851
  0
LINE
  5
3B8
100
AcDbEntity
  8
0
100
AcDbLine
 62
7
  6
CONTINUOUS
 10
60.3329730394
 20
161.6939197707
 11
52.8362496231
 21
166.0220571376
  0
LINE
  5
3B9
100
AcDbEntity
  8
0
100
AcDbLine
 62
7
  6
CONTINUOUS
 10
46.7551059869
 20
169.5329276265
 11
39.2583825707
 21
173.8610649933
  0
LINE
  5
3BA
100
AcDbEntity
  8
0
100
AcDbLine
 62
7
  6
CONTINUOUS
 10
35.5841326592
 20
175.982346179
 11
26.8146117377
 21
181.0453169039
  0
LINE
  5
3BB
100
AcDbEntity
  8
0
100
AcDbLine
 62
7
  6
CONTINUOUS
 10
26.9391405802
 20
181.9337156526
 11
25.1713662673
 21
182.9543175389
  0
LINE
  5
3BC
100
AcDbEntity
  8
0
100
AcDbLine
 62
7
  6
CONTINUOUS
 10
97.6571841921
 20
141.105557793
 11
99.4178874077
 21
140.0890383143
  0
LINE
  5
3BD
100
AcDbEntity
  8
0
100
AcDbLine
 62
7
  6
CONTINUOUS
 10
56.5555769465
 20
188.2552652907
 11
57.0053219224
 21
187.6984358158
  0
LINE
  5
3BE
100
AcDbEntity
  8
0
100
AcDbLine
 62
7
  6
CONTINUOUS
 10
72.1654195114
 20
203.1168012482
 11
73.3901694819
 21
199.9602002683
  0
LINE
  5
3BF
100
AcDbEntity
  8
0
100
AcDbLine
 62
7
  6
CONTINUOUS
 10
76.5560245077
 20
201.5987344237
 11
75.8396694229
 21
203.445027314
  0
LINE
  5
3C0
100
AcDbEntity
  8
0
100
AcDbLine
 62
7
  6
CONTINUOUS
 10
109.6873651627
 20
215.991376504
 11
109.6873651627
 21
218.1142461042
  0
LINE
  5
3C1
100
AcDbEntity
  8
0
100
AcDbLine
 62
7
  6
CONTINUOUS
 10
110.4655126407
 20
165.5710652178
 11
110.4655126407
 21
172.3502688585
  0
LINE
  5
3C2
100
AcDbEntity
  8
0
100
AcDbLine
 62
7
  6
CONTINUOUS
 10
53.4722376787
 20
83.0243911819
 11
52.2705853948
 21
82.3306210535
  0
LINE
  5
3C3
100
AcDbEntity
  8
0
100
AcDbLine
 62
7
  6
CONTINUOUS
 10
28.1756441163
 20
68.342334721
 11
27.3600278678
 21
67.8714412712
  0
LINE
  5
3C4
100
AcDbEntity
  8
0
100
AcDbLine
 62
7
  6
CONTINUOUS
 10
90.6127139305
 20
145.6997757449
 11
88.756063331
 21
145.2842121769
  0
LINE
  5
3C5
100
AcDbEntity
  8
0
100
AcDbLine
 62
7
  6
CONTINUOUS
 10
26.8751406174
 20
188.0205166747
 11
25.9558979747
 21
188.5512296555
  0
LINE
  5
3C6
100
AcDbEntity
  8
0
100
AcDbLine
 62
7
  6
CONTINUOUS
 10
99.2831764724
 20
146.2166634118
 11
100.2024191151
 21
145.6859504309
  0
LINE
  5
3C7
100
AcDbEntity
  8
0
100
AcDbLine
 62
7
  6
CONTINUOUS
 10
99.4699697361
 20
147.5492615348
 11
98.4800161209
 21
148.1207985911
  0
LINE
  5
3C8
100
AcDbEntity
  8
0
100
AcDbLine
 62
7
  6
CONTINUOUS
 10
28.0518874963
 20
188.7815777414
 11
27.0619338811
 21
189.3531147977
  0
LINE
  5
3C9
100
AcDbEntity
  8
0
100
AcDbLine
 62
7
  6
CONTINUOUS
 10
78.8874284275
 20
161.0246174899
 11
77.1607947285
 21
162.0214673691
  0
LINE
  5
3CA
100
AcDbEntity
  8
0
100
AcDbLine
 62
7
  6
CONTINUOUS
 10
54.1385880474
 20
175.3130438982
 11
52.4119543484
 21
176.3098937773
  0
LINE
  5
3CB
100
AcDbEntity
  8
0
100
AcDbLine
 62
7
  6
CONTINUOUS
 10
27.3600278678
 20
191.4797412053
 11
28.3499814831
 21
190.908204149
  0
LINE
  5
3CC
100
AcDbEntity
  8
0
100
AcDbLine
 62
7
  6
CONTINUOUS
 10
98.7781101077
 20
150.2474249988
 11
99.7680637229
 21
149.6758879425
  0
LINE
  5
3CD
100
AcDbEntity
  8
0
100
AcDbLine
 62
7
  6
CONTINUOUS
 10
79.0462518398
 20
162.1576764502
 11
78.9992800139
 21
162.184795033
  0
LINE
  5
3CE
100
AcDbEntity
  8
0
100
AcDbLine
 62
7
  6
CONTINUOUS
 10
77.1607947285
 20
163.2462209948
 11
76.1708411133
 21
163.8177580511
  0
LINE
  5
3CF
100
AcDbEntity
  8
0
100
AcDbLine
 62
7
  6
CONTINUOUS
 10
54.2974114597
 20
176.4461028584
 11
54.2504396338
 21
176.4732214412
  0
LINE
  5
3D0
100
AcDbEntity
  8
0
100
AcDbLine
 62
7
  6
CONTINUOUS
 10
52.4119543484
 20
177.534647403
 11
51.4220007332
 21
178.1061844593
  0
LINE
  5
3D1
100
AcDbEntity
  8
0
100
AcDbLine
 62
7
  6
CONTINUOUS
 10
81.3044173267
 20
173.9668388825
 11
81.7541623025
 21
173.4100094076
  0
LINE
  5
3D2
100
AcDbEntity
  8
0
100
AcDbLine
 62
7
  6
CONTINUOUS
 10
92.0055697488
 20
69.9382732929
 11
91.6292325543
 21
69.180429575
  0
LINE
  5
3D3
100
AcDbEntity
  8
0
100
AcDbLine
 62
7
  6
CONTINUOUS
 10
92.7605986939
 20
69.8336202212
 11
92.854101419
 21
70.0219100153
  0
LINE
  5
3D4
100
AcDbEntity
  8
0
100
AcDbLine
 62
7
  6
CONTINUOUS
 10
92.854101419
 20
65.6492310047
 11
93.2304386135
 21
66.4070747226
  0
LINE
  5
3D5
100
AcDbEntity
  8
INTFCLR_6
100
AcDbLine
 62
7
420
3604575
  6
CONTINUOUS
 10
38.2306950908
 20
64.7529542201
 11
41.0783452877
 21
66.397036014
  0
LINE
  5
3D6
100
AcDbEntity
  8
0
100
AcDbLine
 62
7
  6
CONTINUOUS
 10
61.9575543805
 20
78.1255021276
 11
61.820498407
 21
78.0463732968
  0
LINE
  5
3D7
100
AcDbEntity
  8
0
100
AcDbLine
 62
7
  6
CONTINUOUS
 10
48.8765442487
 20
66.6536750829
 11
46.7551059869
 21
65.4288694424
  0
LINE
  5
3D8
100
AcDbEntity
  8
0
100
AcDbLine
 62
7
  6
CONTINUOUS
 10
51.4220007332
 20
180.0657902604
 11
52.4119543484
 21
179.4942532041
  0
LINE
  5
3D9
100
AcDbEntity
  8
0
100
AcDbLine
 62
7
  6
CONTINUOUS
 10
54.2504396338
 20
178.4328272424
 11
54.5515289193
 21
178.2589971948
  0
LINE
  5
3DA
100
AcDbEntity
  8
0
100
AcDbLine
 62
7
  6
CONTINUOUS
 10
76.1708411133
 20
165.7773638522
 11
77.1607947285
 21
165.2058267959
  0
LINE
  5
3DB
100
AcDbEntity
  8
0
100
AcDbLine
 62
7
  6
CONTINUOUS
 10
78.9992800139
 20
164.1444008341
 11
79.3003692995
 21
163.9705707866
  0
LINE
  5
3DC
100
AcDbEntity
  8
0
100
AcDbLine
 62
7
  6
CONTINUOUS
 10
79.3528348765
 20
164.3485316655
 11
78.9992800139
 21
164.5526520427
  0
LINE
  5
3DD
100
AcDbEntity
  8
0
100
AcDbLine
 62
7
  6
CONTINUOUS
 10
77.1607947285
 20
165.6140780045
 11
76.807239866
 21
165.8181983817
  0
LINE
  5
3DE
100
AcDbEntity
  8
0
100
AcDbLine
 62
7
  6
CONTINUOUS
 10
54.6039944963
 20
178.6369580737
 11
54.2504396338
 21
178.8410784509
  0
LINE
  5
3DF
100
AcDbEntity
  8
0
100
AcDbLine
 62
7
  6
CONTINUOUS
 10
52.4119543484
 20
179.9025044127
 11
52.0583994858
 21
180.1066247899
  0
LINE
  5
3E0
100
AcDbEntity
  8
0
100
AcDbLine
 62
7
  6
CONTINUOUS
 10
100.6156350866
 20
155.7225300226
 11
79.8266091673
 21
167.7248082055
  0
LINE
  5
3E1
100
AcDbEntity
  8
0
100
AcDbLine
 62
7
  6
CONTINUOUS
 10
73.745465531
 20
171.2356786944
 11
55.0777687871
 21
182.0132346137
  0
LINE
  5
3E2
100
AcDbEntity
  8
0
100
AcDbLine
 62
7
  6
CONTINUOUS
 10
48.9966251509
 20
185.5241051026
 11
28.2075992315
 21
197.5263832855
  0
LINE
  5
3E3
100
AcDbEntity
  8
0
100
AcDbLine
 62
7
  6
CONTINUOUS
 10
81.1206091894
 20
168.4718950071
 11
79.3528348765
 21
169.4924968934
  0
LINE
  5
3E4
100
AcDbEntity
  8
0
100
AcDbLine
 62
7
  6
CONTINUOUS
 10
76.807239866
 20
170.9621636096
 11
75.0394655531
 21
171.9827654959
  0
LINE
  5
3E5
100
AcDbEntity
  8
0
100
AcDbLine
 62
7
  6
CONTINUOUS
 10
56.3717688092
 20
182.7603214153
 11
54.6039944963
 21
183.7809233016
  0
LINE
  5
3E6
100
AcDbEntity
  8
0
100
AcDbLine
 62
7
  6
CONTINUOUS
 10
52.0583994858
 20
185.2505900179
 11
50.290625173
 21
186.2711919042
  0
LINE
  5
3E7
100
AcDbEntity
  8
0
100
AcDbLine
 62
7
  6
CONTINUOUS
 10
86.2828862364
 20
213.3372950047
 11
88.550201367
 21
208.5235343266
  0
LINE
  5
3E8
100
AcDbEntity
  8
0
100
AcDbLine
 62
7
  6
CONTINUOUS
 10
96.9142598916
 20
188.82837484
 11
98.1390098621
 21
185.6717738601
  0
LINE
  5
3E9
100
AcDbEntity
  8
0
100
AcDbLine
 62
7
  6
CONTINUOUS
 10
101.3048648879
 20
187.3103080155
 11
100.588509803
 21
189.1566009057
  0
LINE
  5
3EA
100
AcDbEntity
  8
0
100
AcDbLine
 62
7
  6
CONTINUOUS
 10
126.233852845
 20
182.2625958143
 11
126.233852845
 21
183.1685444539
  0
LINE
  5
3EB
100
AcDbEntity
  8
0
100
AcDbLine
 62
7
  6
CONTINUOUS
 10
126.5166767161
 20
183.4423019165
 11
126.5166767161
 21
194.5178727039
  0
LINE
  5
3EC
100
AcDbEntity
  8
0
100
AcDbLine
 62
7
  6
CONTINUOUS
 10
53.2347539695
 20
58.310433799
 11
52.4119543484
 21
57.8353930518
  0
LINE
  5
3ED
100
AcDbEntity
  8
0
100
AcDbLine
 62
7
  6
CONTINUOUS
 10
53.3592858246
 20
57.5658096996
 11
51.4220007332
 21
56.447324307
  0
LINE
  5
3EE
100
AcDbEntity
  8
0
100
AcDbLine
 62
7
  6
CONTINUOUS
 10
53.5336231914
 20
56.5233791935
 11
52.4119543484
 21
55.8757872507
  0
LINE
  5
3EF
100
AcDbEntity
  8
0
100
AcDbLine
 62
7
  6
CONTINUOUS
 10
53.5958876126
 20
56.1510761508
 11
52.4119543484
 21
55.4675360421
  0
LINE
  5
3F0
100
AcDbEntity
  8
0
100
AcDbLine
 62
7
  6
CONTINUOUS
 10
81.0641640579
 20
71.977229895
 11
89.5494101045
 21
76.8761597415
  0
LINE
  5
3F1
100
AcDbEntity
  8
0
100
AcDbLine
 62
7
  6
CONTINUOUS
 10
65.8638735504
 20
159.9882021531
 11
64.0072229508
 21
159.5726385851
  0
LINE
  5
3F2
100
AcDbEntity
  8
0
100
AcDbLine
 62
7
  6
CONTINUOUS
 10
28.1855082984
 20
166.1021322775
 11
29.0299820303
 21
166.0491442288
  0
LINE
  5
3F3
100
AcDbEntity
  8
0
100
AcDbLine
 62
7
  6
CONTINUOUS
 10
26.5843022392
 20
168.8754871299
 11
25.7398285072
 21
168.9284751786
  0
LINE
  5
3F4
100
AcDbEntity
  8
0
100
AcDbLine
 62
7
  6
CONTINUOUS
 10
83.5982017383
 20
172.3517901169
 11
84.5571220624
 21
172.0889314117
  0
LINE
  5
3F5
100
AcDbEntity
  8
0
100
AcDbLine
 62
7
  6
CONTINUOUS
 10
61.6042983442
 20
191.1701285493
 11
61.9578532068
 21
190.9660081721
  0
LINE
  5
3F6
100
AcDbEntity
  8
0
100
AcDbLine
 62
7
  6
CONTINUOUS
 10
64.5034482173
 20
189.4963414558
 11
64.8570030799
 21
189.2922210785
  0
LINE
  5
3F7
100
AcDbEntity
  8
0
100
AcDbLine
 62
7
  6
CONTINUOUS
 10
86.3531387244
 20
176.8817021411
 11
86.706693587
 21
176.6775817638
  0
LINE
  5
3F8
100
AcDbEntity
  8
0
100
AcDbLine
 62
7
  6
CONTINUOUS
 10
89.2522885975
 20
175.2079150476
 11
89.6058434601
 21
175.0037946703
  0
LINE
  5
3F9
100
AcDbEntity
  8
0
100
AcDbLine
 62
7
  6
CONTINUOUS
 10
110.2534415464
 20
163.8996495467
 11
91.8685886926
 21
174.5139091642
  0
LINE
  5
3FA
100
AcDbEntity
  8
0
100
AcDbLine
 62
7
  6
CONTINUOUS
 10
85.5046011663
 20
178.1880759549
 11
67.1197483125
 21
188.8023355724
  0
LINE
  5
3FB
100
AcDbEntity
  8
0
100
AcDbLine
 62
7
  6
CONTINUOUS
 10
62.664957044
 20
191.3742523259
 11
63.0185119066
 21
191.1701319487
  0
LINE
  5
3FC
100
AcDbEntity
  8
0
100
AcDbLine
 62
7
  6
CONTINUOUS
 10
60.7557607861
 20
192.4765023631
 11
42.3709079323
 21
203.0907619807
  0
LINE
  5
3FD
100
AcDbEntity
  8
0
100
AcDbLine
 62
7
  6
CONTINUOUS
 10
64.856997192
 20
190.1087059869
 11
65.2105520546
 21
189.9045856097
  0
LINE
  5
3FE
100
AcDbEntity
  8
0
100
AcDbLine
 62
7
  6
CONTINUOUS
 10
87.4137974242
 20
177.0858259177
 11
87.7673522867
 21
176.8817055405
  0
LINE
  5
3FF
100
AcDbEntity
  8
0
100
AcDbLine
 62
7
  6
CONTINUOUS
 10
89.6058375721
 20
175.8202795787
 11
89.9593924347
 21
175.6161592014
  0
LINE
  5
400
100
AcDbEntity
  8
0
100
AcDbLine
 62
7
  6
CONTINUOUS
 10
90.9543544135
 20
209.9115644497
 11
88.687039283
 21
214.7253251279
  0
LINE
  5
401
100
AcDbEntity
  8
0
100
AcDbLine
 62
7
  6
CONTINUOUS
 10
134.4362055429
 20
201.7029500958
 11
134.4362055429
 21
203.825819696
  0
LINE
  5
402
100
AcDbEntity
  8
0
100
AcDbLine
 62
7
  6
CONTINUOUS
 10
88.306738323
 20
74.1294440918
 11
79.8214922764
 21
69.2305142453
  0
LINE
  5
403
100
AcDbEntity
  8
0
100
AcDbLine
 62
7
  6
CONTINUOUS
 10
50.290625173
 20
51.5482930778
 11
48.9966251509
 21
50.8012062762
  0
LINE
  5
404
100
AcDbEntity
  8
0
100
AcDbLine
 62
7
  6
CONTINUOUS
 10
54.3181559747
 20
51.8323544209
 11
52.0583994858
 21
50.5276911915
  0
LINE
  5
405
100
AcDbEntity
  8
0
100
AcDbLine
 62
7
  6
CONTINUOUS
 10
91.3441738559
 20
71.0824519344
 11
90.7394253714
 21
70.7333023183
  0
LINE
  5
406
100
AcDbEntity
  8
0
100
AcDbLine
 62
7
  6
CONTINUOUS
 10
92.2726269232
 20
70.922533686
 11
92.0055697488
 21
70.7683490748
  0
LINE
  5
407
100
AcDbEntity
  8
0
100
AcDbLine
 62
7
  6
CONTINUOUS
 10
92.9363742274
 20
70.4756703013
 11
92.0055697488
 21
69.9382732929
  0
LINE
  5
408
100
AcDbEntity
  8
0
100
AcDbLine
 62
7
  6
CONTINUOUS
 10
92.854101419
 20
70.2803631667
 11
93.0240667933
 21
70.3784921355
  0
LINE
  5
409
100
AcDbEntity
  8
0
100
AcDbLine
 62
7
  6
CONTINUOUS
 10
92.7605986939
 20
69.8336202212
 11
91.6292325543
 21
69.180429575
  0
LINE
  5
40A
100
AcDbEntity
  8
0
100
AcDbLine
 62
7
  6
CONTINUOUS
 10
91.9161249619
 20
68.9068053693
 11
90.7847588224
 21
68.2536147231
  0
LINE
  5
40B
100
AcDbEntity
  8
INTFCLR_6
100
AcDbLine
 62
7
420
3604575
  6
CONTINUOUS
 10
93.229980411
 20
68.256787374
 11
92.4344177831
 21
67.7974718183
  0
LINE
  5
40C
100
AcDbEntity
  8
0
100
AcDbLine
 62
7
  6
CONTINUOUS
 10
92.7605986938
 20
67.9847012046
 11
91.6292325543
 21
67.3315105584
  0
LINE
  5
40D
100
AcDbEntity
  8
0
100
AcDbLine
 62
7
  6
CONTINUOUS
 10
81.0498658332
 20
173.0033860787
 11
80.342759052
 21
173.003384379
  0
LINE
  5
40E
100
AcDbEntity
  8
0
100
AcDbLine
 62
7
  6
CONTINUOUS
 10
58.8493613582
 20
186.6402165252
 11
59.8082816822
 21
186.3773578199
  0
LINE
  5
40F
100
AcDbEntity
  8
0
100
AcDbLine
 62
7
  6
CONTINUOUS
 10
49.7954982231
 20
207.3773255963
 11
57.0080174196
 21
203.2132699002
  0
LINE
  5
410
100
AcDbEntity
  8
0
100
AcDbLine
 62
7
  6
CONTINUOUS
 10
60.9678318804
 20
200.9271216749
 11
68.1803510769
 21
196.7630659788
  0
LINE
  5
411
100
AcDbEntity
  8
0
100
AcDbLine
 62
7
  6
CONTINUOUS
 10
74.5443386032
 20
193.0888991881
 11
81.7568577997
 21
188.924843492
  0
LINE
  5
412
100
AcDbEntity
  8
0
100
AcDbLine
 62
7
  6
CONTINUOUS
 10
85.7166722605
 20
186.6386952667
 11
92.929191457
 21
182.4746395706
  0
LINE
  5
413
100
AcDbEntity
  8
0
100
AcDbLine
 62
7
  6
CONTINUOUS
 10
99.2931789833
 20
178.8004727799
 11
106.5056981798
 21
174.6364170838
  0
LINE
  5
414
100
AcDbEntity
  8
0
100
AcDbLine
 62
7
  6
CONTINUOUS
 10
110.4655126407
 20
172.3502688585
 11
117.6780318372
 21
168.1862131624
  0
LINE
  5
415
100
AcDbEntity
  8
0
100
AcDbLine
 62
7
  6
CONTINUOUS
 10
111.0317266166
 20
199.0488685965
 11
113.2990417471
 21
194.2351079184
  0
LINE
  5
416
100
AcDbEntity
  8
0
100
AcDbLine
 62
7
  6
CONTINUOUS
 10
121.6631002717
 20
174.5399484318
 11
122.8878502422
 21
171.3833474519
  0
LINE
  5
417
100
AcDbEntity
  8
0
100
AcDbLine
 62
7
  6
CONTINUOUS
 10
126.053705268
 20
173.0218816073
 11
125.3373501832
 21
174.8681744975
  0
LINE
  5
418
100
AcDbEntity
  8
INTFCLR_6
100
AcDbLine
 62
7
420
3604575
  6
CONTINUOUS
 10
62.979535471
 20
50.4645278119
 11
65.8271856679
 21
52.1086096058
  0
LINE
  5
419
100
AcDbEntity
  8
0
100
AcDbLine
 62
7
  6
CONTINUOUS
 10
93.1369358884
 20
66.7923105563
 11
92.0055697488
 21
66.1391199101
  0
LINE
  5
41A
100
AcDbEntity
  8
0
100
AcDbLine
 62
7
  6
CONTINUOUS
 10
94.0749123455
 20
66.8946289487
 11
93.2304386135
 21
66.4070747226
  0
LINE
  5
41B
100
AcDbEntity
  8
0
100
AcDbLine
 62
7
  6
CONTINUOUS
 10
92.0055697488
 20
65.3217744155
 11
92.967190886
 21
65.8769633238
  0
LINE
  5
41C
100
AcDbEntity
  8
0
100
AcDbLine
 62
7
  6
CONTINUOUS
 10
94.8377741774
 20
65.2706130132
 11
94.1294101948
 21
64.8616413184
  0
LINE
  5
41D
100
AcDbEntity
  8
0
100
AcDbLine
 62
7
  6
CONTINUOUS
 10
73.6253846289
 20
52.3652486747
 11
71.503946367
 21
51.1404430342
  0
LINE
  5
41E
100
AcDbEntity
  8
0
100
AcDbLine
 62
7
  6
CONTINUOUS
 10
94.909303043
 20
60.8980622773
 11
94.8385908486
 21
60.8572368165
  0
LINE
  5
41F
100
AcDbEntity
  8
0
100
AcDbLine
 62
7
  6
CONTINUOUS
 10
41.1150331702
 20
174.2766285613
 11
39.2583825707
 21
173.8610649933
  0
LINE
  5
420
100
AcDbEntity
  8
0
100
AcDbLine
 62
7
  6
CONTINUOUS
 10
119.4457914302
 20
169.206823547
 11
112.2332722337
 21
173.3708792431
  0
LINE
  5
421
100
AcDbEntity
  8
0
100
AcDbLine
 62
7
  6
CONTINUOUS
 10
108.2734577729
 20
175.6570274685
 11
101.0609385764
 21
179.8210831646
  0
LINE
  5
422
100
AcDbEntity
  8
0
100
AcDbLine
 62
7
  6
CONTINUOUS
 10
94.6969510501
 20
183.4952499552
 11
87.4844318536
 21
187.6593056514
  0
LINE
  5
423
100
AcDbEntity
  8
0
100
AcDbLine
 62
7
  6
CONTINUOUS
 10
83.5246173927
 20
189.9454538767
 11
76.3120981962
 21
194.1095095728
  0
LINE
  5
424
100
AcDbEntity
  8
0
100
AcDbLine
 62
7
  6
CONTINUOUS
 10
69.9481106699
 20
197.7836763635
 11
62.7355914734
 21
201.9477320596
  0
LINE
  5
425
100
AcDbEntity
  8
0
100
AcDbLine
 62
7
  6
CONTINUOUS
 10
58.7757770126
 20
204.2338802849
 11
51.5632578161
 21
208.397935981
  0
LINE
  5
426
100
AcDbEntity
  8
0
100
AcDbLine
 62
7
  6
CONTINUOUS
 10
123.051758446
 20
171.2887171471
 11
122.8878502422
 21
171.3833474519
  0
LINE
  5
427
100
AcDbEntity
  8
0
100
AcDbLine
 62
7
  6
CONTINUOUS
 10
98.3029180659
 20
185.5771435553
 11
98.1390098621
 21
185.6717738601
  0
LINE
  5
428
100
AcDbEntity
  8
0
100
AcDbLine
 62
7
  6
CONTINUOUS
 10
73.5540776857
 20
199.8655699635
 11
73.3901694819
 21
199.9602002683
  0
LINE
  5
429
100
AcDbEntity
  8
0
100
AcDbLine
 62
7
  6
CONTINUOUS
 10
73.3901694819
 20
204.8592147711
 11
75.8396694229
 21
203.445027314
  0
LINE
  5
42A
100
AcDbEntity
  8
0
100
AcDbLine
 62
7
  6
CONTINUOUS
 10
98.1390098621
 20
190.5707883628
 11
100.588509803
 21
189.1566009057
  0
LINE
  5
42B
100
AcDbEntity
  8
0
100
AcDbLine
 62
7
  6
CONTINUOUS
 10
122.8878502422
 20
176.2823619546
 11
125.3373501832
 21
174.8681744975
  0
LINE
  5
42C
100
AcDbEntity
  8
0
100
AcDbLine
 62
7
  6
CONTINUOUS
 10
115.7031947936
 20
195.6231380415
 11
113.4358796631
 21
200.4368987197
  0
LINE
  5
42D
100
AcDbEntity
  8
0
100
AcDbLine
 62
7
  6
CONTINUOUS
 10
158.1950923078
 20
60.9433309639
 11
158.1950923078
 21
61.7547701244
  0
LINE
  5
42E
100
AcDbEntity
  8
0
100
AcDbLine
 62
7
  6
CONTINUOUS
 10
158.1950923078
 20
182.5971081065
 11
158.1950923078
 21
183.4085472671
  0
LINE
  5
42F
100
AcDbEntity
  8
0
100
AcDbLine
 62
7
  6
CONTINUOUS
 10
158.3365142528
 20
69.184924458
 11
158.3365142528
 21
71.2262157742
  0
LINE
  5
430
100
AcDbEntity
  8
0
100
AcDbLine
 62
7
  6
CONTINUOUS
 10
158.3435853501
 20
172.0601466088
 11
158.3435853501
 21
174.1096028081
  0
LINE
  5
431
100
AcDbEntity
  8
0
100
AcDbLine
 62
7
  6
CONTINUOUS
 10
77.9835943497
 20
44.0220073907
 11
77.1607947285
 21
43.5469666436
  0
LINE
  5
432
100
AcDbEntity
  8
0
100
AcDbLine
 62
7
  6
CONTINUOUS
 10
78.1081262048
 20
43.2773832914
 11
76.1708411133
 21
42.1588978988
  0
LINE
  5
433
100
AcDbEntity
  8
0
100
AcDbLine
 62
7
  6
CONTINUOUS
 10
78.2824635715
 20
42.2349527853
 11
77.1607947285
 21
41.5873608425
  0
LINE
  5
434
100
AcDbEntity
  8
0
100
AcDbLine
 62
7
  6
CONTINUOUS
 10
78.3447279928
 20
41.8626497425
 11
77.1607947285
 21
41.1791096339
  0
LINE
  5
435
100
AcDbEntity
  8
0
100
AcDbLine
 62
7
  6
CONTINUOUS
 10
86.9896611236
 20
46.2825176134
 11
85.5754534492
 21
45.4660293056
  0
LINE
  5
436
100
AcDbEntity
  8
0
100
AcDbLine
 62
7
  6
CONTINUOUS
 10
56.3010254531
 20
187.2918124869
 11
55.5939186719
 21
187.2918107872
  0
LINE
  5
437
100
AcDbEntity
  8
0
100
AcDbLine
 62
7
  6
CONTINUOUS
 10
135.7805669967
 20
184.7604421883
 11
138.0478821272
 21
179.9466815102
  0
LINE
  5
438
100
AcDbEntity
  8
0
100
AcDbLine
 62
7
  6
CONTINUOUS
 10
159.185045923
 20
60.3717939075
 11
159.185045923
 21
54.8144944614
  0
LINE
  5
439
100
AcDbEntity
  8
0
100
AcDbLine
 62
7
  6
CONTINUOUS
 10
159.185045923
 20
62.326316699
 11
159.185045923
 21
62.4896355246
  0
LINE
  5
43A
100
AcDbEntity
  8
0
100
AcDbLine
 62
7
  6
CONTINUOUS
 10
159.185045923
 20
180.8008174245
 11
159.185045923
 21
182.0255710502
  0
LINE
  5
43B
100
AcDbEntity
  8
0
100
AcDbLine
 62
7
  6
CONTINUOUS
 10
159.185045923
 20
183.9800938416
 11
159.185045923
 21
189.5373932878
  0
LINE
  5
43C
100
AcDbEntity
  8
0
100
AcDbLine
 62
7
  6
CONTINUOUS
 10
160.1042885657
 20
180.2701044436
 11
160.1042885657
 21
175.1261392157
  0
LINE
  5
43D
100
AcDbEntity
  8
0
100
AcDbLine
 62
7
  6
CONTINUOUS
 10
160.1042885657
 20
171.04362713
 11
160.1042885657
 21
72.2468346574
  0
LINE
  5
43E
100
AcDbEntity
  8
0
100
AcDbLine
 62
7
  6
CONTINUOUS
 10
160.1042885657
 20
68.1643225717
 11
160.1042885657
 21
63.0203573438
  0
LINE
  5
43F
100
AcDbEntity
  8
0
100
AcDbLine
 62
7
  6
CONTINUOUS
 10
75.0394655531
 20
37.2598666696
 11
73.745465531
 21
36.512779868
  0
LINE
  5
440
100
AcDbEntity
  8
0
100
AcDbLine
 62
7
  6
CONTINUOUS
 10
79.0669963549
 20
37.5439280127
 11
76.807239866
 21
36.2392647833
  0
LINE
  5
441
100
AcDbEntity
  8
INTFCLR_6
100
AcDbLine
 62
7
420
3604575
  6
CONTINUOUS
 10
87.7283758511
 20
36.1761014037
 11
90.576026048
 21
37.8201831976
  0
LINE
  5
442
100
AcDbEntity
  8
0
100
AcDbLine
 62
7
  6
CONTINUOUS
 10
95.4042786287
 20
40.444673464
 11
94.8385908486
 21
40.1180754214
  0
LINE
  5
443
100
AcDbEntity
  8
0
100
AcDbLine
 62
7
  6
CONTINUOUS
 10
81.3331181604
 20
216.1949802863
 11
86.2828862364
 21
213.3372950047
  0
LINE
  5
444
100
AcDbEntity
  8
0
100
AcDbLine
 62
7
  6
CONTINUOUS
 10
106.0819585406
 20
201.9065538781
 11
111.0317266166
 21
199.0488685965
  0
LINE
  5
445
100
AcDbEntity
  8
0
100
AcDbLine
 62
7
  6
CONTINUOUS
 10
130.8307989207
 20
187.6181274699
 11
135.7805669967
 21
184.7604421883
  0
LINE
  5
446
100
AcDbEntity
  8
0
100
AcDbLine
 62
7
  6
CONTINUOUS
 10
158.3435853501
 20
172.0601466088
 11
160.1042885657
 21
171.04362713
  0
LINE
  5
447
100
AcDbEntity
  8
0
100
AcDbLine
 62
7
  6
CONTINUOUS
 10
83.7372712069
 20
217.5830104095
 11
88.687039283
 21
214.7253251279
  0
LINE
  5
448
100
AcDbEntity
  8
0
100
AcDbLine
 62
7
  6
CONTINUOUS
 10
108.4861115871
 20
203.2945840013
 11
113.4358796631
 21
200.4368987197
  0
LINE
  5
449
100
AcDbEntity
  8
0
100
AcDbLine
 62
7
  6
CONTINUOUS
 10
133.2349519672
 20
189.0061575931
 11
138.1847200433
 21
186.1484723114
  0
LINE
  5
44A
100
AcDbEntity
  8
0
100
AcDbLine
 62
7
  6
CONTINUOUS
 10
140.4520351738
 20
181.3347116333
 11
138.1847200433
 21
186.1484723114
  0
LINE
  5
44B
100
AcDbEntity
  8
0
100
AcDbLine
 62
7
  6
CONTINUOUS
 10
99.2933585653
 20
39.4240441924
 11
96.4649432164
 21
37.7910675769
  0
LINE
  5
44C
100
AcDbEntity
  8
0
100
AcDbLine
 62
7
  6
CONTINUOUS
 10
160.1042885657
 20
72.2468346574
 11
99.2933585653
 21
37.1378374244
  0
LINE
  5
44D
100
AcDbEntity
  8
0
100
AcDbLine
 62
7
  6
CONTINUOUS
 10
158.3365142528
 20
69.184924458
 11
97.6501130949
 21
34.1478235566
  0
LINE
  5
44E
100
AcDbEntity
  8
0
100
AcDbLine
 62
7
  6
CONTINUOUS
 10
160.1042885657
 20
68.1643225717
 11
99.4178874077
 21
33.1272216703
  0
LINE
  5
44F
100
AcDbEntity
  8
0
100
AcDbLine
 62
7
  6
CONTINUOUS
 10
77.0189959558
 20
223.0947255204
 11
95.4038488096
 21
212.4804659028
  0
LINE
  5
450
100
AcDbEntity
  8
0
100
AcDbLine
 62
7
  6
CONTINUOUS
 10
101.7678363359
 20
208.8062991122
 11
120.1526891898
 21
198.1920394946
  0
LINE
  5
451
100
AcDbEntity
  8
0
100
AcDbLine
 62
7
  6
CONTINUOUS
 10
126.5166767161
 20
194.5178727039
 11
144.9015295699
 21
183.9036130864
  0
LINE
  5
452
100
AcDbEntity
  8
0
100
AcDbLine
 62
7
  6
CONTINUOUS
 10
159.185045923
 20
180.8008174245
 11
160.1042885657
 21
180.2701044436
  0
LINE
  5
453
100
AcDbEntity
  8
0
100
AcDbLine
 62
7
  6
CONTINUOUS
 10
159.185045923
 20
182.0255710502
 11
158.1950923078
 21
182.5971081065
  0
LINE
  5
454
100
AcDbEntity
  8
0
100
AcDbLine
 62
7
  6
CONTINUOUS
 10
160.1042885657
 20
63.0203573438
 11
100.2024191151
 21
28.4362033311
  0
LINE
  5
455
100
AcDbEntity
  8
0
100
AcDbLine
 62
7
  6
CONTINUOUS
 10
159.185045923
 20
62.326316699
 11
99.4699697361
 21
27.8500071836
  0
LINE
  5
456
100
AcDbEntity
  8
0
100
AcDbLine
 62
7
  6
CONTINUOUS
 10
158.1950923078
 20
60.9433309639
 11
98.7781101077
 21
26.6391250647
  0
LINE
  5
457
100
AcDbEntity
  8
0
100
AcDbLine
 62
7
  6
CONTINUOUS
 10
159.185045923
 20
60.3717939075
 11
99.7680637229
 21
26.0675880084
  0
LINE
  5
458
100
AcDbEntity
  8
0
100
AcDbLine
 62
7
  6
CONTINUOUS
 10
159.185045923
 20
189.5373932878
 11
136.2746908282
 21
202.7643937342
  0
LINE
  5
459
100
AcDbEntity
  8
0
100
AcDbLine
 62
7
  6
CONTINUOUS
 10
134.4362055429
 20
203.825819696
 11
111.5258504481
 21
217.0528201424
  0
LINE
  5
45A
100
AcDbEntity
  8
0
100
AcDbLine
 62
7
  6
CONTINUOUS
 10
109.6873651627
 20
218.1142461042
 11
86.777010068
 21
231.3412465506
  0
LINE
  5
45B
100
AcDbEntity
  8
0
100
AcDbLine
 62
7
  6
CONTINUOUS
 10
159.185045923
 20
54.8144944614
 11
100.6156350866
 21
20.9996311962
  0
ARC
  5
45C
100
AcDbEntity
  8
0
100
AcDbCircle
 62
7
  6
CONTINUOUS
 10
56.0936067697
 20
169.6529672076
 40
5.3446830865
100
AcDbArc
 50
228.1004684278
 51
232.3995552439
  0
ARC
  5
45D
100
AcDbEntity
  8
0
100
AcDbCircle
 62
7
  6
CONTINUOUS
 10
80.8424471499
 20
155.3645407994
 40
5.3446830865
100
AcDbArc
 50
228.1004684278
 51
232.3995552439
  0
ARC
  5
45E
100
AcDbEntity
  8
0
100
AcDbCircle
 62
7
  6
CONTINUOUS
 10
24.9031540791
 20
166.4892457408
 40
4.7650361852
100
AcDbArc
 50
49.6211995824
 51
50.0794824556
  0
ARC
  5
45F
100
AcDbEntity
  8
0
100
AcDbCircle
 62
7
  6
CONTINUOUS
 10
89.9685052658
 20
128.9444698611
 40
4.7475559639
100
AcDbArc
 50
49.7458157443
 51
50.2094511735
  0
ARC
  5
460
100
AcDbEntity
  8
0
100
AcDbCircle
 62
7
  6
CONTINUOUS
 10
89.9685052675
 20
66.8086359196
 40
4.7475559613
100
AcDbArc
 50
49.7458157445
 51
50.2094511738
  0
ARC
  5
461
100
AcDbEntity
  8
0
100
AcDbCircle
 62
7
  6
CONTINUOUS
 10
25.0376658216
 20
166.6514340983
 40
4.5543288296
100
AcDbArc
 50
50.0679285789
 51
53.178750816
  0
ARC
  5
462
100
AcDbEntity
  8
0
100
AcDbCircle
 62
7
  6
CONTINUOUS
 10
90.1205473575
 20
66.9939442396
 40
4.5078630671
100
AcDbArc
 50
50.1869963147
 51
53.1936574619
  0
ARC
  5
463
100
AcDbEntity
  8
0
100
AcDbCircle
 62
7
  6
CONTINUOUS
 10
90.1205473575
 20
129.1297781832
 40
4.5078630671
100
AcDbArc
 50
50.1869963144
 51
53.1936574619
  0
ARC
  5
464
100
AcDbEntity
  8
0
100
AcDbCircle
 62
7
  6
CONTINUOUS
 10
130.7101041487
 20
181.3298383585
 40
4.4301541615
100
AcDbArc
 50
160.1579279392
 51
161.8698817563
  0
ARC
  5
465
100
AcDbEntity
  8
0
100
AcDbCircle
 62
7
  6
CONTINUOUS
 10
81.212423388
 20
209.906691175
 40
4.4301541611
100
AcDbArc
 50
160.1579279391
 51
161.8698817564
  0
ARC
  5
466
100
AcDbEntity
  8
0
100
AcDbCircle
 62
7
  6
CONTINUOUS
 10
105.9612637684
 20
195.6182647667
 40
4.4301541614
100
AcDbArc
 50
160.1579279392
 51
161.8698817563
  0
ARC
  5
467
100
AcDbEntity
  8
0
100
AcDbCircle
 62
7
  6
CONTINUOUS
 10
80.9809789926
 20
209.9908661473
 40
4.1838788504
100
AcDbArc
 50
156.2816804513
 51
160.1664017798
  0
ARC
  5
468
100
AcDbEntity
  8
0
100
AcDbCircle
 62
7
  6
CONTINUOUS
 10
105.7298193728
 20
195.7024397391
 40
4.1838788504
100
AcDbArc
 50
156.2816804513
 51
160.1664017798
  0
ARC
  5
469
100
AcDbEntity
  8
0
100
AcDbCircle
 62
7
  6
CONTINUOUS
 10
130.4786597529
 20
181.4140133309
 40
4.1838788503
100
AcDbArc
 50
156.2816804513
 51
160.1664017798
  0
ARC
  5
46A
100
AcDbEntity
  8
0
100
AcDbCircle
 62
7
  6
CONTINUOUS
 10
130.2588826287
 20
181.5073655809
 40
3.9451164487
100
AcDbArc
 50
155.5741592487
 51
156.2390387635
  0
ARC
  5
46B
100
AcDbEntity
  8
0
100
AcDbCircle
 62
7
  6
CONTINUOUS
 10
105.5100422472
 20
195.7957919897
 40
3.9451164472
100
AcDbArc
 50
155.5741592486
 51
156.2390387636
  0
ARC
  5
46C
100
AcDbEntity
  8
0
100
AcDbCircle
 62
7
  6
CONTINUOUS
 10
80.7612018663
 20
210.0842183982
 40
3.9451164464
100
AcDbArc
 50
155.5741592485
 51
156.2390387637
  0
ARC
  5
46D
100
AcDbEntity
  8
0
100
AcDbCircle
 62
7
  6
CONTINUOUS
 10
93.434339587
 20
69.3296345884
 40
3.6515834906
100
AcDbArc
 50
180.0197693079
 51
182.6218143853
  0
ARC
  5
46E
100
AcDbEntity
  8
0
100
AcDbCircle
 62
7
  6
CONTINUOUS
 10
28.3802448736
 20
169.0236179478
 40
3.6515834906
100
AcDbArc
 50
180.0197693079
 51
182.6218143853
  0
ARC
  5
46F
100
AcDbEntity
  8
0
100
AcDbCircle
 62
7
  6
CONTINUOUS
 10
93.434339587
 20
131.4654685319
 40
3.6515834906
100
AcDbArc
 50
180.0197693079
 51
182.6218143853
  0
ARC
  5
470
100
AcDbEntity
  8
0
100
AcDbCircle
 62
7
  6
CONTINUOUS
 10
38.4129159107
 20
185.4791029969
 40
2.9908366132
100
AcDbArc
 50
148.274884313
 51
149.2823473294
  0
ARC
  5
471
100
AcDbEntity
  8
0
100
AcDbCircle
 62
7
  6
CONTINUOUS
 10
87.9105966707
 20
156.9022501806
 40
2.9908366129
100
AcDbArc
 50
148.2748843129
 51
149.2823473294
  0
ARC
  5
472
100
AcDbEntity
  8
0
100
AcDbCircle
 62
7
  6
CONTINUOUS
 10
63.1617562902
 20
171.1906765891
 40
2.9908366124
100
AcDbArc
 50
148.2748843129
 51
149.2823473295
  0
ARC
  5
473
100
AcDbEntity
  8
0
100
AcDbCircle
 62
7
  6
CONTINUOUS
 10
78.6183377351
 20
209.4657599687
 40
2.3785672856
100
AcDbArc
 50
120.0045527359
 51
127.9616230377
  0
ARC
  5
474
100
AcDbEntity
  8
0
100
AcDbCircle
 62
7
  6
CONTINUOUS
 10
103.3671781153
 20
195.1773335604
 40
2.3785672856
100
AcDbArc
 50
120.0045527359
 51
127.9616230377
  0
ARC
  5
475
100
AcDbEntity
  8
0
100
AcDbCircle
 62
7
  6
CONTINUOUS
 10
128.1160184954
 20
180.8889071522
 40
2.3785672856
100
AcDbArc
 50
120.0045527359
 51
127.9616230377
  0
ARC
  5
476
100
AcDbEntity
  8
0
100
AcDbCircle
 62
7
  6
CONTINUOUS
 10
91.1895087218
 20
69.9536630923
 40
1.2601504553
100
AcDbArc
 50
110.3472561837
 51
119.9983094685
  0
ARC
  5
477
100
AcDbEntity
  8
0
100
AcDbCircle
 62
7
  6
CONTINUOUS
 10
26.1354140082
 20
169.6476464517
 40
1.2601504553
100
AcDbArc
 50
110.3472561837
 51
119.9983094685
  0
ARC
  5
478
100
AcDbEntity
  8
0
100
AcDbCircle
 62
7
  6
CONTINUOUS
 10
91.1895087218
 20
132.0894970359
 40
1.2601504553
100
AcDbArc
 50
110.3472561837
 51
119.9983094685
  0
ARC
  5
479
100
AcDbEntity
  8
0
100
AcDbCircle
 62
7
  6
CONTINUOUS
 10
93.6788587783
 20
127.7764406872
 40
1.2598011566
100
AcDbArc
 50
300.0320668887
 51
306.1557930677
  0
ARC
  5
47A
100
AcDbEntity
  8
0
100
AcDbCircle
 62
7
  6
CONTINUOUS
 10
93.6788587783
 20
65.6406067436
 40
1.2598011566
100
AcDbArc
 50
300.0320668887
 51
306.1557930676
  0
ARC
  5
47B
100
AcDbEntity
  8
0
100
AcDbCircle
 62
7
  6
CONTINUOUS
 10
28.6247642907
 20
165.3345897497
 40
1.2598007376
100
AcDbArc
 50
300.032066038
 51
306.1555913978
  0
ARC
  5
47C
100
AcDbEntity
  8
0
100
AcDbCircle
 62
7
  6
CONTINUOUS
 10
91.1899736882
 20
132.0901756857
 40
1.2597954072
100
AcDbArc
 50
120.0320552166
 51
126.1530251542
  0
ARC
  5
47D
100
AcDbEntity
  8
0
100
AcDbCircle
 62
7
  6
CONTINUOUS
 10
26.1358789747
 20
169.6483251016
 40
1.2597954072
100
AcDbArc
 50
120.0320552166
 51
126.1530251542
  0
ARC
  5
47E
100
AcDbEntity
  8
0
100
AcDbCircle
 62
7
  6
CONTINUOUS
 10
91.1899736882
 20
69.9543417421
 40
1.2597954072
100
AcDbArc
 50
120.0320552166
 51
126.1530251542
  0
SPLINE
  5
47F
100
AcDbEntity
  8
0
100
AcDbSpline
 62
7
  6
CONTINUOUS
 70
0
 71
3
 72
11
 73
7
 74
0
 42
0.0000001
 43
0.0000001
 44
0.0000000001
 40
0.0
 40
0.0
 40
0.0
 40
0.0
 40
0.191714833
 40
0.41255873
 40
0.6801541071
 40
1.0
 40
1.0
 40
1.0
 40
1.0
 10
32.8674901355
 20
77.6397513942
 30
0.0
 10
32.9129678755
 20
77.6829633217
 30
0.0
 10
32.9886260502
 20
77.8007788128
 30
0.0
 10
33.027881396
 20
78.0236251972
 30
0.0
 10
33.0053657175
 20
78.2890156539
 30
0.0
 10
32.955367476
 20
78.4754845691
 30
0.0
 10
32.9223334863
 20
78.5747955709
 30
0.0
  0
SPLINE
  5
480
100
AcDbEntity
  8
0
100
AcDbSpline
 62
7
  6
CONTINUOUS
 70
0
 71
3
 72
20
 73
16
 74
0
 42
0.0000001
 43
0.0000001
 44
0.0000000001
 40
0.0
 40
0.0
 40
0.0
 40
0.0
 40
0.0584425181
 40
0.1237237689
 40
0.2699657422
 40
0.4278349951
 40
0.5845716515
 40
0.6585643586
 40
0.7276685114
 40
0.7906544336
 40
0.8465586241
 40
0.8948349983
 40
0.9355524099
 40
0.9697596407
 40
1.0
 40
1.0
 40
1.0
 40
1.0
 10
32.9223334863
 20
78.5747955709
 30
0.0
 10
32.8872448445
 20
78.6802835305
 30
0.0
 10
32.7987034746
 20
78.8989341857
 30
0.0
 10
32.5622890862
 20
79.3553731383
 30
0.0
 10
32.1665288011
 20
79.939014389
 30
0.0
 10
31.591736793
 20
80.6029835578
 30
0.0
 10
31.0474709662
 20
81.1060379174
 30
0.0
 10
30.5936868426
 20
81.4521453031
 30
0.0
 10
30.2657379439
 20
81.6676049723
 30
0.0
 10
29.9513913287
 20
81.8391043727
 30
0.0
 10
29.6576997131
 20
81.9627699853
 30
0.0
 10
29.3909160544
 20
82.0360350593
 30
0.0
 10
29.1557603904
 20
82.0569895311
 30
0.0
 10
28.9554848311
 20
82.0230940941
 30
0.0
 10
28.8469305572
 20
81.9580836466
 30
0.0
 10
28.8052294588
 20
81.9184601992
 30
0.0
  0
SPLINE
  5
481
100
AcDbEntity
  8
0
100
AcDbSpline
 62
7
  6
CONTINUOUS
 70
0
 71
3
 72
11
 73
7
 74
0
 42
0.0000001
 43
0.0000001
 44
0.0000000001
 40
0.0
 40
0.0
 40
0.0
 40
0.0
 40
0.191714833
 40
0.41255873
 40
0.6801541071
 40
1.0
 40
1.0
 40
1.0
 40
1.0
 10
28.8052294588
 20
81.9184601992
 30
0.0
 10
28.7597517187
 20
81.8752482718
 30
0.0
 10
28.6840935441
 20
81.7574327806
 30
0.0
 10
28.6448381983
 20
81.5345863962
 30
0.0
 10
28.6673538767
 20
81.2691959395
 30
0.0
 10
28.7173521183
 20
81.0827270243
 30
0.0
 10
28.750386108
 20
80.9834160225
 30
0.0
  0
SPLINE
  5
482
100
AcDbEntity
  8
0
100
AcDbSpline
 62
7
  6
CONTINUOUS
 70
0
 71
3
 72
20
 73
16
 74
0
 42
0.0000001
 43
0.0000001
 44
0.0000000001
 40
0.0
 40
0.0
 40
0.0
 40
0.0
 40
0.0584425181
 40
0.1237237689
 40
0.2699657422
 40
0.4278349951
 40
0.5845716515
 40
0.6585643586
 40
0.7276685114
 40
0.7906544336
 40
0.8465586241
 40
0.8948349983
 40
0.9355524099
 40
0.9697596407
 40
1.0
 40
1.0
 40
1.0
 40
1.0
 10
28.750386108
 20
80.9834160225
 30
0.0
 10
28.7854747497
 20
80.8779280629
 30
0.0
 10
28.8740161197
 20
80.6592774077
 30
0.0
 10
29.1104305081
 20
80.2028384551
 30
0.0
 10
29.5061907932
 20
79.6191972044
 30
0.0
 10
30.0809828013
 20
78.9552280356
 30
0.0
 10
30.6252486281
 20
78.452173676
 30
0.0
 10
31.0790327517
 20
78.1060662903
 30
0.0
 10
31.4069816504
 20
77.8906066211
 30
0.0
 10
31.7213282656
 20
77.7191072207
 30
0.0
 10
32.0150198811
 20
77.5954416081
 30
0.0
 10
32.2818035398
 20
77.5221765341
 30
0.0
 10
32.5169592039
 20
77.5012220623
 30
0.0
 10
32.7172347632
 20
77.5351174993
 30
0.0
 10
32.8257890371
 20
77.6001279468
 30
0.0
 10
32.8674901355
 20
77.6397513942
 30
0.0
  0
SPLINE
  5
483
100
AcDbEntity
  8
0
100
AcDbSpline
 62
7
  6
CONTINUOUS
 70
0
 71
3
 72
9
 73
5
 74
0
 42
0.0000001
 43
0.0000001
 44
0.0000000001
 40
0.0
 40
0.0
 40
0.0
 40
0.0
 40
0.2405351065
 40
1.0
 40
1.0
 40
1.0
 40
1.0
 10
45.8909064725
 20
107.93135443
 30
0.0
 10
45.7934098991
 20
108.4381671154
 30
0.0
 10
45.441714179
 20
110.5553974123
 30
0.0
 10
45.2968449489
 20
112.7049563435
 30
0.0
 10
45.2829913025
 20
114.3344469278
 30
0.0
  0
SPLINE
  5
484
100
AcDbEntity
  8
0
100
AcDbSpline
 62
7
  6
CONTINUOUS
 70
0
 71
3
 72
11
 73
7
 74
0
 42
0.0000001
 43
0.0000001
 44
0.0000000001
 40
0.0
 40
0.0
 40
0.0
 40
0.0
 40
0.2313524784
 40
0.476632988
 40
0.7337403645
 40
1.0
 40
1.0
 40
1.0
 40
1.0
 10
45.2829913025
 20
114.3344469278
 30
0.0
 10
45.268624515
 20
116.0242940754
 30
0.0
 10
45.4519604965
 20
119.5096319509
 30
0.0
 10
46.2889336341
 20
124.8116173693
 30
0.0
 10
47.680417119
 20
130.2586453819
 30
0.0
 10
48.9440379304
 20
133.8722136201
 30
0.0
 10
49.6593741171
 20
135.680770563
 30
0.0
  0
SPLINE
  5
485
100
AcDbEntity
  8
0
100
AcDbSpline
 62
7
  6
CONTINUOUS
 70
0
 71
3
 72
9
 73
5
 74
0
 42
0.0000001
 43
0.0000001
 44
0.0000000001
 40
0.0
 40
0.0
 40
0.0
 40
0.0
 40
0.5098787401
 40
1.0
 40
1.0
 40
1.0
 40
1.0
 10
49.9209632109
 20
135.5382423326
 30
0.0
 10
49.1554342003
 20
133.5935125415
 30
0.0
 10
47.8202613971
 20
129.7114796003
 30
0.0
 10
46.857471031
 20
125.7192034405
 30
0.0
 10
46.4911205419
 20
123.7438960213
 30
0.0
  0
SPLINE
  5
486
100
AcDbEntity
  8
0
100
AcDbSpline
 62
7
  6
CONTINUOUS
 70
0
 71
3
 72
11
 73
7
 74
0
 42
0.0000001
 43
0.0000001
 44
0.0000000001
 40
0.0
 40
0.0
 40
0.0
 40
0.0
 40
0.2684831299
 40
0.5251625281
 40
0.7691679189
 40
1.0
 40
1.0
 40
1.0
 40
1.0
 10
47.0705407374
 20
123.3483097876
 30
0.0
 10
46.8485175447
 20
122.071269
 30
0.0
 10
46.5036473928
 20
119.5565449669
 30
0.0
 10
46.29291658
 20
115.8448610676
 30
0.0
 10
46.4016693272
 20
112.3102070859
 30
0.0
 10
46.6951762264
 20
110.0316974065
 30
0.0
 10
46.8994461206
 20
108.9361547733
 30
0.0
  0
SPLINE
  5
487
100
AcDbEntity
  8
0
100
AcDbSpline
 62
7
  6
CONTINUOUS
 70
0
 71
3
 72
9
 73
5
 74
0
 42
0.0000001
 43
0.0000001
 44
0.0000000001
 40
0.0
 40
0.0
 40
0.0
 40
0.0
 40
0.4893137494
 40
1.0
 40
1.0
 40
1.0
 40
1.0
 10
91.8723051774
 20
33.6612052197
 30
0.0
 10
91.9806155627
 20
33.7238013153
 30
0.0
 10
92.1856420955
 20
33.8820749783
 30
0.0
 10
92.3434376643
 20
34.0867015741
 30
0.0
 10
92.4115475689
 20
34.1980900567
 30
0.0
  0
SPLINE
  5
488
100
AcDbEntity
  8
0
100
AcDbSpline
 62
7
  6
CONTINUOUS
 70
0
 71
3
 72
13
 73
9
 74
0
 42
0.0000001
 43
0.0000001
 44
0.0000000001
 40
0.0
 40
0.0
 40
0.0
 40
0.0
 40
0.3074950229
 40
0.580430913
 40
0.7000145263
 40
0.8081042742
 40
0.9067560824
 40
1.0
 40
1.0
 40
1.0
 40
1.0
 10
66.7597844733
 20
169.3683374464
 30
0.0
 10
66.4829803872
 20
169.7592741854
 30
0.0
 10
65.8865346163
 20
170.4480834518
 30
0.0
 10
64.989537557
 20
171.095623133
 30
0.0
 10
64.2598763042
 20
171.3821910615
 30
0.0
 10
63.7549338899
 20
171.4706464112
 30
0.0
 10
63.2834667761
 20
171.4359090232
 30
0.0
 10
62.999323905
 20
171.3267501091
 30
0.0
 10
62.8735618906
 20
171.2540681492
 30
0.0
  0
SPLINE
  5
489
100
AcDbEntity
  8
0
100
AcDbSpline
 62
7
  6
CONTINUOUS
 70
0
 71
3
 72
11
 73
7
 74
0
 42
0.0000001
 43
0.0000001
 44
0.0000000001
 40
0.0
 40
0.0
 40
0.0
 40
0.0
 40
0.2940530575
 40
0.5550189788
 40
0.7864902006
 40
1.0
 40
1.0
 40
1.0
 40
1.0
 10
53.4752784562
 20
170.6270987037
 30
0.0
 10
53.3503657331
 20
170.7105917306
 30
0.0
 10
53.1009007624
 20
170.8495226739
 30
0.0
 10
52.7128868343
 20
170.9678084358
 30
0.0
 10
52.3466106325
 20
170.9757579762
 30
0.0
 10
52.1257394619
 20
170.9000733433
 30
0.0
 10
52.0312594497
 20
170.8455304581
 30
0.0
  0
SPLINE
  5
48A
100
AcDbEntity
  8
0
100
AcDbSpline
 62
7
  6
CONTINUOUS
 70
0
 71
3
 72
9
 73
5
 74
0
 42
0.0000001
 43
0.0000001
 44
0.0000000001
 40
0.0
 40
0.0
 40
0.0
 40
0.0
 40
0.2479052382
 40
1.0
 40
1.0
 40
1.0
 40
1.0
 10
61.5777503157
 20
192.9456052807
 30
0.0
 10
61.536880155
 20
193.0493407014
 30
0.0
 10
61.3617972807
 20
193.4636951338
 30
0.0
 10
61.1480327849
 20
193.8616567063
 30
0.0
 10
60.9678318804
 20
194.1479180342
 30
0.0
  0
SPLINE
  5
48B
100
AcDbEntity
  8
0
100
AcDbSpline
 62
7
  6
CONTINUOUS
 70
0
 71
3
 72
13
 73
9
 74
0
 42
0.0000001
 43
0.0000001
 44
0.0000000001
 40
0.0
 40
0.0
 40
0.0
 40
0.0
 40
0.3074950229
 40
0.580430913
 40
0.7000145263
 40
0.8081042742
 40
0.9067560824
 40
1.0
 40
1.0
 40
1.0
 40
1.0
 10
42.0109440932
 20
183.6567638546
 30
0.0
 10
41.734140007
 20
184.0477005936
 30
0.0
 10
41.1376942362
 20
184.73650986
 30
0.0
 10
40.2406971768
 20
185.3840495412
 30
0.0
 10
39.5110359241
 20
185.6706174697
 30
0.0
 10
39.0060935097
 20
185.7590728194
 30
0.0
 10
38.5346263959
 20
185.7243354314
 30
0.0
 10
38.2504835248
 20
185.6151765173
 30
0.0
 10
38.1247215105
 20
185.5424945574
 30
0.0
  0
SPLINE
  5
48C
100
AcDbEntity
  8
0
100
AcDbSpline
 62
7
  6
CONTINUOUS
 70
0
 71
3
 72
11
 73
7
 74
0
 42
0.0000001
 43
0.0000001
 44
0.0000000001
 40
0.0
 40
0.0
 40
0.0
 40
0.0
 40
0.2889518117
 40
0.5484962404
 40
0.7821244903
 40
1.0
 40
1.0
 40
1.0
 40
1.0
 10
57.7504679111
 20
195.4360515819
 30
0.0
 10
57.7504679111
 20
195.6465218743
 30
0.0
 10
57.7818683074
 20
196.0473056055
 30
0.0
 10
57.9398675012
 20
196.5995763784
 30
0.0
 10
58.2060690885
 20
197.0515843966
 30
0.0
 10
58.4571621492
 20
197.2744954975
 30
0.0
 10
58.5919348735
 20
197.358290724
 30
0.0
  0
SPLINE
  5
48D
100
AcDbEntity
  8
0
100
AcDbSpline
 62
7
  6
CONTINUOUS
 70
0
 71
3
 72
9
 73
5
 74
0
 42
0.0000001
 43
0.0000001
 44
0.0000000001
 40
0.0
 40
0.0
 40
0.0
 40
0.0
 40
0.4893137494
 40
1.0
 40
1.0
 40
1.0
 40
1.0
 10
67.1234647973
 20
47.9496316279
 30
0.0
 10
67.2317751826
 20
48.0122277235
 30
0.0
 10
67.4368017153
 20
48.1705013866
 30
0.0
 10
67.5945972841
 20
48.3751279823
 30
0.0
 10
67.6627071888
 20
48.4865164649
 30
0.0
  0
SPLINE
  5
48E
100
AcDbEntity
  8
0
100
AcDbSpline
 62
7
  6
CONTINUOUS
 70
0
 71
3
 72
9
 73
5
 74
0
 42
0.0000001
 43
0.0000001
 44
0.0000000001
 40
0.0
 40
0.0
 40
0.0
 40
0.0
 40
0.5169539572
 40
1.0
 40
1.0
 40
1.0
 40
1.0
 10
77.1691841691
 20
211.7155836665
 30
0.0
 10
77.3036604125
 20
212.0116688485
 30
0.0
 10
77.6377231882
 20
212.556327771
 30
0.0
 10
78.1299236674
 20
212.9695869527
 30
0.0
 10
78.3931029948
 20
213.1214724692
 30
0.0
  0
SPLINE
  5
48F
100
AcDbEntity
  8
0
100
AcDbSpline
 62
7
  6
CONTINUOUS
 70
0
 71
3
 72
9
 73
5
 74
0
 42
0.0000001
 43
0.0000001
 44
0.0000000001
 40
0.0
 40
0.0
 40
0.0
 40
0.0
 40
0.514587924
 40
1.0
 40
1.0
 40
1.0
 40
1.0
 10
76.3720627949
 20
210.3408746126
 30
0.0
 10
76.4668063318
 20
210.538730547
 30
0.0
 10
76.6891836303
 20
210.9067784078
 30
0.0
 10
76.9920402084
 20
211.2137996078
 30
0.0
 10
77.1552012581
 20
211.3410770037
 30
0.0
  0
SPLINE
  5
490
100
AcDbEntity
  8
0
100
AcDbSpline
 62
7
  6
CONTINUOUS
 70
0
 71
3
 72
11
 73
7
 74
0
 42
0.0000001
 43
0.0000001
 44
0.0000000001
 40
0.0
 40
0.0
 40
0.0
 40
0.0
 40
0.289747467
 40
0.5490810816
 40
0.7822227886
 40
1.0
 40
1.0
 40
1.0
 40
1.0
 10
70.0187062389
 20
204.3561786955
 30
0.0
 10
70.0187062389
 20
204.6855731259
 30
0.0
 10
70.0685682029
 20
205.3119159088
 30
0.0
 10
70.3223158431
 20
206.1724678384
 30
0.0
 10
70.7493829981
 20
206.870695963
 30
0.0
 10
71.1505241148
 20
207.2080035848
 30
0.0
 10
71.3649525408
 20
207.3317552127
 30
0.0
  0
SPLINE
  5
491
100
AcDbEntity
  8
0
100
AcDbSpline
 62
7
  6
CONTINUOUS
 70
0
 71
3
 72
11
 73
7
 74
0
 42
0.0000001
 43
0.0000001
 44
0.0000000001
 40
0.0
 40
0.0
 40
0.0
 40
0.0
 40
0.2940530575
 40
0.5550189788
 40
0.7864902006
 40
1.0
 40
1.0
 40
1.0
 40
1.0
 10
78.2241188363
 20
156.3386722955
 30
0.0
 10
78.0992061132
 20
156.4221653224
 30
0.0
 10
77.8497411425
 20
156.5610962657
 30
0.0
 10
77.4617272144
 20
156.6793820276
 30
0.0
 10
77.0954510126
 20
156.687331568
 30
0.0
 10
76.8745798421
 20
156.6116469351
 30
0.0
 10
76.7800998298
 20
156.5571040499
 30
0.0
  0
SPLINE
  5
492
100
AcDbEntity
  8
0
100
AcDbSpline
 62
7
  6
CONTINUOUS
 70
0
 71
3
 72
9
 73
5
 74
0
 42
0.0000001
 43
0.0000001
 44
0.0000000001
 40
0.0
 40
0.0
 40
0.0
 40
0.0
 40
0.4893137494
 40
1.0
 40
1.0
 40
1.0
 40
1.0
 10
42.3746244171
 20
62.2380580361
 30
0.0
 10
42.4829348024
 20
62.3006541317
 30
0.0
 10
42.6879613352
 20
62.4589277948
 30
0.0
 10
42.845756904
 20
62.6635543905
 30
0.0
 10
42.9138668086
 20
62.7749428731
 30
0.0
  0
SPLINE
  5
493
100
AcDbEntity
  8
0
100
AcDbSpline
 62
7
  6
CONTINUOUS
 70
0
 71
3
 72
11
 73
7
 74
0
 42
0.0000001
 43
0.0000001
 44
0.0000000001
 40
0.0
 40
0.0
 40
0.0
 40
0.0
 40
0.2223513634
 40
0.4574918981
 40
0.7152043483
 40
1.0
 40
1.0
 40
1.0
 40
1.0
 10
79.8214696976
 20
69.2305535259
 30
0.0
 10
79.6443892635
 20
69.1283740768
 30
0.0
 10
79.2447638477
 20
68.9744447306
 30
0.0
 10
78.5813187837
 20
68.9247995694
 30
0.0
 10
77.871100822
 20
69.047994784
 30
0.0
 10
77.4034428416
 20
69.2303046219
 30
0.0
 10
77.1676285141
 20
69.3441603927
 30
0.0
  0
SPLINE
  5
494
100
AcDbEntity
  8
0
100
AcDbSpline
 62
7
  6
CONTINUOUS
 70
0
 71
3
 72
9
 73
5
 74
0
 42
0.0000001
 43
0.0000001
 44
0.0000000001
 40
0.0
 40
0.0
 40
0.0
 40
0.0
 40
0.2479052382
 40
1.0
 40
1.0
 40
1.0
 40
1.0
 10
86.3265906958
 20
178.6571788725
 30
0.0
 10
86.2857205351
 20
178.7609142932
 30
0.0
 10
86.1106376608
 20
179.1752687256
 30
0.0
 10
85.8968731651
 20
179.5732302981
 30
0.0
 10
85.7166722605
 20
179.859491626
 30
0.0
  0
SPLINE
  5
495
100
AcDbEntity
  8
0
100
AcDbSpline
 62
7
  6
CONTINUOUS
 70
0
 71
3
 72
11
 73
7
 74
0
 42
0.0000001
 43
0.0000001
 44
0.0000000001
 40
0.0
 40
0.0
 40
0.0
 40
0.0
 40
0.2889518117
 40
0.5484962404
 40
0.7821244903
 40
1.0
 40
1.0
 40
1.0
 40
1.0
 10
82.4993082913
 20
181.1476251737
 30
0.0
 10
82.4993082913
 20
181.3580954661
 30
0.0
 10
82.5307086875
 20
181.7588791973
 30
0.0
 10
82.6887078813
 20
182.3111499702
 30
0.0
 10
82.9549094686
 20
182.7631579884
 30
0.0
 10
83.2060025293
 20
182.9860690893
 30
0.0
 10
83.3407752536
 20
183.0698643158
 30
0.0
  0
SPLINE
  5
496
100
AcDbEntity
  8
0
100
AcDbSpline
 62
7
  6
CONTINUOUS
 70
0
 71
3
 72
11
 73
7
 74
0
 42
0.0000001
 43
0.0000001
 44
0.0000000001
 40
0.0
 40
0.0
 40
0.0
 40
0.0
 40
0.2276472674
 40
0.4653860528
 40
0.7214503147
 40
1.0
 40
1.0
 40
1.0
 40
1.0
 10
94.1293776863
 20
126.9975313478
 30
0.0
 10
94.0429317423
 20
126.9475623141
 30
0.0
 10
93.8515011773
 20
126.8690409628
 30
0.0
 10
93.5349370801
 20
126.8266558027
 30
0.0
 10
93.1952543635
 20
126.8580813363
 30
0.0
 10
92.9686102834
 20
126.9232190978
 30
0.0
 10
92.854101419
 20
126.9658164563
 30
0.0
  0
SPLINE
  5
497
100
AcDbEntity
  8
0
100
AcDbSpline
 62
7
  6
CONTINUOUS
 70
0
 71
3
 72
11
 73
7
 74
0
 42
0.0000001
 43
0.0000001
 44
0.0000000001
 40
0.0
 40
0.0
 40
0.0
 40
0.0
 40
0.2179659825
 40
0.4527816285
 40
0.7126673242
 40
1.0
 40
1.0
 40
1.0
 40
1.0
 10
94.4221198884
 20
126.759257382
 30
0.0
 10
94.5297344894
 20
126.8378773038
 30
0.0
 10
94.7279026755
 20
127.0382601918
 30
0.0
 10
94.936821733
 20
127.4259457168
 30
0.0
 10
95.0611768088
 20
127.8912021681
 30
0.0
 10
95.0860792524
 20
128.2267149065
 30
0.0
 10
95.0860792524
 20
128.4024029325
 30
0.0
  0
SPLINE
  5
498
100
AcDbEntity
  8
0
100
AcDbSpline
 62
7
  6
CONTINUOUS
 70
0
 71
3
 72
11
 73
7
 74
0
 42
0.0000001
 43
0.0000001
 44
0.0000000001
 40
0.0
 40
0.0
 40
0.0
 40
0.0
 40
0.2278667137
 40
0.4657153107
 40
0.7217082114
 40
1.0
 40
1.0
 40
1.0
 40
1.0
 10
29.0752844369
 20
164.5556782477
 30
0.0
 10
28.9893946043
 20
164.506030968
 30
0.0
 10
28.7993448045
 20
164.4278822403
 30
0.0
 10
28.4851414952
 20
164.385038632
 30
0.0
 10
28.1479778705
 20
164.4150723009
 30
0.0
 10
27.9228994953
 20
164.4787975119
 30
0.0
 10
27.8091711039
 20
164.5205779213
 30
0.0
  0
SPLINE
  5
499
100
AcDbEntity
  8
0
100
AcDbSpline
 62
7
  6
CONTINUOUS
 70
0
 71
3
 72
9
 73
5
 74
0
 42
0.0000001
 43
0.0000001
 44
0.0000000001
 40
0.0
 40
0.0
 40
0.0
 40
0.0
 40
0.5169539572
 40
1.0
 40
1.0
 40
1.0
 40
1.0
 10
101.9180245492
 20
197.4271572583
 30
0.0
 10
102.0525007926
 20
197.7232424403
 30
0.0
 10
102.3865635683
 20
198.2679013628
 30
0.0
 10
102.8787640475
 20
198.6811605445
 30
0.0
 10
103.1419433749
 20
198.833046061
 30
0.0
  0
SPLINE
  5
49A
100
AcDbEntity
  8
0
100
AcDbSpline
 62
7
  6
CONTINUOUS
 70
0
 71
3
 72
9
 73
5
 74
0
 42
0.0000001
 43
0.0000001
 44
0.0000000001
 40
0.0
 40
0.0
 40
0.0
 40
0.0
 40
0.514587924
 40
1.0
 40
1.0
 40
1.0
 40
1.0
 10
101.1209031751
 20
196.0524482044
 30
0.0
 10
101.2156467119
 20
196.2503041388
 30
0.0
 10
101.4380240104
 20
196.6183519996
 30
0.0
 10
101.7408805885
 20
196.9253731996
 30
0.0
 10
101.9040416383
 20
197.0526505955
 30
0.0
  0
SPLINE
  5
49B
100
AcDbEntity
  8
0
100
AcDbSpline
 62
7
  6
CONTINUOUS
 70
0
 71
3
 72
11
 73
7
 74
0
 42
0.0000001
 43
0.0000001
 44
0.0000000001
 40
0.0
 40
0.0
 40
0.0
 40
0.0
 40
0.2179659628
 40
0.4527815534
 40
0.7126672416
 40
1.0
 40
1.0
 40
1.0
 40
1.0
 10
29.3680215733
 20
164.3174041666
 30
0.0
 10
29.4756366999
 20
164.3960238927
 30
0.0
 10
29.6738059604
 20
164.5964066614
 30
0.0
 10
29.882726197
 20
164.9840927448
 30
0.0
 10
30.0070819679
 20
165.4493502493
 30
0.0
 10
30.0319845389
 20
165.7848638487
 30
0.0
 10
30.0319845389
 20
165.9605523483
 30
0.0
  0
SPLINE
  5
49C
100
AcDbEntity
  8
0
100
AcDbSpline
 62
7
  6
CONTINUOUS
 70
0
 71
3
 72
11
 73
7
 74
0
 42
0.0000001
 43
0.0000001
 44
0.0000000001
 40
0.0
 40
0.0
 40
0.0
 40
0.0
 40
0.289747467
 40
0.5490810816
 40
0.7822227886
 40
1.0
 40
1.0
 40
1.0
 40
1.0
 10
94.7675466191
 20
190.0677522873
 30
0.0
 10
94.7675466191
 20
190.3971467177
 30
0.0
 10
94.817408583
 20
191.0234895006
 30
0.0
 10
95.0711562232
 20
191.8840414302
 30
0.0
 10
95.4982233782
 20
192.5822695548
 30
0.0
 10
95.8993644949
 20
192.9195771766
 30
0.0
 10
96.1137929209
 20
193.0433288045
 30
0.0
  0
SPLINE
  5
49D
100
AcDbEntity
  8
0
100
AcDbSpline
 62
7
  6
CONTINUOUS
 70
0
 71
3
 72
11
 73
7
 74
0
 42
0.0000001
 43
0.0000001
 44
0.0000000001
 40
0.0
 40
0.0
 40
0.0
 40
0.0
 40
0.2276472674
 40
0.4653860528
 40
0.7214503147
 40
1.0
 40
1.0
 40
1.0
 40
1.0
 10
94.1293776863
 20
64.8616974042
 30
0.0
 10
94.0429317423
 20
64.8117283705
 30
0.0
 10
93.8515011773
 20
64.7332070192
 30
0.0
 10
93.5349370801
 20
64.6908218591
 30
0.0
 10
93.1952543635
 20
64.7222473928
 30
0.0
 10
92.9686102834
 20
64.7873851542
 30
0.0
 10
92.854101419
 20
64.8299825128
 30
0.0
  0
SPLINE
  5
49E
100
AcDbEntity
  8
0
100
AcDbSpline
 62
7
  6
CONTINUOUS
 70
0
 71
3
 72
11
 73
7
 74
0
 42
0.0000001
 43
0.0000001
 44
0.0000000001
 40
0.0
 40
0.0
 40
0.0
 40
0.0
 40
0.2179659825
 40
0.4527816285
 40
0.7126673242
 40
1.0
 40
1.0
 40
1.0
 40
1.0
 10
94.4221198884
 20
64.6234234384
 30
0.0
 10
94.5297344894
 20
64.7020433602
 30
0.0
 10
94.7279026755
 20
64.9024262483
 30
0.0
 10
94.936821733
 20
65.2901117733
 30
0.0
 10
95.0611768088
 20
65.7553682245
 30
0.0
 10
95.0860792524
 20
66.090880963
 30
0.0
 10
95.0860792524
 20
66.2665689889
 30
0.0
  0
SPLINE
  5
49F
100
AcDbEntity
  8
0
100
AcDbSpline
 62
7
  6
CONTINUOUS
 70
0
 71
3
 72
11
 73
7
 74
0
 42
0.0000001
 43
0.0000001
 44
0.0000000001
 40
0.0
 40
0.0
 40
0.0
 40
0.0
 40
0.2889518117
 40
0.5484962404
 40
0.7821244903
 40
1.0
 40
1.0
 40
1.0
 40
1.0
 10
107.2481486714
 20
166.8591987655
 30
0.0
 10
107.2481486714
 20
167.0696690579
 30
0.0
 10
107.2795490677
 20
167.4704527891
 30
0.0
 10
107.4375482615
 20
168.022723562
 30
0.0
 10
107.7037498488
 20
168.4747315802
 30
0.0
 10
107.9548429095
 20
168.6976426811
 30
0.0
 10
108.0896156337
 20
168.7814379076
 30
0.0
  0
SPLINE
  5
4A0
100
AcDbEntity
  8
0
100
AcDbSpline
 62
7
  6
CONTINUOUS
 70
0
 71
3
 72
9
 73
5
 74
0
 42
0.0000001
 43
0.0000001
 44
0.0000000001
 40
0.0
 40
0.0
 40
0.0
 40
0.0
 40
0.4757944367
 40
1.0
 40
1.0
 40
1.0
 40
1.0
 10
91.8723051774
 20
149.6045484521
 30
0.0
 10
92.0443686684
 20
149.7039895418
 30
0.0
 10
92.3626382685
 20
149.9946850603
 30
0.0
 10
92.5463624163
 20
150.3794737617
 30
0.0
 10
92.6137698775
 20
150.5877918536
 30
0.0
  0
SPLINE
  5
4A1
100
AcDbEntity
  8
0
100
AcDbSpline
 62
7
  6
CONTINUOUS
 70
0
 71
3
 72
9
 73
5
 74
0
 42
0.0000001
 43
0.0000001
 44
0.0000000001
 40
0.0
 40
0.0
 40
0.0
 40
0.0
 40
0.5169539572
 40
1.0
 40
1.0
 40
1.0
 40
1.0
 10
126.6668649294
 20
183.1387308501
 30
0.0
 10
126.8013411728
 20
183.4348160321
 30
0.0
 10
127.1354039485
 20
183.9794749546
 30
0.0
 10
127.6276044276
 20
184.3927341363
 30
0.0
 10
127.890783755
 20
184.5446196528
 30
0.0
  0
SPLINE
  5
4A2
100
AcDbEntity
  8
0
100
AcDbSpline
 62
7
  6
CONTINUOUS
 70
0
 71
3
 72
9
 73
5
 74
0
 42
0.0000001
 43
0.0000001
 44
0.0000000001
 40
0.0
 40
0.0
 40
0.0
 40
0.0
 40
0.2635144174
 40
1.0
 40
1.0
 40
1.0
 40
1.0
 10
107.449842848
 20
165.4929251535
 30
0.0
 10
107.4170446829
 20
165.6099283407
 30
0.0
 10
107.3058299725
 20
166.0573462808
 30
0.0
 10
107.2481486714
 20
166.5195864436
 30
0.0
 10
107.2481486714
 20
166.8591987655
 30
0.0
  0
SPLINE
  5
4A3
100
AcDbEntity
  8
0
100
AcDbSpline
 62
7
  6
CONTINUOUS
 70
0
 71
3
 72
9
 73
5
 74
0
 42
0.0000001
 43
0.0000001
 44
0.0000000001
 40
0.0
 40
0.0
 40
0.0
 40
0.0
 40
0.514587924
 40
1.0
 40
1.0
 40
1.0
 40
1.0
 10
125.8697435552
 20
181.7640217962
 30
0.0
 10
125.964487092
 20
181.9618777306
 30
0.0
 10
126.1868643906
 20
182.3299255914
 30
0.0
 10
126.4897209687
 20
182.6369467914
 30
0.0
 10
126.6528820184
 20
182.7642241872
 30
0.0
  0
SPLINE
  5
4A4
100
AcDbEntity
  8
0
100
AcDbSpline
 62
7
  6
CONTINUOUS
 70
0
 71
3
 72
11
 73
7
 74
0
 42
0.0000001
 43
0.0000001
 44
0.0000000001
 40
0.0
 40
0.0
 40
0.0
 40
0.0
 40
0.2635946135
 40
0.524180869
 40
0.7722972828
 40
1.0
 40
1.0
 40
1.0
 40
1.0
 10
121.4396443696
 20
170.3514913692
 30
0.0
 10
121.1418377525
 20
170.7692901929
 30
0.0
 10
120.6068208464
 20
171.6424280923
 30
0.0
 10
120.0000173821
 20
173.0229079003
 30
0.0
 10
119.6155079598
 20
174.4089622821
 30
0.0
 10
119.5163869992
 20
175.3361139418
 30
0.0
 10
119.5163869992
 20
175.7793258791
 30
0.0
  0
SPLINE
  5
4A5
100
AcDbEntity
  8
0
100
AcDbSpline
 62
7
  6
CONTINUOUS
 70
0
 71
3
 72
11
 73
7
 74
0
 42
0.0000001
 43
0.0000001
 44
0.0000000001
 40
0.0
 40
0.0
 40
0.0
 40
0.0
 40
0.289747467
 40
0.5490810816
 40
0.7822227886
 40
1.0
 40
1.0
 40
1.0
 40
1.0
 10
119.5163869992
 20
175.7793258791
 30
0.0
 10
119.5163869992
 20
176.1087203095
 30
0.0
 10
119.5662489632
 20
176.7350630924
 30
0.0
 10
119.8199966034
 20
177.5956150219
 30
0.0
 10
120.2470637584
 20
178.2938431466
 30
0.0
 10
120.6482048751
 20
178.6311507683
 30
0.0
 10
120.862633301
 20
178.7549023963
 30
0.0
  0
SPLINE
  5
4A6
100
AcDbEntity
  8
0
100
AcDbSpline
 62
7
  6
CONTINUOUS
 70
0
 71
3
 72
9
 73
5
 74
0
 42
0.0000001
 43
0.0000001
 44
0.0000000001
 40
0.0
 40
0.0
 40
0.0
 40
0.0
 40
0.2479052382
 40
1.0
 40
1.0
 40
1.0
 40
1.0
 10
111.075431076
 20
164.3687524643
 30
0.0
 10
111.0345609153
 20
164.472487885
 30
0.0
 10
110.859478041
 20
164.8868423173
 30
0.0
 10
110.6457135452
 20
165.2848038899
 30
0.0
 10
110.4655126407
 20
165.5710652178
 30
0.0
  0
SPLINE
  5
4A7
100
AcDbEntity
  8
0
100
AcDbSpline
 62
7
  6
CONTINUOUS
 70
0
 71
3
 72
9
 73
5
 74
0
 42
0.0000001
 43
0.0000001
 44
0.0000000001
 40
0.0
 40
0.0
 40
0.0
 40
0.0
 40
0.4757944367
 40
1.0
 40
1.0
 40
1.0
 40
1.0
 10
67.1234647973
 20
163.8929748603
 30
0.0
 10
67.2955282883
 20
163.99241595
 30
0.0
 10
67.6137978884
 20
164.2831114685
 30
0.0
 10
67.7975220362
 20
164.6679001699
 30
0.0
 10
67.8649294974
 20
164.8762182618
 30
0.0
  0
SPLINE
  5
4A8
100
AcDbEntity
  8
0
100
AcDbSpline
 62
7
  6
CONTINUOUS
 70
0
 71
3
 72
13
 73
9
 74
0
 42
0.0000001
 43
0.0000001
 44
0.0000000001
 40
0.0
 40
0.0
 40
0.0
 40
0.0
 40
0.3074950229
 40
0.580430913
 40
0.7000145263
 40
0.8081042742
 40
0.9067560824
 40
1.0
 40
1.0
 40
1.0
 40
1.0
 10
91.5086248535
 20
155.0799110382
 30
0.0
 10
91.2318207673
 20
155.4708477772
 30
0.0
 10
90.6353749965
 20
156.1596570435
 30
0.0
 10
89.7383779371
 20
156.8071967248
 30
0.0
 10
89.0087166844
 20
157.0937646533
 30
0.0
 10
88.50377427
 20
157.182220003
 30
0.0
 10
88.0323071562
 20
157.147482615
 30
0.0
 10
87.7481642851
 20
157.0383237009
 30
0.0
 10
87.6224022708
 20
156.965641741
 30
0.0
  0
SPLINE
  5
4A9
100
AcDbEntity
  8
0
100
AcDbSpline
 62
7
  6
CONTINUOUS
 70
0
 71
3
 72
11
 73
7
 74
0
 42
0.0000001
 43
0.0000001
 44
0.0000000001
 40
0.0
 40
0.0
 40
0.0
 40
0.0
 40
0.2635946135
 40
0.524180869
 40
0.7722972828
 40
1.0
 40
1.0
 40
1.0
 40
1.0
 10
96.6908039894
 20
184.6399177774
 30
0.0
 10
96.3929973723
 20
185.0577166012
 30
0.0
 10
95.8579804662
 20
185.9308545005
 30
0.0
 10
95.251177002
 20
187.3113343085
 30
0.0
 10
94.8666675796
 20
188.6973886903
 30
0.0
 10
94.7675466191
 20
189.6245403501
 30
0.0
 10
94.7675466191
 20
190.0677522873
 30
0.0
  0
SPLINE
  5
4AA
100
AcDbEntity
  8
0
100
AcDbSpline
 62
7
  6
CONTINUOUS
 70
0
 71
3
 72
10
 73
6
 74
0
 42
0.0000001
 43
0.0000001
 44
0.0000000001
 40
0.0
 40
0.0
 40
0.0
 40
0.0
 40
0.2838705471
 40
0.5473999298
 40
1.0
 40
1.0
 40
1.0
 40
1.0
 10
88.756063331
 20
39.9554003672
 30
0.0
 10
88.4734072299
 20
40.2490453028
 30
0.0
 10
87.8931229697
 20
40.7845008559
 30
0.0
 10
86.7161855724
 20
41.6054068575
 30
0.0
 10
85.7273416461
 20
42.0019310825
 30
0.0
 10
85.0818134195
 20
42.0766815528
 30
0.0
  0
SPLINE
  5
4AB
100
AcDbEntity
  8
0
100
AcDbSpline
 62
7
  6
CONTINUOUS
 70
0
 71
3
 72
9
 73
5
 74
0
 42
0.0000001
 43
0.0000001
 44
0.0000000001
 40
0.0
 40
0.0
 40
0.0
 40
0.0
 40
0.4744978658
 40
1.0
 40
1.0
 40
1.0
 40
1.0
 10
77.5850900033
 20
47.6295725454
 30
0.0
 10
77.5850900033
 20
48.1307208963
 30
0.0
 10
77.3963986219
 20
49.1872392584
 30
0.0
 10
76.9644928257
 20
50.1610155896
 30
0.0
 10
76.6859555503
 20
50.6410793332
 30
0.0
  0
SPLINE
  5
4AC
100
AcDbEntity
  8
0
100
AcDbSpline
 62
7
  6
CONTINUOUS
 70
0
 71
3
 72
10
 73
6
 74
0
 42
0.0000001
 43
0.0000001
 44
0.0000000001
 40
0.0
 40
0.0
 40
0.0
 40
0.0
 40
0.2838705471
 40
0.5473999298
 40
1.0
 40
1.0
 40
1.0
 40
1.0
 10
64.0072229508
 20
54.2438267754
 30
0.0
 10
63.7245668497
 20
54.537471711
 30
0.0
 10
63.1442825896
 20
55.0729272641
 30
0.0
 10
61.9673451922
 20
55.8938332658
 30
0.0
 10
60.978501266
 20
56.2903574907
 30
0.0
 10
60.3329730394
 20
56.365107961
 30
0.0
  0
SPLINE
  5
4AD
100
AcDbEntity
  8
0
100
AcDbSpline
 62
7
  6
CONTINUOUS
 70
0
 71
3
 72
9
 73
5
 74
0
 42
0.0000001
 43
0.0000001
 44
0.0000000001
 40
0.0
 40
0.0
 40
0.0
 40
0.0
 40
0.4744978658
 40
1.0
 40
1.0
 40
1.0
 40
1.0
 10
52.8362496231
 20
61.9179989536
 30
0.0
 10
52.8362496231
 20
62.4191473045
 30
0.0
 10
52.6475582418
 20
63.4756656667
 30
0.0
 10
52.2156524455
 20
64.4494419979
 30
0.0
 10
51.9371151702
 20
64.9295057415
 30
0.0
  0
SPLINE
  5
4AE
100
AcDbEntity
  8
0
100
AcDbSpline
 62
7
  6
CONTINUOUS
 70
0
 71
3
 72
10
 73
6
 74
0
 42
0.0000001
 43
0.0000001
 44
0.0000000001
 40
0.0
 40
0.0
 40
0.0
 40
0.0
 40
0.2838705471
 40
0.5473999298
 40
1.0
 40
1.0
 40
1.0
 40
1.0
 10
39.2583825707
 20
68.5322531836
 30
0.0
 10
38.9757264696
 20
68.8258981192
 30
0.0
 10
38.3954422094
 20
69.3613536723
 30
0.0
 10
37.2185048121
 20
70.182259674
 30
0.0
 10
36.2296608858
 20
70.5787838989
 30
0.0
 10
35.5841326592
 20
70.6535343692
 30
0.0
  0
SPLINE
  5
4AF
100
AcDbEntity
  8
0
100
AcDbSpline
 62
7
  6
CONTINUOUS
 70
0
 71
3
 72
9
 73
5
 74
0
 42
0.0000001
 43
0.0000001
 44
0.0000000001
 40
0.0
 40
0.0
 40
0.0
 40
0.0
 40
0.5199327878
 40
1.0
 40
1.0
 40
1.0
 40
1.0
 10
58.232938885
 20
80.1940931288
 30
0.0
 10
58.2678632884
 20
80.1059935273
 30
0.0
 10
58.3576573131
 20
79.9436304889
 30
0.0
 10
58.4987614933
 20
79.8209427682
 30
0.0
 10
58.574533381
 20
79.7771773773
 30
0.0
  0
SPLINE
  5
4B0
100
AcDbEntity
  8
0
100
AcDbSpline
 62
7
  6
CONTINUOUS
 70
0
 71
3
 72
9
 73
5
 74
0
 42
0.0000001
 43
0.0000001
 44
0.0000000001
 40
0.0
 40
0.0
 40
0.0
 40
0.0
 40
0.2635144174
 40
1.0
 40
1.0
 40
1.0
 40
1.0
 10
82.7010024679
 20
179.7813515617
 30
0.0
 10
82.6682043028
 20
179.8983547489
 30
0.0
 10
82.5569895923
 20
180.345772689
 30
0.0
 10
82.4993082913
 20
180.8080128518
 30
0.0
 10
82.4993082913
 20
181.1476251737
 30
0.0
  0
SPLINE
  5
4B1
100
AcDbEntity
  8
0
100
AcDbSpline
 62
7
  6
CONTINUOUS
 70
0
 71
3
 72
11
 73
7
 74
0
 42
0.0000001
 43
0.0000001
 44
0.0000000001
 40
0.0
 40
0.0
 40
0.0
 40
0.0
 40
0.2316107521
 40
0.4875191572
 40
0.7500844717
 40
1.0
 40
1.0
 40
1.0
 40
1.0
 10
95.0860792524
 20
66.2665689889
 30
0.0
 10
95.0860792524
 20
66.6343643748
 30
0.0
 10
94.9684709696
 20
67.4093338825
 30
0.0
 10
94.5415541485
 20
68.5287248727
 30
0.0
 10
93.8970916688
 20
69.5729259124
 30
0.0
 10
93.3391620803
 20
70.1754585575
 30
0.0
 10
93.0362796305
 20
70.4319007544
 30
0.0
  0
SPLINE
  5
4B2
100
AcDbEntity
  8
0
100
AcDbSpline
 62
7
  6
CONTINUOUS
 70
0
 71
3
 72
11
 73
7
 74
0
 42
0.0000001
 43
0.0000001
 44
0.0000000001
 40
0.0
 40
0.0
 40
0.0
 40
0.0
 40
0.2931261628
 40
0.5557742791
 40
0.7889330804
 40
1.0
 40
1.0
 40
1.0
 40
1.0
 10
92.8212632718
 20
70.6032326712
 30
0.0
 10
92.6475858953
 20
70.7330788888
 30
0.0
 10
92.2990590501
 20
70.9555091751
 30
0.0
 10
91.752755109
 20
71.1727942024
 30
0.0
 10
91.2288801328
 20
71.2464143593
 30
0.0
 10
90.897737034
 20
71.1894941057
 30
0.0
 10
90.751342964
 20
71.1351832736
 30
0.0
  0
SPLINE
  5
4B3
100
AcDbEntity
  8
0
100
AcDbSpline
 62
7
  6
CONTINUOUS
 70
0
 71
3
 72
11
 73
7
 74
0
 42
0.0000001
 43
0.0000001
 44
0.0000000001
 40
0.0
 40
0.0
 40
0.0
 40
0.0
 40
0.2290519348
 40
0.4810511464
 40
0.7429830223
 40
1.0
 40
1.0
 40
1.0
 40
1.0
 10
30.0319845389
 20
165.9605523483
 30
0.0
 10
30.0319845389
 20
166.2804833016
 30
0.0
 10
29.9426501545
 20
166.9531500046
 30
0.0
 10
29.6090573117
 20
167.9410861164
 30
0.0
 10
29.0950704271
 20
168.8928034137
 30
0.0
 10
28.6467784748
 20
169.4680202589
 30
0.0
 10
28.400213305
 20
169.7289426224
 30
0.0
  0
SPLINE
  5
4B4
100
AcDbEntity
  8
0
100
AcDbSpline
 62
7
  6
CONTINUOUS
 70
0
 71
3
 72
9
 73
5
 74
0
 42
0.0000001
 43
0.0000001
 44
0.0000000001
 40
0.0
 40
0.0
 40
0.0
 40
0.0
 40
0.2546900661
 40
1.0
 40
1.0
 40
1.0
 40
1.0
 10
28.400213305
 20
169.7289426224
 30
0.0
 10
28.367197341
 20
169.7638810662
 30
0.0
 10
28.2357950507
 20
169.8993717542
 30
0.0
 10
28.0972860643
 20
170.0280153723
 30
0.0
 10
27.9901259992
 20
170.1191457684
 30
0.0
  0
SPLINE
  5
4B5
100
AcDbEntity
  8
0
100
AcDbSpline
 62
7
  6
CONTINUOUS
 70
0
 71
3
 72
11
 73
7
 74
0
 42
0.0000001
 43
0.0000001
 44
0.0000000001
 40
0.0
 40
0.0
 40
0.0
 40
0.0
 40
0.2931261628
 40
0.5557742791
 40
0.7889330804
 40
1.0
 40
1.0
 40
1.0
 40
1.0
 10
27.7671685583
 20
170.2972160307
 30
0.0
 10
27.5934911818
 20
170.4270622482
 30
0.0
 10
27.2449643366
 20
170.6494925346
 30
0.0
 10
26.6986603954
 20
170.8667775618
 30
0.0
 10
26.1747854193
 20
170.9403977187
 30
0.0
 10
25.8436423205
 20
170.8834774651
 30
0.0
 10
25.6972482505
 20
170.829166633
 30
0.0
  0
SPLINE
  5
4B6
100
AcDbEntity
  8
0
100
AcDbSpline
 62
7
  6
CONTINUOUS
 70
0
 71
3
 72
11
 73
7
 74
0
 42
0.0000001
 43
0.0000001
 44
0.0000000001
 40
0.0
 40
0.0
 40
0.0
 40
0.0
 40
0.2290857018
 40
0.4811456376
 40
0.7430916754
 40
1.0
 40
1.0
 40
1.0
 40
1.0
 10
95.0860792524
 20
128.4024029325
 30
0.0
 10
95.0860792524
 20
128.7231699742
 30
0.0
 10
94.9962825153
 20
129.3976272459
 30
0.0
 10
94.6611266391
 20
130.3879292132
 30
0.0
 10
94.1449074631
 20
131.3414402492
 30
0.0
 10
93.6947297184
 20
131.917335681
 30
0.0
 10
93.4471734627
 20
132.1783291005
 30
0.0
  0
SPLINE
  5
4B7
100
AcDbEntity
  8
0
100
AcDbSpline
 62
7
  6
CONTINUOUS
 70
0
 71
3
 72
9
 73
5
 74
0
 42
0.0000001
 43
0.0000001
 44
0.0000000001
 40
0.0
 40
0.0
 40
0.0
 40
0.0
 40
0.2547246762
 40
1.0
 40
1.0
 40
1.0
 40
1.0
 10
93.4471734627
 20
132.1783291005
 30
0.0
 10
93.4140857037
 20
132.2132128377
 30
0.0
 10
93.2824184079
 20
132.3484629507
 30
0.0
 10
93.1436396077
 20
132.4768359733
 30
0.0
 10
93.0362796305
 20
132.5677346979
 30
0.0
  0
SPLINE
  5
4B8
100
AcDbEntity
  8
0
100
AcDbSpline
 62
7
  6
CONTINUOUS
 70
0
 71
3
 72
11
 73
7
 74
0
 42
0.0000001
 43
0.0000001
 44
0.0000000001
 40
0.0
 40
0.0
 40
0.0
 40
0.0
 40
0.2931261628
 40
0.5557742791
 40
0.7889330804
 40
1.0
 40
1.0
 40
1.0
 40
1.0
 10
92.8212632718
 20
132.7390666148
 30
0.0
 10
92.6475858953
 20
132.8689128323
 30
0.0
 10
92.2990590501
 20
133.0913431187
 30
0.0
 10
91.752755109
 20
133.3086281459
 30
0.0
 10
91.2288801328
 20
133.3822483028
 30
0.0
 10
90.897737034
 20
133.3253280493
 30
0.0
 10
90.751342964
 20
133.2710172172
 30
0.0
  0
SPLINE
  5
4B9
100
AcDbEntity
  8
0
100
AcDbSpline
 62
7
  6
CONTINUOUS
 70
0
 71
3
 72
11
 73
7
 74
0
 42
0.0000001
 43
0.0000001
 44
0.0000000001
 40
0.0
 40
0.0
 40
0.0
 40
0.0
 40
0.2635946135
 40
0.524180869
 40
0.7722972828
 40
1.0
 40
1.0
 40
1.0
 40
1.0
 10
71.9419636093
 20
198.9283441856
 30
0.0
 10
71.6441569922
 20
199.3461430094
 30
0.0
 10
71.1091400861
 20
200.2192809087
 30
0.0
 10
70.5023366219
 20
201.5997607167
 30
0.0
 10
70.1178271995
 20
202.9858150985
 30
0.0
 10
70.0187062389
 20
203.9129667583
 30
0.0
 10
70.0187062389
 20
204.3561786955
 30
0.0
  0
SPLINE
  5
4BA
100
AcDbEntity
  8
0
100
AcDbSpline
 62
7
  6
CONTINUOUS
 70
0
 71
3
 72
9
 73
5
 74
0
 42
0.0000001
 43
0.0000001
 44
0.0000000001
 40
0.0
 40
0.0
 40
0.0
 40
0.0
 40
0.2635144174
 40
1.0
 40
1.0
 40
1.0
 40
1.0
 10
57.9521620878
 20
194.0697779699
 30
0.0
 10
57.9193639226
 20
194.1867811571
 30
0.0
 10
57.8081492122
 20
194.6341990972
 30
0.0
 10
57.7504679111
 20
195.09643926
 30
0.0
 10
57.7504679111
 20
195.4360515819
 30
0.0
  0
SPLINE
  5
4BB
100
AcDbEntity
  8
0
100
AcDbSpline
 62
7
  6
CONTINUOUS
 70
0
 71
3
 72
11
 73
7
 74
0
 42
0.0000001
 43
0.0000001
 44
0.0000000001
 40
0.0
 40
0.0
 40
0.0
 40
0.0
 40
0.2474911727
 40
0.5101483618
 40
0.7673912553
 40
1.0
 40
1.0
 40
1.0
 40
1.0
 10
92.0055697488
 20
65.3217744155
 30
0.0
 10
91.7168367918
 20
65.5490951216
 30
0.0
 10
91.1826353975
 20
66.0970136775
 30
0.0
 10
90.5642315703
 20
67.0621520089
 30
0.0
 10
90.1518810851
 20
68.1079765196
 30
0.0
 10
90.0373158149
 20
68.836025874
 30
0.0
 10
90.0373158149
 20
69.1814079762
 30
0.0
  0
SPLINE
  5
4BC
100
AcDbEntity
  8
0
100
AcDbSpline
 62
7
  6
CONTINUOUS
 70
0
 71
3
 72
11
 73
7
 74
0
 42
0.0000001
 43
0.0000001
 44
0.0000000001
 40
0.0
 40
0.0
 40
0.0
 40
0.0
 40
0.2896585288
 40
0.5490963786
 40
0.7822201232
 40
1.0
 40
1.0
 40
1.0
 40
1.0
 10
90.0373158149
 20
69.1814079762
 30
0.0
 10
90.0373158149
 20
69.3531454521
 30
0.0
 10
90.0634049465
 20
69.6798040425
 30
0.0
 10
90.1956287368
 20
70.1286233664
 30
0.0
 10
90.4183605394
 20
70.4928856399
 30
0.0
 10
90.6276675788
 20
70.6686309525
 30
0.0
 10
90.7394564158
 20
70.7332487484
 30
0.0
  0
SPLINE
  5
4BD
100
AcDbEntity
  8
0
100
AcDbSpline
 62
7
  6
CONTINUOUS
 70
0
 71
3
 72
9
 73
5
 74
0
 42
0.0000001
 43
0.0000001
 44
0.0000000001
 40
0.0
 40
0.0
 40
0.0
 40
0.0
 40
0.4757944367
 40
1.0
 40
1.0
 40
1.0
 40
1.0
 10
42.3746244171
 20
178.1814012685
 30
0.0
 10
42.5466879081
 20
178.2808423582
 30
0.0
 10
42.8649575082
 20
178.5715378768
 30
0.0
 10
43.048681656
 20
178.9563265781
 30
0.0
 10
43.1160891172
 20
179.16464467
 30
0.0
  0
SPLINE
  5
4BE
100
AcDbEntity
  8
0
100
AcDbSpline
 62
7
  6
CONTINUOUS
 70
0
 71
3
 72
11
 73
7
 74
0
 42
0.0000001
 43
0.0000001
 44
0.0000000001
 40
0.0
 40
0.0
 40
0.0
 40
0.0
 40
0.2177699473
 40
0.4509056099
 40
0.7103757301
 40
1.0
 40
1.0
 40
1.0
 40
1.0
 10
51.9456286872
 20
162.8288915631
 30
0.0
 10
52.0874255959
 20
162.9108406101
 30
0.0
 10
52.352945757
 20
163.1337413188
 30
0.0
 10
52.6354261995
 20
163.5958461941
 30
0.0
 10
52.8031395105
 20
164.1651470595
 30
0.0
 10
52.8362496231
 20
164.5794910805
 30
0.0
 10
52.8362496231
 20
164.7973035119
 30
0.0
  0
SPLINE
  5
4BF
100
AcDbEntity
  8
0
100
AcDbSpline
 62
7
  6
CONTINUOUS
 70
0
 71
3
 72
11
 73
7
 74
0
 42
0.0000001
 43
0.0000001
 44
0.0000000001
 40
0.0
 40
0.0
 40
0.0
 40
0.0
 40
0.2177699473
 40
0.4509056099
 40
0.7103757301
 40
1.0
 40
1.0
 40
1.0
 40
1.0
 10
76.6944690673
 20
148.5404651549
 30
0.0
 10
76.836265976
 20
148.6224142019
 30
0.0
 10
77.1017861371
 20
148.8453149106
 30
0.0
 10
77.3842665796
 20
149.3074197859
 30
0.0
 10
77.5519798906
 20
149.8767206513
 30
0.0
 10
77.5850900033
 20
150.2910646723
 30
0.0
 10
77.5850900033
 20
150.5088771037
 30
0.0
  0
SPLINE
  5
4C0
100
AcDbEntity
  8
0
100
AcDbSpline
 62
7
  6
CONTINUOUS
 70
0
 71
3
 72
11
 73
7
 74
0
 42
0.0000001
 43
0.0000001
 44
0.0000000001
 40
0.0
 40
0.0
 40
0.0
 40
0.0
 40
0.2472906142
 40
0.5099553997
 40
0.7673068441
 40
1.0
 40
1.0
 40
1.0
 40
1.0
 10
26.9606394337
 20
165.0085638294
 30
0.0
 10
26.6707400644
 20
165.2354604946
 30
0.0
 10
26.134171357
 20
165.7835450553
 30
0.0
 10
25.5129173927
 20
166.7502808898
 30
0.0
 10
25.0984518756
 20
167.7987628106
 30
0.0
 10
24.9832211013
 20
168.5289867222
 30
0.0
 10
24.9832211013
 20
168.8753913356
 30
0.0
  0
SPLINE
  5
4C1
100
AcDbEntity
  8
0
100
AcDbSpline
 62
7
  6
CONTINUOUS
 70
0
 71
3
 72
11
 73
7
 74
0
 42
0.0000001
 43
0.0000001
 44
0.0000000001
 40
0.0
 40
0.0
 40
0.0
 40
0.0
 40
0.2896562635
 40
0.5490967791
 40
0.7822204379
 40
1.0
 40
1.0
 40
1.0
 40
1.0
 10
24.9832211013
 20
168.8753913356
 30
0.0
 10
24.9832211013
 20
169.0471274306
 30
0.0
 10
25.0093122936
 20
169.3737860216
 30
0.0
 10
25.1415335318
 20
169.8226055178
 30
0.0
 10
25.3642637247
 20
170.1868716285
 30
0.0
 10
25.573574685
 20
170.3626116105
 30
0.0
 10
25.6853631664
 20
170.4272295919
 30
0.0
  0
SPLINE
  5
4C2
100
AcDbEntity
  8
0
100
AcDbSpline
 62
7
  6
CONTINUOUS
 70
0
 71
3
 72
11
 73
7
 74
0
 42
0.0000001
 43
0.0000001
 44
0.0000000001
 40
0.0
 40
0.0
 40
0.0
 40
0.0
 40
0.2474911727
 40
0.5101483618
 40
0.7673912553
 40
1.0
 40
1.0
 40
1.0
 40
1.0
 10
92.0055697488
 20
127.457608359
 30
0.0
 10
91.7168367918
 20
127.6849290652
 30
0.0
 10
91.1826353975
 20
128.232847621
 30
0.0
 10
90.5642315703
 20
129.1979859524
 30
0.0
 10
90.1518810851
 20
130.2438104631
 30
0.0
 10
90.0373158149
 20
130.9718598176
 30
0.0
 10
90.0373158149
 20
131.3172419197
 30
0.0
  0
SPLINE
  5
4C3
100
AcDbEntity
  8
0
100
AcDbSpline
 62
7
  6
CONTINUOUS
 70
0
 71
3
 72
11
 73
7
 74
0
 42
0.0000001
 43
0.0000001
 44
0.0000000001
 40
0.0
 40
0.0
 40
0.0
 40
0.0
 40
0.2896585288
 40
0.5490963786
 40
0.7822201232
 40
1.0
 40
1.0
 40
1.0
 40
1.0
 10
90.0373158149
 20
131.3172419197
 30
0.0
 10
90.0373158149
 20
131.4889793957
 30
0.0
 10
90.0634049465
 20
131.8156379861
 30
0.0
 10
90.1956287368
 20
132.26445731
 30
0.0
 10
90.4183605394
 20
132.6287195835
 30
0.0
 10
90.6276675788
 20
132.8044648961
 30
0.0
 10
90.7394564158
 20
132.8690826919
 30
0.0
  0
SPLINE
  5
4C4
100
AcDbEntity
  8
0
100
AcDbSpline
 62
7
  6
CONTINUOUS
 70
0
 71
3
 72
11
 73
7
 74
0
 42
0.0000001
 43
0.0000001
 44
0.0000000001
 40
0.0
 40
0.0
 40
0.0
 40
0.0
 40
0.2897332681
 40
0.5490805361
 40
0.7822157291
 40
1.0
 40
1.0
 40
1.0
 40
1.0
 10
20.6487091414
 20
152.9407163841
 30
0.0
 10
20.6487091414
 20
153.2447569648
 30
0.0
 10
20.6947518905
 20
153.8229148513
 30
0.0
 10
20.9289651341
 20
154.6172648722
 30
0.0
 10
21.3231779658
 20
155.2617954143
 30
0.0
 10
21.6934551442
 20
155.5731720364
 30
0.0
 10
21.8914035018
 20
155.6873927533
 30
0.0
  0
SPLINE
  5
4C5
100
AcDbEntity
  8
0
100
AcDbSpline
 62
7
  6
CONTINUOUS
 70
0
 71
3
 72
11
 73
7
 74
0
 42
0.0000001
 43
0.0000001
 44
0.0000000001
 40
0.0
 40
0.0
 40
0.0
 40
0.0
 40
0.2421245023
 40
0.5049123767
 40
0.7650515303
 40
1.0
 40
1.0
 40
1.0
 40
1.0
 10
24.5452446852
 20
99.7250205548
 30
0.0
 10
23.9831086409
 20
100.1026943836
 30
0.0
 10
22.9315379371
 20
101.0729827502
 30
0.0
 10
21.7084502877
 20
102.8464382547
 30
0.0
 10
20.8823629337
 20
104.814284883
 30
0.0
 10
20.6487091414
 20
106.2001658673
 30
0.0
 10
20.6487091414
 20
106.8573199613
 30
0.0
  0
SPLINE
  5
4C6
100
AcDbEntity
  8
0
100
AcDbSpline
 62
7
  6
CONTINUOUS
 70
0
 71
3
 72
15
 73
11
 74
0
 42
0.0000001
 43
0.0000001
 44
0.0000000001
 40
0.0
 40
0.0
 40
0.0
 40
0.0
 40
0.088983154
 40
0.185430624
 40
0.29413333
 40
0.4166090186
 40
0.5517827629
 40
0.6968094348
 40
0.8477266797
 40
1.0
 40
1.0
 40
1.0
 40
1.0
 10
102.1777307961
 20
197.2371387471
 30
0.0
 10
102.4352713618
 20
197.3857706354
 30
0.0
 10
103.0371701668
 20
197.5920230346
 30
0.0
 10
104.0351260307
 20
197.5714128622
 30
0.0
 10
105.0929199462
 20
197.2504449719
 30
0.0
 10
106.1693731906
 20
196.6524230326
 30
0.0
 10
107.2223309656
 20
195.8059746413
 30
0.0
 10
108.2071247363
 20
194.7483825557
 30
0.0
 10
109.080375996
 20
193.5269145577
 30
0.0
 10
109.5653061327
 20
192.6338270493
 30
0.0
 10
109.7794272904
 20
192.1722232312
 30
0.0
  0
SPLINE
  5
4C7
100
AcDbEntity
  8
0
100
AcDbSpline
 62
7
  6
CONTINUOUS
 70
0
 71
3
 72
16
 73
12
 74
0
 42
0.0000001
 43
0.0000001
 44
0.0000000001
 40
0.0
 40
0.0
 40
0.0
 40
0.0
 40
0.0442524955
 40
0.089485527
 40
0.1859494022
 40
0.2945086526
 40
0.4167265987
 40
0.5516203218
 40
0.6964583527
 40
0.8473954519
 40
1.0
 40
1.0
 40
1.0
 40
1.0
 10
103.1419433749
 20
198.833046061
 30
0.0
 10
103.2845698239
 20
198.9153583462
 30
0.0
 10
103.5892592227
 20
199.0552095268
 30
0.0
 10
104.2631698126
 20
199.2260920215
 30
0.0
 10
105.2111550801
 20
199.2131499948
 30
0.0
 10
106.388929601
 20
198.8629230222
 30
0.0
 10
107.590190812
 20
198.2065883299
 30
0.0
 10
108.76717361
 20
197.273980501
 30
0.0
 10
109.8714780381
 20
196.105781148
 30
0.0
 10
110.8552647439
 20
194.7530704892
 30
0.0
 10
111.4050022131
 20
193.7624694342
 30
0.0
 10
111.6491260429
 20
193.2497418211
 30
0.0
  0
SPLINE
  5
4C8
100
AcDbEntity
  8
0
100
AcDbSpline
 62
7
  6
CONTINUOUS
 70
0
 71
3
 72
10
 73
6
 74
0
 42
0.0000001
 43
0.0000001
 44
0.0000000001
 40
0.0
 40
0.0
 40
0.0
 40
0.0
 40
0.2317409235
 40
0.4718152684
 40
1.0
 40
1.0
 40
1.0
 40
1.0
 10
81.6118178489
 20
182.0725304137
 30
0.0
 10
81.5146994568
 20
182.0163584772
 30
0.0
 10
81.3299976631
 20
181.8776884391
 30
0.0
 10
81.0171466222
 20
181.5038977308
 30
0.0
 10
80.8765512591
 20
181.1474857863
 30
0.0
 10
80.8169651834
 20
180.8988144191
 30
0.0
  0
SPLINE
  5
4C9
100
AcDbEntity
  8
0
100
AcDbSpline
 62
7
  6
CONTINUOUS
 70
0
 71
3
 72
15
 73
11
 74
0
 42
0.0000001
 43
0.0000001
 44
0.0000000001
 40
0.0
 40
0.0
 40
0.0
 40
0.0
 40
0.152655333
 40
0.3036461602
 40
0.4485382885
 40
0.5834825758
 40
0.705745236
 40
0.8143436744
 40
0.9108432011
 40
1.0
 40
1.0
 40
1.0
 40
1.0
 10
88.3144751391
 20
208.3547087344
 30
0.0
 10
88.0703599065
 20
208.8674178663
 30
0.0
 10
87.5206322105
 20
209.8579930819
 30
0.0
 10
86.5368518114
 20
211.2106772344
 30
0.0
 10
85.4325765394
 20
212.3788953845
 30
0.0
 10
84.255497575
 20
213.3114412722
 30
0.0
 10
83.0545399064
 20
213.9679885049
 30
0.0
 10
81.8758231049
 20
214.3175529705
 30
0.0
 10
80.7645846517
 20
214.3348880947
 30
0.0
 10
80.0945599798
 20
214.1037339871
 30
0.0
 10
79.8073112457
 20
213.9379597909
 30
0.0
  0
SPLINE
  5
4CA
100
AcDbEntity
  8
0
100
AcDbSpline
 62
7
  6
CONTINUOUS
 70
0
 71
3
 72
11
 73
7
 74
0
 42
0.0000001
 43
0.0000001
 44
0.0000000001
 40
0.0
 40
0.0
 40
0.0
 40
0.0
 40
0.2177239861
 40
0.4508730345
 40
0.7104683317
 40
1.0
 40
1.0
 40
1.0
 40
1.0
 10
76.7800998298
 20
156.5571040499
 30
0.0
 10
76.6943575285
 20
156.5076054058
 30
0.0
 10
76.5337951548
 20
156.3728651325
 30
0.0
 10
76.362932196
 20
156.093432271
 30
0.0
 10
76.2616578761
 20
155.7491465291
 30
0.0
 10
76.2415520858
 20
155.4986160927
 30
0.0
 10
76.2415520858
 20
155.3669590792
 30
0.0
  0
SPLINE
  5
4CB
100
AcDbEntity
  8
0
100
AcDbSpline
 62
7
  6
CONTINUOUS
 70
0
 71
3
 72
15
 73
11
 74
0
 42
0.0000001
 43
0.0000001
 44
0.0000000001
 40
0.0
 40
0.0
 40
0.0
 40
0.0
 40
0.1522674864
 40
0.3031824654
 40
0.4482102095
 40
0.583385769
 40
0.7058622182
 40
0.8145651725
 40
0.9110138285
 40
1.0
 40
1.0
 40
1.0
 40
1.0
 10
86.4447968214
 20
207.277145149
 30
0.0
 10
86.2306866588
 20
207.7387322002
 30
0.0
 10
85.7457663469
 20
208.6317935322
 30
0.0
 10
84.8725348615
 20
209.8532449038
 30
0.0
 10
83.8877453967
 20
210.9108426187
 30
0.0
 10
82.8347842629
 20
211.7573046969
 30
0.0
 10
81.7583274872
 20
212.3553384065
 30
0.0
 10
80.7005317613
 20
212.6763188331
 30
0.0
 10
79.7025604457
 20
212.6969477625
 30
0.0
 10
79.1006487958
 20
212.4906875702
 30
0.0
 10
78.8430987037
 20
212.3420524147
 30
0.0
  0
SPLINE
  5
4CC
100
AcDbEntity
  8
0
100
AcDbSpline
 62
7
  6
CONTINUOUS
 70
0
 71
3
 72
11
 73
7
 74
0
 42
0.0000001
 43
0.0000001
 44
0.0000000001
 40
0.0
 40
0.0
 40
0.0
 40
0.0
 40
0.2349228947
 40
0.4912147766
 40
0.7522093182
 40
1.0
 40
1.0
 40
1.0
 40
1.0
 10
89.7865784783
 20
69.1625990153
 30
0.0
 10
89.8030294572
 20
68.8006522072
 30
0.0
 10
89.9420674
 20
68.0476283378
 30
0.0
 10
90.380422326
 20
66.9667172502
 30
0.0
 10
91.0176561496
 20
65.9662353003
 30
0.0
 10
91.5606481058
 20
65.3904492099
 30
0.0
 10
91.8537472095
 20
65.1452063209
 30
0.0
  0
SPLINE
  5
4CD
100
AcDbEntity
  8
0
100
AcDbSpline
 62
7
  6
CONTINUOUS
 70
0
 71
3
 72
9
 73
5
 74
0
 42
0.0000001
 43
0.0000001
 44
0.0000000001
 40
0.0
 40
0.0
 40
0.0
 40
0.0
 40
0.2644846415
 40
1.0
 40
1.0
 40
1.0
 40
1.0
 10
91.8537472095
 20
65.1452063209
 30
0.0
 10
91.9235906714
 20
65.0867666595
 30
0.0
 10
92.1938854876
 20
64.8735878085
 30
0.0
 10
92.4906491759
 20
64.6921645834
 30
0.0
 10
92.7214434158
 20
64.5878993589
 30
0.0
  0
SPLINE
  5
4CE
100
AcDbEntity
  8
0
100
AcDbSpline
 62
7
  6
CONTINUOUS
 70
0
 71
3
 72
11
 73
7
 74
0
 42
0.0000001
 43
0.0000001
 44
0.0000000001
 40
0.0
 40
0.0
 40
0.0
 40
0.0
 40
0.2831961525
 40
0.5402475416
 40
0.7761295946
 40
1.0
 40
1.0
 40
1.0
 40
1.0
 10
92.7214434158
 20
64.5878993589
 30
0.0
 10
92.8630751883
 20
64.523914796
 30
0.0
 10
93.1436369221
 20
64.4226021559
 30
0.0
 10
93.568103543
 20
64.3586239478
 30
0.0
 10
93.9641393418
 20
64.3948675445
 30
0.0
 10
94.2029967877
 20
64.4884691313
 30
0.0
 10
94.309369872
 20
64.5499396474
 30
0.0
  0
SPLINE
  5
4CF
100
AcDbEntity
  8
0
100
AcDbSpline
 62
7
  6
CONTINUOUS
 70
0
 71
3
 72
15
 73
11
 74
0
 42
0.0000001
 43
0.0000001
 44
0.0000000001
 40
0.0
 40
0.0
 40
0.0
 40
0.0
 40
0.1519390963
 40
0.3027846748
 40
0.447920411
 40
0.5832866416
 40
0.7059425682
 40
0.8147364804
 40
0.911148777
 40
1.0
 40
1.0
 40
1.0
 40
1.0
 10
84.7259809872
 20
206.2867028785
 30
0.0
 10
84.5319770444
 20
206.7141318112
 30
0.0
 10
84.0904493053
 20
207.5420748681
 30
0.0
 10
83.2911447934
 20
208.6759282129
 30
0.0
 10
82.386187114
 20
209.6597518888
 30
0.0
 10
81.4160899371
 20
210.4488527413
 30
0.0
 10
80.4227073551
 20
211.0079334863
 30
0.0
 10
79.4455694925
 20
211.3099186281
 30
0.0
 10
78.5231332585
 20
211.3328011175
 30
0.0
 10
77.9666312113
 20
211.1431567127
 30
0.0
 10
77.7288876982
 20
211.0059515404
 30
0.0
  0
SPLINE
  5
4D0
100
AcDbEntity
  8
0
100
AcDbSpline
 62
7
  6
CONTINUOUS
 70
0
 71
3
 72
11
 73
7
 74
0
 42
0.0000001
 43
0.0000001
 44
0.0000000001
 40
0.0
 40
0.0
 40
0.0
 40
0.0
 40
0.2349877085
 40
0.4913622078
 40
0.752362553
 40
1.0
 40
1.0
 40
1.0
 40
1.0
 10
24.7324837648
 20
168.8565823747
 30
0.0
 10
24.7489771762
 20
168.4937019873
 30
0.0
 10
24.8886377806
 20
167.7387298413
 30
0.0
 10
25.328875921
 20
166.6554011312
 30
0.0
 10
25.9686433164
 20
165.6533814399
 30
0.0
 10
26.5137317435
 20
165.0773097544
 30
0.0
 10
26.8078806718
 20
164.8323208155
 30
0.0
  0
SPLINE
  5
4D1
100
AcDbEntity
  8
0
100
AcDbSpline
 62
7
  6
CONTINUOUS
 70
0
 71
3
 72
9
 73
5
 74
0
 42
0.0000001
 43
0.0000001
 44
0.0000000001
 40
0.0
 40
0.0
 40
0.0
 40
0.0
 40
0.2645389033
 40
1.0
 40
1.0
 40
1.0
 40
1.0
 10
26.8078806718
 20
164.8323208155
 30
0.0
 10
26.8777568331
 20
164.7741227907
 30
0.0
 10
27.148109401
 20
164.5619264568
 30
0.0
 10
27.4448760952
 20
164.3815573422
 30
0.0
 10
27.6755936816
 20
164.2781730266
 30
0.0
  0
SPLINE
  5
4D2
100
AcDbEntity
  8
0
100
AcDbSpline
 62
7
  6
CONTINUOUS
 70
0
 71
3
 72
11
 73
7
 74
0
 42
0.0000001
 43
0.0000001
 44
0.0000000001
 40
0.0
 40
0.0
 40
0.0
 40
0.0
 40
0.2829964306
 40
0.53998669
 40
0.7759520403
 40
1.0
 40
1.0
 40
1.0
 40
1.0
 10
27.6755936816
 20
164.2781730266
 30
0.0
 10
27.8165456027
 20
164.2150126142
 30
0.0
 10
28.0957330842
 20
164.1151329856
 30
0.0
 10
28.5179343565
 20
164.0526284434
 30
0.0
 10
28.9118154939
 20
164.0894378661
 30
0.0
 10
29.1493993634
 20
164.1827398626
 30
0.0
 10
29.2552751585
 20
164.2439230068
 30
0.0
  0
SPLINE
  5
4D3
100
AcDbEntity
  8
0
100
AcDbSpline
 62
7
  6
CONTINUOUS
 70
0
 71
3
 72
11
 73
7
 74
0
 42
0.0000001
 43
0.0000001
 44
0.0000000001
 40
0.0
 40
0.0
 40
0.0
 40
0.0
 40
0.2178498795
 40
0.4522688404
 40
0.7120861441
 40
1.0
 40
1.0
 40
1.0
 40
1.0
 10
87.5243988387
 20
40.9601919354
 30
0.0
 10
87.3981158824
 20
40.8727682048
 30
0.0
 10
87.1646603431
 20
40.6467866689
 30
0.0
 10
86.9181127233
 20
40.2029265403
 30
0.0
 10
86.7714124785
 20
39.6670499329
 30
0.0
 10
86.7421373922
 20
39.279763796
 30
0.0
 10
86.7421373922
 20
39.0767750709
 30
0.0
  0
SPLINE
  5
4D4
100
AcDbEntity
  8
0
100
AcDbSpline
 62
7
  6
CONTINUOUS
 70
0
 71
3
 72
11
 73
7
 74
0
 42
0.0000001
 43
0.0000001
 44
0.0000000001
 40
0.0
 40
0.0
 40
0.0
 40
0.0
 40
0.2349228947
 40
0.4912147766
 40
0.7522093182
 40
1.0
 40
1.0
 40
1.0
 40
1.0
 10
89.7865784783
 20
131.2984329588
 30
0.0
 10
89.8030294572
 20
130.9364861508
 30
0.0
 10
89.9420674
 20
130.1834622814
 30
0.0
 10
90.380422326
 20
129.1025511937
 30
0.0
 10
91.0176561496
 20
128.1020692438
 30
0.0
 10
91.5606481058
 20
127.5262831535
 30
0.0
 10
91.8537472094
 20
127.2810402645
 30
0.0
  0
SPLINE
  5
4D5
100
AcDbEntity
  8
0
100
AcDbSpline
 62
7
  6
CONTINUOUS
 70
0
 71
3
 72
9
 73
5
 74
0
 42
0.0000001
 43
0.0000001
 44
0.0000000001
 40
0.0
 40
0.0
 40
0.0
 40
0.0
 40
0.2644846415
 40
1.0
 40
1.0
 40
1.0
 40
1.0
 10
91.8537472094
 20
127.2810402645
 30
0.0
 10
91.9235906714
 20
127.2226006031
 30
0.0
 10
92.1938854876
 20
127.009421752
 30
0.0
 10
92.4906491759
 20
126.827998527
 30
0.0
 10
92.7214434158
 20
126.7237333025
 30
0.0
  0
SPLINE
  5
4D6
100
AcDbEntity
  8
0
100
AcDbSpline
 62
7
  6
CONTINUOUS
 70
0
 71
3
 72
11
 73
7
 74
0
 42
0.0000001
 43
0.0000001
 44
0.0000000001
 40
0.0
 40
0.0
 40
0.0
 40
0.0
 40
0.2831961525
 40
0.5402475416
 40
0.7761295946
 40
1.0
 40
1.0
 40
1.0
 40
1.0
 10
92.7214434158
 20
126.7237333025
 30
0.0
 10
92.8630751883
 20
126.6597487396
 30
0.0
 10
93.1436369221
 20
126.5584360994
 30
0.0
 10
93.568103543
 20
126.4944578914
 30
0.0
 10
93.9641393418
 20
126.5307014881
 30
0.0
 10
94.2029967877
 20
126.6243030749
 30
0.0
 10
94.309369872
 20
126.6857735909
 30
0.0
  0
SPLINE
  5
4D7
100
AcDbEntity
  8
0
100
AcDbSpline
 62
7
  6
CONTINUOUS
 70
0
 71
3
 72
11
 73
7
 74
0
 42
0.0000001
 43
0.0000001
 44
0.0000000001
 40
0.0
 40
0.0
 40
0.0
 40
0.0
 40
0.2177239861
 40
0.4508730345
 40
0.7104683317
 40
1.0
 40
1.0
 40
1.0
 40
1.0
 10
52.0312594497
 20
170.8455304581
 30
0.0
 10
51.9455171484
 20
170.796031814
 30
0.0
 10
51.7849547747
 20
170.6612915407
 30
0.0
 10
51.6140918158
 20
170.3818586792
 30
0.0
 10
51.512817496
 20
170.0375729374
 30
0.0
 10
51.4927117057
 20
169.7870425009
 30
0.0
 10
51.4927117057
 20
169.6553854874
 30
0.0
  0
SPLINE
  5
4D8
100
AcDbEntity
  8
0
100
AcDbSpline
 62
7
  6
CONTINUOUS
 70
0
 71
3
 72
13
 73
9
 74
0
 42
0.0000001
 43
0.0000001
 44
0.0000000001
 40
0.0
 40
0.0
 40
0.0
 40
0.0
 40
0.1142259181
 40
0.2375599982
 40
0.5000010158
 40
0.7624414734
 40
0.8857749255
 40
1.0
 40
1.0
 40
1.0
 40
1.0
 10
89.5494101045
 20
122.9595561643
 30
0.0
 10
89.5494101045
 20
123.2948389843
 30
0.0
 10
89.4878977905
 20
123.9928336192
 30
0.0
 10
89.1544673539
 20
125.4256993888
 30
0.0
 10
88.3795454357
 20
127.1831260135
 30
0.0
 10
87.2450244088
 20
128.7329351186
 30
0.0
 10
86.1708393963
 20
129.7381163816
 30
0.0
 10
85.597114691
 20
130.1403778666
 30
0.0
 10
85.3067517536
 20
130.3080151942
 30
0.0
  0
SPLINE
  5
4D9
100
AcDbEntity
  8
0
100
AcDbSpline
 62
7
  6
CONTINUOUS
 70
0
 71
3
 72
11
 73
7
 74
0
 42
0.0000001
 43
0.0000001
 44
0.0000000001
 40
0.0
 40
0.0
 40
0.0
 40
0.0
 40
0.289702329
 40
0.5490881649
 40
0.7822156415
 40
1.0
 40
1.0
 40
1.0
 40
1.0
 10
33.3766135388
 20
160.2892162062
 30
0.0
 10
33.1133405944
 20
160.4412134729
 30
0.0
 10
32.5896058141
 20
160.6903643755
 30
0.0
 10
31.7846150354
 20
160.8847552258
 30
0.0
 10
31.0292981842
 20
160.8656307402
 30
0.0
 10
30.5745571107
 20
160.7006016831
 30
0.0
 10
30.376641939
 20
160.5863359521
 30
0.0
  0
SPLINE
  5
4DA
100
AcDbEntity
  8
0
100
AcDbSpline
 62
7
  6
CONTINUOUS
 70
0
 71
3
 72
15
 73
11
 74
0
 42
0.0000001
 43
0.0000001
 44
0.0000000001
 40
0.0
 40
0.0
 40
0.0
 40
0.0
 40
0.0888477593
 40
0.1852583619
 40
0.2940515455
 40
0.416706253
 40
0.5520703998
 40
0.6972053995
 40
0.8480541703
 40
1.0
 40
1.0
 40
1.0
 40
1.0
 10
71.3649525408
 20
207.3317552127
 30
0.0
 10
71.6026846819
 20
207.4689559563
 30
0.0
 10
72.1591682607
 20
207.6585920603
 30
0.0
 10
73.0815804484
 20
207.6357313236
 30
0.0
 10
74.0587087264
 20
207.3337669806
 30
0.0
 10
75.0520826722
 20
206.7747081453
 30
0.0
 10
76.0221748863
 20
205.9856306403
 30
0.0
 10
76.9271387372
 20
205.0018201971
 30
0.0
 10
77.7264666887
 20
203.8679563017
 30
0.0
 10
78.1680063466
 20
203.0399902527
 30
0.0
 10
78.3620230988
 20
202.612546849
 30
0.0
  0
SPLINE
  5
4DB
100
AcDbEntity
  8
0
100
AcDbSpline
 62
7
  6
CONTINUOUS
 70
0
 71
3
 72
15
 73
11
 74
0
 42
0.0000001
 43
0.0000001
 44
0.0000000001
 40
0.0
 40
0.0
 40
0.0
 40
0.0
 40
0.088983154
 40
0.185430624
 40
0.29413333
 40
0.4166090186
 40
0.5517827629
 40
0.6968094348
 40
0.8477266797
 40
1.0
 40
1.0
 40
1.0
 40
1.0
 10
77.428890416
 20
211.5255651553
 30
0.0
 10
77.6864309817
 20
211.6741970436
 30
0.0
 10
78.2883297867
 20
211.8804494428
 30
0.0
 10
79.2862856505
 20
211.8598392704
 30
0.0
 10
80.344079566
 20
211.5388713801
 30
0.0
 10
81.4205328105
 20
210.9408494408
 30
0.0
 10
82.4734905855
 20
210.0944010495
 30
0.0
 10
83.4582843561
 20
209.0368089639
 30
0.0
 10
84.3315356159
 20
207.8153409659
 30
0.0
 10
84.8164657525
 20
206.9222534575
 30
0.0
 10
85.0305869103
 20
206.4606496394
 30
0.0
  0
SPLINE
  5
4DC
100
AcDbEntity
  8
0
100
AcDbSpline
 62
7
  6
CONTINUOUS
 70
0
 71
3
 72
16
 73
12
 74
0
 42
0.0000001
 43
0.0000001
 44
0.0000000001
 40
0.0
 40
0.0
 40
0.0
 40
0.0
 40
0.0442524955
 40
0.089485527
 40
0.1859494022
 40
0.2945086526
 40
0.4167265987
 40
0.5516203218
 40
0.6964583527
 40
0.8473954519
 40
1.0
 40
1.0
 40
1.0
 40
1.0
 10
78.3931029948
 20
213.1214724692
 30
0.0
 10
78.5357294438
 20
213.2037847544
 30
0.0
 10
78.8404188426
 20
213.343635935
 30
0.0
 10
79.5143294325
 20
213.5145184297
 30
0.0
 10
80.4623147
 20
213.501576403
 30
0.0
 10
81.6400892209
 20
213.1513494304
 30
0.0
 10
82.8413504318
 20
212.4950147381
 30
0.0
 10
84.0183332298
 20
211.5624069092
 30
0.0
 10
85.122637658
 20
210.3942075562
 30
0.0
 10
86.1064243637
 20
209.0414968974
 30
0.0
 10
86.656161833
 20
208.0508958424
 30
0.0
 10
86.9002856628
 20
207.5381682293
 30
0.0
  0
SPLINE
  5
4DD
100
AcDbEntity
  8
0
100
AcDbSpline
 62
7
  6
CONTINUOUS
 70
0
 71
3
 72
10
 73
6
 74
0
 42
0.0000001
 43
0.0000001
 44
0.0000000001
 40
0.0
 40
0.0
 40
0.0
 40
0.0
 40
0.2317409235
 40
0.4718152684
 40
1.0
 40
1.0
 40
1.0
 40
1.0
 10
56.8629774688
 20
196.3609568219
 30
0.0
 10
56.7658590766
 20
196.3047848854
 30
0.0
 10
56.5811572829
 20
196.1661148473
 30
0.0
 10
56.268306242
 20
195.792324139
 30
0.0
 10
56.127710879
 20
195.4359121945
 30
0.0
 10
56.0681248032
 20
195.1872408274
 30
0.0
  0
SPLINE
  5
4DE
100
AcDbEntity
  8
0
100
AcDbSpline
 62
7
  6
CONTINUOUS
 70
0
 71
3
 72
11
 73
7
 74
0
 42
0.0000001
 43
0.0000001
 44
0.0000000001
 40
0.0
 40
0.0
 40
0.0
 40
0.0
 40
0.2472906142
 40
0.5099553997
 40
0.7673068441
 40
1.0
 40
1.0
 40
1.0
 40
1.0
 10
92.854101419
 20
70.2803631667
 30
0.0
 10
93.1440007883
 20
70.0534665015
 30
0.0
 10
93.6805694957
 20
69.5053819408
 30
0.0
 10
94.30182346
 20
68.5386461063
 30
0.0
 10
94.7162889771
 20
67.4901641855
 30
0.0
 10
94.8315197514
 20
66.7599402739
 30
0.0
 10
94.8315197514
 20
66.4135356605
 30
0.0
  0
SPLINE
  5
4DF
100
AcDbEntity
  8
0
100
AcDbSpline
 62
7
  6
CONTINUOUS
 70
0
 71
3
 72
11
 73
7
 74
0
 42
0.0000001
 43
0.0000001
 44
0.0000000001
 40
0.0
 40
0.0
 40
0.0
 40
0.0
 40
0.2896562635
 40
0.5490967791
 40
0.7822204379
 40
1.0
 40
1.0
 40
1.0
 40
1.0
 10
94.8315197514
 20
66.4135356605
 30
0.0
 10
94.8315197514
 20
66.2417995655
 30
0.0
 10
94.8054285591
 20
65.9151409745
 30
0.0
 10
94.6732073209
 20
65.4663214783
 30
0.0
 10
94.450477128
 20
65.1020553676
 30
0.0
 10
94.2411661677
 20
64.9263153856
 30
0.0
 10
94.1293776863
 20
64.8616974042
 30
0.0
  0
SPLINE
  5
4E0
100
AcDbEntity
  8
0
100
AcDbSpline
 62
7
  6
CONTINUOUS
 70
0
 71
3
 72
15
 73
11
 74
0
 42
0.0000001
 43
0.0000001
 44
0.0000000001
 40
0.0
 40
0.0
 40
0.0
 40
0.0
 40
0.0958983967
 40
0.2065001923
 40
0.3310037348
 40
0.4658581416
 40
0.6059117007
 40
0.7453226719
 40
0.8783103957
 40
1.0
 40
1.0
 40
1.0
 40
1.0
 10
42.4009017495
 20
175.4725394877
 30
0.0
 10
41.9998655664
 20
175.4805543126
 30
0.0
 10
41.1384602878
 20
175.6641969543
 30
0.0
 10
39.8988567215
 20
176.3040461825
 30
0.0
 10
38.686034933
 20
177.2792058326
 30
0.0
 10
37.5708691684
 20
178.5320385434
 30
0.0
 10
36.618612587
 20
179.9871210899
 30
0.0
 10
35.8873213376
 20
181.5565961445
 30
0.0
 10
35.421254744
 20
183.1442003433
 30
0.0
 10
35.2999048878
 20
184.2106394973
 30
0.0
 10
35.2999048878
 20
184.7196331946
 30
0.0
  0
SPLINE
  5
4E1
100
AcDbEntity
  8
0
100
AcDbSpline
 62
7
  6
CONTINUOUS
 70
0
 71
3
 72
11
 73
7
 74
0
 42
0.0000001
 43
0.0000001
 44
0.0000000001
 40
0.0
 40
0.0
 40
0.0
 40
0.0
 40
0.2178498795
 40
0.4522688404
 40
0.7120861441
 40
1.0
 40
1.0
 40
1.0
 40
1.0
 10
38.0267180784
 20
69.5370447518
 30
0.0
 10
37.9004351221
 20
69.4496210212
 30
0.0
 10
37.6669795829
 20
69.2236394853
 30
0.0
 10
37.420431963
 20
68.7797793568
 30
0.0
 10
37.2737317182
 20
68.2439027493
 30
0.0
 10
37.2444566319
 20
67.8566166125
 30
0.0
 10
37.2444566319
 20
67.6536278873
 30
0.0
  0
SPLINE
  5
4E2
100
AcDbEntity
  8
0
100
AcDbSpline
 62
7
  6
CONTINUOUS
 70
0
 71
3
 72
11
 73
7
 74
0
 42
0.0000001
 43
0.0000001
 44
0.0000000001
 40
0.0
 40
0.0
 40
0.0
 40
0.0
 40
0.2177699473
 40
0.4509056099
 40
0.7103757301
 40
1.0
 40
1.0
 40
1.0
 40
1.0
 10
38.1247215105
 20
185.5424945574
 30
0.0
 10
37.984573403
 20
185.4614984063
 30
0.0
 10
37.7221406857
 20
185.2411895663
 30
0.0
 10
37.4429448995
 20
184.7844580035
 30
0.0
 10
37.2771817433
 20
184.2217769156
 30
0.0
 10
37.2444566319
 20
183.8122508484
 30
0.0
 10
37.2444566319
 20
183.5969711197
 30
0.0
  0
SPLINE
  5
4E3
100
AcDbEntity
  8
0
100
AcDbSpline
 62
7
  6
CONTINUOUS
 70
0
 71
3
 72
11
 73
7
 74
0
 42
0.0000001
 43
0.0000001
 44
0.0000000001
 40
0.0
 40
0.0
 40
0.0
 40
0.0
 40
0.251766357
 40
0.5142199244
 40
0.7691229514
 40
1.0
 40
1.0
 40
1.0
 40
1.0
 10
52.5242859295
 20
165.6748286939
 30
0.0
 10
52.192340923
 20
165.9719893719
 30
0.0
 10
51.5830064891
 20
166.6578537939
 30
0.0
 10
50.880410372
 20
167.8319959684
 30
0.0
 10
50.4173372478
 20
169.0802924757
 30
0.0
 10
50.290625173
 20
169.9408360148
 30
0.0
 10
50.290625173
 20
170.3493947701
 30
0.0
  0
SPLINE
  5
4E4
100
AcDbEntity
  8
0
100
AcDbSpline
 62
7
  6
CONTINUOUS
 70
0
 71
3
 72
11
 73
7
 74
0
 42
0.0000001
 43
0.0000001
 44
0.0000000001
 40
0.0
 40
0.0
 40
0.0
 40
0.0
 40
0.2177699473
 40
0.4509056099
 40
0.7103757301
 40
1.0
 40
1.0
 40
1.0
 40
1.0
 10
62.8735618906
 20
171.2540681492
 30
0.0
 10
62.7334137832
 20
171.1730719981
 30
0.0
 10
62.4709810658
 20
170.9527631581
 30
0.0
 10
62.1917852796
 20
170.4960315953
 30
0.0
 10
62.0260221234
 20
169.9333505074
 30
0.0
 10
61.9932970121
 20
169.5238244402
 30
0.0
 10
61.9932970121
 20
169.3085447115
 30
0.0
  0
SPLINE
  5
4E5
100
AcDbEntity
  8
0
100
AcDbSpline
 62
7
  6
CONTINUOUS
 70
0
 71
3
 72
15
 73
11
 74
0
 42
0.0000001
 43
0.0000001
 44
0.0000000001
 40
0.0
 40
0.0
 40
0.0
 40
0.0
 40
0.0958983967
 40
0.2065001923
 40
0.3310037348
 40
0.4658581416
 40
0.6059117007
 40
0.7453226719
 40
0.8783103957
 40
1.0
 40
1.0
 40
1.0
 40
1.0
 10
67.1497421296
 20
161.1841130795
 30
0.0
 10
66.7487059465
 20
161.1921279044
 30
0.0
 10
65.887300668
 20
161.3757705461
 30
0.0
 10
64.6476971017
 20
162.0156197743
 30
0.0
 10
63.4348753131
 20
162.9907794244
 30
0.0
 10
62.3197095485
 20
164.2436121352
 30
0.0
 10
61.3674529671
 20
165.6986946817
 30
0.0
 10
60.6361617178
 20
167.2681697363
 30
0.0
 10
60.1700951241
 20
168.8557739351
 30
0.0
 10
60.0487452679
 20
169.9222130891
 30
0.0
 10
60.0487452679
 20
170.4312067864
 30
0.0
  0
SPLINE
  5
4E6
100
AcDbEntity
  8
0
100
AcDbSpline
 62
7
  6
CONTINUOUS
 70
0
 71
3
 72
11
 73
7
 74
0
 42
0.0000001
 43
0.0000001
 44
0.0000000001
 40
0.0
 40
0.0
 40
0.0
 40
0.0
 40
0.2177466879
 40
0.4511691807
 40
0.7107357942
 40
1.0
 40
1.0
 40
1.0
 40
1.0
 10
72.3720265393
 20
53.0955524651
 30
0.0
 10
72.2333702493
 20
53.0120116659
 30
0.0
 10
71.9744813466
 20
52.7875513106
 30
0.0
 10
71.6995764895
 20
52.3281620995
 30
0.0
 10
71.5362645388
 20
51.7648387631
 30
0.0
 10
71.503946367
 20
51.3554894312
 30
0.0
 10
71.503946367
 20
51.1404430342
 30
0.0
  0
SPLINE
  5
4E7
100
AcDbEntity
  8
0
100
AcDbSpline
 62
7
  6
CONTINUOUS
 70
0
 71
3
 72
11
 73
7
 74
0
 42
0.0000001
 43
0.0000001
 44
0.0000000001
 40
0.0
 40
0.0
 40
0.0
 40
0.0
 40
0.251766357
 40
0.5142199244
 40
0.7691229514
 40
1.0
 40
1.0
 40
1.0
 40
1.0
 10
77.2731263096
 20
151.3864022857
 30
0.0
 10
76.9411813031
 20
151.6835629636
 30
0.0
 10
76.3318468692
 20
152.3694273857
 30
0.0
 10
75.6292507522
 20
153.5435695602
 30
0.0
 10
75.1661776279
 20
154.7918660675
 30
0.0
 10
75.0394655531
 20
155.6524096066
 30
0.0
 10
75.0394655531
 20
156.0609683619
 30
0.0
  0
SPLINE
  5
4E8
100
AcDbEntity
  8
0
100
AcDbSpline
 62
7
  6
CONTINUOUS
 70
0
 71
3
 72
11
 73
7
 74
0
 42
0.0000001
 43
0.0000001
 44
0.0000000001
 40
0.0
 40
0.0
 40
0.0
 40
0.0
 40
0.2474911727
 40
0.5101483618
 40
0.7673912553
 40
1.0
 40
1.0
 40
1.0
 40
1.0
 10
27.8091711039
 20
169.9671525806
 30
0.0
 10
28.0979040609
 20
169.7398318745
 30
0.0
 10
28.6321054552
 20
169.1919133187
 30
0.0
 10
29.2505092824
 20
168.2267749872
 30
0.0
 10
29.6628597676
 20
167.1809504766
 30
0.0
 10
29.7774250378
 20
166.4529011221
 30
0.0
 10
29.7774250378
 20
166.1075190199
 30
0.0
  0
SPLINE
  5
4E9
100
AcDbEntity
  8
0
100
AcDbSpline
 62
7
  6
CONTINUOUS
 70
0
 71
3
 72
11
 73
7
 74
0
 42
0.0000001
 43
0.0000001
 44
0.0000000001
 40
0.0
 40
0.0
 40
0.0
 40
0.0
 40
0.2896585288
 40
0.5490963786
 40
0.7822201232
 40
1.0
 40
1.0
 40
1.0
 40
1.0
 10
29.7774250378
 20
166.1075190199
 30
0.0
 10
29.7774250378
 20
165.935781544
 30
0.0
 10
29.7513359062
 20
165.6091229536
 30
0.0
 10
29.6191121159
 20
165.1603036297
 30
0.0
 10
29.3963803133
 20
164.7960413562
 30
0.0
 10
29.1870732739
 20
164.6202960436
 30
0.0
 10
29.0752844369
 20
164.5556782477
 30
0.0
  0
SPLINE
  5
4EA
100
AcDbEntity
  8
0
100
AcDbSpline
 62
7
  6
CONTINUOUS
 70
0
 71
3
 72
11
 73
7
 74
0
 42
0.0000001
 43
0.0000001
 44
0.0000000001
 40
0.0
 40
0.0
 40
0.0
 40
0.0
 40
0.2318436674
 40
0.4880745798
 40
0.7506606329
 40
1.0
 40
1.0
 40
1.0
 40
1.0
 10
51.4927117057
 20
169.6553854874
 30
0.0
 10
51.4927117057
 20
169.39804826
 30
0.0
 10
51.5757342588
 20
168.8557593417
 30
0.0
 10
51.8764356148
 20
168.0734545414
 30
0.0
 10
52.3297591683
 20
167.3455957204
 30
0.0
 10
52.7218939919
 20
166.9270820739
 30
0.0
 10
52.9346264954
 20
166.750053307
 30
0.0
  0
SPLINE
  5
4EB
100
AcDbEntity
  8
0
100
AcDbSpline
 62
7
  6
CONTINUOUS
 70
0
 71
3
 72
11
 73
7
 74
0
 42
0.0000001
 43
0.0000001
 44
0.0000000001
 40
0.0
 40
0.0
 40
0.0
 40
0.0
 40
0.2318436674
 40
0.4880745798
 40
0.7506606329
 40
1.0
 40
1.0
 40
1.0
 40
1.0
 10
76.2415520858
 20
155.3669590792
 30
0.0
 10
76.2415520858
 20
155.1096218518
 30
0.0
 10
76.324574639
 20
154.5673329335
 30
0.0
 10
76.625275995
 20
153.7850281332
 30
0.0
 10
77.0785995484
 20
153.0571693122
 30
0.0
 10
77.4707343721
 20
152.6386556657
 30
0.0
 10
77.6834668755
 20
152.4616268988
 30
0.0
  0
SPLINE
  5
4EC
100
AcDbEntity
  8
0
100
AcDbSpline
 62
7
  6
CONTINUOUS
 70
0
 71
3
 72
16
 73
12
 74
0
 42
0.0000001
 43
0.0000001
 44
0.0000000001
 40
0.0
 40
0.0
 40
0.0
 40
0.0
 40
0.0920399881
 40
0.1436609808
 40
0.1992869698
 40
0.3218112577
 40
0.4566374166
 40
0.5983014946
 40
0.7403043728
 40
0.8760687461
 40
1.0
 40
1.0
 40
1.0
 40
1.0
 10
42.8717889076
 20
59.5571533864
 30
0.0
 10
42.4764455217
 20
59.5003498874
 30
0.0
 10
41.8367396909
 20
59.5508535313
 30
0.0
 10
41.012166985
 20
59.8142343814
 30
0.0
 10
40.1089425974
 20
60.2438807525
 30
0.0
 10
38.9979644649
 20
61.0436946736
 30
0.0
 10
37.7938725517
 20
62.2985095601
 30
0.0
 10
36.7547322399
 20
63.7966415005
 30
0.0
 10
35.9506792324
 20
65.43758905
 30
0.0
 10
35.4353120832
 20
67.1102721468
 30
0.0
 10
35.2999048878
 20
68.2384959221
 30
0.0
 10
35.2999048878
 20
68.7762899622
 30
0.0
  0
SPLINE
  5
4ED
100
AcDbEntity
  8
0
100
AcDbSpline
 62
7
  6
CONTINUOUS
 70
0
 71
3
 72
11
 73
7
 74
0
 42
0.0000001
 43
0.0000001
 44
0.0000000001
 40
0.0
 40
0.0
 40
0.0
 40
0.0
 40
0.2472906142
 40
0.5099553997
 40
0.7673068441
 40
1.0
 40
1.0
 40
1.0
 40
1.0
 10
92.854101419
 20
132.4161971102
 30
0.0
 10
93.1440007883
 20
132.1893004451
 30
0.0
 10
93.6805694957
 20
131.6412158844
 30
0.0
 10
94.30182346
 20
130.6744800498
 30
0.0
 10
94.7162889771
 20
129.6259981291
 30
0.0
 10
94.8315197514
 20
128.8957742175
 30
0.0
 10
94.8315197514
 20
128.5493696041
 30
0.0
  0
SPLINE
  5
4EE
100
AcDbEntity
  8
0
100
AcDbSpline
 62
7
  6
CONTINUOUS
 70
0
 71
3
 72
11
 73
7
 74
0
 42
0.0000001
 43
0.0000001
 44
0.0000000001
 40
0.0
 40
0.0
 40
0.0
 40
0.0
 40
0.2896562635
 40
0.5490967791
 40
0.7822204379
 40
1.0
 40
1.0
 40
1.0
 40
1.0
 10
94.8315197514
 20
128.5493696041
 30
0.0
 10
94.8315197514
 20
128.377633509
 30
0.0
 10
94.8054285591
 20
128.050974918
 30
0.0
 10
94.6732073209
 20
127.6021554219
 30
0.0
 10
94.450477128
 20
127.2378893111
 30
0.0
 10
94.2411661677
 20
127.0621493292
 30
0.0
 10
94.1293776863
 20
126.9975313478
 30
0.0
  0
SPLINE
  5
4EF
100
AcDbEntity
  8
0
100
AcDbSpline
 62
7
  6
CONTINUOUS
 70
0
 71
3
 72
11
 73
7
 74
0
 42
0.0000001
 43
0.0000001
 44
0.0000000001
 40
0.0
 40
0.0
 40
0.0
 40
0.0
 40
0.2177833598
 40
0.4509104088
 40
0.7102966711
 40
1.0
 40
1.0
 40
1.0
 40
1.0
 10
88.3067233534
 20
74.1294700199
 30
0.0
 10
88.5046429075
 20
74.2437382811
 30
0.0
 10
88.8749422584
 20
74.5550482066
 30
0.0
 10
89.269169805
 20
75.1996281958
 30
0.0
 10
89.5033177841
 20
75.9939903783
 30
0.0
 10
89.5494101045
 20
76.5721508752
 30
0.0
 10
89.5494101045
 20
76.8761597415
 30
0.0
  0
SPLINE
  5
4F0
100
AcDbEntity
  8
0
100
AcDbSpline
 62
7
  6
CONTINUOUS
 70
0
 71
3
 72
11
 73
7
 74
0
 42
0.0000001
 43
0.0000001
 44
0.0000000001
 40
0.0
 40
0.0
 40
0.0
 40
0.0
 40
0.2223513634
 40
0.4574918981
 40
0.7152043483
 40
1.0
 40
1.0
 40
1.0
 40
1.0
 10
21.8914035018
 20
155.6873927533
 30
0.0
 10
22.0684839358
 20
155.7895722023
 30
0.0
 10
22.4681093516
 20
155.9435015485
 30
0.0
 10
23.1315544156
 20
155.9931467097
 30
0.0
 10
23.8417723774
 20
155.8699514951
 30
0.0
 10
24.3094303577
 20
155.6876416572
 30
0.0
 10
24.5452446852
 20
155.5737858864
 30
0.0
  0
SPLINE
  5
4F1
100
AcDbEntity
  8
0
100
AcDbSpline
 62
7
  6
CONTINUOUS
 70
0
 71
3
 72
11
 73
7
 74
0
 42
0.0000001
 43
0.0000001
 44
0.0000000001
 40
0.0
 40
0.0
 40
0.0
 40
0.0
 40
0.2421245023
 40
0.5049123767
 40
0.7650515303
 40
1.0
 40
1.0
 40
1.0
 40
1.0
 10
77.1676285141
 20
125.1929257243
 30
0.0
 10
77.7297645584
 20
124.8152518955
 30
0.0
 10
78.7813352622
 20
123.8449635289
 30
0.0
 10
80.0044229117
 20
122.0715080244
 30
0.0
 10
80.8305102656
 20
120.1036613961
 30
0.0
 10
81.0641640579
 20
118.7177804118
 30
0.0
 10
81.0641640579
 20
118.0606263178
 30
0.0
  0
SPLINE
  5
4F2
100
AcDbEntity
  8
0
100
AcDbSpline
 62
7
  6
CONTINUOUS
 70
0
 71
3
 72
11
 73
7
 74
0
 42
0.0000001
 43
0.0000001
 44
0.0000000001
 40
0.0
 40
0.0
 40
0.0
 40
0.0
 40
0.2897332681
 40
0.5490805361
 40
0.7822157291
 40
1.0
 40
1.0
 40
1.0
 40
1.0
 10
81.0641640579
 20
71.977229895
 30
0.0
 10
81.0641640579
 20
71.6731893143
 30
0.0
 10
81.0181213088
 20
71.0950314278
 30
0.0
 10
80.7839080653
 20
70.3006814069
 30
0.0
 10
80.3896952335
 20
69.6561508648
 30
0.0
 10
80.0194180551
 20
69.3447742427
 30
0.0
 10
79.8214696976
 20
69.2305535259
 30
0.0
  0
SPLINE
  5
4F3
100
AcDbEntity
  8
0
100
AcDbSpline
 62
7
  6
CONTINUOUS
 70
0
 71
3
 72
16
 73
12
 74
0
 42
0.0000001
 43
0.0000001
 44
0.0000000001
 40
0.0
 40
0.0
 40
0.0
 40
0.0
 40
0.0920399881
 40
0.1436609808
 40
0.1992869698
 40
0.3218112577
 40
0.4566374166
 40
0.5983014946
 40
0.7403043728
 40
0.8760687461
 40
1.0
 40
1.0
 40
1.0
 40
1.0
 10
92.3694696678
 20
30.98030057
 30
0.0
 10
91.974126282
 20
30.923497071
 30
0.0
 10
91.3344204512
 20
30.9740007149
 30
0.0
 10
90.5098477453
 20
31.2373815649
 30
0.0
 10
89.6066233576
 20
31.6670279361
 30
0.0
 10
88.4956452252
 20
32.4668418572
 30
0.0
 10
87.291553312
 20
33.7216567437
 30
0.0
 10
86.2524130002
 20
35.219788684
 30
0.0
 10
85.4483599927
 20
36.8607362335
 30
0.0
 10
84.9329928435
 20
38.5334193303
 30
0.0
 10
84.7975856481
 20
39.6616431057
 30
0.0
 10
84.7975856481
 20
40.1994371458
 30
0.0
  0
SPLINE
  5
4F4
100
AcDbEntity
  8
0
100
AcDbSpline
 62
7
  6
CONTINUOUS
 70
0
 71
3
 72
11
 73
7
 74
0
 42
0.0000001
 43
0.0000001
 44
0.0000000001
 40
0.0
 40
0.0
 40
0.0
 40
0.0
 40
0.2278667137
 40
0.4657153107
 40
0.7217082114
 40
1.0
 40
1.0
 40
1.0
 40
1.0
 10
90.7394564158
 20
132.8690826919
 30
0.0
 10
90.8253462484
 20
132.9187299717
 30
0.0
 10
91.0153960482
 20
132.9968786994
 30
0.0
 10
91.3295993575
 20
133.0397223077
 30
0.0
 10
91.6667629822
 20
133.0096886388
 30
0.0
 10
91.8918413574
 20
132.9459634278
 30
0.0
 10
92.0055697488
 20
132.9041830184
 30
0.0
  0
SPLINE
  5
4F5
100
AcDbEntity
  8
0
100
AcDbSpline
 62
7
  6
CONTINUOUS
 70
0
 71
3
 72
11
 73
7
 74
0
 42
0.0000001
 43
0.0000001
 44
0.0000000001
 40
0.0
 40
0.0
 40
0.0
 40
0.0
 40
0.2179657113
 40
0.4527805978
 40
0.7126661903
 40
1.0
 40
1.0
 40
1.0
 40
1.0
 10
90.4467651102
 20
133.1073902538
 30
0.0
 10
90.339143295
 20
133.0287730187
 30
0.0
 10
90.1409603632
 20
132.8283917699
 30
0.0
 10
89.932025121
 20
132.4406985803
 30
0.0
 10
89.8076605059
 20
131.9754276733
 30
0.0
 10
89.7827563138
 20
131.639903119
 30
0.0
 10
89.7827563138
 20
131.4642085914
 30
0.0
  0
SPLINE
  5
4F6
100
AcDbEntity
  8
0
100
AcDbSpline
 62
7
  6
CONTINUOUS
 70
0
 71
3
 72
15
 73
11
 74
0
 42
0.0000001
 43
0.0000001
 44
0.0000000001
 40
0.0
 40
0.0
 40
0.0
 40
0.0
 40
0.152655333
 40
0.3036461602
 40
0.4485382885
 40
0.5834825758
 40
0.705745236
 40
0.8143436744
 40
0.9108432011
 40
1.0
 40
1.0
 40
1.0
 40
1.0
 10
113.0633155192
 20
194.0662823262
 30
0.0
 10
112.8192002867
 20
194.5789914581
 30
0.0
 10
112.2694725906
 20
195.5695666737
 30
0.0
 10
111.2856921916
 20
196.9222508262
 30
0.0
 10
110.1814169195
 20
198.0904689763
 30
0.0
 10
109.0043379551
 20
199.023014864
 30
0.0
 10
107.8033802865
 20
199.6795620967
 30
0.0
 10
106.6246634851
 20
200.0291265623
 30
0.0
 10
105.5134250318
 20
200.0464616865
 30
0.0
 10
104.84340036
 20
199.8153075789
 30
0.0
 10
104.5561516259
 20
199.6495333827
 30
0.0
  0
SPLINE
  5
4F7
100
AcDbEntity
  8
0
100
AcDbSpline
 62
7
  6
CONTINUOUS
 70
0
 71
3
 72
11
 73
7
 74
0
 42
0.0000001
 43
0.0000001
 44
0.0000000001
 40
0.0
 40
0.0
 40
0.0
 40
0.0
 40
0.2276472674
 40
0.4653860528
 40
0.7214503147
 40
1.0
 40
1.0
 40
1.0
 40
1.0
 10
25.6853631664
 20
170.4272295919
 30
0.0
 10
25.7718091104
 20
170.4771986256
 30
0.0
 10
25.9632396754
 20
170.5557199769
 30
0.0
 10
26.2798037726
 20
170.598105137
 30
0.0
 10
26.6194864892
 20
170.5666796033
 30
0.0
 10
26.8461305693
 20
170.5015418419
 30
0.0
 10
26.9606394337
 20
170.4589444834
 30
0.0
  0
SPLINE
  5
4F8
100
AcDbEntity
  8
0
100
AcDbSpline
 62
7
  6
CONTINUOUS
 70
0
 71
3
 72
17
 73
13
 74
0
 42
0.0000001
 43
0.0000001
 44
0.0000000001
 40
0.0
 40
0.0
 40
0.0
 40
0.0
 40
0.1286889617
 40
0.2702830997
 40
0.4174385712
 40
0.5617801152
 40
0.6954483663
 40
0.8127097952
 40
0.8646744913
 40
0.9125077733
 40
0.9571384188
 40
1.0
 40
1.0
 40
1.0
 40
1.0
 10
86.7421373922
 20
39.0767750709
 30
0.0
 10
86.7421373922
 20
38.7135054267
 30
0.0
 10
86.8437802887
 20
37.9496680538
 30
0.0
 10
87.223088008
 20
36.8281381901
 30
0.0
 10
87.8075905857
 20
35.7477533873
 30
0.0
 10
88.5502819894
 20
34.7971173792
 30
0.0
 10
89.3904908616
 20
34.0530241957
 30
0.0
 10
90.1509759474
 20
33.6372004313
 30
0.0
 10
90.7458645343
 20
33.4789481565
 30
0.0
 10
91.1553017166
 20
33.4488005291
 30
0.0
 10
91.5365605715
 20
33.5046705291
 30
0.0
 10
91.7675496119
 20
33.60066357
 30
0.0
 10
91.8723051774
 20
33.6612052197
 30
0.0
  0
SPLINE
  5
4F9
100
AcDbEntity
  8
0
100
AcDbSpline
 62
7
  6
CONTINUOUS
 70
0
 71
3
 72
15
 73
11
 74
0
 42
0.0000001
 43
0.0000001
 44
0.0000000001
 40
0.0
 40
0.0
 40
0.0
 40
0.0
 40
0.1522674864
 40
0.3031824654
 40
0.4482102095
 40
0.583385769
 40
0.7058622182
 40
0.8145651725
 40
0.9110138285
 40
1.0
 40
1.0
 40
1.0
 40
1.0
 10
111.1936372016
 20
192.9887187408
 30
0.0
 10
110.979527039
 20
193.4503057919
 30
0.0
 10
110.4946067271
 20
194.343367124
 30
0.0
 10
109.6213752416
 20
195.5648184956
 30
0.0
 10
108.6365857768
 20
196.6224162105
 30
0.0
 10
107.583624643
 20
197.4688782887
 30
0.0
 10
106.5071678673
 20
198.0669119983
 30
0.0
 10
105.4493721415
 20
198.3878924248
 30
0.0
 10
104.4514008258
 20
198.4085213543
 30
0.0
 10
103.8494891759
 20
198.202261162
 30
0.0
 10
103.5919390839
 20
198.0536260065
 30
0.0
  0
SPLINE
  5
4FA
100
AcDbEntity
  8
0
100
AcDbSpline
 62
7
  6
CONTINUOUS
 70
0
 71
3
 72
9
 73
5
 74
0
 42
0.0000001
 43
0.0000001
 44
0.0000000001
 40
0.0
 40
0.0
 40
0.0
 40
0.0
 40
0.2707855644
 40
1.0
 40
1.0
 40
1.0
 40
1.0
 10
84.7975856481
 20
40.1994371458
 30
0.0
 10
84.7975856481
 20
40.3773043593
 30
0.0
 10
84.8241359987
 20
41.0329843416
 30
0.0
 10
84.964815859
 20
41.6907372533
 30
0.0
 10
85.1567717821
 20
42.1295806223
 30
0.0
  0
SPLINE
  5
4FB
100
AcDbEntity
  8
0
100
AcDbSpline
 62
7
  6
CONTINUOUS
 70
0
 71
3
 72
15
 73
11
 74
0
 42
0.0000001
 43
0.0000001
 44
0.0000000001
 40
0.0
 40
0.0
 40
0.0
 40
0.0
 40
0.1519390963
 40
0.3027846748
 40
0.447920411
 40
0.5832866416
 40
0.7059425682
 40
0.8147364804
 40
0.911148777
 40
1.0
 40
1.0
 40
1.0
 40
1.0
 10
109.4748213674
 20
191.9982764703
 30
0.0
 10
109.2808174246
 20
192.4257054029
 30
0.0
 10
108.8392896854
 20
193.2536484599
 30
0.0
 10
108.0399851735
 20
194.3875018047
 30
0.0
 10
107.1350274941
 20
195.3713254806
 30
0.0
 10
106.1649303172
 20
196.1604263331
 30
0.0
 10
105.1715477352
 20
196.719507078
 30
0.0
 10
104.1944098727
 20
197.0214922199
 30
0.0
 10
103.2719736386
 20
197.0443747093
 30
0.0
 10
102.7154715915
 20
196.8547303045
 30
0.0
 10
102.4777280783
 20
196.7175251322
 30
0.0
  0
SPLINE
  5
4FC
100
AcDbEntity
  8
0
100
AcDbSpline
 62
7
  6
CONTINUOUS
 70
0
 71
3
 72
10
 73
6
 74
0
 42
0.0000001
 43
0.0000001
 44
0.0000000001
 40
0.0
 40
0.0
 40
0.0
 40
0.0
 40
0.2838705471
 40
0.5473999298
 40
1.0
 40
1.0
 40
1.0
 40
1.0
 10
35.5841326592
 20
175.982346179
 30
0.0
 10
35.8667887603
 20
175.6887012433
 30
0.0
 10
36.4470730205
 20
175.1532456903
 30
0.0
 10
37.6240104178
 20
174.3323396886
 30
0.0
 10
38.612854344
 20
173.9358154636
 30
0.0
 10
39.2583825707
 20
173.8610649933
 30
0.0
  0
SPLINE
  5
4FD
100
AcDbEntity
  8
0
100
AcDbSpline
 62
7
  6
CONTINUOUS
 70
0
 71
3
 72
11
 73
7
 74
0
 42
0.0000001
 43
0.0000001
 44
0.0000000001
 40
0.0
 40
0.0
 40
0.0
 40
0.0
 40
0.2179657113
 40
0.4527805978
 40
0.7126661903
 40
1.0
 40
1.0
 40
1.0
 40
1.0
 10
25.3926703967
 20
170.6655396696
 30
0.0
 10
25.2850485815
 20
170.5869224346
 30
0.0
 10
25.0868656497
 20
170.3865411857
 30
0.0
 10
24.8779304075
 20
169.9988479962
 30
0.0
 10
24.7535657924
 20
169.5335770892
 30
0.0
 10
24.7286616003
 20
169.1980525349
 30
0.0
 10
24.7286616003
 20
169.0223580072
 30
0.0
  0
SPLINE
  5
4FE
100
AcDbEntity
  8
0
100
AcDbSpline
 62
7
  6
CONTINUOUS
 70
0
 71
3
 72
11
 73
7
 74
0
 42
0.0000001
 43
0.0000001
 44
0.0000000001
 40
0.0
 40
0.0
 40
0.0
 40
0.0
 40
0.2278667137
 40
0.4657153107
 40
0.7217082114
 40
1.0
 40
1.0
 40
1.0
 40
1.0
 10
90.7394564158
 20
70.7332487484
 30
0.0
 10
90.8253462484
 20
70.7828960281
 30
0.0
 10
91.0153960482
 20
70.8610447558
 30
0.0
 10
91.3295993575
 20
70.9038883641
 30
0.0
 10
91.6667629822
 20
70.8738546953
 30
0.0
 10
91.8918413574
 20
70.8101294842
 30
0.0
 10
92.0055697488
 20
70.7683490748
 30
0.0
  0
SPLINE
  5
4FF
100
AcDbEntity
  8
0
100
AcDbSpline
 62
7
  6
CONTINUOUS
 70
0
 71
3
 72
11
 73
7
 74
0
 42
0.0000001
 43
0.0000001
 44
0.0000000001
 40
0.0
 40
0.0
 40
0.0
 40
0.0
 40
0.2179657113
 40
0.4527805978
 40
0.7126661903
 40
1.0
 40
1.0
 40
1.0
 40
1.0
 10
90.4467651102
 20
70.9715563102
 30
0.0
 10
90.339143295
 20
70.8929390752
 30
0.0
 10
90.1409603632
 20
70.6925578263
 30
0.0
 10
89.932025121
 20
70.3048646368
 30
0.0
 10
89.8076605059
 20
69.8395937298
 30
0.0
 10
89.7827563138
 20
69.5040691755
 30
0.0
 10
89.7827563138
 20
69.3283746478
 30
0.0
  0
SPLINE
  5
500
100
AcDbEntity
  8
0
100
AcDbSpline
 62
7
  6
CONTINUOUS
 70
0
 71
3
 72
9
 73
5
 74
0
 42
0.0000001
 43
0.0000001
 44
0.0000000001
 40
0.0
 40
0.0
 40
0.0
 40
0.0
 40
0.4800672122
 40
1.0
 40
1.0
 40
1.0
 40
1.0
 10
61.4029722816
 20
78.1442143592
 30
0.0
 10
61.3272003939
 20
78.1879797501
 30
0.0
 10
61.1860962136
 20
78.3106674709
 30
0.0
 10
61.096302189
 20
78.4730305092
 30
0.0
 10
61.0613777856
 20
78.5611301107
 30
0.0
  0
SPLINE
  5
501
100
AcDbEntity
  8
0
100
AcDbSpline
 62
7
  6
CONTINUOUS
 70
0
 71
3
 72
15
 73
11
 74
0
 42
0.0000001
 43
0.0000001
 44
0.0000000001
 40
0.0
 40
0.0
 40
0.0
 40
0.0
 40
0.0958983967
 40
0.2065001923
 40
0.3310037348
 40
0.4658581416
 40
0.6059117007
 40
0.7453226719
 40
0.8783103957
 40
1.0
 40
1.0
 40
1.0
 40
1.0
 10
91.8985825098
 20
146.8956866712
 30
0.0
 10
91.4975463267
 20
146.9037014962
 30
0.0
 10
90.6361410481
 20
147.0873441379
 30
0.0
 10
89.3965374818
 20
147.7271933661
 30
0.0
 10
88.1837156932
 20
148.7023530162
 30
0.0
 10
87.0685499287
 20
149.955185727
 30
0.0
 10
86.1162933473
 20
151.4102682735
 30
0.0
 10
85.3850020979
 20
152.9797433281
 30
0.0
 10
84.9189355043
 20
154.5673475269
 30
0.0
 10
84.7975856481
 20
155.6337866809
 30
0.0
 10
84.7975856481
 20
156.1427803782
 30
0.0
  0
SPLINE
  5
502
100
AcDbEntity
  8
0
100
AcDbSpline
 62
7
  6
CONTINUOUS
 70
0
 71
3
 72
11
 73
7
 74
0
 42
0.0000001
 43
0.0000001
 44
0.0000000001
 40
0.0
 40
0.0
 40
0.0
 40
0.0
 40
0.2177699473
 40
0.4509056099
 40
0.7103757301
 40
1.0
 40
1.0
 40
1.0
 40
1.0
 10
87.6224022708
 20
156.965641741
 30
0.0
 10
87.4822541633
 20
156.8846455899
 30
0.0
 10
87.219821446
 20
156.6643367499
 30
0.0
 10
86.9406256598
 20
156.2076051871
 30
0.0
 10
86.7748625036
 20
155.6449240992
 30
0.0
 10
86.7421373922
 20
155.235398032
 30
0.0
 10
86.7421373922
 20
155.0201183033
 30
0.0
  0
SPLINE
  5
503
100
AcDbEntity
  8
0
100
AcDbSpline
 62
7
  6
CONTINUOUS
 70
0
 71
3
 72
10
 73
6
 74
0
 42
0.0000001
 43
0.0000001
 44
0.0000000001
 40
0.0
 40
0.0
 40
0.0
 40
0.0
 40
0.2317409235
 40
0.4718152684
 40
1.0
 40
1.0
 40
1.0
 40
1.0
 10
106.3606582291
 20
167.7841040055
 30
0.0
 10
106.2635398369
 20
167.727932069
 30
0.0
 10
106.0788380432
 20
167.5892620309
 30
0.0
 10
105.7659870023
 20
167.2154713226
 30
0.0
 10
105.6253916392
 20
166.8590593781
 30
0.0
 10
105.5658055635
 20
166.6103880109
 30
0.0
  0
SPLINE
  5
504
100
AcDbEntity
  8
0
100
AcDbSpline
 62
7
  6
CONTINUOUS
 70
0
 71
3
 72
17
 73
13
 74
0
 42
0.0000001
 43
0.0000001
 44
0.0000000001
 40
0.0
 40
0.0
 40
0.0
 40
0.0
 40
0.1286889617
 40
0.2702830997
 40
0.4174385712
 40
0.5617801152
 40
0.6954483663
 40
0.8127097952
 40
0.8646744913
 40
0.9125077733
 40
0.9571384188
 40
1.0
 40
1.0
 40
1.0
 40
1.0
 10
46.7551059869
 20
168.3081740008
 30
0.0
 10
46.7551059869
 20
167.9406305961
 30
0.0
 10
46.8579446821
 20
167.1678069011
 30
0.0
 10
47.2417148452
 20
166.0330825684
 30
0.0
 10
47.8330939238
 20
164.9399873563
 30
0.0
 10
48.5845228735
 20
163.9781673951
 30
0.0
 10
49.4346165559
 20
163.2253201742
 30
0.0
 10
50.2040485251
 20
162.8046043654
 30
0.0
 10
50.8059358012
 20
162.6444902992
 30
0.0
 10
51.2201898916
 20
162.6139879938
 30
0.0
 10
51.6059341448
 20
162.670515288
 30
0.0
 10
51.8396407033
 20
162.7676376588
 30
0.0
 10
51.9456286872
 20
162.8288915631
 30
0.0
  0
SPLINE
  5
505
100
AcDbEntity
  8
0
100
AcDbSpline
 62
7
  6
CONTINUOUS
 70
0
 71
3
 72
9
 73
5
 74
0
 42
0.0000001
 43
0.0000001
 44
0.0000000001
 40
0.0
 40
0.0
 40
0.0
 40
0.0
 40
0.2763957971
 40
1.0
 40
1.0
 40
1.0
 40
1.0
 10
60.0487452679
 20
170.4312067864
 30
0.0
 10
60.0487452679
 20
170.6491026908
 30
0.0
 10
60.0871832483
 20
171.4347487621
 30
0.0
 10
60.2991448612
 20
172.2280129307
 30
0.0
 10
60.5905492062
 20
172.7184192944
 30
0.0
  0
SPLINE
  5
506
100
AcDbEntity
  8
0
100
AcDbSpline
 62
7
  6
CONTINUOUS
 70
0
 71
3
 72
9
 73
5
 74
0
 42
0.0000001
 43
0.0000001
 44
0.0000000001
 40
0.0
 40
0.0
 40
0.0
 40
0.0
 40
0.2552440219
 40
1.0
 40
1.0
 40
1.0
 40
1.0
 10
60.6178084313
 20
172.7633917361
 30
0.0
 10
60.6422557084
 20
172.8029340451
 30
0.0
 10
60.7416512891
 20
172.9555749055
 30
0.0
 10
60.855851695
 20
173.0986859811
 30
0.0
 10
60.9486540613
 20
173.1976203359
 30
0.0
  0
SPLINE
  5
507
100
AcDbEntity
  8
0
100
AcDbSpline
 62
7
  6
CONTINUOUS
 70
0
 71
3
 72
15
 73
11
 74
0
 42
0.0000001
 43
0.0000001
 44
0.0000000001
 40
0.0
 40
0.0
 40
0.0
 40
0.0
 40
0.152655333
 40
0.3036461602
 40
0.4485382885
 40
0.5834825758
 40
0.705745236
 40
0.8143436744
 40
0.9108432011
 40
1.0
 40
1.0
 40
1.0
 40
1.0
 10
137.8121558993
 20
179.7778559179
 30
0.0
 10
137.5680406668
 20
180.2905650499
 30
0.0
 10
137.0183129707
 20
181.2811402655
 30
0.0
 10
136.0345325717
 20
182.6338244179
 30
0.0
 10
134.9302572996
 20
183.8020425681
 30
0.0
 10
133.7531783353
 20
184.7345884558
 30
0.0
 10
132.5522206667
 20
185.3911356885
 30
0.0
 10
131.3735038652
 20
185.740700154
 30
0.0
 10
130.262265412
 20
185.7580352783
 30
0.0
 10
129.5922407401
 20
185.5268811707
 30
0.0
 10
129.304992006
 20
185.3611069745
 30
0.0
  0
SPLINE
  5
508
100
AcDbEntity
  8
0
100
AcDbSpline
 62
7
  6
CONTINUOUS
 70
0
 71
3
 72
15
 73
11
 74
0
 42
0.0000001
 43
0.0000001
 44
0.0000000001
 40
0.0
 40
0.0
 40
0.0
 40
0.0
 40
0.1522674864
 40
0.3031824654
 40
0.4482102095
 40
0.583385769
 40
0.7058622182
 40
0.8145651725
 40
0.9110138285
 40
1.0
 40
1.0
 40
1.0
 40
1.0
 10
135.9424775817
 20
178.7002923326
 30
0.0
 10
135.7283674191
 20
179.1618793837
 30
0.0
 10
135.2434471072
 20
180.0549407158
 30
0.0
 10
134.3702156218
 20
181.2763920874
 30
0.0
 10
133.385426157
 20
182.3339898023
 30
0.0
 10
132.3324650232
 20
183.1804518804
 30
0.0
 10
131.2560082475
 20
183.77848559
 30
0.0
 10
130.1982125216
 20
184.0994660166
 30
0.0
 10
129.200241206
 20
184.1200949461
 30
0.0
 10
128.5983295561
 20
183.9138347538
 30
0.0
 10
128.340779464
 20
183.7651995983
 30
0.0
  0
SPLINE
  5
509
100
AcDbEntity
  8
0
100
AcDbSpline
 62
7
  6
CONTINUOUS
 70
0
 71
3
 72
10
 73
6
 74
0
 42
0.0000001
 43
0.0000001
 44
0.0000000001
 40
0.0
 40
0.0
 40
0.0
 40
0.0
 40
0.2838705471
 40
0.5473999298
 40
1.0
 40
1.0
 40
1.0
 40
1.0
 10
60.3329730394
 20
161.6939197707
 30
0.0
 10
60.6156291405
 20
161.4002748351
 30
0.0
 10
61.1959134006
 20
160.8648192821
 30
0.0
 10
62.372850798
 20
160.0439132804
 30
0.0
 10
63.3616947242
 20
159.6473890554
 30
0.0
 10
64.0072229508
 20
159.5726385851
 30
0.0
  0
SPLINE
  5
50A
100
AcDbEntity
  8
0
100
AcDbSpline
 62
7
  6
CONTINUOUS
 70
0
 71
3
 72
15
 73
11
 74
0
 42
0.0000001
 43
0.0000001
 44
0.0000000001
 40
0.0
 40
0.0
 40
0.0
 40
0.0
 40
0.1519390963
 40
0.3027846748
 40
0.447920411
 40
0.5832866416
 40
0.7059425682
 40
0.8147364804
 40
0.911148777
 40
1.0
 40
1.0
 40
1.0
 40
1.0
 10
134.2236617475
 20
177.7098500621
 30
0.0
 10
134.0296578047
 20
178.1372789947
 30
0.0
 10
133.5881300656
 20
178.9652220517
 30
0.0
 10
132.7888255537
 20
180.0990753965
 30
0.0
 10
131.8838678742
 20
181.0828990724
 30
0.0
 10
130.9137706974
 20
181.8719999249
 30
0.0
 10
129.9203881154
 20
182.4310806698
 30
0.0
 10
128.9432502528
 20
182.7330658117
 30
0.0
 10
128.0208140188
 20
182.7559483011
 30
0.0
 10
127.4643119716
 20
182.5663038963
 30
0.0
 10
127.2265684585
 20
182.429098724
 30
0.0
  0
SPLINE
  5
50B
100
AcDbEntity
  8
0
100
AcDbSpline
 62
7
  6
CONTINUOUS
 70
0
 71
3
 72
9
 73
5
 74
0
 42
0.0000001
 43
0.0000001
 44
0.0000000001
 40
0.0
 40
0.0
 40
0.0
 40
0.0
 40
0.2763957971
 40
1.0
 40
1.0
 40
1.0
 40
1.0
 10
35.2999048878
 20
184.7196331946
 30
0.0
 10
35.2999048878
 20
184.937529099
 30
0.0
 10
35.3383428682
 20
185.7231751703
 30
0.0
 10
35.5503044811
 20
186.5164393389
 30
0.0
 10
35.8417088261
 20
187.0068457026
 30
0.0
  0
SPLINE
  5
50C
100
AcDbEntity
  8
0
100
AcDbSpline
 62
7
  6
CONTINUOUS
 70
0
 71
3
 72
9
 73
5
 74
0
 42
0.0000001
 43
0.0000001
 44
0.0000000001
 40
0.0
 40
0.0
 40
0.0
 40
0.0
 40
0.2552440219
 40
1.0
 40
1.0
 40
1.0
 40
1.0
 10
35.8689680512
 20
187.0518181444
 30
0.0
 10
35.8934153283
 20
187.0913604533
 30
0.0
 10
35.992810909
 20
187.2440013137
 30
0.0
 10
36.1070113148
 20
187.3871123893
 30
0.0
 10
36.1998136812
 20
187.4860467441
 30
0.0
  0
SPLINE
  5
50D
100
AcDbEntity
  8
0
100
AcDbSpline
 62
7
  6
CONTINUOUS
 70
0
 71
3
 72
17
 73
13
 74
0
 42
0.0000001
 43
0.0000001
 44
0.0000000001
 40
0.0
 40
0.0
 40
0.0
 40
0.0
 40
0.1286889617
 40
0.2702830997
 40
0.4174385712
 40
0.5617801152
 40
0.6954483663
 40
0.8127097952
 40
0.8646744913
 40
0.9125077733
 40
0.9571384188
 40
1.0
 40
1.0
 40
1.0
 40
1.0
 10
61.9932970121
 20
169.3085447115
 30
0.0
 10
61.9932970121
 20
168.9452750673
 30
0.0
 10
62.0949399085
 20
168.1814376944
 30
0.0
 10
62.4742476279
 20
167.0599078307
 30
0.0
 10
63.0587502056
 20
165.9795230279
 30
0.0
 10
63.8014416093
 20
165.0288870198
 30
0.0
 10
64.6416504815
 20
164.2847938363
 30
0.0
 10
65.4021355673
 20
163.8689700719
 30
0.0
 10
65.9970241541
 20
163.7107177972
 30
0.0
 10
66.4064613365
 20
163.6805701697
 30
0.0
 10
66.7877201914
 20
163.7364401697
 30
0.0
 10
67.0187092318
 20
163.8324332106
 30
0.0
 10
67.1234647973
 20
163.8929748603
 30
0.0
  0
SPLINE
  5
50E
100
AcDbEntity
  8
0
100
AcDbSpline
 62
7
  6
CONTINUOUS
 70
0
 71
3
 72
15
 73
11
 74
0
 42
0.0000001
 43
0.0000001
 44
0.0000000001
 40
0.0
 40
0.0
 40
0.0
 40
0.0
 40
0.0888477593
 40
0.1852583619
 40
0.2940515455
 40
0.416706253
 40
0.5520703998
 40
0.6972053995
 40
0.8480541703
 40
1.0
 40
1.0
 40
1.0
 40
1.0
 10
120.862633301
 20
178.7549023963
 30
0.0
 10
121.1003654422
 20
178.8921031399
 30
0.0
 10
121.656849021
 20
179.0817392439
 30
0.0
 10
122.5792612087
 20
179.0588785072
 30
0.0
 10
123.5563894867
 20
178.7569141642
 30
0.0
 10
124.5497634325
 20
178.1978553288
 30
0.0
 10
125.5198556466
 20
177.4087778239
 30
0.0
 10
126.4248194975
 20
176.4249673807
 30
0.0
 10
127.2241474489
 20
175.2911034853
 30
0.0
 10
127.6656871069
 20
174.4631374363
 30
0.0
 10
127.8597038591
 20
174.0356940326
 30
0.0
  0
SPLINE
  5
50F
100
AcDbEntity
  8
0
100
AcDbSpline
 62
7
  6
CONTINUOUS
 70
0
 71
3
 72
17
 73
13
 74
0
 42
0.0000001
 43
0.0000001
 44
0.0000000001
 40
0.0
 40
0.0
 40
0.0
 40
0.0
 40
0.1286889617
 40
0.2702830997
 40
0.4174385712
 40
0.5617801152
 40
0.6954483663
 40
0.8127097952
 40
0.8646744913
 40
0.9125077733
 40
0.9571384188
 40
1.0
 40
1.0
 40
1.0
 40
1.0
 10
37.2444566319
 20
183.5969711197
 30
0.0
 10
37.2444566319
 20
183.2337014755
 30
0.0
 10
37.3460995284
 20
182.4698641026
 30
0.0
 10
37.7254072477
 20
181.3483342389
 30
0.0
 10
38.3099098254
 20
180.2679494362
 30
0.0
 10
39.0526012291
 20
179.317313428
 30
0.0
 10
39.8928101013
 20
178.5732202445
 30
0.0
 10
40.6532951872
 20
178.1573964801
 30
0.0
 10
41.248183774
 20
177.9991442054
 30
0.0
 10
41.6576209563
 20
177.9689965779
 30
0.0
 10
42.0388798113
 20
178.0248665779
 30
0.0
 10
42.2698688516
 20
178.1208596188
 30
0.0
 10
42.3746244171
 20
178.1814012685
 30
0.0
  0
SPLINE
  5
510
100
AcDbEntity
  8
0
100
AcDbSpline
 62
7
  6
CONTINUOUS
 70
0
 71
3
 72
15
 73
11
 74
0
 42
0.0000001
 43
0.0000001
 44
0.0000000001
 40
0.0
 40
0.0
 40
0.0
 40
0.0
 40
0.088983154
 40
0.185430624
 40
0.29413333
 40
0.4166090186
 40
0.5517827629
 40
0.6968094348
 40
0.8477266797
 40
1.0
 40
1.0
 40
1.0
 40
1.0
 10
126.9265711763
 20
182.9487123389
 30
0.0
 10
127.184111742
 20
183.0973442272
 30
0.0
 10
127.786010547
 20
183.3035966264
 30
0.0
 10
128.7839664108
 20
183.282986454
 30
0.0
 10
129.8417603263
 20
182.9620185637
 30
0.0
 10
130.9182135708
 20
182.3639966244
 30
0.0
 10
131.9711713458
 20
181.5175482331
 30
0.0
 10
132.9559651164
 20
180.4599561475
 30
0.0
 10
133.8292163762
 20
179.2384881495
 30
0.0
 10
134.3141465128
 20
178.345400641
 30
0.0
 10
134.5282676706
 20
177.883796823
 30
0.0
  0
SPLINE
  5
511
100
AcDbEntity
  8
0
100
AcDbSpline
 62
7
  6
CONTINUOUS
 70
0
 71
3
 72
11
 73
7
 74
0
 42
0.0000001
 43
0.0000001
 44
0.0000000001
 40
0.0
 40
0.0
 40
0.0
 40
0.0
 40
0.2178498795
 40
0.4522688404
 40
0.7120861441
 40
1.0
 40
1.0
 40
1.0
 40
1.0
 10
62.7755584586
 20
55.2486183436
 30
0.0
 10
62.6492755022
 20
55.161194613
 30
0.0
 10
62.415819963
 20
54.9352130771
 30
0.0
 10
62.1692723432
 20
54.4913529486
 30
0.0
 10
62.0225720983
 20
53.9554763411
 30
0.0
 10
61.9932970121
 20
53.5681902042
 30
0.0
 10
61.9932970121
 20
53.3652014791
 30
0.0
  0
SPLINE
  5
512
100
AcDbEntity
  8
0
100
AcDbSpline
 62
7
  6
CONTINUOUS
 70
0
 71
3
 72
9
 73
5
 74
0
 42
0.0000001
 43
0.0000001
 44
0.0000000001
 40
0.0
 40
0.0
 40
0.0
 40
0.0
 40
0.2707855644
 40
1.0
 40
1.0
 40
1.0
 40
1.0
 10
35.2999048878
 20
68.7762899622
 30
0.0
 10
35.2999048878
 20
68.9541571757
 30
0.0
 10
35.3264552384
 20
69.6098371581
 30
0.0
 10
35.4671350987
 20
70.2675900697
 30
0.0
 10
35.6590910219
 20
70.7064334387
 30
0.0
  0
SPLINE
  5
513
100
AcDbEntity
  8
0
100
AcDbSpline
 62
7
  6
CONTINUOUS
 70
0
 71
3
 72
17
 73
13
 74
0
 42
0.0000001
 43
0.0000001
 44
0.0000000001
 40
0.0
 40
0.0
 40
0.0
 40
0.0
 40
0.1286889617
 40
0.2702830997
 40
0.4174385712
 40
0.5617801152
 40
0.6954483663
 40
0.8127097952
 40
0.8646744913
 40
0.9125077733
 40
0.9571384188
 40
1.0
 40
1.0
 40
1.0
 40
1.0
 10
37.2444566319
 20
67.6536278873
 30
0.0
 10
37.2444566319
 20
67.2903582431
 30
0.0
 10
37.3460995284
 20
66.5265208702
 30
0.0
 10
37.7254072477
 20
65.4049910065
 30
0.0
 10
38.3099098254
 20
64.3246062038
 30
0.0
 10
39.0526012291
 20
63.3739701956
 30
0.0
 10
39.8928101013
 20
62.6298770121
 30
0.0
 10
40.6532951872
 20
62.2140532477
 30
0.0
 10
41.248183774
 20
62.055800973
 30
0.0
 10
41.6576209563
 20
62.0256533455
 30
0.0
 10
42.0388798113
 20
62.0815233455
 30
0.0
 10
42.2698688516
 20
62.1775163864
 30
0.0
 10
42.3746244171
 20
62.2380580361
 30
0.0
  0
SPLINE
  5
514
100
AcDbEntity
  8
0
100
AcDbSpline
 62
7
  6
CONTINUOUS
 70
0
 71
3
 72
17
 73
13
 74
0
 42
0.0000001
 43
0.0000001
 44
0.0000000001
 40
0.0
 40
0.0
 40
0.0
 40
0.0
 40
0.1286889617
 40
0.2702830997
 40
0.4174385712
 40
0.5617801152
 40
0.6954483663
 40
0.8127097952
 40
0.8646744913
 40
0.9125077733
 40
0.9571384188
 40
1.0
 40
1.0
 40
1.0
 40
1.0
 10
71.503946367
 20
154.0197475926
 30
0.0
 10
71.503946367
 20
153.6522041879
 30
0.0
 10
71.6067850623
 20
152.8793804929
 30
0.0
 10
71.9905552254
 20
151.7446561602
 30
0.0
 10
72.581934304
 20
150.6515609481
 30
0.0
 10
73.3333632536
 20
149.6897409869
 30
0.0
 10
74.1834569361
 20
148.936893766
 30
0.0
 10
74.9528889053
 20
148.5161779572
 30
0.0
 10
75.5547761813
 20
148.356063891
 30
0.0
 10
75.9690302717
 20
148.3255615856
 30
0.0
 10
76.3547745249
 20
148.3820888798
 30
0.0
 10
76.5884810834
 20
148.4792112505
 30
0.0
 10
76.6944690673
 20
148.5404651549
 30
0.0
  0
SPLINE
  5
515
100
AcDbEntity
  8
0
100
AcDbSpline
 62
7
  6
CONTINUOUS
 70
0
 71
3
 72
10
 73
6
 74
0
 42
0.0000001
 43
0.0000001
 44
0.0000000001
 40
0.0
 40
0.0
 40
0.0
 40
0.0
 40
0.2838705471
 40
0.5473999298
 40
1.0
 40
1.0
 40
1.0
 40
1.0
 10
85.0818134195
 20
147.4054933625
 30
0.0
 10
85.3644695206
 20
147.1118484269
 30
0.0
 10
85.9447537807
 20
146.5763928739
 30
0.0
 10
87.1216911781
 20
145.7554868722
 30
0.0
 10
88.1105351043
 20
145.3589626472
 30
0.0
 10
88.756063331
 20
145.2842121769
 30
0.0
  0
SPLINE
  5
516
100
AcDbEntity
  8
0
100
AcDbSpline
 62
7
  6
CONTINUOUS
 70
0
 71
3
 72
16
 73
12
 74
0
 42
0.0000001
 43
0.0000001
 44
0.0000000001
 40
0.0
 40
0.0
 40
0.0
 40
0.0
 40
0.0442524955
 40
0.089485527
 40
0.1859494022
 40
0.2945086526
 40
0.4167265987
 40
0.5516203218
 40
0.6964583527
 40
0.8473954519
 40
1.0
 40
1.0
 40
1.0
 40
1.0
 10
127.890783755
 20
184.5446196528
 30
0.0
 10
128.0334102041
 20
184.626931938
 30
0.0
 10
128.3380996029
 20
184.7667831186
 30
0.0
 10
129.0120101928
 20
184.9376656132
 30
0.0
 10
129.9599954603
 20
184.9247235866
 30
0.0
 10
131.1377699812
 20
184.574496614
 30
0.0
 10
132.3390311921
 20
183.9181619216
 30
0.0
 10
133.5160139901
 20
182.9855540928
 30
0.0
 10
134.6203184183
 20
181.8173547398
 30
0.0
 10
135.604105124
 20
180.464644081
 30
0.0
 10
136.1538425933
 20
179.4740430259
 30
0.0
 10
136.3979664231
 20
178.9613154129
 30
0.0
  0
SPLINE
  5
517
100
AcDbEntity
  8
0
100
AcDbSpline
 62
7
  6
CONTINUOUS
 70
0
 71
3
 72
9
 73
5
 74
0
 42
0.0000001
 43
0.0000001
 44
0.0000000001
 40
0.0
 40
0.0
 40
0.0
 40
0.0
 40
0.2763957971
 40
1.0
 40
1.0
 40
1.0
 40
1.0
 10
84.7975856481
 20
156.1427803782
 30
0.0
 10
84.7975856481
 20
156.3606762826
 30
0.0
 10
84.8360236285
 20
157.1463223539
 30
0.0
 10
85.0479852414
 20
157.9395865224
 30
0.0
 10
85.3393895864
 20
158.4299928862
 30
0.0
  0
SPLINE
  5
518
100
AcDbEntity
  8
0
100
AcDbSpline
 62
7
  6
CONTINUOUS
 70
0
 71
3
 72
9
 73
5
 74
0
 42
0.0000001
 43
0.0000001
 44
0.0000000001
 40
0.0
 40
0.0
 40
0.0
 40
0.0
 40
0.2552440219
 40
1.0
 40
1.0
 40
1.0
 40
1.0
 10
85.3666488115
 20
158.4749653279
 30
0.0
 10
85.3910960886
 20
158.5145076369
 30
0.0
 10
85.4904916693
 20
158.6671484973
 30
0.0
 10
85.6046920751
 20
158.8102595729
 30
0.0
 10
85.6974944415
 20
158.9091939276
 30
0.0
  0
SPLINE
  5
519
100
AcDbEntity
  8
0
100
AcDbSpline
 62
7
  6
CONTINUOUS
 70
0
 71
3
 72
17
 73
13
 74
0
 42
0.0000001
 43
0.0000001
 44
0.0000000001
 40
0.0
 40
0.0
 40
0.0
 40
0.0
 40
0.1286889617
 40
0.2702830997
 40
0.4174385712
 40
0.5617801152
 40
0.6954483663
 40
0.8127097952
 40
0.8646744913
 40
0.9125077733
 40
0.9571384188
 40
1.0
 40
1.0
 40
1.0
 40
1.0
 10
86.7421373922
 20
155.0201183033
 30
0.0
 10
86.7421373922
 20
154.6568486591
 30
0.0
 10
86.8437802887
 20
153.8930112862
 30
0.0
 10
87.223088008
 20
152.7714814225
 30
0.0
 10
87.8075905857
 20
151.6910966197
 30
0.0
 10
88.5502819894
 20
150.7404606116
 30
0.0
 10
89.3904908616
 20
149.9963674281
 30
0.0
 10
90.1509759474
 20
149.5805436637
 30
0.0
 10
90.7458645343
 20
149.4222913889
 30
0.0
 10
91.1553017166
 20
149.3921437615
 30
0.0
 10
91.5365605715
 20
149.4480137615
 30
0.0
 10
91.7675496119
 20
149.5440068024
 30
0.0
 10
91.8723051774
 20
149.6045484521
 30
0.0
  0
SPLINE
  5
51A
100
AcDbEntity
  8
0
100
AcDbSpline
 62
7
  6
CONTINUOUS
 70
0
 71
3
 72
16
 73
12
 74
0
 42
0.0000001
 43
0.0000001
 44
0.0000000001
 40
0.0
 40
0.0
 40
0.0
 40
0.0
 40
0.0920399881
 40
0.1436609808
 40
0.1992869698
 40
0.3218112577
 40
0.4566374166
 40
0.5983014946
 40
0.7403043728
 40
0.8760687461
 40
1.0
 40
1.0
 40
1.0
 40
1.0
 10
67.6206292877
 20
45.2687269782
 30
0.0
 10
67.2252859019
 20
45.2119234792
 30
0.0
 10
66.585580071
 20
45.2624271231
 30
0.0
 10
65.7610073652
 20
45.5258079731
 30
0.0
 10
64.8577829775
 20
45.9554543443
 30
0.0
 10
63.746804845
 20
46.7552682654
 30
0.0
 10
62.5427129319
 20
48.0100831519
 30
0.0
 10
61.5035726201
 20
49.5082150923
 30
0.0
 10
60.6995196126
 20
51.1491626417
 30
0.0
 10
60.1841524633
 20
52.8218457385
 30
0.0
 10
60.0487452679
 20
53.9500695139
 30
0.0
 10
60.0487452679
 20
54.487863554
 30
0.0
  0
SPLINE
  5
51B
100
AcDbEntity
  8
0
100
AcDbSpline
 62
7
  6
CONTINUOUS
 70
0
 71
3
 72
11
 73
7
 74
0
 42
0.0000001
 43
0.0000001
 44
0.0000000001
 40
0.0
 40
0.0
 40
0.0
 40
0.0
 40
0.2177466879
 40
0.4511691807
 40
0.7107357942
 40
1.0
 40
1.0
 40
1.0
 40
1.0
 10
47.6231861591
 20
67.3839788733
 30
0.0
 10
47.4845298691
 20
67.3004380741
 30
0.0
 10
47.2256409664
 20
67.0759777188
 30
0.0
 10
46.9507361094
 20
66.6165885077
 30
0.0
 10
46.7874241586
 20
66.0532651713
 30
0.0
 10
46.7551059869
 20
65.6439158394
 30
0.0
 10
46.7551059869
 20
65.4288694424
 30
0.0
  0
SPLINE
  5
51C
100
AcDbEntity
  8
0
100
AcDbSpline
 62
7
  6
CONTINUOUS
 70
0
 71
3
 72
9
 73
5
 74
0
 42
0.0000001
 43
0.0000001
 44
0.0000000001
 40
0.0
 40
0.0
 40
0.0
 40
0.0
 40
0.2707855644
 40
1.0
 40
1.0
 40
1.0
 40
1.0
 10
60.0487452679
 20
54.487863554
 30
0.0
 10
60.0487452679
 20
54.6657307675
 30
0.0
 10
60.0752956186
 20
55.3214107498
 30
0.0
 10
60.2159754789
 20
55.9791636615
 30
0.0
 10
60.407931402
 20
56.4180070305
 30
0.0
  0
SPLINE
  5
51D
100
AcDbEntity
  8
0
100
AcDbSpline
 62
7
  6
CONTINUOUS
 70
0
 71
3
 72
17
 73
13
 74
0
 42
0.0000001
 43
0.0000001
 44
0.0000000001
 40
0.0
 40
0.0
 40
0.0
 40
0.0
 40
0.1286889617
 40
0.2702830997
 40
0.4174385712
 40
0.5617801152
 40
0.6954483663
 40
0.8127097952
 40
0.8646744913
 40
0.9125077733
 40
0.9571384188
 40
1.0
 40
1.0
 40
1.0
 40
1.0
 10
61.9932970121
 20
53.3652014791
 30
0.0
 10
61.9932970121
 20
53.0019318349
 30
0.0
 10
62.0949399085
 20
52.238094462
 30
0.0
 10
62.4742476279
 20
51.1165645983
 30
0.0
 10
63.0587502056
 20
50.0361797955
 30
0.0
 10
63.8014416093
 20
49.0855437874
 30
0.0
 10
64.6416504815
 20
48.3414506039
 30
0.0
 10
65.4021355673
 20
47.9256268395
 30
0.0
 10
65.9970241541
 20
47.7673745648
 30
0.0
 10
66.4064613365
 20
47.7372269373
 30
0.0
 10
66.7877201914
 20
47.7930969373
 30
0.0
 10
67.0187092318
 20
47.8890899782
 30
0.0
 10
67.1234647973
 20
47.9496316279
 30
0.0
  0
SPLINE
  5
51E
100
AcDbEntity
  8
0
100
AcDbSpline
 62
7
  6
CONTINUOUS
 70
0
 71
3
 72
15
 73
11
 74
0
 42
0.0000001
 43
0.0000001
 44
0.0000000001
 40
0.0
 40
0.0
 40
0.0
 40
0.0
 40
0.0888477593
 40
0.1852583619
 40
0.2940515455
 40
0.416706253
 40
0.5520703998
 40
0.6972053995
 40
0.8480541703
 40
1.0
 40
1.0
 40
1.0
 40
1.0
 10
96.1137929209
 20
193.0433288045
 30
0.0
 10
96.3515250621
 20
193.1805295481
 30
0.0
 10
96.9080086409
 20
193.3701656521
 30
0.0
 10
97.8304208285
 20
193.3473049154
 30
0.0
 10
98.8075491066
 20
193.0453405724
 30
0.0
 10
99.8009230524
 20
192.4862817371
 30
0.0
 10
100.7710152664
 20
191.6972042321
 30
0.0
 10
101.6759791173
 20
190.7133937889
 30
0.0
 10
102.4753070688
 20
189.5795298935
 30
0.0
 10
102.9168467267
 20
188.7515638445
 30
0.0
 10
103.110863479
 20
188.3241204408
 30
0.0
  0
ELLIPSE
  5
51F
100
AcDbEntity
  8
0
100
AcDbEllipse
 62
7
  6
CONTINUOUS
 10
-95.6495019987
 20
80.8973838275
 30
0.0
 11
120.997204931
 21
74.6756406677
 31
0.0
 40
0.0303352586
 41
0.0163453705
 42
0.0980177261
  0
ELLIPSE
  5
520
100
AcDbEntity
  8
0
100
AcDbEllipse
 62
7
  6
CONTINUOUS
 10
-43.7193637839
 20
50.9161828155
 30
0.0
 11
120.997204931
 21
74.6756406677
 31
0.0
 40
0.0303352586
 41
-0.065326985
 42
0.0163453705
  0
ELLIPSE
  5
521
100
AcDbEntity
  8
0
100
AcDbEllipse
 62
7
  6
CONTINUOUS
 10
87.7283758511
 20
36.1761014037
 30
0.0
 11
-4.2855026536
 21
5.59345081
 31
0.0
 40
0.4694319813
 41
6.2218105259
 42
11.3393535758
  0
ELLIPSE
  5
522
100
AcDbEntity
  8
0
100
AcDbEllipse
 62
7
  6
CONTINUOUS
 10
62.979535471
 20
166.4078710443
 30
0.0
 11
-2.3560923812
 21
6.6613934622
 31
0.0
 40
0.6664476982
 41
3.2647439957
 42
8.3822882005
  0
ELLIPSE
  5
523
100
AcDbEntity
  8
0
100
AcDbEllipse
 62
7
  6
CONTINUOUS
 10
38.2306950908
 20
64.7529542201
 30
0.0
 11
-4.2855026536
 21
5.59345081
 31
0.0
 40
0.4694319813
 41
6.2218105259
 42
11.3393535758
  0
ELLIPSE
  5
524
100
AcDbEntity
  8
0
100
AcDbEllipse
 62
7
  6
CONTINUOUS
 10
38.2306950908
 20
180.6962974525
 30
0.0
 11
-2.3560923812
 21
6.6613934622
 31
0.0
 40
0.6664476982
 41
3.2647439957
 42
8.3822882005
  0
ELLIPSE
  5
525
100
AcDbEntity
  8
0
100
AcDbEllipse
 62
7
  6
CONTINUOUS
 10
87.7283758511
 20
152.1194446361
 30
0.0
 11
-2.3560923812
 21
6.6613934622
 31
0.0
 40
0.6664476982
 41
3.2647439957
 42
8.3822882005
  0
ELLIPSE
  5
526
100
AcDbEntity
  8
0
100
AcDbEllipse
 62
7
  6
CONTINUOUS
 10
62.979535471
 20
50.4645278119
 30
0.0
 11
-4.2855026536
 21
5.59345081
 31
0.0
 40
0.4694319813
 41
6.2218105259
 42
11.3393535758
  0
ENDSEC
  0
SECTION
  2
OBJECTS
  0
DICTIONARY
  5
C
100
AcDbDictionary
280
0
281
1
  3
ACAD_GROUP
350
D
  3
ACAD_MLINESTYLE
350
17
  3
ACAD_LAYOUT
350
1A
  3
ACAD_PLOTSETTINGS
350
19
  3
ACAD_PLOTSTYLENAME
350
E
  0
DICTIONARY
  5
D
102
{ACAD_REACTORS
330
C
102
}
100
AcDbDictionary
280
0
281
1
  0
ACDBDICTIONARYWDFLT
  5
E
102
{ACAD_REACTORS
330
C
102
}
100
AcDbDictionary
281
1
  3
Normal
350
F
100
AcDbDictionaryWithDefault
340
F
  0
DICTIONARY
  5
17
102
{ACAD_REACTORS
330
C
102
}
100
AcDbDictionary
280
0
281
1
  3
Standard
350
18
  0
DICTIONARY
  5
19
102
{ACAD_REACTORS
330
C
102
}
100
AcDbDictionary
281
1
  0
DICTIONARY
  5
1A
102
{ACAD_REACTORS
330
C
102
}
100
AcDbDictionary
281
1
  3
Model
350
527
  3
Layout1
350
528
  0
ACDBPLACEHOLDER
  5
F
102
{ACAD_REACTORS
330
E
102
}
  0
MLINESTYLE
  5
18
102
{ACAD_REACTORS
330
17
102
}
100
AcDbMlineStyle
  2
STANDARD
 70
0
  3

 62
256
 51
90.0
 52
90.0
 71
2
 49
0.5
 62
256
  6
BYLAYER
 49
-0.5
 62
256
  6
BYLAYER
  0
LAYOUT
  5
527
102
{ACAD_REACTORS
330
1A
102
}
100
AcDbPlotSettings
  1

  2
none_device
  4

  6

 40
0.0
 41
0.0
 42
0.0
 43
0.0
 44
210.0
 45
297.0
 46
0.0
 47
0.0
 48
0.0
 49
0.0
140
0.0
141
0.0
142
1.0
143
1.0
 70
1024
 72
1
 73
0
 74
0
  7

 75
0
147
1.0
148
0.0
149
0.0
100
AcDbLayout
  1
Model
 70
0
 71
0
 10
0.0
 20
0.0
 11
210.0
 21
297.0
 12
0.0
 22
0.0
 32
0.0
 14
0.0
 24
0.0
 34
0.0
 15
0.0
 25
0.0
 35
0.0
146
0.0
 13
0.0
 23
0.0
 33
0.0
 16
1.0
 26
0.0
 36
0.0
 17
0.0
 27
1.0
 37
0.0
 76
0
330
211
345
0
346
0
  0
LAYOUT
  5
528
102
{ACAD_REACTORS
330
1A
102
}
100
AcDbPlotSettings
  1

  2
none_device
  4

  6

 40
0.0
 41
0.0
 42
0.0
 43
0.0
 44
210.0
 45
297.0
 46
0.0
 47
0.0
 48
0.0
 49
0.0
140
0.0
141
0.0
142
1.0
143
1.0
 70
0
 72
1
 73
0
 74
0
  7

 75
0
147
1.0
148
0.0
149
0.0
100
AcDbLayout
  1
Layout1
 70
0
 71
1
 10
0.0
 20
0.0
 11
210.0
 21
297.0
 12
0.0
 22
0.0
 32
0.0
 14
0.0
 24
0.0
 34
0.0
 15
0.0
 25
0.0
 35
0.0
146
0.0
 13
0.0
 23
0.0
 33
0.0
 16
1.0
 26
0.0
 36
0.0
 17
0.0
 27
1.0
 37
0.0
 76
0
330
212
345
0
346
0
  0
ENDSEC
  0
EOF
