999
DXF file: C:\Users\SESA621925\Desktop\Projects\Drawing_creation_tool\Gen2D (3) (1)\CAD\G40F3A250_3D-CAD\drw0001_1.dxf
999
Pro/ENGINEER 2019471 by Parametric Technology Corporation
  0
SECTION
  2
HEADER
  9
$ACADVER
  1
AC1024
  9
$DWGCODEPAGE
  3
ANSI_1252
  9
$EXTMAX
 10
212.0504895861
 20
299.899978129
 30
0.0
  9
$EXTMIN
 10
0.0
 20
0.0
 30
0.0
  9
$LIMMIN
 10
0.0
 20
0.0
  9
$LIMMAX
 10
212.0504895861
 20
299.899978129
  9
$VIEWCTR
 10
106.0252447931
 20
149.9499890645
  9
$VIEWSIZE
 40
299.899978129
  9
$CLAYER
  8
0
  9
$LTSCALE
 40
19.5490356114
  9
$CELTYPE
  6
BYLAYER
  9
$DIMSCALE
 40
1.0
  9
$DIMASZ
 40
2.5244105903
  9
$DIMEXO
 40
1.0
  9
$DIMDLI
 40
13.5066064224
  9
$DIMEXE
 40
1.0
  9
$DIMCEN
 40
3.1989331
  9
$DIMLFAC
 40
1.0
  9
$DIMBLK
  1
_FILLED
  9
$DIMALT
 70
0
  9
$DIMALTF
 40
0.0393700787
  9
$DIMTXT
 40
3.5341748264
  9
$DIMTOL
 70
1
  9
$DIMLIM
 70
0
  9
$DIMTFAC
 40
1.0
  9
$DIMTP
 40
0.01
  9
$DIMTM
 40
0.01
  9
$DIMGAP
 40
0.625
  9
$DIMDSEP
 70
46
  9
$AUNITS
 70
0
  9
$PDMODE
 70
3
  9
$PDSIZE
 40
0.3125
  9
$HANDSEED
  5
4FB
  9
$TILEMODE
 70
1
  9
$MEASUREMENT
 70
1
  9
$INSUNITS
 70
4
  0
ENDSEC
  0
SECTION
  2
CLASSES
  0
CLASS
  1
ACDBDICTIONARYWDFLT
  2
AcDbDictionaryWithDefault
  3
AutoCAD 2000
 90
0
 91
1
280
0
281
0
  0
CLASS
  1
ACDBPLACEHOLDER
  2
AcDbPlaceHolder
  3
AutoCAD 2000
 90
0
 91
1
280
0
281
0
  0
CLASS
  1
LAYOUT
  2
AcDbLayout
  3
AutoCAD 2000
 90
0
 91
0
280
0
281
0
  0
ENDSEC
  0
SECTION
  2
TABLES
  0
TABLE
  2
VPORT
  5
8
100
AcDbSymbolTable
 70
2
  0
VPORT
  5
1F4
100
AcDbSymbolTableRecord
100
AcDbViewportTableRecord
  2
*ACTIVE
 70
0
 10
0.0
 20
0.0
 11
1.0
 21
1.0
 12
106.0252447931
 22
149.9499890645
 13
0.0
 23
0.0
 14
1.0
 24
1.0
 15
0.0
 25
0.0
 16
0.0
 26
0.0
 36
1.0
 17
0.0
 27
0.0
 37
0.0
 40
299.899978129
 41
0.7070707071
 42
50.0
 43
0.0
 44
0.0
 50
0.0
 51
0.0
 71
0
 72
100
 73
1
 74
1
 75
0
 76
0
 77
0
 78
0
  0
ENDTAB
  0
TABLE
  2
LTYPE
  5
5
100
AcDbSymbolTable
 70
6
  0
LTYPE
  5
14
100
AcDbSymbolTableRecord
100
AcDbLinetypeTableRecord
  2
BYBLOCK
 70
0
  3

 72
65
 73
0
 40
0.0
  0
LTYPE
  5
15
100
AcDbSymbolTableRecord
100
AcDbLinetypeTableRecord
  2
BYLAYER
 70
0
  3

 72
65
 73
0
 40
0.0
  0
LTYPE
  5
16
100
AcDbSymbolTableRecord
100
AcDbLinetypeTableRecord
  2
CONTINUOUS
 70
64
  3
Solid line
 72
65
 73
0
 40
0.0
  0
LTYPE
  5
1F5
100
AcDbSymbolTableRecord
100
AcDbLinetypeTableRecord
  2
CENTER
 70
64
  3
____ _ ____ _ ____ _ ____ _ ____ _ ____ _ ____
 72
65
 73
4
 40
0.6
 49
0.375
 74
0
 49
-0.075
 74
0
 49
0.075
 74
0
 49
-0.075
 74
0
  0
LTYPE
  5
1F6
100
AcDbSymbolTableRecord
100
AcDbLinetypeTableRecord
  2
HIDDEN
 70
64
  3
- - - - - - - - - - - - - - - - - - - -
 72
65
 73
2
 40
0.2
 49
0.1
 74
0
 49
-0.1
 74
0
  0
LTYPE
  5
1F7
100
AcDbSymbolTableRecord
100
AcDbLinetypeTableRecord
  2
PHANTOM
 70
64
  3
_____ _ _ _____ _ _ _____ _ _ _____
 72
65
 73
6
 40
0.8
 49
0.45
 74
0
 49
-0.05
 74
0
 49
0.1
 74
0
 49
-0.05
 74
0
 49
0.1
 74
0
 49
-0.05
 74
0
  0
LTYPE
  5
1F8
100
AcDbSymbolTableRecord
100
AcDbLinetypeTableRecord
  2
DOT
 70
64
  3
. . . . . . . . . . . . . . . . . . . .
 72
65
 73
2
 40
0.2
 49
0.1
 74
0
 49
-0.1
 74
0
  0
LTYPE
  5
1F9
100
AcDbSymbolTableRecord
100
AcDbLinetypeTableRecord
  2
DASHED
 70
64
  3
- - - - - - - - - - - - - - - - - - - -
 72
65
 73
2
 40
0.2
 49
0.1
 74
0
 49
-0.1
 74
0
  0
ENDTAB
  0
TABLE
  2
LAYER
  5
2
100
AcDbSymbolTable
 70
36
  0
LAYER
  5
10
100
AcDbSymbolTableRecord
100
AcDbLayerTableRecord
  2
0
 70
0
 62
7
  6
CONTINUOUS
370
-3
390
F
  0
LAYER
  5
1FA
100
AcDbSymbolTableRecord
100
AcDbLayerTableRecord
  2
DEFAULT_1
 70
0
 62
7
  6
CENTER
370
-3
390
F
  0
LAYER
  5
1FB
100
AcDbSymbolTableRecord
100
AcDbLayerTableRecord
  2
DEFAULT_2
 70
0
 62
8
  6
HIDDEN
370
-3
390
F
  0
LAYER
  5
1FC
100
AcDbSymbolTableRecord
100
AcDbLayerTableRecord
  2
DEFAULT_3
 70
0
 62
7
  6
PHANTOM
370
-3
390
F
  0
LAYER
  5
1FD
100
AcDbSymbolTableRecord
100
AcDbLayerTableRecord
  2
00_COMPONENTS
 70
0
 62
7
  6
CONTINUOUS
370
-3
390
F
  0
LAYER
  5
1FE
100
AcDbSymbolTableRecord
100
AcDbLayerTableRecord
  2
00_COMPONENTS_1
 70
0
 62
7
  6
CONTINUOUS
370
-3
390
F
  0
LAYER
  5
1FF
100
AcDbSymbolTableRecord
100
AcDbLayerTableRecord
  2
00_COMPONENTS_2
 70
0
 62
7
  6
CONTINUOUS
370
-3
390
F
  0
LAYER
  5
200
100
AcDbSymbolTableRecord
100
AcDbLayerTableRecord
  2
00_COMPONENTS_4
 70
0
 62
7
  6
CONTINUOUS
370
-3
390
F
  0
LAYER
  5
201
100
AcDbSymbolTableRecord
100
AcDbLayerTableRecord
  2
01_1_DEFAULT_DATUMS
 70
0
 62
7
  6
CONTINUOUS
370
-3
390
F
  0
LAYER
  5
202
100
AcDbSymbolTableRecord
100
AcDbLayerTableRecord
  2
01_PLANES
 70
0
 62
7
  6
CONTINUOUS
370
-3
390
F
  0
LAYER
  5
203
100
AcDbSymbolTableRecord
100
AcDbLayerTableRecord
  2
02_COORD_SYS
 70
0
 62
7
  6
CONTINUOUS
370
-3
390
F
  0
LAYER
  5
204
100
AcDbSymbolTableRecord
100
AcDbLayerTableRecord
  2
03_AXES
 70
0
 62
7
  6
CONTINUOUS
370
-3
390
F
  0
LAYER
  5
205
100
AcDbSymbolTableRecord
100
AcDbLayerTableRecord
  2
04_POINTS
 70
0
 62
7
  6
CONTINUOUS
370
-3
390
F
  0
LAYER
  5
206
100
AcDbSymbolTableRecord
100
AcDbLayerTableRecord
  2
05_CURVES
 70
0
 62
7
  6
CONTINUOUS
370
-3
390
F
  0
LAYER
  5
207
100
AcDbSymbolTableRecord
100
AcDbLayerTableRecord
  2
06_SURFS
 70
0
 62
7
  6
CONTINUOUS
370
-3
390
F
  0
LAYER
  5
208
100
AcDbSymbolTableRecord
100
AcDbLayerTableRecord
  2
07_COSMETICS
 70
0
 62
7
  6
CONTINUOUS
370
-3
390
F
  0
LAYER
  5
209
100
AcDbSymbolTableRecord
100
AcDbLayerTableRecord
  2
10_NOTES
 70
0
 62
7
  6
CONTINUOUS
370
-3
390
F
  0
LAYER
  5
20A
100
AcDbSymbolTableRecord
100
AcDbLayerTableRecord
  2
11_NOTES_PUB
 70
0
 62
7
  6
CONTINUOUS
370
-3
390
F
  0
LAYER
  5
20B
100
AcDbSymbolTableRecord
100
AcDbLayerTableRecord
  2
13_REF_GTOL
 70
0
 62
7
  6
CONTINUOUS
370
-3
390
F
  0
LAYER
  5
20C
100
AcDbSymbolTableRecord
100
AcDbLayerTableRecord
  2
16_MISC
 70
0
 62
7
  6
CONTINUOUS
370
-3
390
F
  0
LAYER
  5
20D
100
AcDbSymbolTableRecord
100
AcDbLayerTableRecord
  2
17_NO_PRINT
 70
0
 62
7
  6
CONTINUOUS
370
-3
390
F
  0
LAYER
  5
20E
100
AcDbSymbolTableRecord
100
AcDbLayerTableRecord
  2
18_DATUM_CAMS_JOINTS
 70
0
 62
7
  6
CONTINUOUS
370
-3
390
F
  0
LAYER
  5
20F
100
AcDbSymbolTableRecord
100
AcDbLayerTableRecord
  2
19_DATUM_FUNCTIONAL
 70
0
 62
7
  6
CONTINUOUS
370
-3
390
F
  0
LAYER
  5
210
100
AcDbSymbolTableRecord
100
AcDbLayerTableRecord
  2
20_DATUM_KINEMATIC_SCHEME
 70
0
 62
7
  6
CONTINUOUS
370
-3
390
F
  0
ENDTAB
  0
TABLE
  2
STYLE
  5
3
100
AcDbSymbolTable
 70
1
  0
STYLE
  5
11
100
AcDbSymbolTableRecord
100
AcDbTextStyleTableRecord
  2
STANDARD
 70
0
 40
0.0
 41
0.8
 50
0.0
 71
0
 42
0.2
  3
txt
  4

  0
STYLE
  5
211
100
AcDbSymbolTableRecord
100
AcDbTextStyleTableRecord
  2
TEXTSTYLE_1
 70
0
 40
0.0
 41
0.8
 50
0.0
 71
0
 42
0.2
  3
gdt
  4

  0
ENDTAB
  0
TABLE
  2
VIEW
  5
6
100
AcDbSymbolTable
 70
0
  0
ENDTAB
  0
TABLE
  2
UCS
  5
7
100
AcDbSymbolTable
 70
0
  0
ENDTAB
  0
TABLE
  2
APPID
  5
9
100
AcDbSymbolTable
 70
1
  0
APPID
  5
212
100
AcDbSymbolTableRecord
100
AcDbRegAppTableRecord
  2
ACAD
 70
0
  0
ENDTAB
  0
TABLE
  2
BLOCK_RECORD
  5
1
100
AcDbSymbolTable
 70
0
  0
BLOCK_RECORD
  5
213
100
AcDbSymbolTableRecord
100
AcDbBlockTableRecord
  2
*Model_Space
  0
BLOCK_RECORD
  5
214
100
AcDbSymbolTableRecord
100
AcDbBlockTableRecord
  2
*Paper_Space
  0
BLOCK_RECORD
  5
215
100
AcDbSymbolTableRecord
100
AcDbBlockTableRecord
  2
_FILLED
  0
ENDTAB
  0
TABLE
  2
DIMSTYLE
  5
A
100
AcDbSymbolTable
 70
1
100
AcDbDimStyleTable
 71
0
  0
DIMSTYLE
105
216
100
AcDbSymbolTableRecord
100
AcDbDimStyleTableRecord
  2
STANDARD
 70
0
  3

  4

 40
1.0
 41
2.5244105903
 42
1.0
 43
0.38
 44
1.0
 45
0.0
 46
0.0
 47
0.01
 48
0.01
140
3.5341748264
141
0.09
142
0.0
143
25.4
144
1.0
145
0.0
146
1.0
147
0.625
 71
1
 72
0
 73
0
 74
0
 75
0
 76
0
 77
1
 78
8
 79
2
170
0
171
1
172
0
173
0
174
0
175
0
176
0
177
0
178
0
270
2
179
2
271
2
272
2
273
2
274
2
275
0
280
0
281
0
282
0
283
1
284
8
285
0
286
0
287
3
288
0
340
11
278
46
341
215
342
215
343
215
344
215
  0
ENDTAB
  0
ENDSEC
  0
SECTION
  2
BLOCKS
  0
BLOCK
  5
20
100
AcDbEntity
  8
0
100
AcDbBlockBegin
  2
*Model_Space
 70
0
 10
0.0
 20
0.0
 30
0.0
  3
*Model_Space
  1

  0
ENDBLK
  5
21
100
AcDbEntity
  8
0
100
AcDbBlockEnd
  0
BLOCK
  5
1C
100
AcDbEntity
  8
0
100
AcDbBlockBegin
  2
*Paper_Space
 70
0
 10
0.0
 20
0.0
 30
0.0
  3
*Paper_Space
  1

  0
ENDBLK
  5
1D
100
AcDbEntity
  8
0
100
AcDbBlockEnd
  0
BLOCK
  5
217
100
AcDbEntity
  8
0
100
AcDbBlockBegin
  2
_FILLED
 70
64
 10
0.0
 20
0.0
  3
_FILLED
  1

  0
SOLID
  5
218
100
AcDbEntity
  8
0
  6
BYBLOCK
 62
0
100
AcDbTrace
 10
0.0
 20
0.0
 11
-1.0
 21
0.25
 12
-1.0
 22
-0.25
 13
-1.0
 23
-0.25
  0
ENDBLK
  5
219
100
AcDbEntity
  8
0
  6
BYBLOCK
 62
0
100
AcDbBlockEnd
  0
ENDSEC
  0
SECTION
  2
ENTITIES
  0
LINE
  5
21A
100
AcDbEntity
  8
00_COMPONENTS
100
AcDbLine
 62
7
  6
CONTINUOUS
 10
37.8554975572
 20
238.4162796439
 11
105.5253347786
 21
277.4852451694
  0
LINE
  5
21B
100
AcDbEntity
  8
00_COMPONENTS
100
AcDbLine
 62
7
  6
CONTINUOUS
 10
51.5379721159
 20
244.1929432595
 11
60.3767700811
 21
249.2959951829
  0
LINE
  5
21C
100
AcDbEntity
  8
00_COMPONENTS
100
AcDbLine
 62
7
  6
CONTINUOUS
 10
62.4980815927
 20
250.5207276445
 11
93.9642023488
 21
268.6875924918
  0
LINE
  5
21D
100
AcDbEntity
  8
00_COMPONENTS
100
AcDbLine
 62
7
  6
CONTINUOUS
 10
37.8426462567
 20
230.8970377487
 11
35.4191945953
 21
229.4978444676
  0
LINE
  5
21E
100
AcDbEntity
  8
00_COMPONENTS
100
AcDbLine
 62
7
  6
CONTINUOUS
 10
98.2775964015
 20
262.6864370322
 11
101.2474325178
 21
264.4010624785
  0
LINE
  5
21F
100
AcDbEntity
  8
00_COMPONENTS
100
AcDbLine
 62
7
  6
CONTINUOUS
 10
93.398539298
 20
259.8694315602
 11
98.2775964015
 21
262.6864370322
  0
LINE
  5
220
100
AcDbEntity
  8
00_COMPONENTS
100
AcDbLine
 62
7
  6
CONTINUOUS
 10
70.0146579711
 20
246.1811284239
 11
67.8933464594
 21
244.9563959623
  0
LINE
  5
221
100
AcDbEntity
  8
00_COMPONENTS
100
AcDbLine
 62
7
  6
CONTINUOUS
 10
116.5457749335
 20
42.6827412581
 11
116.9457594697
 21
42.7223485363
  0
LINE
  5
222
100
AcDbEntity
  8
00_COMPONENTS
100
AcDbLine
 62
7
  6
CONTINUOUS
 10
117.3457440058
 20
44.068359682
 11
116.9457594697
 21
44.0287524037
  0
LINE
  5
223
100
AcDbEntity
  8
00_COMPONENTS
100
AcDbLine
 62
7
  6
CONTINUOUS
 10
120.3752042483
 20
23.1466426073
 11
96.7577394283
 21
36.7818838082
  0
LINE
  5
224
100
AcDbEntity
  8
00_COMPONENTS
100
AcDbLine
 62
7
  6
CONTINUOUS
 10
89.5452202318
 20
40.9459395044
 11
68.4733504225
 21
53.1115139891
  0
LINE
  5
225
100
AcDbEntity
  8
00_COMPONENTS
100
AcDbLine
 62
7
  6
CONTINUOUS
 10
61.260831226
 20
57.2755696852
 11
37.6433664061
 21
70.9108108861
  0
LINE
  5
226
100
AcDbEntity
  8
00_COMPONENTS
100
AcDbLine
 62
7
  6
CONTINUOUS
 10
96.527938037
 20
37.9759826637
 11
95.1313794062
 21
38.7822679246
  0
LINE
  5
227
100
AcDbEntity
  8
00_COMPONENTS
100
AcDbLine
 62
7
  6
CONTINUOUS
 10
93.0100502307
 20
40.0069901881
 11
90.4644552202
 21
41.4766569044
  0
LINE
  5
228
100
AcDbEntity
  8
00_COMPONENTS
100
AcDbLine
 62
7
  6
CONTINUOUS
 10
68.2435490312
 20
54.3056128445
 11
66.8469904003
 21
55.1118981054
  0
LINE
  5
229
100
AcDbEntity
  8
00_COMPONENTS
100
AcDbLine
 62
7
  6
CONTINUOUS
 10
64.7256612249
 20
56.3366203689
 11
62.1800662143
 21
57.8062870852
  0
LINE
  5
22A
100
AcDbEntity
  8
00_COMPONENTS
100
AcDbLine
 62
7
  6
CONTINUOUS
 10
36.6817051874
 20
75.9078152734
 11
37.6716588026
 21
75.336278217
  0
LINE
  5
22B
100
AcDbEntity
  8
00_COMPONENTS
100
AcDbLine
 62
7
  6
CONTINUOUS
 10
118.4235894144
 20
28.7151840508
 11
119.4135430296
 21
28.1436469945
  0
LINE
  5
22C
100
AcDbEntity
  8
00_COMPONENTS
100
AcDbLine
 62
7
  6
CONTINUOUS
 10
33.6093560603
 20
206.70086365
 11
34.2514494723
 21
207.6713606573
  0
LINE
  5
22D
100
AcDbEntity
  8
00_COMPONENTS
100
AcDbLine
 62
7
  6
CONTINUOUS
 10
97.7374310083
 20
259.2946527255
 11
96.6767752524
 21
258.6822864947
  0
LINE
  5
22E
100
AcDbEntity
  8
00_COMPONENTS
100
AcDbLine
 62
7
  6
CONTINUOUS
 10
96.8767743571
 20
258.3358758162
 11
95.3211459152
 21
257.4377386777
  0
LINE
  5
22F
100
AcDbEntity
  8
00_COMPONENTS
100
AcDbLine
 62
7
  6
CONTINUOUS
 10
34.3071131058
 20
221.7930418447
 11
36.6888015866
 21
223.1681021222
  0
LINE
  5
230
100
AcDbEntity
  8
00_COMPONENTS
100
AcDbLine
 62
7
  6
CONTINUOUS
 10
67.8933464594
 20
241.1025045535
 11
70.0146579711
 21
242.3272370151
  0
LINE
  5
231
100
AcDbEntity
  8
00_COMPONENTS
100
AcDbLine
 62
7
  6
CONTINUOUS
 10
95.6211445721
 20
256.91812266
 11
89.7521827233
 21
253.5296961829
  0
LINE
  5
232
100
AcDbEntity
  8
00_COMPONENTS
100
AcDbLine
 62
7
  6
CONTINUOUS
 10
77.4675944741
 20
241.8782708713
 11
75.3462829625
 21
240.6535384097
  0
LINE
  5
233
100
AcDbEntity
  8
00_COMPONENTS
100
AcDbLine
 62
7
  6
CONTINUOUS
 10
109.1670614394
 20
259.8287660279
 11
106.1972253231
 21
258.1141405816
  0
LINE
  5
234
100
AcDbEntity
  8
00_COMPONENTS
100
AcDbLine
 62
7
  6
CONTINUOUS
 10
30.4308984346
 20
213.4721786117
 11
33.9664176206
 21
215.5133993811
  0
LINE
  5
235
100
AcDbEntity
  8
00_COMPONENTS
100
AcDbLine
 62
7
  6
CONTINUOUS
 10
95.0659672213
 20
248.7388568615
 11
90.9237259151
 21
246.3473470037
  0
LINE
  5
236
100
AcDbEntity
  8
00_COMPONENTS
100
AcDbLine
 62
7
  6
CONTINUOUS
 10
70.6302646143
 20
233.1702524127
 11
75.7388581983
 21
236.1196826878
  0
LINE
  5
237
100
AcDbEntity
  8
00_COMPONENTS
100
AcDbLine
 62
7
  6
CONTINUOUS
 10
81.5903740911
 20
239.4980367977
 11
89.812531251
 21
244.2450731112
  0
LINE
  5
238
100
AcDbEntity
  8
00_COMPONENTS
100
AcDbLine
 62
7
  6
CONTINUOUS
 10
67.8933464594
 20
241.1025045534
 11
67.5200966622
 21
240.9225372904
  0
LINE
  5
239
100
AcDbEntity
  8
00_COMPONENTS
100
AcDbLine
 62
7
  6
CONTINUOUS
 10
119.0741331878
 20
29.9072956017
 11
118.0841795726
 21
30.4788326581
  0
LINE
  5
23A
100
AcDbEntity
  8
00_COMPONENTS
100
AcDbLine
 62
7
  6
CONTINUOUS
 10
37.3322489608
 20
77.0999268243
 11
36.3422953456
 21
77.6714638806
  0
LINE
  5
23B
100
AcDbEntity
  8
00_COMPONENTS
100
AcDbLine
 62
7
  6
CONTINUOUS
 10
63.7357076097
 20
62.4603738617
 11
64.7256612249
 21
61.8888368054
  0
LINE
  5
23C
100
AcDbEntity
  8
00_COMPONENTS
100
AcDbLine
 62
7
  6
CONTINUOUS
 10
66.8469904003
 20
60.6641145418
 11
67.0414802032
 21
60.551828342
  0
LINE
  5
23D
100
AcDbEntity
  8
00_COMPONENTS
100
AcDbLine
 62
7
  6
CONTINUOUS
 10
92.0200966155
 20
46.1307436809
 11
93.0100502307
 21
45.5592066246
  0
LINE
  5
23E
100
AcDbEntity
  8
00_COMPONENTS
100
AcDbLine
 62
7
  6
CONTINUOUS
 10
95.1313794062
 20
44.334484361
 11
95.3258692091
 21
44.2221981612
  0
LINE
  5
23F
100
AcDbEntity
  8
00_COMPONENTS
100
AcDbLine
 62
7
  6
CONTINUOUS
 10
36.1301641944
 20
78.7737442601
 11
35.0694996067
 21
79.3861053919
  0
LINE
  5
240
100
AcDbEntity
  8
00_COMPONENTS
100
AcDbLine
 62
7
  6
CONTINUOUS
 10
118.8620020366
 20
31.0095759813
 11
119.9226666243
 21
30.3972148495
  0
LINE
  5
241
100
AcDbEntity
  8
00_COMPONENTS
100
AcDbLine
 62
7
  6
CONTINUOUS
 10
93.0100502307
 20
47.5188124257
 11
92.0200966155
 21
48.090349482
  0
LINE
  5
242
100
AcDbEntity
  8
00_COMPONENTS
100
AcDbLine
 62
7
  6
CONTINUOUS
 10
64.7256612249
 20
63.8484426065
 11
63.7357076097
 21
64.4199796628
  0
LINE
  5
243
100
AcDbEntity
  8
00_COMPONENTS
100
AcDbLine
 62
7
  6
CONTINUOUS
 10
94.6364473813
 20
47.8045864613
 11
93.0100502307
 21
48.7435660514
  0
LINE
  5
244
100
AcDbEntity
  8
00_COMPONENTS
100
AcDbLine
 62
7
  6
CONTINUOUS
 10
66.3520583754
 20
64.1342166421
 11
64.7256612249
 21
65.0731962322
  0
LINE
  5
245
100
AcDbEntity
  8
00_COMPONENTS
100
AcDbLine
 62
7
  6
CONTINUOUS
 10
118.6074534871
 20
37.2313532026
 11
92.9460508114
 21
52.0466357787
  0
LINE
  5
246
100
AcDbEntity
  8
00_COMPONENTS
100
AcDbLine
 62
7
  6
CONTINUOUS
 10
87.700078151
 20
55.0753309881
 11
64.6616618055
 21
68.3762659595
  0
LINE
  5
247
100
AcDbEntity
  8
00_COMPONENTS
100
AcDbLine
 62
7
  6
CONTINUOUS
 10
59.4156891452
 20
71.4049611689
 11
33.7542864695
 21
86.220243745
  0
LINE
  5
248
100
AcDbEntity
  8
00_COMPONENTS
100
AcDbLine
 62
7
  6
CONTINUOUS
 10
115.3194177001
 20
41.4567772612
 11
113.9051982498
 21
42.2732587702
  0
LINE
  5
249
100
AcDbEntity
  8
00_COMPONENTS
100
AcDbLine
 62
7
  6
CONTINUOUS
 10
32.5875798579
 20
89.2209455401
 11
31.1733604076
 21
90.0374270491
  0
LINE
  5
24A
100
AcDbEntity
  8
00_COMPONENTS
100
AcDbLine
 62
7
  6
CONTINUOUS
 10
33.1975145286
 20
89.7058138719
 11
34.9652888415
 21
88.6852119856
  0
LINE
  5
24B
100
AcDbEntity
  8
00_COMPONENTS
100
AcDbLine
 62
7
  6
CONTINUOUS
 10
37.369461907
 20
87.2971934202
 11
104.4034638509
 21
48.5959698917
  0
LINE
  5
24C
100
AcDbEntity
  8
00_COMPONENTS
100
AcDbLine
 62
7
  6
CONTINUOUS
 10
112.3230927725
 20
44.023673441
 11
113.9051982498
 21
43.1102650819
  0
LINE
  5
24D
100
AcDbEntity
  8
00_COMPONENTS
100
AcDbLine
 62
7
  6
CONTINUOUS
 10
31.0269231727
 20
90.241549126
 11
31.1733604076
 21
90.0374270491
  0
LINE
  5
24E
100
AcDbEntity
  8
00_COMPONENTS
100
AcDbLine
 62
7
  6
CONTINUOUS
 10
26.0262468275
 20
188.281853976
 11
26.0262468275
 21
127.8874178376
  0
LINE
  5
24F
100
AcDbEntity
  8
00_COMPONENTS
100
AcDbLine
 62
7
  6
CONTINUOUS
 10
35.4191945953
 20
229.4978444676
 11
35.0399298099
 21
226.8701950181
  0
LINE
  5
250
100
AcDbEntity
  8
00_COMPONENTS
100
AcDbLine
 62
7
  6
CONTINUOUS
 10
34.3071131058
 20
221.7930418447
 11
33.9664176206
 21
219.4326109833
  0
LINE
  5
251
100
AcDbEntity
  8
00_COMPONENTS
100
AcDbLine
 62
7
  6
CONTINUOUS
 10
37.8554975572
 20
238.4162796439
 11
36.9812600858
 21
232.3593249808
  0
LINE
  5
252
100
AcDbEntity
  8
00_COMPONENTS
100
AcDbLine
 62
7
  6
CONTINUOUS
 10
36.6727056841
 20
230.2215762762
 11
36.479859183
 21
228.8854833358
  0
LINE
  5
253
100
AcDbEntity
  8
00_COMPONENTS
100
AcDbLine
 62
7
  6
CONTINUOUS
 10
37.971213701
 20
231.7877879245
 11
37.6626592993
 21
229.6500392198
  0
LINE
  5
254
100
AcDbEntity
  8
00_COMPONENTS
100
AcDbLine
 62
7
  6
CONTINUOUS
 10
38.2833513435
 20
202.7705014283
 11
37.6412579315
 21
201.8000044209
  0
LINE
  5
255
100
AcDbEntity
  8
00_COMPONENTS
100
AcDbLine
 62
7
  6
CONTINUOUS
 10
61.4729623771
 20
224.7810384429
 11
62.1800662143
 21
225.1892825968
  0
LINE
  5
256
100
AcDbEntity
  8
00_COMPONENTS
100
AcDbLine
 62
7
  6
CONTINUOUS
 10
96.5806037163
 20
244.4630786564
 11
93.7514312845
 21
242.8296649415
  0
LINE
  5
257
100
AcDbEntity
  8
00_COMPONENTS
100
AcDbLine
 62
7
  6
CONTINUOUS
 10
116.4502916084
 20
255.705536498
 11
84.9841708524
 21
237.5386716507
  0
LINE
  5
258
100
AcDbEntity
  8
00_COMPONENTS
100
AcDbLine
 62
7
  6
CONTINUOUS
 10
82.8628593408
 20
236.3139391891
 11
74.0240613756
 21
231.2108872657
  0
LINE
  5
259
100
AcDbEntity
  8
00_COMPONENTS
100
AcDbLine
 62
7
  6
CONTINUOUS
 10
34.785399391
 20
207.9798382398
 11
34.2513612902
 21
207.6715130391
  0
LINE
  5
25A
100
AcDbEntity
  8
00_COMPONENTS
100
AcDbLine
 62
7
  6
CONTINUOUS
 10
64.7256612249
 20
223.7196158805
 11
131.688394609
 21
262.3803372521
  0
LINE
  5
25B
100
AcDbEntity
  8
00_COMPONENTS
100
AcDbLine
 62
7
  6
CONTINUOUS
 10
34.3164598975
 20
205.8772169695
 11
33.6093560603
 21
205.4689728156
  0
LINE
  5
25C
100
AcDbEntity
  8
00_COMPONENTS
100
AcDbLine
 62
7
  6
CONTINUOUS
 10
36.1266607939
 20
206.0640114723
 11
35.4195569567
 21
205.6557673184
  0
LINE
  5
25D
100
AcDbEntity
  8
00_COMPONENTS
100
AcDbLine
 62
7
  6
CONTINUOUS
 10
36.1266607939
 20
204.8321206379
 11
35.4195569567
 21
204.4238764841
  0
LINE
  5
25E
100
AcDbEntity
  8
00_COMPONENTS
100
AcDbLine
 62
7
  6
CONTINUOUS
 10
66.8469904003
 20
222.4948936169
 11
133.8097237845
 21
261.1556149886
  0
LINE
  5
25F
100
AcDbEntity
  8
00_COMPONENTS
100
AcDbLine
 62
7
  6
CONTINUOUS
 10
36.1266607939
 20
203.786997544
 11
35.4195569567
 21
203.3787533901
  0
LINE
  5
260
100
AcDbEntity
  8
00_COMPONENTS
100
AcDbLine
 62
7
  6
CONTINUOUS
 10
37.1802542844
 20
204.2238419137
 11
36.4731504472
 21
203.8155977598
  0
LINE
  5
261
100
AcDbEntity
  8
00_COMPONENTS
100
AcDbLine
 62
7
  6
CONTINUOUS
 10
38.4203596781
 20
204.0814935893
 11
38.2833513435
 21
204.0023922626
  0
LINE
  5
262
100
AcDbEntity
  8
00_COMPONENTS
100
AcDbLine
 62
7
  6
CONTINUOUS
 10
79.8223611218
 20
227.8633130787
 11
88.661159087
 21
232.966365002
  0
LINE
  5
263
100
AcDbEntity
  8
00_COMPONENTS
100
AcDbLine
 62
7
  6
CONTINUOUS
 10
90.7824705986
 20
234.1910974637
 11
122.2485913546
 21
252.3579623109
  0
LINE
  5
264
100
AcDbEntity
  8
00_COMPONENTS
100
AcDbLine
 62
7
  6
CONTINUOUS
 10
68.6854815736
 20
220.6169827468
 11
69.3925854108
 21
221.0252269007
  0
LINE
  5
265
100
AcDbEntity
  8
00_COMPONENTS
100
AcDbLine
 62
7
  6
CONTINUOUS
 10
66.8469904003
 20
219.3921421038
 11
64.7256612249
 21
218.167399444
  0
LINE
  5
266
100
AcDbEntity
  8
00_COMPONENTS
100
AcDbLine
 62
7
  6
CONTINUOUS
 10
38.2833513435
 20
202.7705014283
 11
38.4902269354
 21
202.889940394
  0
LINE
  5
267
100
AcDbEntity
  8
00_COMPONENTS
100
AcDbLine
 62
7
  6
CONTINUOUS
 10
38.3484499508
 20
202.2080961931
 11
37.6413461136
 21
201.7998520392
  0
LINE
  5
268
100
AcDbEntity
  8
00_COMPONENTS
100
AcDbLine
 62
7
  6
CONTINUOUS
 10
66.8469904003
 20
218.5756199335
 11
63.7357076097
 21
216.7793306992
  0
LINE
  5
269
100
AcDbEntity
  8
00_COMPONENTS
100
AcDbLine
 62
7
  6
CONTINUOUS
 10
32.8350679673
 20
90.5069396305
 11
34.6028422802
 21
89.4863377442
  0
LINE
  5
26A
100
AcDbEntity
  8
00_COMPONENTS
100
AcDbLine
 62
7
  6
CONTINUOUS
 10
37.0070153457
 20
88.0983191789
 11
104.0410172896
 21
49.3970956503
  0
LINE
  5
26B
100
AcDbEntity
  8
00_COMPONENTS
100
AcDbLine
 62
7
  6
CONTINUOUS
 10
111.9606462113
 20
44.8247991997
 11
113.7284205241
 21
43.8041973134
  0
LINE
  5
26C
100
AcDbEntity
  8
00_COMPONENTS
100
AcDbLine
 62
7
  6
CONTINUOUS
 10
118.6074534871
 20
42.6202691557
 11
118.3246047094
 21
42.7835682793
  0
LINE
  5
26D
100
AcDbEntity
  8
00_COMPONENTS
100
AcDbLine
 62
7
  6
CONTINUOUS
 10
111.9606462113
 20
46.4577183109
 11
106.2071092488
 21
49.7794492774
  0
LINE
  5
26E
100
AcDbEntity
  8
00_COMPONENTS
100
AcDbLine
 62
7
  6
CONTINUOUS
 10
37.0070153457
 20
89.7312382901
 11
36.7689342394
 21
89.8686913713
  0
LINE
  5
26F
100
AcDbEntity
  8
00_COMPONENTS
100
AcDbLine
 62
7
  6
CONTINUOUS
 10
111.9606462113
 20
46.7434952023
 11
106.3039106272
 21
50.0093391313
  0
LINE
  5
270
100
AcDbEntity
  8
00_COMPONENTS
100
AcDbLine
 62
7
  6
CONTINUOUS
 10
37.0070153457
 20
90.0170151815
 11
36.8657356177
 21
90.0985812252
  0
LINE
  5
271
100
AcDbEntity
  8
00_COMPONENTS
100
AcDbLine
 62
7
  6
CONTINUOUS
 10
36.8302382088
 20
90.5274121317
 11
34.7089090333
 21
91.7521343953
  0
LINE
  5
272
100
AcDbEntity
  8
00_COMPONENTS
100
AcDbLine
 62
7
  6
CONTINUOUS
 10
119.6681092429
 20
43.2326353865
 11
119.3852604652
 21
43.3959345101
  0
LINE
  5
273
100
AcDbEntity
  8
00_COMPONENTS
100
AcDbLine
 62
7
  6
CONTINUOUS
 10
105.1016730454
 20
52.2342967722
 11
106.1534341586
 21
51.6270759476
  0
LINE
  5
274
100
AcDbEntity
  8
00_COMPONENTS
100
AcDbLine
 62
7
  6
CONTINUOUS
 10
104.7481270148
 20
52.4589901686
 11
111.2535364861
 21
48.703175227
  0
LINE
  5
275
100
AcDbEntity
  8
00_COMPONENTS
100
AcDbLine
 62
7
  6
CONTINUOUS
 10
34.7089090333
 20
95.0181440638
 11
36.8302382088
 21
93.7934218003
  0
LINE
  5
276
100
AcDbEntity
  8
00_COMPONENTS
100
AcDbLine
 62
7
  6
CONTINUOUS
 10
36.4413134345
 20
96.0183422408
 11
36.6993575351
 21
95.8693637802
  0
LINE
  5
277
100
AcDbEntity
  8
00_COMPONENTS_2
100
AcDbLine
 62
7
  6
CONTINUOUS
 10
46.8187739451
 20
93.228613831
 11
32.7831222915
 21
101.3319177702
  0
LINE
  5
278
100
AcDbEntity
  8
00_COMPONENTS_2
100
AcDbLine
 62
7
  6
CONTINUOUS
 10
32.7831222915
 20
101.3319177702
 11
30.8416298827
 21
107.4043895912
  0
LINE
  5
279
100
AcDbEntity
  8
00_COMPONENTS
100
AcDbLine
 62
7
  6
CONTINUOUS
 10
33.7542864695
 20
86.220243745
 11
33.9426662377
 21
85.2413808046
  0
LINE
  5
27A
100
AcDbEntity
  8
00_COMPONENTS
100
AcDbLine
 62
7
  6
CONTINUOUS
 10
34.5558520734
 20
82.0551315809
 11
35.0694996067
 21
79.3861053919
  0
LINE
  5
27B
100
AcDbEntity
  8
00_COMPONENTS
100
AcDbLine
 62
7
  6
CONTINUOUS
 10
36.1301641944
 20
78.7737442601
 11
36.3422953456
 21
77.6714638806
  0
LINE
  5
27C
100
AcDbEntity
  8
00_COMPONENTS
100
AcDbLine
 62
7
  6
CONTINUOUS
 10
36.6817051874
 20
75.9078152734
 11
37.6433664061
 21
70.9108108861
  0
LINE
  5
27D
100
AcDbEntity
  8
00_COMPONENTS
100
AcDbLine
 62
7
  6
CONTINUOUS
 10
37.3322489608
 20
77.0999268243
 11
37.6716588026
 21
75.336278217
  0
LINE
  5
27E
100
AcDbEntity
  8
00_COMPONENTS
100
AcDbLine
 62
7
  6
CONTINUOUS
 10
30.4308984346
 20
193.7530156675
 11
30.4308984346
 21
213.4721786117
  0
LINE
  5
27F
100
AcDbEntity
  8
00_COMPONENTS
100
AcDbLine
 62
7
  6
CONTINUOUS
 10
31.0269123262
 20
118.5572070193
 11
31.0269123262
 21
107.6067808496
  0
LINE
  5
280
100
AcDbEntity
  8
00_COMPONENTS
100
AcDbLine
 62
7
  6
CONTINUOUS
 10
31.0269123262
 20
106.8248753926
 11
31.0269123262
 21
90.241549126
  0
LINE
  5
281
100
AcDbEntity
  8
00_COMPONENTS
100
AcDbLine
 62
7
  6
CONTINUOUS
 10
31.1733604076
 20
118.453541041
 11
31.1733604076
 21
107.7667518157
  0
LINE
  5
282
100
AcDbEntity
  8
00_COMPONENTS
100
AcDbLine
 62
7
  6
CONTINUOUS
 10
31.1733604076
 20
106.3668247489
 11
31.1733604076
 21
90.0374270491
  0
LINE
  5
283
100
AcDbEntity
  8
00_COMPONENTS
100
AcDbLine
 62
7
  6
CONTINUOUS
 10
32.5875798579
 20
117.5708880076
 11
32.5875798579
 21
109.3115590237
  0
LINE
  5
284
100
AcDbEntity
  8
00_COMPONENTS
100
AcDbLine
 62
7
  6
CONTINUOUS
 10
32.5875798579
 20
101.9435224886
 11
32.5875798579
 21
89.2209455401
  0
LINE
  5
285
100
AcDbEntity
  8
00_COMPONENTS
100
AcDbLine
 62
7
  6
CONTINUOUS
 10
32.8350679673
 20
90.5069396305
 11
32.8350679673
 21
101.3019275988
  0
LINE
  5
286
100
AcDbEntity
  8
00_COMPONENTS
100
AcDbLine
 62
7
  6
CONTINUOUS
 10
32.8350679673
 20
115.7368643198
 11
32.8350679673
 21
117.4280039135
  0
LINE
  5
287
100
AcDbEntity
  8
00_COMPONENTS
100
AcDbLine
 62
7
  6
CONTINUOUS
 10
33.7542864695
 20
86.220243745
 11
33.7542864695
 21
89.384368714
  0
LINE
  5
288
100
AcDbEntity
  8
00_COMPONENTS
100
AcDbLine
 62
7
  6
CONTINUOUS
 10
33.9664176206
 20
215.5133993811
 11
33.9664176206
 21
219.4326109833
  0
LINE
  5
289
100
AcDbEntity
  8
00_COMPONENTS
100
AcDbLine
 62
7
  6
CONTINUOUS
 10
34.2492874176
 20
114.9203828108
 11
34.2492874176
 21
111.1267071715
  0
LINE
  5
28A
100
AcDbEntity
  8
00_COMPONENTS
100
AcDbLine
 62
7
  6
CONTINUOUS
 10
34.6028422802
 20
96.2224826855
 11
34.6028422802
 21
89.4863377442
  0
LINE
  5
28B
100
AcDbEntity
  8
00_COMPONENTS
100
AcDbLine
 62
7
  6
CONTINUOUS
 10
34.7089090333
 20
91.7521343953
 11
34.7089090333
 21
95.0181440638
  0
LINE
  5
28C
100
AcDbEntity
  8
00_COMPONENTS
100
AcDbLine
 62
7
  6
CONTINUOUS
 10
35.4195569567
 20
203.3787533901
 11
35.4195569567
 21
204.4238764841
  0
LINE
  5
28D
100
AcDbEntity
  8
00_COMPONENTS
100
AcDbLine
 62
7
  6
CONTINUOUS
 10
35.4195569567
 20
205.6557673184
 11
35.4195569567
 21
206.7008904123
  0
LINE
  5
28E
100
AcDbEntity
  8
00_COMPONENTS
100
AcDbLine
 62
7
  6
CONTINUOUS
 10
35.663498036
 20
96.8348489164
 11
35.663498036
 21
95.5692729917
  0
LINE
  5
28F
100
AcDbEntity
  8
00_COMPONENTS
100
AcDbLine
 62
7
  6
CONTINUOUS
 10
36.1266607939
 20
203.786997544
 11
36.1266607939
 21
204.8321206379
  0
LINE
  5
290
100
AcDbEntity
  8
00_COMPONENTS
100
AcDbLine
 62
7
  6
CONTINUOUS
 10
36.1266607939
 20
206.0640114723
 11
36.1266607939
 21
206.2926530571
  0
LINE
  5
291
100
AcDbEntity
  8
00_COMPONENTS
100
AcDbLine
 62
7
  6
CONTINUOUS
 10
36.4731504472
 20
206.0926116881
 11
36.4731504472
 21
205.0474885942
  0
LINE
  5
292
100
AcDbEntity
  8
00_COMPONENTS
100
AcDbLine
 62
7
  6
CONTINUOUS
 10
36.4731504472
 20
203.8155977598
 11
36.4731504472
 21
202.7704746659
  0
LINE
  5
293
100
AcDbEntity
  8
00_COMPONENTS
100
AcDbLine
 62
7
  6
CONTINUOUS
 10
36.8302382088
 20
93.7934218003
 11
36.8302382088
 21
90.5274121317
  0
LINE
  5
294
100
AcDbEntity
  8
00_COMPONENTS
100
AcDbLine
 62
7
  6
CONTINUOUS
 10
37.0070153457
 20
94.8344641202
 11
37.0070153457
 21
88.0983191789
  0
LINE
  5
295
100
AcDbEntity
  8
00_COMPONENTS
100
AcDbLine
 62
7
  6
CONTINUOUS
 10
38.4899178792
 20
199.0444584068
 11
27.5515724118
 21
191.8624892974
  0
LINE
  5
296
100
AcDbEntity
  8
00_COMPONENTS
100
AcDbLine
 62
7
  6
CONTINUOUS
 10
31.6800145674
 20
191.5461516308
 11
42.6183600349
 21
198.7281207402
  0
LINE
  5
297
100
AcDbEntity
  8
00_COMPONENTS
100
AcDbLine
 62
7
  6
CONTINUOUS
 10
66.8469904003
 20
217.4325363027
 11
64.7256612249
 21
216.2077936429
  0
LINE
  5
298
100
AcDbEntity
  8
00_COMPONENTS
100
AcDbLine
 62
7
  6
CONTINUOUS
 10
67.483436808
 20
216.5752329884
 11
64.7256612249
 21
214.9830400172
  0
LINE
  5
299
100
AcDbEntity
  8
00_COMPONENTS
100
AcDbLine
 62
7
  6
CONTINUOUS
 10
67.8369440155
 20
215.5546179539
 11
66.8469904003
 21
214.9830713793
  0
LINE
  5
29A
100
AcDbEntity
  8
00_COMPONENTS
100
AcDbLine
 62
7
  6
CONTINUOUS
 10
59.3529365088
 20
210.0929233849
 11
62.1800662143
 21
211.7251577383
  0
LINE
  5
29B
100
AcDbEntity
  8
00_COMPONENTS
100
AcDbLine
 62
7
  6
CONTINUOUS
 10
126.5619854074
 20
246.3568068514
 11
129.5318215237
 21
248.0714322977
  0
LINE
  5
29C
100
AcDbEntity
  8
00_COMPONENTS
100
AcDbLine
 62
7
  6
CONTINUOUS
 10
121.6829283038
 20
243.5398013794
 11
126.5619854074
 21
246.3568068514
  0
LINE
  5
29D
100
AcDbEntity
  8
00_COMPONENTS
100
AcDbLine
 62
7
  6
CONTINUOUS
 10
98.2990469769
 20
229.8514982431
 11
96.1777354653
 21
228.6267657815
  0
LINE
  5
29E
100
AcDbEntity
  8
00_COMPONENTS
100
AcDbLine
 62
7
  6
CONTINUOUS
 10
126.0218200141
 20
242.9650225447
 11
124.9611642583
 21
242.3526563139
  0
LINE
  5
29F
100
AcDbEntity
  8
00_COMPONENTS
100
AcDbLine
 62
7
  6
CONTINUOUS
 10
125.1611633629
 20
242.0062456354
 11
123.6055349211
 21
241.1081084969
  0
LINE
  5
2A0
100
AcDbEntity
  8
00_COMPONENTS
100
AcDbLine
 62
7
  6
CONTINUOUS
 10
96.1777354653
 20
224.7728743726
 11
98.2990469769
 21
225.9976068343
  0
LINE
  5
2A1
100
AcDbEntity
  8
00_COMPONENTS
100
AcDbLine
 62
7
  6
CONTINUOUS
 10
123.905533578
 20
240.5884924792
 11
118.0365717291
 21
237.2000660021
  0
LINE
  5
2A2
100
AcDbEntity
  8
00_COMPONENTS
100
AcDbLine
 62
7
  6
CONTINUOUS
 10
96.1777354653
 20
224.7728743726
 11
95.804485668
 21
224.5929071096
  0
LINE
  5
2A3
100
AcDbEntity
  8
00_COMPONENTS_2
100
AcDbLine
 62
7
  6
CONTINUOUS
 10
44.8772815362
 20
99.301085652
 11
30.8416298827
 21
107.4043895912
  0
LINE
  5
2A4
100
AcDbEntity
  8
00_COMPONENTS
100
AcDbLine
 62
7
  6
CONTINUOUS
 10
112.3142010738
 20
63.3185841747
 11
113.7284205241
 21
62.5021026657
  0
LINE
  5
2A5
100
AcDbEntity
  8
00_COMPONENTS
100
AcDbLine
 62
7
  6
CONTINUOUS
 10
113.3748568297
 20
63.9309504055
 11
113.9051982498
 21
63.6247645707
  0
LINE
  5
2A6
100
AcDbEntity
  8
00_COMPONENTS_2
100
AcDbLine
 62
7
  6
CONTINUOUS
 10
46.8187739451
 20
93.228613831
 11
44.8772815362
 21
99.301085652
  0
LINE
  5
2A7
100
AcDbEntity
  8
00_COMPONENTS
100
AcDbLine
 62
7
  6
CONTINUOUS
 10
105.75198348
 20
225.5486406905
 11
103.6306719683
 21
224.3239082289
  0
LINE
  5
2A8
100
AcDbEntity
  8
00_COMPONENTS
100
AcDbLine
 62
7
  6
CONTINUOUS
 10
137.4514504453
 20
243.499135847
 11
134.481614329
 21
241.7845104008
  0
LINE
  5
2A9
100
AcDbEntity
  8
00_COMPONENTS
100
AcDbLine
 62
7
  6
CONTINUOUS
 10
123.3503562272
 20
232.4092266806
 11
119.208114921
 21
230.0177168229
  0
LINE
  5
2AA
100
AcDbEntity
  8
00_COMPONENTS
100
AcDbLine
 62
7
  6
CONTINUOUS
 10
98.9146536202
 20
216.8406222319
 11
104.0232472041
 21
219.790052507
  0
LINE
  5
2AB
100
AcDbEntity
  8
00_COMPONENTS
100
AcDbLine
 62
7
  6
CONTINUOUS
 10
109.874763097
 20
223.1684066169
 11
118.0969202569
 21
227.9154429304
  0
LINE
  5
2AC
100
AcDbEntity
  8
00_COMPONENTS
100
AcDbLine
 62
7
  6
CONTINUOUS
 10
89.757351383
 20
208.4514082621
 11
90.4644552202
 21
208.859652416
  0
LINE
  5
2AD
100
AcDbEntity
  8
00_COMPONENTS
100
AcDbLine
 62
7
  6
CONTINUOUS
 10
66.2108833744
 20
96.2636386311
 11
72.1939444697
 21
94.4952553867
  0
LINE
  5
2AE
100
AcDbEntity
  8
00_COMPONENTS
100
AcDbLine
 62
7
  6
CONTINUOUS
 10
66.2108833744
 20
96.2636386311
 11
80.3530778773
 21
88.0988235407
  0
LINE
  5
2AF
100
AcDbEntity
  8
00_COMPONENTS
100
AcDbLine
 62
7
  6
CONTINUOUS
 10
34.2492874176
 20
114.9203828108
 11
32.8350679673
 21
115.7368643198
  0
LINE
  5
2B0
100
AcDbEntity
  8
00_COMPONENTS
100
AcDbLine
 62
7
  6
CONTINUOUS
 10
112.3142010738
 20
69.8506035118
 11
113.7284205241
 21
69.0341220027
  0
LINE
  5
2B1
100
AcDbEntity
  8
00_COMPONENTS
100
AcDbLine
 62
7
  6
CONTINUOUS
 10
72.4939012669
 20
93.9194170314
 11
75.3223401675
 21
92.2864540133
  0
LINE
  5
2B2
100
AcDbEntity
  8
00_COMPONENTS
100
AcDbLine
 62
7
  6
CONTINUOUS
 10
91.4075475651
 20
83.6119320724
 11
58.4810899626
 21
102.6216011764
  0
LINE
  5
2B3
100
AcDbEntity
  8
00_COMPONENTS
100
AcDbLine
 62
7
  6
CONTINUOUS
 10
37.5342446225
 20
114.7149943831
 11
31.6803004853
 21
118.0946941475
  0
LINE
  5
2B4
100
AcDbEntity
  8
00_COMPONENTS
100
AcDbLine
 62
7
  6
CONTINUOUS
 10
115.2840654522
 20
71.8919139668
 11
95.552047288
 21
83.2839422434
  0
LINE
  5
2B5
100
AcDbEntity
  8
00_COMPONENTS_2
100
AcDbLine
 62
7
  6
CONTINUOUS
 10
54.4609916123
 20
108.6156316992
 11
39.7341190156
 21
117.1180032079
  0
LINE
  5
2B6
100
AcDbEntity
  8
00_COMPONENTS
100
AcDbLine
 62
7
  6
CONTINUOUS
 10
117.4053769639
 20
72.953345945
 11
117.263952575
 21
73.0349955068
  0
LINE
  5
2B7
100
AcDbEntity
  8
00_COMPONENTS
100
AcDbLine
 62
7
  6
CONTINUOUS
 10
111.1439374227
 20
77.2751571002
 11
110.0903439322
 21
77.8834358244
  0
LINE
  5
2B8
100
AcDbEntity
  8
00_COMPONENTS
100
AcDbLine
 62
7
  6
CONTINUOUS
 10
69.8877153047
 20
101.2799041283
 11
62.1753600567
 21
105.7325337748
  0
LINE
  5
2B9
100
AcDbEntity
  8
00_COMPONENTS
100
AcDbLine
 62
7
  6
CONTINUOUS
 10
111.1439374227
 20
78.0916386093
 11
110.7974477694
 21
78.2916799783
  0
LINE
  5
2BA
100
AcDbEntity
  8
00_COMPONENTS
100
AcDbLine
 62
7
  6
CONTINUOUS
 10
112.9541383191
 20
77.2751838626
 11
111.1439374227
 21
78.3202801941
  0
LINE
  5
2BB
100
AcDbEntity
  8
00_COMPONENTS
100
AcDbLine
 62
7
  6
CONTINUOUS
 10
110.0903439322
 20
78.9285589184
 11
108.2801430358
 21
79.9736552499
  0
LINE
  5
2BC
100
AcDbEntity
  8
00_COMPONENTS
100
AcDbLine
 62
7
  6
CONTINUOUS
 10
113.1628283786
 20
77.9711808353
 11
111.8510412599
 21
78.728524348
  0
LINE
  5
2BD
100
AcDbEntity
  8
00_COMPONENTS
100
AcDbLine
 62
7
  6
CONTINUOUS
 10
110.7974477694
 20
79.3368030722
 11
108.9872468731
 21
80.3818994038
  0
LINE
  5
2BE
100
AcDbEntity
  8
00_COMPONENTS
100
AcDbLine
 62
7
  6
CONTINUOUS
 10
108.2801430358
 20
81.2055460842
 11
110.0903439322
 21
80.1604497527
  0
LINE
  5
2BF
100
AcDbEntity
  8
00_COMPONENTS
100
AcDbLine
 62
7
  6
CONTINUOUS
 10
111.1439374227
 20
79.5521710284
 11
112.9541383191
 21
78.5070746969
  0
LINE
  5
2C0
100
AcDbEntity
  8
00_COMPONENTS
100
AcDbLine
 62
7
  6
CONTINUOUS
 10
76.9091590604
 20
91.9823912133
 11
80.3530778773
 21
88.0988235407
  0
LINE
  5
2C1
100
AcDbEntity
  8
00_COMPONENTS
100
AcDbLine
 62
7
  6
CONTINUOUS
 10
61.260831226
 20
57.2755696852
 11
58.9273885632
 21
69.40065386
  0
LINE
  5
2C2
100
AcDbEntity
  8
00_COMPONENTS
100
AcDbLine
 62
7
  6
CONTINUOUS
 10
53.1999257912
 20
169.5420984121
 11
53.1999257912
 21
131.147016452
  0
LINE
  5
2C3
100
AcDbEntity
  8
00_COMPONENTS
100
AcDbLine
 62
7
  6
CONTINUOUS
 10
59.3529365088
 20
210.0929233849
 11
61.4729623771
 21
224.7810384429
  0
LINE
  5
2C4
100
AcDbEntity
  8
00_COMPONENTS
100
AcDbLine
 62
7
  6
CONTINUOUS
 10
124.8649927222
 20
228.1334484756
 11
122.0358202904
 21
226.5000347606
  0
LINE
  5
2C5
100
AcDbEntity
  8
00_COMPONENTS
100
AcDbLine
 62
7
  6
CONTINUOUS
 10
144.7346806143
 20
239.3759063172
 11
113.2685598583
 21
221.2090414699
  0
LINE
  5
2C6
100
AcDbEntity
  8
00_COMPONENTS
100
AcDbLine
 62
7
  6
CONTINUOUS
 10
111.1472483467
 20
219.9843090083
 11
102.3084503815
 21
214.8812570849
  0
LINE
  5
2C7
100
AcDbEntity
  8
00_COMPONENTS
100
AcDbLine
 62
7
  6
CONTINUOUS
 10
93.0100502307
 20
207.3899856997
 11
159.9727836149
 21
246.0507070713
  0
LINE
  5
2C8
100
AcDbEntity
  8
00_COMPONENTS
100
AcDbLine
 62
7
  6
CONTINUOUS
 10
95.1313794062
 20
206.1652634361
 11
162.0941127903
 21
244.8259848077
  0
LINE
  5
2C9
100
AcDbEntity
  8
00_COMPONENTS
100
AcDbLine
 62
7
  6
CONTINUOUS
 10
108.1067501277
 20
211.5336828978
 11
116.9455480929
 21
216.6367348212
  0
LINE
  5
2CA
100
AcDbEntity
  8
00_COMPONENTS
100
AcDbLine
 62
7
  6
CONTINUOUS
 10
119.0668596045
 20
217.8614672828
 11
150.5329803605
 21
236.0283321301
  0
LINE
  5
2CB
100
AcDbEntity
  8
00_COMPONENTS
100
AcDbLine
 62
7
  6
CONTINUOUS
 10
96.9698705795
 20
204.287352566
 11
97.6769744167
 21
204.6955967198
  0
LINE
  5
2CC
100
AcDbEntity
  8
00_COMPONENTS
100
AcDbLine
 62
7
  6
CONTINUOUS
 10
95.1313794062
 20
203.062511923
 11
93.0100502307
 21
201.8377692632
  0
LINE
  5
2CD
100
AcDbEntity
  8
00_COMPONENTS
100
AcDbLine
 62
7
  6
CONTINUOUS
 10
95.1313794062
 20
202.2459897527
 11
92.0200966155
 21
200.4497005184
  0
LINE
  5
2CE
100
AcDbEntity
  8
00_COMPONENTS
100
AcDbLine
 62
7
  6
CONTINUOUS
 10
95.1313794062
 20
201.1029061218
 11
93.0100502307
 21
199.8781634621
  0
LINE
  5
2CF
100
AcDbEntity
  8
00_COMPONENTS
100
AcDbLine
 62
7
  6
CONTINUOUS
 10
95.7678258138
 20
200.2456028075
 11
93.0100502307
 21
198.6534098364
  0
LINE
  5
2D0
100
AcDbEntity
  8
00_COMPONENTS
100
AcDbLine
 62
7
  6
CONTINUOUS
 10
110.0903439322
 20
81.2055728466
 11
111.1439374227
 21
80.5972941224
  0
LINE
  5
2D1
100
AcDbEntity
  8
00_COMPONENTS_2
100
AcDbLine
 62
7
  6
CONTINUOUS
 10
56.3948879882
 20
133.499671606
 11
56.9418358023
 21
131.7889643305
  0
LINE
  5
2D2
100
AcDbEntity
  8
00_COMPONENTS
100
AcDbLine
 62
7
  6
CONTINUOUS
 10
66.1399077597
 20
65.2365981639
 11
68.4733504225
 21
53.1115139891
  0
LINE
  5
2D3
100
AcDbEntity
  8
00_COMPONENTS
100
AcDbLine
 62
7
  6
CONTINUOUS
 10
60.3767700811
 20
239.0899763195
 11
60.3767700811
 21
249.2959951829
  0
LINE
  5
2D4
100
AcDbEntity
  8
00_COMPONENTS
100
AcDbLine
 62
7
  6
CONTINUOUS
 10
62.1800662143
 20
57.8062870852
 11
62.1800662143
 21
70.9635868088
  0
LINE
  5
2D5
100
AcDbEntity
  8
00_COMPONENTS
100
AcDbLine
 62
7
  6
CONTINUOUS
 10
62.1800662143
 20
211.7251577383
 11
62.1800662143
 21
225.1892825968
  0
LINE
  5
2D6
100
AcDbEntity
  8
00_COMPONENTS
100
AcDbLine
 62
7
  6
CONTINUOUS
 10
63.7357076097
 20
64.4199796628
 11
63.7357076097
 21
62.4603738617
  0
LINE
  5
2D7
100
AcDbEntity
  8
00_COMPONENTS
100
AcDbLine
 62
7
  6
CONTINUOUS
 10
63.7357076097
 20
216.7793306992
 11
63.7357076097
 21
218.7389365003
  0
LINE
  5
2D8
100
AcDbEntity
  8
00_COMPONENTS
100
AcDbLine
 62
7
  6
CONTINUOUS
 10
64.7256612249
 20
65.0731962322
 11
64.7256612249
 21
63.8484426065
  0
LINE
  5
2D9
100
AcDbEntity
  8
00_COMPONENTS
100
AcDbLine
 62
7
  6
CONTINUOUS
 10
64.7256612249
 20
61.8888368054
 11
64.7256612249
 21
56.3366203689
  0
LINE
  5
2DA
100
AcDbEntity
  8
00_COMPONENTS
100
AcDbLine
 62
7
  6
CONTINUOUS
 10
64.7256612249
 20
214.9830400172
 11
64.7256612249
 21
216.2077936429
  0
LINE
  5
2DB
100
AcDbEntity
  8
00_COMPONENTS
100
AcDbLine
 62
7
  6
CONTINUOUS
 10
64.7256612249
 20
218.167399444
 11
64.7256612249
 21
223.7196158805
  0
LINE
  5
2DC
100
AcDbEntity
  8
00_COMPONENTS
100
AcDbLine
 62
7
  6
CONTINUOUS
 10
66.2108833744
 20
98.1589038291
 11
66.2108833744
 21
96.2636386311
  0
LINE
  5
2DD
100
AcDbEntity
  8
00_COMPONENTS
100
AcDbLine
 62
7
  6
CONTINUOUS
 10
66.8469904003
 20
214.9830713793
 11
66.8469904003
 21
213.7583177536
  0
LINE
  5
2DE
100
AcDbEntity
  8
00_COMPONENTS
100
AcDbLine
 62
7
  6
CONTINUOUS
 10
66.8469904003
 20
60.6641145418
 11
66.8469904003
 21
55.1118981054
  0
LINE
  5
2DF
100
AcDbEntity
  8
00_COMPONENTS
100
AcDbLine
 62
7
  6
CONTINUOUS
 10
66.8469904003
 20
216.9426771804
 11
66.8469904003
 21
222.4948936169
  0
LINE
  5
2E0
100
AcDbEntity
  8
00_COMPONENTS
100
AcDbLine
 62
7
  6
CONTINUOUS
 10
67.8369440155
 20
216.3711401241
 11
67.8369440155
 21
214.738084064
  0
LINE
  5
2E1
100
AcDbEntity
  8
00_COMPONENTS
100
AcDbLine
 62
7
  6
CONTINUOUS
 10
67.8933464594
 20
244.9563959623
 11
67.8933464594
 21
241.1025045534
  0
LINE
  5
2E2
100
AcDbEntity
  8
00_COMPONENTS
100
AcDbLine
 62
7
  6
CONTINUOUS
 10
68.6854815736
 20
220.6169827468
 11
66.5654557053
 21
205.9288676888
  0
LINE
  5
2E3
100
AcDbEntity
  8
00_COMPONENTS
100
AcDbLine
 62
7
  6
CONTINUOUS
 10
96.1213330214
 20
199.2249877731
 11
95.1313794062
 21
198.6534411985
  0
LINE
  5
2E4
100
AcDbEntity
  8
00_COMPONENTS
100
AcDbLine
 62
7
  6
CONTINUOUS
 10
87.6373255147
 20
193.7632932041
 11
90.4644552202
 21
195.3955275575
  0
LINE
  5
2E5
100
AcDbEntity
  8
00_COMPONENTS
100
AcDbLine
 62
7
  6
CONTINUOUS
 10
154.8463744132
 20
230.0271766706
 11
157.8162105295
 21
231.7418021169
  0
LINE
  5
2E6
100
AcDbEntity
  8
00_COMPONENTS
100
AcDbLine
 62
7
  6
CONTINUOUS
 10
149.9673173097
 20
227.2101711986
 11
154.8463744132
 21
230.0271766706
  0
LINE
  5
2E7
100
AcDbEntity
  8
00_COMPONENTS
100
AcDbLine
 62
7
  6
CONTINUOUS
 10
126.5834359828
 20
213.5218680623
 11
124.4621244712
 21
212.2971356007
  0
LINE
  5
2E8
100
AcDbEntity
  8
00_COMPONENTS
100
AcDbLine
 62
7
  6
CONTINUOUS
 10
154.30620902
 20
226.6353923639
 11
153.2455532642
 21
226.0230261331
  0
LINE
  5
2E9
100
AcDbEntity
  8
00_COMPONENTS
100
AcDbLine
 62
7
  6
CONTINUOUS
 10
153.4455523688
 20
225.6766154546
 11
151.889923927
 21
224.7784783161
  0
LINE
  5
2EA
100
AcDbEntity
  8
00_COMPONENTS
100
AcDbLine
 62
7
  6
CONTINUOUS
 10
124.4621244712
 20
208.4432441918
 11
126.5834359828
 21
209.6679766534
  0
LINE
  5
2EB
100
AcDbEntity
  8
00_COMPONENTS
100
AcDbLine
 62
7
  6
CONTINUOUS
 10
152.1899225839
 20
224.2588622984
 11
146.320960735
 21
220.8704358213
  0
LINE
  5
2EC
100
AcDbEntity
  8
00_COMPONENTS
100
AcDbLine
 62
7
  6
CONTINUOUS
 10
124.4621244712
 20
208.4432441918
 11
124.0888746739
 21
208.2632769288
  0
LINE
  5
2ED
100
AcDbEntity
  8
00_COMPONENTS_2
100
AcDbLine
 62
7
  6
CONTINUOUS
 10
69.8877153047
 20
123.1395887234
 11
54.204799878
 21
132.1939193304
  0
LINE
  5
2EE
100
AcDbEntity
  8
00_COMPONENTS_2
100
AcDbLine
 62
7
  6
CONTINUOUS
 10
57.8161785357
 20
132.6791076894
 11
56.3948879882
 21
133.499671606
  0
LINE
  5
2EF
100
AcDbEntity
  8
00_COMPONENTS_2
100
AcDbLine
 62
7
  6
CONTINUOUS
 10
69.8877153047
 20
126.6239816013
 11
56.9897771277
 21
134.0704412183
  0
LINE
  5
2F0
100
AcDbEntity
  8
00_COMPONENTS
100
AcDbLine
 62
7
  6
CONTINUOUS
 10
69.8877153047
 20
159.9076166054
 11
69.8877153047
 21
101.2799041283
  0
LINE
  5
2F1
100
AcDbEntity
  8
00_COMPONENTS
100
AcDbLine
 62
7
  6
CONTINUOUS
 10
70.0146579711
 20
246.1811284239
 11
70.0146579711
 21
242.3272370151
  0
LINE
  5
2F2
100
AcDbEntity
  8
00_COMPONENTS
100
AcDbLine
 62
7
  6
CONTINUOUS
 10
75.3462829625
 20
240.6535384097
 11
75.3462829625
 21
236.7996470008
  0
LINE
  5
2F3
100
AcDbEntity
  8
00_COMPONENTS
100
AcDbLine
 62
7
  6
CONTINUOUS
 10
55.0736429163
 20
72.9319768431
 11
55.1968332339
 21
73.3920195606
  0
LINE
  5
2F4
100
AcDbEntity
  8
00_COMPONENTS
100
AcDbLine
 62
7
  6
CONTINUOUS
 10
56.6999952841
 20
71.9930231077
 11
56.5768049665
 21
71.5329803901
  0
LINE
  5
2F5
100
AcDbEntity
  8
00_COMPONENTS
100
AcDbLine
 62
7
  6
CONTINUOUS
 10
134.0363724859
 20
209.2190105097
 11
131.9150609742
 21
207.994278048
  0
LINE
  5
2F6
100
AcDbEntity
  8
00_COMPONENTS
100
AcDbLine
 62
7
  6
CONTINUOUS
 10
165.7358394512
 20
227.1695056662
 11
162.7660033349
 21
225.45488022
  0
LINE
  5
2F7
100
AcDbEntity
  8
00_COMPONENTS
100
AcDbLine
 62
7
  6
CONTINUOUS
 10
151.6347452331
 20
216.0795964998
 11
147.4925039269
 21
213.6880866421
  0
LINE
  5
2F8
100
AcDbEntity
  8
00_COMPONENTS
100
AcDbLine
 62
7
  6
CONTINUOUS
 10
127.1990426261
 20
200.510992051
 11
132.30763621
 21
203.4604223262
  0
LINE
  5
2F9
100
AcDbEntity
  8
00_COMPONENTS
100
AcDbLine
 62
7
  6
CONTINUOUS
 10
138.1591521029
 20
206.8387764361
 11
146.3813092627
 21
211.5858127496
  0
LINE
  5
2FA
100
AcDbEntity
  8
00_COMPONENTS
100
AcDbLine
 62
7
  6
CONTINUOUS
 10
153.1493817281
 20
211.8038182948
 11
150.3202092963
 21
210.1704045798
  0
LINE
  5
2FB
100
AcDbEntity
  8
00_COMPONENTS
100
AcDbLine
 62
7
  6
CONTINUOUS
 10
173.0190696202
 20
223.0462761364
 11
141.5529488642
 21
204.8794112891
  0
LINE
  5
2FC
100
AcDbEntity
  8
00_COMPONENTS
100
AcDbLine
 62
7
  6
CONTINUOUS
 10
139.4316373525
 20
203.6546788275
 11
130.5928393874
 21
198.5516269041
  0
LINE
  5
2FD
100
AcDbEntity
  8
00_COMPONENTS
100
AcDbLine
 62
7
  6
CONTINUOUS
 10
187.2672190056
 20
68.4618348717
 11
188.2571726208
 21
67.8902978154
  0
LINE
  5
2FE
100
AcDbEntity
  8
00_COMPONENTS
100
AcDbLine
 62
7
  6
CONTINUOUS
 10
116.3800763999
 20
43.0489551469
 11
116.5457749335
 21
42.6827412581
  0
LINE
  5
2FF
100
AcDbEntity
  8
00_COMPONENTS
100
AcDbLine
 62
7
  6
CONTINUOUS
 10
117.5114425394
 20
43.7021457931
 11
117.3457440058
 21
44.068359682
  0
LINE
  5
300
100
AcDbEntity
  8
00_COMPONENTS
100
AcDbLine
 62
7
  6
CONTINUOUS
 10
89.5452202318
 20
40.9459395044
 11
87.211777569
 21
53.0710236792
  0
LINE
  5
301
100
AcDbEntity
  8
00_COMPONENTS
100
AcDbLine
 62
7
  6
CONTINUOUS
 10
94.4242967655
 20
48.9069679831
 11
96.7577394283
 21
36.7818838082
  0
LINE
  5
302
100
AcDbEntity
  8
00_COMPONENTS
100
AcDbLine
 62
7
  6
CONTINUOUS
 10
80.3530778773
 20
89.9940887387
 11
80.3530778773
 21
88.0988235407
  0
LINE
  5
303
100
AcDbEntity
  8
00_COMPONENTS
100
AcDbLine
 62
7
  6
CONTINUOUS
 10
88.661159087
 20
222.7603461387
 11
88.661159087
 21
232.966365002
  0
LINE
  5
304
100
AcDbEntity
  8
00_COMPONENTS
100
AcDbLine
 62
7
  6
CONTINUOUS
 10
87.6373255147
 20
193.7632932041
 11
89.757351383
 21
208.4514082621
  0
LINE
  5
305
100
AcDbEntity
  8
00_COMPONENTS
100
AcDbLine
 62
7
  6
CONTINUOUS
 10
96.4652711714
 20
186.7270349684
 11
96.8378051827
 21
187.3648596735
  0
LINE
  5
306
100
AcDbEntity
  8
00_COMPONENTS
100
AcDbLine
 62
7
  6
CONTINUOUS
 10
98.2330454843
 20
185.7064330821
 11
97.860511473
 21
185.068608377
  0
LINE
  5
307
100
AcDbEntity
  8
00_COMPONENTS_2
100
AcDbLine
 62
7
  6
CONTINUOUS
 10
30.8416298827
 20
107.4043895912
 11
39.7341190156
 21
117.1180032079
  0
LINE
  5
308
100
AcDbEntity
  8
00_COMPONENTS_2
100
AcDbLine
 62
7
  6
CONTINUOUS
 10
39.7341190156
 20
117.1180032079
 11
54.204799878
 21
132.1939193304
  0
LINE
  5
309
100
AcDbEntity
  8
00_COMPONENTS_2
100
AcDbLine
 62
7
  6
CONTINUOUS
 10
56.2051983984
 20
131.0390148336
 11
57.8161785357
 21
132.6791076894
  0
LINE
  5
30A
100
AcDbEntity
  8
00_COMPONENTS_2
100
AcDbLine
 62
7
  6
CONTINUOUS
 10
56.9897771277
 20
134.0704412183
 11
56.3948879882
 21
133.499671606
  0
LINE
  5
30B
100
AcDbEntity
  8
00_COMPONENTS
100
AcDbLine
 62
7
  6
CONTINUOUS
 10
188.2571726208
 20
229.7210768905
 11
120.5873353994
 21
190.652111365
  0
LINE
  5
30C
100
AcDbEntity
  8
00_COMPONENTS
100
AcDbLine
 62
7
  6
CONTINUOUS
 10
119.713097928
 20
184.5951567019
 11
188.2571726208
 21
224.168860454
  0
LINE
  5
30D
100
AcDbEntity
  8
00_COMPONENTS
100
AcDbLine
 62
7
  6
CONTINUOUS
 10
118.414589911
 20
183.0289450536
 11
187.2672190056
 21
222.7807917092
  0
LINE
  5
30E
100
AcDbEntity
  8
00_COMPONENTS
100
AcDbLine
 62
7
  6
CONTINUOUS
 10
119.4045435263
 20
182.4574079973
 11
188.2571726208
 21
222.2092546529
  0
LINE
  5
30F
100
AcDbEntity
  8
00_COMPONENTS
100
AcDbLine
 62
7
  6
CONTINUOUS
 10
119.2116970252
 20
181.1213150569
 11
188.2571726208
 21
220.9845010272
  0
LINE
  5
310
100
AcDbEntity
  8
00_COMPONENTS
100
AcDbLine
 62
7
  6
CONTINUOUS
 10
120.2723616129
 20
180.5089539251
 11
189.3178372085
 21
220.3721398954
  0
LINE
  5
311
100
AcDbEntity
  8
00_COMPONENTS
100
AcDbLine
 62
7
  6
CONTINUOUS
 10
90.4644552202
 20
41.4766569044
 11
90.4644552202
 21
54.633956628
  0
LINE
  5
312
100
AcDbEntity
  8
00_COMPONENTS
100
AcDbLine
 62
7
  6
CONTINUOUS
 10
90.4644552202
 20
195.3955275575
 11
90.4644552202
 21
208.859652416
  0
LINE
  5
313
100
AcDbEntity
  8
00_COMPONENTS
100
AcDbLine
 62
7
  6
CONTINUOUS
 10
90.9237259151
 20
246.3473470037
 11
90.9237259151
 21
250.1195881708
  0
LINE
  5
314
100
AcDbEntity
  8
00_COMPONENTS
100
AcDbLine
 62
7
  6
CONTINUOUS
 10
92.0200966155
 20
48.090349482
 11
92.0200966155
 21
46.1307436809
  0
LINE
  5
315
100
AcDbEntity
  8
00_COMPONENTS
100
AcDbLine
 62
7
  6
CONTINUOUS
 10
92.0200966155
 20
200.4497005184
 11
92.0200966155
 21
202.4093063195
  0
LINE
  5
316
100
AcDbEntity
  8
00_COMPONENTS
100
AcDbLine
 62
7
  6
CONTINUOUS
 10
93.0100502307
 20
48.7435660514
 11
93.0100502307
 21
47.5188124257
  0
LINE
  5
317
100
AcDbEntity
  8
00_COMPONENTS
100
AcDbLine
 62
7
  6
CONTINUOUS
 10
93.0100502307
 20
45.5592066246
 11
93.0100502307
 21
40.0069901881
  0
LINE
  5
318
100
AcDbEntity
  8
00_COMPONENTS
100
AcDbLine
 62
7
  6
CONTINUOUS
 10
93.0100502307
 20
198.6534098364
 11
93.0100502307
 21
199.8781634621
  0
LINE
  5
319
100
AcDbEntity
  8
00_COMPONENTS
100
AcDbLine
 62
7
  6
CONTINUOUS
 10
93.0100502307
 20
201.8377692632
 11
93.0100502307
 21
207.3899856997
  0
LINE
  5
31A
100
AcDbEntity
  8
00_COMPONENTS
100
AcDbLine
 62
7
  6
CONTINUOUS
 10
93.398539298
 20
255.6349085664
 11
93.398539298
 21
259.8694315602
  0
LINE
  5
31B
100
AcDbEntity
  8
00_COMPONENTS
100
AcDbLine
 62
7
  6
CONTINUOUS
 10
93.9642023488
 20
260.1960266124
 11
93.9642023488
 21
268.6875924918
  0
LINE
  5
31C
100
AcDbEntity
  8
00_COMPONENTS
100
AcDbLine
 62
7
  6
CONTINUOUS
 10
95.1313794062
 20
198.6534411985
 11
95.1313794062
 21
197.4286875728
  0
LINE
  5
31D
100
AcDbEntity
  8
00_COMPONENTS
100
AcDbLine
 62
7
  6
CONTINUOUS
 10
95.1313794062
 20
44.334484361
 11
95.1313794062
 21
38.7822679246
  0
LINE
  5
31E
100
AcDbEntity
  8
00_COMPONENTS
100
AcDbLine
 62
7
  6
CONTINUOUS
 10
95.1313794062
 20
200.6130469996
 11
95.1313794062
 21
206.1652634361
  0
LINE
  5
31F
100
AcDbEntity
  8
00_COMPONENTS
100
AcDbLine
 62
7
  6
CONTINUOUS
 10
96.1213330214
 20
200.0415099433
 11
96.1213330214
 21
198.4084538832
  0
LINE
  5
320
100
AcDbEntity
  8
00_COMPONENTS
100
AcDbLine
 62
7
  6
CONTINUOUS
 10
96.1777354653
 20
228.6267657815
 11
96.1777354653
 21
224.7728743726
  0
LINE
  5
321
100
AcDbEntity
  8
00_COMPONENTS
100
AcDbLine
 62
7
  6
CONTINUOUS
 10
96.5806037163
 20
246.8546401792
 11
96.5806037163
 21
244.2338353216
  0
LINE
  5
322
100
AcDbEntity
  8
00_COMPONENTS
100
AcDbLine
 62
7
  6
CONTINUOUS
 10
97.0613942685
 20
147.2705290983
 11
97.0613942685
 21
86.8762753181
  0
LINE
  5
323
100
AcDbEntity
  8
00_COMPONENTS
100
AcDbLine
 62
7
  6
CONTINUOUS
 10
98.2990469769
 20
229.8514982431
 11
98.2990469769
 21
225.9976068343
  0
LINE
  5
324
100
AcDbEntity
  8
00_COMPONENTS
100
AcDbLine
 62
7
  6
CONTINUOUS
 10
96.9698705795
 20
204.287352566
 11
94.8498447112
 21
189.599237508
  0
LINE
  5
325
100
AcDbEntity
  8
00_COMPONENTS
100
AcDbLine
 62
7
  6
CONTINUOUS
 10
119.8930968275
 20
177.8813044757
 11
189.3178372085
 21
217.9634577649
  0
LINE
  5
326
100
AcDbEntity
  8
00_COMPONENTS
100
AcDbLine
 62
7
  6
CONTINUOUS
 10
103.0966038519
 20
163.8117803054
 11
91.4076265286
 21
157.063178896
  0
LINE
  5
327
100
AcDbEntity
  8
00_COMPONENTS
100
AcDbLine
 62
7
  6
CONTINUOUS
 10
189.3178372085
 20
213.3093939873
 11
119.1602801235
 21
172.8041513022
  0
LINE
  5
328
100
AcDbEntity
  8
00_COMPONENTS
100
AcDbLine
 62
7
  6
CONTINUOUS
 10
109.4561863665
 20
164.8696145625
 11
108.9221482658
 21
164.5612893617
  0
LINE
  5
329
100
AcDbEntity
  8
00_COMPONENTS
100
AcDbLine
 62
7
  6
CONTINUOUS
 10
108.987246873
 20
162.7669932922
 11
108.2801430358
 21
162.3587491383
  0
LINE
  5
32A
100
AcDbEntity
  8
00_COMPONENTS
100
AcDbLine
 62
7
  6
CONTINUOUS
 10
110.7974477694
 20
162.9537877949
 11
110.0903439322
 21
162.5455436411
  0
LINE
  5
32B
100
AcDbEntity
  8
00_COMPONENTS
100
AcDbLine
 62
7
  6
CONTINUOUS
 10
69.8877153047
 20
159.9076166055
 11
53.1999257912
 21
169.5420984121
  0
LINE
  5
32C
100
AcDbEntity
  8
00_COMPONENTS
100
AcDbLine
 62
7
  6
CONTINUOUS
 10
118.4235894144
 20
28.7151840508
 11
118.0841795726
 21
30.4788326581
  0
LINE
  5
32D
100
AcDbEntity
  8
00_COMPONENTS
100
AcDbLine
 62
7
  6
CONTINUOUS
 10
120.3752042483
 20
23.1466426073
 11
119.4135430296
 21
28.1436469945
  0
LINE
  5
32E
100
AcDbEntity
  8
00_COMPONENTS
100
AcDbLine
 62
7
  6
CONTINUOUS
 10
119.0741331878
 20
29.9072956017
 11
118.8620020366
 21
31.0095759813
  0
LINE
  5
32F
100
AcDbEntity
  8
00_COMPONENTS
100
AcDbLine
 62
7
  6
CONTINUOUS
 10
119.9226666243
 20
30.3972148495
 11
119.409019091
 21
33.0662410385
  0
LINE
  5
330
100
AcDbEntity
  8
00_COMPONENTS
100
AcDbLine
 62
7
  6
CONTINUOUS
 10
118.7958332553
 20
36.2524902622
 11
118.6074534871
 21
37.2313532026
  0
LINE
  5
331
100
AcDbEntity
  8
00_COMPONENTS
100
AcDbLine
 62
7
  6
CONTINUOUS
 10
103.6306719683
 20
224.3239082289
 11
103.6306719683
 21
220.47001682
  0
LINE
  5
332
100
AcDbEntity
  8
00_COMPONENTS
100
AcDbLine
 62
7
  6
CONTINUOUS
 10
104.0410172896
 20
52.050728506
 11
104.0410172896
 21
49.3970956503
  0
LINE
  5
333
100
AcDbEntity
  8
00_COMPONENTS
100
AcDbLine
 62
7
  6
CONTINUOUS
 10
105.1016730454
 20
52.2548748903
 11
105.1016730454
 21
51.4236855521
  0
LINE
  5
334
100
AcDbEntity
  8
00_COMPONENTS
100
AcDbLine
 62
7
  6
CONTINUOUS
 10
108.7503715919
 20
154.0192216865
 11
108.7503715919
 21
92.7580279532
  0
LINE
  5
335
100
AcDbEntity
  8
00_COMPONENTS
100
AcDbLine
 62
7
  6
CONTINUOUS
 10
108.2801430358
 20
163.5906399726
 11
108.9222364479
 21
164.56113698
  0
LINE
  5
336
100
AcDbEntity
  8
00_COMPONENTS
100
AcDbLine
 62
7
  6
CONTINUOUS
 10
112.9541383191
 20
159.6602777509
 11
112.312044907
 21
158.6897807436
  0
LINE
  5
337
100
AcDbEntity
  8
00_COMPONENTS_2
100
AcDbLine
 62
7
  6
CONTINUOUS
 10
44.8772815362
 20
99.301085652
 11
54.4609916123
 21
108.6156316992
  0
LINE
  5
338
100
AcDbEntity
  8
00_COMPONENTS_2
100
AcDbLine
 62
7
  6
CONTINUOUS
 10
54.4609916123
 20
108.6156316992
 11
69.8877153047
 21
122.906049679
  0
LINE
  5
339
100
AcDbEntity
  8
00_COMPONENTS_2
100
AcDbLine
 62
7
  6
CONTINUOUS
 10
69.5088446786
 20
123.3583250278
 11
69.8876981504
 21
123.7010737927
  0
LINE
  5
33A
100
AcDbEntity
  8
00_COMPONENTS_2
100
AcDbLine
 62
7
  6
CONTINUOUS
 10
69.5088483756
 20
123.3583226985
 11
69.8877153047
 21
123.7010629781
  0
LINE
  5
33B
100
AcDbEntity
  8
00_COMPONENTS
100
AcDbLine
 62
7
  6
CONTINUOUS
 10
115.2840654522
 20
164.4832880693
 11
118.8195846383
 21
166.5245088387
  0
LINE
  5
33C
100
AcDbEntity
  8
00_COMPONENTS
100
AcDbLine
 62
7
  6
CONTINUOUS
 10
110.7974477694
 20
161.7218969606
 11
110.0903439322
 21
161.3136528067
  0
LINE
  5
33D
100
AcDbEntity
  8
00_COMPONENTS
100
AcDbLine
 62
7
  6
CONTINUOUS
 10
110.7974477694
 20
160.6767738667
 11
110.0903439322
 21
160.2685297128
  0
LINE
  5
33E
100
AcDbEntity
  8
00_COMPONENTS
100
AcDbLine
 62
7
  6
CONTINUOUS
 10
111.8510412599
 20
161.1136182364
 11
111.1439374227
 21
160.7053740825
  0
LINE
  5
33F
100
AcDbEntity
  8
00_COMPONENTS
100
AcDbLine
 62
7
  6
CONTINUOUS
 10
113.0911466536
 20
160.9712699119
 11
112.9541383191
 21
160.8921685853
  0
LINE
  5
340
100
AcDbEntity
  8
00_COMPONENTS
100
AcDbLine
 62
7
  6
CONTINUOUS
 10
112.9541383191
 20
159.6602777509
 11
113.1610139109
 21
159.7797167166
  0
LINE
  5
341
100
AcDbEntity
  8
00_COMPONENTS
100
AcDbLine
 62
7
  6
CONTINUOUS
 10
113.0192369264
 20
159.0978725157
 11
112.3121330891
 21
158.6896283618
  0
LINE
  5
342
100
AcDbEntity
  8
00_COMPONENTS
100
AcDbLine
 62
7
  6
CONTINUOUS
 10
97.0613942685
 20
147.270620277
 11
108.7503715919
 21
154.0192216865
  0
LINE
  5
343
100
AcDbEntity
  8
00_COMPONENTS
100
AcDbLine
 62
7
  6
CONTINUOUS
 10
91.4076265286
 20
157.063178896
 11
31.6800145674
 21
191.5461516308
  0
LINE
  5
344
100
AcDbEntity
  8
00_COMPONENTS
100
AcDbLine
 62
7
  6
CONTINUOUS
 10
110.0903439322
 20
77.8834358244
 11
110.0903439322
 21
78.9285589184
  0
LINE
  5
345
100
AcDbEntity
  8
00_COMPONENTS
100
AcDbLine
 62
7
  6
CONTINUOUS
 10
110.0903439322
 20
80.1604497527
 11
110.0903439322
 21
81.2055728466
  0
LINE
  5
346
100
AcDbEntity
  8
00_COMPONENTS
100
AcDbLine
 62
7
  6
CONTINUOUS
 10
110.0903439322
 20
160.2685297128
 11
110.0903439322
 21
161.3136528067
  0
LINE
  5
347
100
AcDbEntity
  8
00_COMPONENTS
100
AcDbLine
 62
7
  6
CONTINUOUS
 10
110.0903439322
 20
162.5455436411
 11
110.0903439322
 21
163.590666735
  0
LINE
  5
348
100
AcDbEntity
  8
00_COMPONENTS
100
AcDbLine
 62
7
  6
CONTINUOUS
 10
110.7974477694
 20
78.2916799783
 11
110.7974477694
 21
79.3368030722
  0
LINE
  5
349
100
AcDbEntity
  8
00_COMPONENTS
100
AcDbLine
 62
7
  6
CONTINUOUS
 10
110.7974477694
 20
80.5686939065
 11
110.7974477694
 21
80.7973354914
  0
LINE
  5
34A
100
AcDbEntity
  8
00_COMPONENTS
100
AcDbLine
 62
7
  6
CONTINUOUS
 10
110.7974477694
 20
160.6767738667
 11
110.7974477694
 21
161.7218969606
  0
LINE
  5
34B
100
AcDbEntity
  8
00_COMPONENTS
100
AcDbLine
 62
7
  6
CONTINUOUS
 10
110.7974477694
 20
162.9537877949
 11
110.7974477694
 21
163.1824293798
  0
LINE
  5
34C
100
AcDbEntity
  8
00_COMPONENTS
100
AcDbLine
 62
7
  6
CONTINUOUS
 10
111.1439374227
 20
162.9823880108
 11
111.1439374227
 21
161.9372649168
  0
LINE
  5
34D
100
AcDbEntity
  8
00_COMPONENTS
100
AcDbLine
 62
7
  6
CONTINUOUS
 10
111.1439374227
 20
160.7053740825
 11
111.1439374227
 21
159.6602509886
  0
LINE
  5
34E
100
AcDbEntity
  8
00_COMPONENTS
100
AcDbLine
 62
7
  6
CONTINUOUS
 10
111.1439374227
 20
80.5972941224
 11
111.1439374227
 21
79.5521710284
  0
LINE
  5
34F
100
AcDbEntity
  8
00_COMPONENTS
100
AcDbLine
 62
7
  6
CONTINUOUS
 10
111.1439374227
 20
78.3202801941
 11
111.1439374227
 21
77.2751571002
  0
LINE
  5
350
100
AcDbEntity
  8
00_COMPONENTS
100
AcDbLine
 62
7
  6
CONTINUOUS
 10
111.9606462113
 20
47.4784320554
 11
111.9606462113
 21
44.8247991997
  0
LINE
  5
351
100
AcDbEntity
  8
00_COMPONENTS
100
AcDbLine
 62
7
  6
CONTINUOUS
 10
112.3142010738
 20
63.3185841747
 11
112.3142010738
 21
69.8506035118
  0
LINE
  5
352
100
AcDbEntity
  8
00_COMPONENTS
100
AcDbLine
 62
7
  6
CONTINUOUS
 10
113.3748568297
 20
63.9309504055
 11
113.3748568297
 21
69.238247479
  0
LINE
  5
353
100
AcDbEntity
  8
00_COMPONENTS
100
AcDbLine
 62
7
  6
CONTINUOUS
 10
113.7284205241
 20
43.8041973134
 11
113.7284205241
 21
62.5021026657
  0
LINE
  5
354
100
AcDbEntity
  8
00_COMPONENTS
100
AcDbLine
 62
7
  6
CONTINUOUS
 10
113.7284205241
 20
69.0341220027
 11
113.7284205241
 21
72.7900456663
  0
LINE
  5
355
100
AcDbEntity
  8
00_COMPONENTS
100
AcDbLine
 62
7
  6
CONTINUOUS
 10
113.9051982498
 20
72.6879853077
 11
113.9051982498
 21
42.2732587702
  0
LINE
  5
356
100
AcDbEntity
  8
00_COMPONENTS
100
AcDbLine
 62
7
  6
CONTINUOUS
 10
115.2840654522
 20
71.8919139668
 11
115.2840654522
 21
164.4832880693
  0
LINE
  5
357
100
AcDbEntity
  8
00_COMPONENTS
100
AcDbLine
 62
7
  6
CONTINUOUS
 10
115.3194177001
 20
41.4567772612
 11
115.3194177001
 21
71.8919139668
  0
LINE
  5
358
100
AcDbEntity
  8
00_COMPONENTS
100
AcDbLine
 62
7
  6
CONTINUOUS
 10
116.0265244813
 20
72.1572698449
 11
116.0265244813
 21
41.4567789609
  0
LINE
  5
359
100
AcDbEntity
  8
00_COMPONENTS
100
AcDbLine
 62
7
  6
CONTINUOUS
 10
116.9455480929
 20
206.4307159579
 11
116.9455480929
 21
216.6367348212
  0
LINE
  5
35A
100
AcDbEntity
  8
00_COMPONENTS
100
AcDbLine
 62
7
  6
CONTINUOUS
 10
117.4053769639
 20
72.953345945
 11
117.4053769639
 21
73.1166464284
  0
LINE
  5
35B
100
AcDbEntity
  8
00_COMPONENTS
100
AcDbLine
 62
7
  6
CONTINUOUS
 10
118.6074534871
 20
37.2313532026
 11
118.6074534871
 21
42.6202691557
  0
LINE
  5
35C
100
AcDbEntity
  8
00_COMPONENTS
100
AcDbLine
 62
7
  6
CONTINUOUS
 10
118.8195846383
 20
166.5245088387
 11
118.8195846383
 21
170.4437204409
  0
LINE
  5
35D
100
AcDbEntity
  8
00_COMPONENTS
100
AcDbLine
 62
7
  6
CONTINUOUS
 10
118.414589911
 20
183.0289450536
 11
118.7231443127
 21
185.1666937582
  0
LINE
  5
35E
100
AcDbEntity
  8
00_COMPONENTS
100
AcDbLine
 62
7
  6
CONTINUOUS
 10
119.2116970252
 20
181.1213150569
 11
119.4045435263
 21
182.4574079973
  0
LINE
  5
35F
100
AcDbEntity
  8
00_COMPONENTS
100
AcDbLine
 62
7
  6
CONTINUOUS
 10
119.713097928
 20
184.5951567019
 11
120.5873353994
 21
190.652111365
  0
LINE
  5
360
100
AcDbEntity
  8
00_COMPONENTS
100
AcDbLine
 62
7
  6
CONTINUOUS
 10
118.8195846383
 20
170.4437204409
 11
119.1602801235
 21
172.8041513022
  0
LINE
  5
361
100
AcDbEntity
  8
00_COMPONENTS
100
AcDbLine
 62
7
  6
CONTINUOUS
 10
119.8930968275
 20
177.8813044757
 11
120.2723616129
 21
180.5089539251
  0
LINE
  5
362
100
AcDbEntity
  8
00_COMPONENTS_2
100
AcDbLine
 62
7
  6
CONTINUOUS
 10
69.8877153047
 20
112.2270825599
 11
56.8266738877
 21
101.2284228847
  0
LINE
  5
363
100
AcDbEntity
  8
00_COMPONENTS_2
100
AcDbLine
 62
7
  6
CONTINUOUS
 10
46.8187739451
 20
93.228613831
 11
56.8266738877
 21
101.2284228847
  0
LINE
  5
364
100
AcDbEntity
  8
00_COMPONENTS
100
AcDbLine
 62
7
  6
CONTINUOUS
 10
35.663498036
 20
96.8348489164
 11
34.6028422802
 21
96.2224826855
  0
LINE
  5
365
100
AcDbEntity
  8
00_COMPONENTS
100
AcDbLine
 62
7
  6
CONTINUOUS
 10
34.7089090333
 20
95.0181440638
 11
36.4413134345
 21
96.0183422408
  0
LINE
  5
366
100
AcDbEntity
  8
00_COMPONENTS
100
AcDbLine
 62
7
  6
CONTINUOUS
 10
42.6183600349
 20
198.7281207402
 11
103.0966038519
 21
163.8117803054
  0
LINE
  5
367
100
AcDbEntity
  8
00_COMPONENTS
100
AcDbLine
 62
7
  6
CONTINUOUS
 10
111.1439374227
 20
159.6602509886
 11
110.0903439322
 21
160.2685297128
  0
LINE
  5
368
100
AcDbEntity
  8
00_COMPONENTS
100
AcDbLine
 62
7
  6
CONTINUOUS
 10
36.4731504472
 20
202.7704746659
 11
35.4195569567
 21
203.3787533901
  0
LINE
  5
369
100
AcDbEntity
  8
00_COMPONENTS
100
AcDbLine
 62
7
  6
CONTINUOUS
 10
111.1439374227
 20
160.4767324976
 11
110.7974477694
 21
160.6767738667
  0
LINE
  5
36A
100
AcDbEntity
  8
00_COMPONENTS
100
AcDbLine
 62
7
  6
CONTINUOUS
 10
36.4731504472
 20
203.586956175
 11
36.1266607939
 21
203.786997544
  0
LINE
  5
36B
100
AcDbEntity
  8
00_COMPONENTS
100
AcDbLine
 62
7
  6
CONTINUOUS
 10
112.9541383191
 20
159.6602777509
 11
111.1439374227
 21
160.7053740825
  0
LINE
  5
36C
100
AcDbEntity
  8
00_COMPONENTS
100
AcDbLine
 62
7
  6
CONTINUOUS
 10
110.0903439322
 20
161.3136528067
 11
108.2801430358
 21
162.3587491383
  0
LINE
  5
36D
100
AcDbEntity
  8
00_COMPONENTS
100
AcDbLine
 62
7
  6
CONTINUOUS
 10
38.2833513435
 20
202.7705014283
 11
36.4731504472
 21
203.8155977598
  0
LINE
  5
36E
100
AcDbEntity
  8
00_COMPONENTS
100
AcDbLine
 62
7
  6
CONTINUOUS
 10
35.4195569567
 20
204.4238764841
 11
33.6093560603
 21
205.4689728156
  0
LINE
  5
36F
100
AcDbEntity
  8
00_COMPONENTS
100
AcDbLine
 62
7
  6
CONTINUOUS
 10
119.208114921
 20
230.0177168229
 11
119.208114921
 21
233.78995799
  0
LINE
  5
370
100
AcDbEntity
  8
00_COMPONENTS
100
AcDbLine
 62
7
  6
CONTINUOUS
 10
119.6681092429
 20
43.2326353865
 11
119.6681092429
 21
43.5592363533
  0
LINE
  5
371
100
AcDbEntity
  8
00_COMPONENTS
100
AcDbLine
 62
7
  6
CONTINUOUS
 10
121.6829283038
 20
239.3052783856
 11
121.6829283038
 21
243.5398013794
  0
LINE
  5
372
100
AcDbEntity
  8
00_COMPONENTS
100
AcDbLine
 62
7
  6
CONTINUOUS
 10
122.2485913546
 20
243.8663964316
 11
122.2485913546
 21
252.3579623109
  0
LINE
  5
373
100
AcDbEntity
  8
00_COMPONENTS
100
AcDbLine
 62
7
  6
CONTINUOUS
 10
124.4621244712
 20
212.2971356007
 11
124.4621244712
 21
208.4432441918
  0
LINE
  5
374
100
AcDbEntity
  8
00_COMPONENTS
100
AcDbLine
 62
7
  6
CONTINUOUS
 10
124.8649927222
 20
230.5250099984
 11
124.8649927222
 21
227.9042051408
  0
LINE
  5
375
100
AcDbEntity
  8
00_COMPONENTS
100
AcDbLine
 62
7
  6
CONTINUOUS
 10
126.5834359828
 20
213.5218680623
 11
126.5834359828
 21
209.6679766534
  0
LINE
  5
376
100
AcDbEntity
  8
00_COMPONENTS
100
AcDbLine
 62
7
  6
CONTINUOUS
 10
96.0860069748
 20
49.2540130809
 11
96.2091972924
 21
49.7140557984
  0
LINE
  5
377
100
AcDbEntity
  8
00_COMPONENTS
100
AcDbLine
 62
7
  6
CONTINUOUS
 10
97.7123593426
 20
48.3150593455
 11
97.589169025
 21
47.8550166279
  0
LINE
  5
378
100
AcDbEntity
  8
00_COMPONENTS
100
AcDbLine
 62
7
  6
CONTINUOUS
 10
36.8302382088
 20
93.7934218003
 11
37.0070153457
 21
93.8954835186
  0
LINE
  5
379
100
AcDbEntity
  8
00_COMPONENTS
100
AcDbLine
 62
7
  6
CONTINUOUS
 10
33.3124589497
 20
89.6394521807
 11
32.5875798579
 21
89.2209455401
  0
LINE
  5
37A
100
AcDbEntity
  8
00_COMPONENTS
100
AcDbLine
 62
7
  6
CONTINUOUS
 10
36.8302382088
 20
90.5274121317
 11
37.0070153457
 21
90.6294738501
  0
LINE
  5
37B
100
AcDbEntity
  8
00_COMPONENTS
100
AcDbLine
 62
7
  6
CONTINUOUS
 10
113.1628283786
 20
160.3562747237
 11
111.8510412599
 21
161.1136182364
  0
LINE
  5
37C
100
AcDbEntity
  8
00_COMPONENTS
100
AcDbLine
 62
7
  6
CONTINUOUS
 10
110.7974477694
 20
161.7218969606
 11
108.9872468731
 21
162.7669932922
  0
LINE
  5
37D
100
AcDbEntity
  8
00_COMPONENTS
100
AcDbLine
 62
7
  6
CONTINUOUS
 10
38.492041403
 20
203.466498401
 11
37.1802542844
 21
204.2238419137
  0
LINE
  5
37E
100
AcDbEntity
  8
00_COMPONENTS
100
AcDbLine
 62
7
  6
CONTINUOUS
 10
36.1266607939
 20
204.8321206379
 11
34.3164598975
 21
205.8772169695
  0
LINE
  5
37F
100
AcDbEntity
  8
00_COMPONENTS
100
AcDbLine
 62
7
  6
CONTINUOUS
 10
33.6093560603
 20
206.70086365
 11
35.4195569567
 21
205.6557673184
  0
LINE
  5
380
100
AcDbEntity
  8
00_COMPONENTS
100
AcDbLine
 62
7
  6
CONTINUOUS
 10
36.4731504472
 20
205.0474885942
 11
38.2833513435
 21
204.0023922626
  0
LINE
  5
381
100
AcDbEntity
  8
00_COMPONENTS
100
AcDbLine
 62
7
  6
CONTINUOUS
 10
108.2801430358
 20
163.5906399726
 11
110.0903439322
 21
162.5455436411
  0
LINE
  5
382
100
AcDbEntity
  8
00_COMPONENTS
100
AcDbLine
 62
7
  6
CONTINUOUS
 10
111.1439374227
 20
161.9372649168
 11
112.9541383191
 21
160.8921685853
  0
LINE
  5
383
100
AcDbEntity
  8
00_COMPONENTS
100
AcDbLine
 62
7
  6
CONTINUOUS
 10
35.4195569567
 20
206.7008904123
 11
36.4731504472
 21
206.0926116881
  0
LINE
  5
384
100
AcDbEntity
  8
00_COMPONENTS
100
AcDbLine
 62
7
  6
CONTINUOUS
 10
110.0903439322
 20
163.590666735
 11
111.1439374227
 21
162.9823880108
  0
LINE
  5
385
100
AcDbEntity
  8
00_COMPONENTS
100
AcDbLine
 62
7
  6
CONTINUOUS
 10
115.2840654522
 20
164.4832880693
 11
30.4308984346
 21
213.4721786117
  0
LINE
  5
386
100
AcDbEntity
  8
00_COMPONENTS
100
AcDbLine
 62
7
  6
CONTINUOUS
 10
118.8195846383
 20
166.5245088387
 11
33.9664176206
 21
215.5133993811
  0
LINE
  5
387
100
AcDbEntity
  8
00_COMPONENTS
100
AcDbLine
 62
7
  6
CONTINUOUS
 10
131.688394609
 20
259.9308723288
 11
131.688394609
 21
262.3803372521
  0
LINE
  5
388
100
AcDbEntity
  8
00_COMPONENTS
100
AcDbLine
 62
7
  6
CONTINUOUS
 10
131.9150609742
 20
207.994278048
 11
131.9150609742
 21
204.1403866392
  0
LINE
  5
389
100
AcDbEntity
  8
00_COMPONENTS
100
AcDbLine
 62
7
  6
CONTINUOUS
 10
36.6817051874
 20
75.9078152734
 11
37.4736731495
 21
76.3650554601
  0
LINE
  5
38A
100
AcDbEntity
  8
00_COMPONENTS
100
AcDbLine
 62
7
  6
CONTINUOUS
 10
34.5558520734
 20
82.0551315809
 11
34.6489874789
 21
82.1026537401
  0
LINE
  5
38B
100
AcDbEntity
  8
00_COMPONENTS
100
AcDbLine
 62
7
  6
CONTINUOUS
 10
118.8195846383
 20
170.4437204409
 11
33.9664176206
 21
219.4326109833
  0
LINE
  5
38C
100
AcDbEntity
  8
00_COMPONENTS
100
AcDbLine
 62
7
  6
CONTINUOUS
 10
147.4925039269
 20
213.6880866421
 11
147.4925039269
 21
217.4603278092
  0
LINE
  5
38D
100
AcDbEntity
  8
00_COMPONENTS
100
AcDbLine
 62
7
  6
CONTINUOUS
 10
108.2801430358
 20
81.2055460842
 11
108.9222364479
 21
82.1760430916
  0
LINE
  5
38E
100
AcDbEntity
  8
00_COMPONENTS
100
AcDbLine
 62
7
  6
CONTINUOUS
 10
36.479859183
 20
228.8854833358
 11
35.4191945953
 21
229.4978444676
  0
LINE
  5
38F
100
AcDbEntity
  8
00_COMPONENTS
100
AcDbLine
 62
7
  6
CONTINUOUS
 10
119.2116970252
 20
181.1213150569
 11
120.2723616129
 21
180.5089539251
  0
LINE
  5
390
100
AcDbEntity
  8
00_COMPONENTS
100
AcDbLine
 62
7
  6
CONTINUOUS
 10
36.6727056841
 20
230.2215762762
 11
37.6626592993
 21
229.6500392198
  0
LINE
  5
391
100
AcDbEntity
  8
00_COMPONENTS
100
AcDbLine
 62
7
  6
CONTINUOUS
 10
118.4145899111
 20
183.0289450536
 11
119.4045435263
 21
182.4574079973
  0
LINE
  5
392
100
AcDbEntity
  8
00_COMPONENTS
100
AcDbLine
 62
7
  6
CONTINUOUS
 10
95.1313794062
 20
197.4286875728
 11
93.0100502307
 21
198.6534098364
  0
LINE
  5
393
100
AcDbEntity
  8
00_COMPONENTS
100
AcDbLine
 62
7
  6
CONTINUOUS
 10
66.8469904003
 20
213.7583177536
 11
64.7256612249
 21
214.9830400172
  0
LINE
  5
394
100
AcDbEntity
  8
00_COMPONENTS
100
AcDbLine
 62
7
  6
CONTINUOUS
 10
96.0778255927
 20
198.1070225996
 11
95.1313794062
 21
198.6534411985
  0
LINE
  5
395
100
AcDbEntity
  8
00_COMPONENTS
100
AcDbLine
 62
7
  6
CONTINUOUS
 10
93.0100502307
 20
199.8781634621
 11
92.0200966155
 21
200.4497005184
  0
LINE
  5
396
100
AcDbEntity
  8
00_COMPONENTS
100
AcDbLine
 62
7
  6
CONTINUOUS
 10
67.7934365868
 20
214.4366527804
 11
66.8469904003
 21
214.9830713793
  0
LINE
  5
397
100
AcDbEntity
  8
00_COMPONENTS
100
AcDbLine
 62
7
  6
CONTINUOUS
 10
64.7256612249
 20
216.2077936429
 11
63.7357076097
 21
216.7793306992
  0
LINE
  5
398
100
AcDbEntity
  8
00_COMPONENTS
100
AcDbLine
 62
7
  6
CONTINUOUS
 10
119.713097928
 20
184.5951567019
 11
118.7231443127
 21
185.1666937582
  0
LINE
  5
399
100
AcDbEntity
  8
00_COMPONENTS
100
AcDbLine
 62
7
  6
CONTINUOUS
 10
37.971213701
 20
231.7877879245
 11
36.9812600858
 21
232.3593249808
  0
LINE
  5
39A
100
AcDbEntity
  8
00_COMPONENTS
100
AcDbLine
 62
7
  6
CONTINUOUS
 10
63.7357076097
 20
218.7389365003
 11
64.7256612249
 21
218.167399444
  0
LINE
  5
39B
100
AcDbEntity
  8
00_COMPONENTS
100
AcDbLine
 62
7
  6
CONTINUOUS
 10
66.8469904003
 20
216.9426771804
 11
67.8369440155
 21
216.3711401241
  0
LINE
  5
39C
100
AcDbEntity
  8
00_COMPONENTS
100
AcDbLine
 62
7
  6
CONTINUOUS
 10
92.0200966155
 20
202.4093063195
 11
93.0100502307
 21
201.8377692632
  0
LINE
  5
39D
100
AcDbEntity
  8
00_COMPONENTS
100
AcDbLine
 62
7
  6
CONTINUOUS
 10
95.1313794062
 20
200.6130469996
 11
96.1213330214
 21
200.0415099433
  0
LINE
  5
39E
100
AcDbEntity
  8
00_COMPONENTS
100
AcDbLine
 62
7
  6
CONTINUOUS
 10
120.5873353994
 20
190.652111365
 11
96.9698705795
 21
204.287352566
  0
LINE
  5
39F
100
AcDbEntity
  8
00_COMPONENTS
100
AcDbLine
 62
7
  6
CONTINUOUS
 10
89.757351383
 20
208.4514082621
 11
68.6854815736
 21
220.6169827468
  0
LINE
  5
3A0
100
AcDbEntity
  8
00_COMPONENTS
100
AcDbLine
 62
7
  6
CONTINUOUS
 10
61.4729623771
 20
224.7810384429
 11
37.8554975572
 21
238.4162796439
  0
LINE
  5
3A1
100
AcDbEntity
  8
00_COMPONENTS
100
AcDbLine
 62
7
  6
CONTINUOUS
 10
149.9673173097
 20
222.9756482048
 11
149.9673173097
 21
227.2101711986
  0
LINE
  5
3A2
100
AcDbEntity
  8
00_COMPONENTS
100
AcDbLine
 62
7
  6
CONTINUOUS
 10
150.5329803605
 20
227.5367662508
 11
150.5329803605
 21
236.0283321301
  0
LINE
  5
3A3
100
AcDbEntity
  8
00_COMPONENTS
100
AcDbLine
 62
7
  6
CONTINUOUS
 10
153.1493817281
 20
214.1953798176
 11
153.1493817281
 21
211.57457496
  0
LINE
  5
3A4
100
AcDbEntity
  8
00_COMPONENTS
100
AcDbLine
 62
7
  6
CONTINUOUS
 10
112.9541383191
 20
77.2751838626
 11
112.312044907
 21
76.3046868552
  0
LINE
  5
3A5
100
AcDbEntity
  8
00_COMPONENTS
100
AcDbLine
 62
7
  6
CONTINUOUS
 10
59.4890170541
 20
71.4490168778
 11
59.4156891452
 21
71.4049611689
  0
LINE
  5
3A6
100
AcDbEntity
  8
00_COMPONENTS
100
AcDbLine
 62
7
  6
CONTINUOUS
 10
61.9072776106
 20
71.1210833342
 11
58.9273885632
 21
69.40065386
  0
LINE
  5
3A7
100
AcDbEntity
  8
00_COMPONENTS
100
AcDbLine
 62
7
  6
CONTINUOUS
 10
97.6769744167
 20
204.6955967198
 11
95.1313794062
 21
206.1652634361
  0
LINE
  5
3A8
100
AcDbEntity
  8
00_COMPONENTS
100
AcDbLine
 62
7
  6
CONTINUOUS
 10
93.0100502307
 20
207.3899856997
 11
90.4644552202
 21
208.859652416
  0
LINE
  5
3A9
100
AcDbEntity
  8
00_COMPONENTS
100
AcDbLine
 62
7
  6
CONTINUOUS
 10
69.3925854108
 20
221.0252269007
 11
66.8469904003
 21
222.4948936169
  0
LINE
  5
3AA
100
AcDbEntity
  8
00_COMPONENTS
100
AcDbLine
 62
7
  6
CONTINUOUS
 10
64.7256612249
 20
223.7196158805
 11
62.1800662143
 21
225.1892825968
  0
LINE
  5
3AB
100
AcDbEntity
  8
00_COMPONENTS
100
AcDbLine
 62
7
  6
CONTINUOUS
 10
90.9237259151
 20
246.3473470037
 11
93.7514312845
 21
242.8296649415
  0
LINE
  5
3AC
100
AcDbEntity
  8
00_COMPONENTS
100
AcDbLine
 62
7
  6
CONTINUOUS
 10
159.9727836149
 20
243.601242148
 11
159.9727836149
 21
246.0507070713
  0
LINE
  5
3AD
100
AcDbEntity
  8
00_COMPONENTS
100
AcDbLine
 62
7
  6
CONTINUOUS
 10
65.7863441414
 20
64.4608245185
 11
64.7256612249
 21
63.8484426065
  0
LINE
  5
3AE
100
AcDbEntity
  8
00_COMPONENTS
100
AcDbLine
 62
7
  6
CONTINUOUS
 10
66.3803426146
 20
63.9872454795
 11
63.7357076097
 21
62.4603738617
  0
LINE
  5
3AF
100
AcDbEntity
  8
00_COMPONENTS
100
AcDbLine
 62
7
  6
CONTINUOUS
 10
66.5783282677
 20
62.9584682365
 11
64.7256612249
 21
61.8888368054
  0
LINE
  5
3B0
100
AcDbEntity
  8
00_COMPONENTS
100
AcDbLine
 62
7
  6
CONTINUOUS
 10
67.0025832387
 20
60.7539455727
 11
66.8469904003
 21
60.6641145418
  0
LINE
  5
3B1
100
AcDbEntity
  8
00_COMPONENTS
100
AcDbLine
 62
7
  6
CONTINUOUS
 10
62.1800662143
 20
57.8062870852
 11
61.260831226
 21
57.2755696852
  0
LINE
  5
3B2
100
AcDbEntity
  8
00_COMPONENTS
100
AcDbLine
 62
7
  6
CONTINUOUS
 10
109.4561863665
 20
82.4845206741
 11
108.9221482658
 21
82.1761954733
  0
LINE
  5
3B3
100
AcDbEntity
  8
00_COMPONENTS
100
AcDbLine
 62
7
  6
CONTINUOUS
 10
64.7256612249
 20
56.3366203689
 11
66.8469904003
 21
57.5613630287
  0
LINE
  5
3B4
100
AcDbEntity
  8
00_COMPONENTS
100
AcDbLine
 62
7
  6
CONTINUOUS
 10
108.987246873
 20
80.3818994038
 11
108.2801430358
 21
79.9736552499
  0
LINE
  5
3B5
100
AcDbEntity
  8
00_COMPONENTS
100
AcDbLine
 62
7
  6
CONTINUOUS
 10
108.7503715919
 20
92.7580279532
 11
97.0613942685
 21
86.8761841387
  0
LINE
  5
3B6
100
AcDbEntity
  8
00_COMPONENTS
100
AcDbLine
 62
7
  6
CONTINUOUS
 10
106.9600877911
 20
89.0244198414
 11
95.2711104677
 21
83.1425760269
  0
LINE
  5
3B7
100
AcDbEntity
  8
00_COMPONENTS
100
AcDbLine
 62
7
  6
CONTINUOUS
 10
150.3202092963
 20
210.1704045798
 11
150.7899554287
 21
210.2123676822
  0
LINE
  5
3B8
100
AcDbEntity
  8
00_COMPONENTS
100
AcDbLine
 62
7
  6
CONTINUOUS
 10
130.5928393874
 20
198.5516269041
 11
108.1067501277
 21
211.5336828978
  0
LINE
  5
3B9
100
AcDbEntity
  8
00_COMPONENTS
100
AcDbLine
 62
7
  6
CONTINUOUS
 10
102.3084503815
 20
214.8812570849
 11
79.8223611218
 21
227.8633130787
  0
LINE
  5
3BA
100
AcDbEntity
  8
00_COMPONENTS
100
AcDbLine
 62
7
  6
CONTINUOUS
 10
74.0240613756
 20
231.2108872657
 11
51.5379721159
 21
244.1929432595
  0
LINE
  5
3BB
100
AcDbEntity
  8
00_COMPONENTS
100
AcDbLine
 62
7
  6
CONTINUOUS
 10
96.5806037163
 20
246.8546401792
 11
93.752898347
 21
250.3723222414
  0
LINE
  5
3BC
100
AcDbEntity
  8
00_COMPONENTS
100
AcDbLine
 62
7
  6
CONTINUOUS
 10
119.208114921
 20
230.0177168229
 11
122.0358202904
 21
226.5000347607
  0
LINE
  5
3BD
100
AcDbEntity
  8
00_COMPONENTS
100
AcDbLine
 62
7
  6
CONTINUOUS
 10
106.1972253231
 20
258.1141405816
 11
109.8034531516
 21
251.8680054327
  0
LINE
  5
3BE
100
AcDbEntity
  8
00_COMPONENTS
100
AcDbLine
 62
7
  6
CONTINUOUS
 10
112.7732892679
 20
253.5826308789
 11
109.1670614394
 21
259.8287660279
  0
LINE
  5
3BF
100
AcDbEntity
  8
00_COMPONENTS
100
AcDbLine
 62
7
  6
CONTINUOUS
 10
87.77340606
 20
55.119386697
 11
87.700078151
 21
55.0753309881
  0
LINE
  5
3C0
100
AcDbEntity
  8
00_COMPONENTS
100
AcDbLine
 62
7
  6
CONTINUOUS
 10
110.7974477694
 20
80.5686939065
 11
110.0903439322
 21
80.1604497527
  0
LINE
  5
3C1
100
AcDbEntity
  8
00_COMPONENTS
100
AcDbLine
 62
7
  6
CONTINUOUS
 10
110.7974477694
 20
79.3368030722
 11
110.0903439322
 21
78.9285589184
  0
LINE
  5
3C2
100
AcDbEntity
  8
00_COMPONENTS
100
AcDbLine
 62
7
  6
CONTINUOUS
 10
110.7974477694
 20
78.2916799783
 11
110.0903439322
 21
77.8834358244
  0
LINE
  5
3C3
100
AcDbEntity
  8
00_COMPONENTS
100
AcDbLine
 62
7
  6
CONTINUOUS
 10
111.8510412599
 20
78.728524348
 11
111.1439374227
 21
78.3202801941
  0
LINE
  5
3C4
100
AcDbEntity
  8
00_COMPONENTS
100
AcDbLine
 62
7
  6
CONTINUOUS
 10
113.0911466536
 20
78.5861760235
 11
112.9541383191
 21
78.5070746969
  0
LINE
  5
3C5
100
AcDbEntity
  8
00_COMPONENTS
100
AcDbLine
 62
7
  6
CONTINUOUS
 10
112.9541383191
 20
77.2751838626
 11
113.1610139109
 21
77.3946228283
  0
LINE
  5
3C6
100
AcDbEntity
  8
00_COMPONENTS
100
AcDbLine
 62
7
  6
CONTINUOUS
 10
113.0192369264
 20
76.7127786273
 11
112.3121330891
 21
76.3045344735
  0
LINE
  5
3C7
100
AcDbEntity
  8
00_COMPONENTS
100
AcDbLine
 62
7
  6
CONTINUOUS
 10
117.4053769639
 20
73.1166464284
 11
115.2840654522
 21
71.8919139668
  0
LINE
  5
3C8
100
AcDbEntity
  8
00_COMPONENTS
100
AcDbLine
 62
7
  6
CONTINUOUS
 10
116.0265244813
 20
72.1572698449
 11
117.4053769639
 21
72.953345945
  0
LINE
  5
3C9
100
AcDbEntity
  8
00_COMPONENTS
100
AcDbLine
 62
7
  6
CONTINUOUS
 10
150.3216763587
 20
217.7130618798
 11
147.4925039269
 21
217.4603278092
  0
LINE
  5
3CA
100
AcDbEntity
  8
00_COMPONENTS
100
AcDbLine
 62
7
  6
CONTINUOUS
 10
60.3767700811
 20
249.2959951829
 11
67.8933464594
 21
244.9563959623
  0
LINE
  5
3CB
100
AcDbEntity
  8
00_COMPONENTS
100
AcDbLine
 62
7
  6
CONTINUOUS
 10
75.3462829625
 20
240.6535384097
 11
82.8628593408
 21
236.3139391891
  0
LINE
  5
3CC
100
AcDbEntity
  8
00_COMPONENTS
100
AcDbLine
 62
7
  6
CONTINUOUS
 10
88.661159087
 20
232.966365002
 11
96.1777354653
 21
228.6267657815
  0
LINE
  5
3CD
100
AcDbEntity
  8
00_COMPONENTS
100
AcDbLine
 62
7
  6
CONTINUOUS
 10
103.6306719683
 20
224.3239082289
 11
111.1472483467
 21
219.9843090083
  0
LINE
  5
3CE
100
AcDbEntity
  8
00_COMPONENTS
100
AcDbLine
 62
7
  6
CONTINUOUS
 10
116.9455480929
 20
216.6367348212
 11
124.4621244712
 21
212.2971356007
  0
LINE
  5
3CF
100
AcDbEntity
  8
00_COMPONENTS
100
AcDbLine
 62
7
  6
CONTINUOUS
 10
131.9150609742
 20
207.994278048
 11
139.4316373525
 21
203.6546788275
  0
LINE
  5
3D0
100
AcDbEntity
  8
00_COMPONENTS
100
AcDbLine
 62
7
  6
CONTINUOUS
 10
141.5529488642
 20
204.8794112891
 11
134.0363724859
 21
209.2190105097
  0
LINE
  5
3D1
100
AcDbEntity
  8
00_COMPONENTS
100
AcDbLine
 62
7
  6
CONTINUOUS
 10
126.5834359828
 20
213.5218680623
 11
119.0668596045
 21
217.8614672828
  0
LINE
  5
3D2
100
AcDbEntity
  8
00_COMPONENTS
100
AcDbLine
 62
7
  6
CONTINUOUS
 10
113.2685598583
 20
221.2090414699
 11
105.75198348
 21
225.5486406905
  0
LINE
  5
3D3
100
AcDbEntity
  8
00_COMPONENTS
100
AcDbLine
 62
7
  6
CONTINUOUS
 10
98.2990469769
 20
229.8514982431
 11
90.7824705986
 21
234.1910974637
  0
LINE
  5
3D4
100
AcDbEntity
  8
00_COMPONENTS
100
AcDbLine
 62
7
  6
CONTINUOUS
 10
84.9841708524
 20
237.5386716507
 11
77.4675944741
 21
241.8782708713
  0
LINE
  5
3D5
100
AcDbEntity
  8
00_COMPONENTS
100
AcDbLine
 62
7
  6
CONTINUOUS
 10
70.0146579711
 20
246.1811284239
 11
62.4980815927
 21
250.5207276445
  0
LINE
  5
3D6
100
AcDbEntity
  8
00_COMPONENTS
100
AcDbLine
 62
7
  6
CONTINUOUS
 10
124.8649927222
 20
230.5250099984
 11
122.0372873529
 21
234.0426920606
  0
LINE
  5
3D7
100
AcDbEntity
  8
00_COMPONENTS
100
AcDbLine
 62
7
  6
CONTINUOUS
 10
147.4925039269
 20
213.6880866421
 11
150.3202092963
 21
210.1704045798
  0
LINE
  5
3D8
100
AcDbEntity
  8
00_COMPONENTS
100
AcDbLine
 62
7
  6
CONTINUOUS
 10
134.481614329
 20
241.7845104008
 11
138.0878421575
 21
235.5383752519
  0
LINE
  5
3D9
100
AcDbEntity
  8
00_COMPONENTS
100
AcDbLine
 62
7
  6
CONTINUOUS
 10
187.2672190056
 20
69.278378206
 11
187.2672190056
 21
68.4618348717
  0
LINE
  5
3DA
100
AcDbEntity
  8
00_COMPONENTS
100
AcDbLine
 62
7
  6
CONTINUOUS
 10
187.2672190056
 20
222.7807917092
 11
187.2672190056
 21
223.5973138795
  0
LINE
  5
3DB
100
AcDbEntity
  8
00_COMPONENTS
100
AcDbLine
 62
7
  6
CONTINUOUS
 10
188.2571726208
 20
67.8902978154
 11
188.2571726208
 21
62.3380813789
  0
LINE
  5
3DC
100
AcDbEntity
  8
00_COMPONENTS
100
AcDbLine
 62
7
  6
CONTINUOUS
 10
188.2571726208
 20
220.9845010272
 11
188.2571726208
 21
222.2092546529
  0
LINE
  5
3DD
100
AcDbEntity
  8
00_COMPONENTS
100
AcDbLine
 62
7
  6
CONTINUOUS
 10
188.2571726208
 20
224.168860454
 11
188.2571726208
 21
229.7210768905
  0
LINE
  5
3DE
100
AcDbEntity
  8
00_COMPONENTS
100
AcDbLine
 62
7
  6
CONTINUOUS
 10
189.3178372085
 20
220.3721398954
 11
189.3178372085
 21
217.9634577649
  0
LINE
  5
3DF
100
AcDbEntity
  8
00_COMPONENTS
100
AcDbLine
 62
7
  6
CONTINUOUS
 10
189.3178372085
 20
213.3093939873
 11
189.3178372085
 21
76.9681451887
  0
LINE
  5
3E0
100
AcDbEntity
  8
00_COMPONENTS
100
AcDbLine
 62
7
  6
CONTINUOUS
 10
189.3178372085
 20
73.4278750709
 11
189.3178372085
 21
70.4622961104
  0
LINE
  5
3E1
100
AcDbEntity
  8
00_COMPONENTS
100
AcDbLine
 62
7
  6
CONTINUOUS
 10
113.9051982498
 20
69.136184061
 11
113.7284205241
 21
69.0341220027
  0
LINE
  5
3E2
100
AcDbEntity
  8
00_COMPONENTS
100
AcDbLine
 62
7
  6
CONTINUOUS
 10
90.1916666165
 20
54.7914531534
 11
87.211777569
 21
53.0710236792
  0
LINE
  5
3E3
100
AcDbEntity
  8
00_COMPONENTS
100
AcDbLine
 62
7
  6
CONTINUOUS
 10
113.3748568297
 20
63.9309504055
 11
112.3142010738
 21
63.3185841747
  0
LINE
  5
3E4
100
AcDbEntity
  8
00_COMPONENTS
100
AcDbLine
 62
7
  6
CONTINUOUS
 10
113.9051982498
 20
62.604164724
 11
113.7284205241
 21
62.5021026657
  0
LINE
  5
3E5
100
AcDbEntity
  8
00_COMPONENTS
100
AcDbLine
 62
7
  6
CONTINUOUS
 10
94.0707331473
 20
48.1311943377
 11
93.0100502307
 21
47.5188124257
  0
LINE
  5
3E6
100
AcDbEntity
  8
00_COMPONENTS
100
AcDbLine
 62
7
  6
CONTINUOUS
 10
122.0358202904
 20
226.5000347607
 11
122.5055664228
 21
226.541997863
  0
LINE
  5
3E7
100
AcDbEntity
  8
00_COMPONENTS
100
AcDbLine
 62
7
  6
CONTINUOUS
 10
153.1493817281
 20
214.1953798176
 11
150.3216763587
 21
217.7130618798
  0
LINE
  5
3E8
100
AcDbEntity
  8
00_COMPONENTS
100
AcDbLine
 62
7
  6
CONTINUOUS
 10
141.0576782738
 20
237.2530006981
 11
137.4514504453
 21
243.499135847
  0
LINE
  5
3E9
100
AcDbEntity
  8
00_COMPONENTS
100
AcDbLine
 62
7
  6
CONTINUOUS
 10
94.6647316205
 20
47.6576152987
 11
92.0200966155
 21
46.1307436809
  0
LINE
  5
3EA
100
AcDbEntity
  8
00_COMPONENTS
100
AcDbLine
 62
7
  6
CONTINUOUS
 10
104.7481331243
 20
52.4589795866
 11
104.0410172896
 21
52.050728506
  0
LINE
  5
3EB
100
AcDbEntity
  8
00_COMPONENTS
100
AcDbLine
 62
7
  6
CONTINUOUS
 10
94.8627172736
 20
46.6288380557
 11
93.0100502307
 21
45.5592066246
  0
LINE
  5
3EC
100
AcDbEntity
  8
00_COMPONENTS
100
AcDbLine
 62
7
  6
CONTINUOUS
 10
95.2869722446
 20
44.4243153919
 11
95.1313794062
 21
44.334484361
  0
LINE
  5
3ED
100
AcDbEntity
  8
00_COMPONENTS
100
AcDbLine
 62
7
  6
CONTINUOUS
 10
90.4644552202
 20
41.4766569044
 11
89.5452202318
 21
40.9459395044
  0
LINE
  5
3EE
100
AcDbEntity
  8
00_COMPONENTS
100
AcDbLine
 62
7
  6
CONTINUOUS
 10
93.0100502307
 20
40.0069901881
 11
95.1313794062
 21
41.2317328479
  0
LINE
  5
3EF
100
AcDbEntity
  8
00_COMPONENTS
100
AcDbLine
 62
7
  6
CONTINUOUS
 10
122.0372873529
 20
234.0426920606
 11
119.208114921
 21
233.78995799
  0
LINE
  5
3F0
100
AcDbEntity
  8
00_COMPONENTS
100
AcDbLine
 62
7
  6
CONTINUOUS
 10
162.7660033349
 20
225.45488022
 11
166.3722311634
 21
219.2087450711
  0
LINE
  5
3F1
100
AcDbEntity
  8
00_COMPONENTS
100
AcDbLine
 62
7
  6
CONTINUOUS
 10
169.3420672797
 20
220.9233705173
 11
165.7358394512
 21
227.1695056662
  0
LINE
  5
3F2
100
AcDbEntity
  8
00_COMPONENTS
100
AcDbLine
 62
7
  6
CONTINUOUS
 10
119.6681092429
 20
43.5592363533
 11
116.0265244813
 21
41.4567789609
  0
LINE
  5
3F3
100
AcDbEntity
  8
00_COMPONENTS
100
AcDbLine
 62
7
  6
CONTINUOUS
 10
118.6074534871
 20
42.6202691557
 11
119.6681092429
 21
43.2326353865
  0
LINE
  5
3F4
100
AcDbEntity
  8
00_COMPONENTS
100
AcDbLine
 62
7
  6
CONTINUOUS
 10
93.7514312845
 20
242.8296649415
 11
94.2211774169
 21
242.8716280438
  0
LINE
  5
3F5
100
AcDbEntity
  8
00_COMPONENTS
100
AcDbLine
 62
7
  6
CONTINUOUS
 10
93.752898347
 20
250.3723222414
 11
90.9237259151
 21
250.1195881708
  0
LINE
  5
3F6
100
AcDbEntity
  8
00_COMPONENTS
100
AcDbLine
 62
7
  6
CONTINUOUS
 10
162.7660033349
 20
225.45488022
 11
154.8463744132
 21
230.0271766706
  0
LINE
  5
3F7
100
AcDbEntity
  8
00_COMPONENTS
100
AcDbLine
 62
7
  6
CONTINUOUS
 10
98.2775964015
 20
262.6864370322
 11
106.1972253231
 21
258.1141405816
  0
LINE
  5
3F8
100
AcDbEntity
  8
00_COMPONENTS
100
AcDbLine
 62
7
  6
CONTINUOUS
 10
126.5619854074
 20
246.3568068514
 11
134.481614329
 21
241.7845104008
  0
LINE
  5
3F9
100
AcDbEntity
  8
00_COMPONENTS
100
AcDbLine
 62
7
  6
CONTINUOUS
 10
101.2474325178
 20
264.4010624785
 11
109.1670614394
 21
259.8287660279
  0
LINE
  5
3FA
100
AcDbEntity
  8
00_COMPONENTS
100
AcDbLine
 62
7
  6
CONTINUOUS
 10
129.5318215237
 20
248.0714322977
 11
137.4514504453
 21
243.499135847
  0
LINE
  5
3FB
100
AcDbEntity
  8
00_COMPONENTS
100
AcDbLine
 62
7
  6
CONTINUOUS
 10
157.8162105295
 20
231.7418021169
 11
165.7358394512
 21
227.1695056662
  0
LINE
  5
3FC
100
AcDbEntity
  8
00_COMPONENTS
100
AcDbLine
 62
7
  6
CONTINUOUS
 10
173.0190696202
 20
223.0462761364
 11
150.5329803605
 21
236.0283321301
  0
LINE
  5
3FD
100
AcDbEntity
  8
00_COMPONENTS
100
AcDbLine
 62
7
  6
CONTINUOUS
 10
144.7346806143
 20
239.3759063172
 11
122.2485913546
 21
252.3579623109
  0
LINE
  5
3FE
100
AcDbEntity
  8
00_COMPONENTS
100
AcDbLine
 62
7
  6
CONTINUOUS
 10
116.4502916084
 20
255.705536498
 11
93.9642023488
 21
268.6875924918
  0
LINE
  5
3FF
100
AcDbEntity
  8
00_COMPONENTS
100
AcDbLine
 62
7
  6
CONTINUOUS
 10
188.2571726208
 20
220.9845010272
 11
189.3178372085
 21
220.3721398954
  0
LINE
  5
400
100
AcDbEntity
  8
00_COMPONENTS
100
AcDbLine
 62
7
  6
CONTINUOUS
 10
118.7958332553
 20
36.2524902622
 11
189.3178372085
 21
76.9681451887
  0
LINE
  5
401
100
AcDbEntity
  8
00_COMPONENTS
100
AcDbLine
 62
7
  6
CONTINUOUS
 10
189.3178372085
 20
73.4278750709
 11
119.409019091
 21
33.0662410385
  0
LINE
  5
402
100
AcDbEntity
  8
00_COMPONENTS
100
AcDbLine
 62
7
  6
CONTINUOUS
 10
119.0741331878
 20
29.9072956017
 11
189.3178372085
 21
70.4622961104
  0
LINE
  5
403
100
AcDbEntity
  8
00_COMPONENTS
100
AcDbLine
 62
7
  6
CONTINUOUS
 10
118.4235894144
 20
28.7151840508
 11
187.2672190056
 21
68.4618348717
  0
LINE
  5
404
100
AcDbEntity
  8
00_COMPONENTS
100
AcDbLine
 62
7
  6
CONTINUOUS
 10
119.4135430296
 20
28.1436469945
 11
188.2571726208
 21
67.8902978154
  0
LINE
  5
405
100
AcDbEntity
  8
00_COMPONENTS
100
AcDbLine
 62
7
  6
CONTINUOUS
 10
118.7958332553
 20
36.2524902622
 11
118.7026978498
 21
36.2049681031
  0
LINE
  5
406
100
AcDbEntity
  8
00_COMPONENTS
100
AcDbLine
 62
7
  6
CONTINUOUS
 10
188.2571726208
 20
222.2092546529
 11
187.2672190056
 21
222.7807917092
  0
LINE
  5
407
100
AcDbEntity
  8
00_COMPONENTS
100
AcDbLine
 62
7
  6
CONTINUOUS
 10
188.2571726208
 20
229.7210768905
 11
162.0941127903
 21
244.8259848077
  0
LINE
  5
408
100
AcDbEntity
  8
00_COMPONENTS
100
AcDbLine
 62
7
  6
CONTINUOUS
 10
159.9727836149
 20
246.0507070713
 11
133.8097237845
 21
261.1556149886
  0
LINE
  5
409
100
AcDbEntity
  8
00_COMPONENTS
100
AcDbLine
 62
7
  6
CONTINUOUS
 10
131.688394609
 20
262.3803372521
 11
105.5253347786
 21
277.4852451694
  0
LINE
  5
40A
100
AcDbEntity
  8
00_COMPONENTS
100
AcDbLine
 62
7
  6
CONTINUOUS
 10
120.3752042483
 20
23.1466426073
 11
188.2571726208
 21
62.3380813789
  0
ARC
  5
40B
100
AcDbEntity
  8
00_COMPONENTS
100
AcDbCircle
 62
7
  6
CONTINUOUS
 10
108.2288939564
 20
159.9011647282
 40
4.9796914774
100
AcDbArc
 50
11.6530141853
 51
12.5332403353
  0
ARC
  5
40C
100
AcDbEntity
  8
00_COMPONENTS
100
AcDbCircle
 62
7
  6
CONTINUOUS
 10
108.2288939563
 20
77.5160708398
 40
4.9796914776
100
AcDbArc
 50
11.6530141851
 51
12.5332403353
  0
ARC
  5
40D
100
AcDbEntity
  8
00_COMPONENTS
100
AcDbCircle
 62
7
  6
CONTINUOUS
 10
33.5581069817
 20
203.0113884057
 40
4.9796914766
100
AcDbArc
 50
11.6530141852
 51
12.5332403353
  0
ARC
  5
40E
100
AcDbEntity
  8
00_COMPONENTS
100
AcDbCircle
 62
7
  6
CONTINUOUS
 10
68.6230117502
 20
70.8263337722
 40
4.9210426423
100
AcDbArc
 50
204.9111849229
 51
211.9306243986
  0
ARC
  5
40F
100
AcDbEntity
  8
00_COMPONENTS
100
AcDbCircle
 62
7
  6
CONTINUOUS
 10
96.9074007561
 20
54.4967035914
 40
4.9210426423
100
AcDbArc
 50
204.911184923
 51
211.9306243986
  0
ARC
  5
410
100
AcDbEntity
  8
00_COMPONENTS
100
AcDbCircle
 62
7
  6
CONTINUOUS
 10
77.9477277709
 20
54.0907328408
 40
4.809237398
100
AcDbArc
 50
0.0094114351
 51
1.8118141066
  0
ARC
  5
411
100
AcDbEntity
  8
00_COMPONENTS
100
AcDbCircle
 62
7
  6
CONTINUOUS
 10
106.2321167768
 20
37.76110266
 40
4.809237398
100
AcDbArc
 50
0.0094114351
 51
1.8118141066
  0
ARC
  5
412
100
AcDbEntity
  8
00_COMPONENTS
100
AcDbCircle
 62
7
  6
CONTINUOUS
 10
49.6633387651
 20
70.4203630216
 40
4.8092373979
100
AcDbArc
 50
0.0094114351
 51
1.8118141066
  0
ARC
  5
413
100
AcDbEntity
  8
00_COMPONENTS
100
AcDbCircle
 62
7
  6
CONTINUOUS
 10
68.4029030391
 20
70.7242834738
 40
4.6784275516
100
AcDbArc
 50
199.9117396401
 51
204.9131064425
  0
ARC
  5
414
100
AcDbEntity
  8
00_COMPONENTS
100
AcDbCircle
 62
7
  6
CONTINUOUS
 10
96.687292045
 20
54.394653293
 40
4.6784275516
100
AcDbArc
 50
199.9117396401
 51
204.9131064425
  0
ARC
  5
415
100
AcDbEntity
  8
00_COMPONENTS
100
AcDbCircle
 62
7
  6
CONTINUOUS
 10
53.8741009107
 20
67.4316699552
 40
3.1772598439
100
AcDbArc
 50
283.5120808527
 51
288.9729428125
  0
ARC
  5
416
100
AcDbEntity
  8
00_COMPONENTS
100
AcDbCircle
 62
7
  6
CONTINUOUS
 10
110.4428789224
 20
34.7724095936
 40
3.1772598439
100
AcDbArc
 50
283.5120808527
 51
288.9729428125
  0
ARC
  5
417
100
AcDbEntity
  8
00_COMPONENTS
100
AcDbCircle
 62
7
  6
CONTINUOUS
 10
82.1584899165
 20
51.1020397744
 40
3.1772598439
100
AcDbArc
 50
283.5120808527
 51
288.9729428125
  0
ARC
  5
418
100
AcDbEntity
  8
00_COMPONENTS
100
AcDbCircle
 62
7
  6
CONTINUOUS
 10
47.940190448
 20
227.0846981211
 40
3.0964194347
100
AcDbArc
 50
124.2775556938
 51
132.0402735165
  0
ARC
  5
419
100
AcDbEntity
  8
00_COMPONENTS
100
AcDbCircle
 62
7
  6
CONTINUOUS
 10
104.5089684598
 20
194.4254377594
 40
3.0964194347
100
AcDbArc
 50
124.2775556938
 51
132.0402735165
  0
ARC
  5
41A
100
AcDbEntity
  8
00_COMPONENTS
100
AcDbCircle
 62
7
  6
CONTINUOUS
 10
76.2245794539
 20
210.7550679402
 40
3.0964194347
100
AcDbArc
 50
124.2775556938
 51
132.0402735165
  0
ARC
  5
41B
100
AcDbEntity
  8
00_COMPONENTS
100
AcDbCircle
 62
7
  6
CONTINUOUS
 10
98.1795771226
 20
256.0793431548
 40
3.005549835
100
AcDbArc
 50
119.9998651568
 51
120.7256377797
  0
ARC
  5
41C
100
AcDbEntity
  8
00_COMPONENTS
100
AcDbCircle
 62
7
  6
CONTINUOUS
 10
126.4639661285
 20
239.7497129738
 40
3.0055498351
100
AcDbArc
 50
119.9998651568
 51
120.7256377797
  0
ARC
  5
41D
100
AcDbEntity
  8
00_COMPONENTS
100
AcDbCircle
 62
7
  6
CONTINUOUS
 10
154.7483551345
 20
223.4200827929
 40
3.0055498353
100
AcDbArc
 50
119.9998651568
 51
120.7256377797
  0
ARC
  5
41E
100
AcDbEntity
  8
00_COMPONENTS
100
AcDbCircle
 62
7
  6
CONTINUOUS
 10
115.6351783913
 20
44.1321978059
 40
1.2931363962
100
AcDbArc
 50
324.8100881343
 51
335.1882606787
  0
ARC
  5
41F
100
AcDbEntity
  8
00_COMPONENTS
100
AcDbCircle
 62
7
  6
CONTINUOUS
 10
34.6345774769
 20
206.8427931065
 40
1.2692224987
100
AcDbArc
 50
107.6515988813
 51
119.9622157645
  0
ARC
  5
420
100
AcDbEntity
  8
00_COMPONENTS
100
AcDbCircle
 62
7
  6
CONTINUOUS
 10
109.3053644525
 20
163.7325694291
 40
1.2692224987
100
AcDbArc
 50
107.6515988813
 51
119.9622157645
  0
ARC
  5
421
100
AcDbEntity
  8
00_COMPONENTS
100
AcDbCircle
 62
7
  6
CONTINUOUS
 10
109.3053644525
 20
81.3474755408
 40
1.2692224987
100
AcDbArc
 50
107.6515988813
 51
119.9622157645
  0
ARC
  5
422
100
AcDbEntity
  8
00_COMPONENTS
100
AcDbCircle
 62
7
  6
CONTINUOUS
 10
111.7864756739
 20
77.0493587662
 40
1.2677871996
100
AcDbArc
 50
300.0528831804
 51
309.3549905201
  0
ARC
  5
423
100
AcDbEntity
  8
00_COMPONENTS
100
AcDbCircle
 62
7
  6
CONTINUOUS
 10
111.7864756739
 20
159.4344526546
 40
1.2677871996
100
AcDbArc
 50
300.0528831805
 51
309.35499052
  0
ARC
  5
424
100
AcDbEntity
  8
00_COMPONENTS
100
AcDbCircle
 62
7
  6
CONTINUOUS
 10
37.1156886984
 20
202.5446763319
 40
1.2677871996
100
AcDbArc
 50
300.0528831805
 51
309.3549905201
  0
ARC
  5
425
100
AcDbEntity
  8
00_COMPONENTS
100
AcDbCircle
 62
7
  6
CONTINUOUS
 10
109.2991845534
 20
81.3609026658
 40
1.2545041516
100
AcDbArc
 50
120.0239601265
 51
122.972151678
  0
ARC
  5
426
100
AcDbEntity
  8
00_COMPONENTS
100
AcDbCircle
 62
7
  6
CONTINUOUS
 10
109.2991845534
 20
163.7459965542
 40
1.2545041516
100
AcDbArc
 50
120.0239601264
 51
122.9721516779
  0
ARC
  5
427
100
AcDbEntity
  8
00_COMPONENTS
100
AcDbCircle
 62
7
  6
CONTINUOUS
 10
34.6283975779
 20
206.8562202315
 40
1.2545041516
100
AcDbArc
 50
120.0239601265
 51
122.9721516779
  0
ARC
  5
428
100
AcDbEntity
  8
00_COMPONENTS
100
AcDbCircle
 62
7
  6
CONTINUOUS
 10
115.6729708025
 20
72.9339989338
 40
0.8612734572
100
AcDbArc
 50
266.2927396021
 51
270.0000597296
  0
SPLINE
  5
429
100
AcDbEntity
  8
00_COMPONENTS
100
AcDbSpline
 62
7
  6
CONTINUOUS
 70
0
 71
3
 72
16
 73
12
 74
0
 42
0.0000001
 43
0.0000001
 44
0.0000000001
 40
0.0
 40
0.0
 40
0.0
 40
0.0
 40
0.128744776
 40
0.2703971998
 40
0.4176131979
 40
0.5620174334
 40
0.6957476677
 40
0.8130627022
 40
0.912470568
 40
0.9571203641
 40
1.0
 40
1.0
 40
1.0
 40
1.0
 10
37.0070153457
 20
94.8344641202
 30
0.0
 10
37.0070153457
 20
94.9797714678
 30
0.0
 10
36.9663609336
 20
95.2853026389
 30
0.0
 10
36.8146525323
 20
95.73390485
 30
0.0
 10
36.5808084419
 20
96.1660567439
 30
0.0
 10
36.2838911719
 20
96.5462830151
 30
0.0
 10
35.9472856873
 20
96.8440220226
 30
0.0
 10
35.597098535
 20
97.0361097205
 30
0.0
 10
35.2998230367
 20
97.0941584169
 30
0.0
 10
35.0892491921
 20
97.0632939015
 30
0.0
 10
34.9968531045
 20
97.0249025027
 30
0.0
 10
34.9549505326
 20
97.000687987
 30
0.0
  0
SPLINE
  5
42A
100
AcDbEntity
  8
00_COMPONENTS
100
AcDbSpline
 62
7
  6
CONTINUOUS
 70
0
 71
3
 72
11
 73
7
 74
0
 42
0.0000001
 43
0.0000001
 44
0.0000000001
 40
0.0
 40
0.0
 40
0.0
 40
0.0
 40
0.2372539654
 40
0.5000012591
 40
0.7627478695
 40
1.0
 40
1.0
 40
1.0
 40
1.0
 10
111.9606462113
 20
47.4784320554
 30
0.0
 10
111.9606462113
 20
47.5943579385
 30
0.0
 10
111.9171819456
 20
47.838830963
 30
0.0
 10
111.7655761904
 20
48.1823072615
 30
0.0
 10
111.5439189523
 20
48.4853380609
 30
0.0
 10
111.3539310372
 20
48.6452137172
 30
0.0
 10
111.2535364861
 20
48.703175227
 30
0.0
  0
SPLINE
  5
42B
100
AcDbEntity
  8
00_COMPONENTS
100
AcDbSpline
 62
7
  6
CONTINUOUS
 70
0
 71
3
 72
11
 73
7
 74
0
 42
0.0000001
 43
0.0000001
 44
0.0000000001
 40
0.0
 40
0.0
 40
0.0
 40
0.0
 40
0.2895391946
 40
0.5491157945
 40
0.7822541179
 40
1.0
 40
1.0
 40
1.0
 40
1.0
 10
104.7481270148
 20
52.4589901686
 30
0.0
 10
104.704273757
 20
52.484308286
 30
0.0
 10
104.6169626988
 20
52.525788345
 30
0.0
 10
104.4828185132
 20
52.5582574123
 30
0.0
 10
104.356887102
 20
52.5550939575
 30
0.0
 10
104.2811366149
 20
52.52750655
 30
0.0
 10
104.2481572299
 20
52.5084659911
 30
0.0
  0
SPLINE
  5
42C
100
AcDbEntity
  8
00_COMPONENTS
100
AcDbSpline
 62
7
  6
CONTINUOUS
 70
0
 71
3
 72
11
 73
7
 74
0
 42
0.0000001
 43
0.0000001
 44
0.0000000001
 40
0.0
 40
0.0
 40
0.0
 40
0.0
 40
0.2896423581
 40
0.5491120121
 40
0.7822364467
 40
1.0
 40
1.0
 40
1.0
 40
1.0
 10
37.0070153457
 20
88.0983191789
 30
0.0
 10
37.0070153457
 20
88.0096686507
 30
0.0
 10
37.0204901837
 20
87.8410345404
 30
0.0
 10
37.0887426562
 20
87.6093369318
 30
0.0
 10
37.2037137562
 20
87.4212819216
 30
0.0
 10
37.3117695062
 20
87.3305684469
 30
0.0
 10
37.3694776035
 20
87.2972204959
 30
0.0
  0
SPLINE
  5
42D
100
AcDbEntity
  8
00_COMPONENTS
100
AcDbSpline
 62
7
  6
CONTINUOUS
 70
0
 71
3
 72
16
 73
12
 74
0
 42
0.0000001
 43
0.0000001
 44
0.0000000001
 40
0.0
 40
0.0
 40
0.0
 40
0.0
 40
0.1287450452
 40
0.2703977788
 40
0.4176140475
 40
0.562018456
 40
0.6957487187
 40
0.8130635968
 40
0.9124710976
 40
0.9571206415
 40
1.0
 40
1.0
 40
1.0
 40
1.0
 10
106.5158807199
 20
50.8259501889
 30
0.0
 10
106.5158807199
 20
50.6763693073
 30
0.0
 10
106.4740310767
 20
50.3618523651
 30
0.0
 10
106.317862547
 20
49.9000561473
 30
0.0
 10
106.0771435248
 20
49.4551934413
 30
0.0
 10
105.7714969011
 20
49.0637828748
 30
0.0
 10
105.42499508
 20
48.7572849449
 30
0.0
 10
105.0645120974
 20
48.5595450181
 30
0.0
 10
104.7584958082
 20
48.4997860777
 30
0.0
 10
104.541730089
 20
48.5315560369
 30
0.0
 10
104.4466170405
 20
48.5710754473
 30
0.0
 10
104.4034822911
 20
48.5960015955
 30
0.0
  0
SPLINE
  5
42E
100
AcDbEntity
  8
00_COMPONENTS
100
AcDbSpline
 62
7
  6
CONTINUOUS
 70
0
 71
3
 72
11
 73
7
 74
0
 42
0.0000001
 43
0.0000001
 44
0.0000000001
 40
0.0
 40
0.0
 40
0.0
 40
0.0
 40
0.2896423581
 40
0.5491120121
 40
0.7822364467
 40
1.0
 40
1.0
 40
1.0
 40
1.0
 10
111.9606462113
 20
44.8247991997
 30
0.0
 10
111.9606462113
 20
44.7361486715
 30
0.0
 10
111.9741210493
 20
44.5675145613
 30
0.0
 10
112.0423735218
 20
44.3358169526
 30
0.0
 10
112.1573446218
 20
44.1477619424
 30
0.0
 10
112.2654003717
 20
44.0570484678
 30
0.0
 10
112.3231084691
 20
44.0237005167
 30
0.0
  0
SPLINE
  5
42F
100
AcDbEntity
  8
00_COMPONENTS
100
AcDbSpline
 62
7
  6
CONTINUOUS
 70
0
 71
3
 72
9
 73
5
 74
0
 42
0.0000001
 43
0.0000001
 44
0.0000000001
 40
0.0
 40
0.0
 40
0.0
 40
0.0
 40
0.2550804373
 40
1.0
 40
1.0
 40
1.0
 40
1.0
 10
35.663498036
 20
96.8348489164
 30
0.0
 10
35.663498036
 20
96.8473793606
 30
0.0
 10
35.6640821545
 20
96.8965002087
 30
0.0
 10
35.6670351599
 20
96.9456000703
 30
0.0
 10
35.6707038294
 20
96.9820087601
 30
0.0
  0
SPLINE
  5
430
100
AcDbEntity
  8
00_COMPONENTS
100
AcDbSpline
 62
7
  6
CONTINUOUS
 70
0
 71
3
 72
11
 73
7
 74
0
 42
0.0000001
 43
0.0000001
 44
0.0000000001
 40
0.0
 40
0.0
 40
0.0
 40
0.0
 40
0.2177684544
 40
0.4508929427
 40
0.7103598948
 40
1.0
 40
1.0
 40
1.0
 40
1.0
 10
106.1534176348
 20
51.6270475545
 30
0.0
 10
106.2111273439
 20
51.593699778
 30
0.0
 10
106.3191805613
 20
51.502980792
 30
0.0
 10
106.4341516319
 20
51.314926997
 30
0.0
 10
106.5024058484
 20
51.0832319069
 30
0.0
 10
106.5158807199
 20
50.9145997724
 30
0.0
 10
106.5158807199
 20
50.8259501889
 30
0.0
  0
SPLINE
  5
431
100
AcDbEntity
  8
00_COMPONENTS
100
AcDbSpline
 62
7
  6
CONTINUOUS
 70
0
 71
3
 72
9
 73
5
 74
0
 42
0.0000001
 43
0.0000001
 44
0.0000000001
 40
0.0
 40
0.0
 40
0.0
 40
0.0
 40
0.2321887394
 40
1.0
 40
1.0
 40
1.0
 40
1.0
 10
116.9101203687
 20
43.9884338905
 30
0.0
 10
116.9092314254
 20
43.9564727186
 30
0.0
 10
116.8965004456
 20
43.8191022891
 30
0.0
 10
116.8532983865
 20
43.6855282856
 30
0.0
 10
116.8089473298
 20
43.589548547
 30
0.0
  0
SPLINE
  5
432
100
AcDbEntity
  8
00_COMPONENTS
100
AcDbSpline
 62
7
  6
CONTINUOUS
 70
0
 71
3
 72
9
 73
5
 74
0
 42
0.0000001
 43
0.0000001
 44
0.0000000001
 40
0.0
 40
0.0
 40
0.0
 40
0.0
 40
0.2657137908
 40
1.0
 40
1.0
 40
1.0
 40
1.0
 10
116.6919894284
 20
43.3869782603
 30
0.0
 10
116.670907173
 20
43.3570929441
 30
0.0
 10
116.5867985332
 20
43.2482618001
 30
0.0
 10
116.4832567236
 20
43.1529090803
 30
0.0
 10
116.3971688476
 20
43.09996001
 30
0.0
  0
SPLINE
  5
433
100
AcDbEntity
  8
00_COMPONENTS
100
AcDbSpline
 62
7
  6
CONTINUOUS
 70
0
 71
3
 72
15
 73
11
 74
0
 42
0.0000001
 43
0.0000001
 44
0.0000000001
 40
0.0
 40
0.0
 40
0.0
 40
0.0
 40
0.1425847279
 40
0.2904660645
 40
0.4373326639
 40
0.5770113609
 40
0.7043430692
 40
0.8162326945
 40
0.9130270601
 40
1.0
 40
1.0
 40
1.0
 40
1.0
 10
37.0164947181
 20
90.4359974734
 30
0.0
 10
36.9827720127
 20
90.2973476592
 30
0.0
 10
36.889368373
 20
90.0205357085
 30
0.0
 10
36.6887844663
 20
89.6299340875
 30
0.0
 10
36.4355632256
 20
89.2745582279
 30
0.0
 10
36.1453278606
 20
88.9765370434
 30
0.0
 10
35.8354533532
 20
88.7539039995
 30
0.0
 10
35.5229608288
 20
88.6205153274
 30
0.0
 10
35.2233269842
 20
88.5869625452
 30
0.0
 10
35.0406678284
 20
88.6416953165
 30
0.0
 10
34.9653072816
 20
88.6852436894
 30
0.0
  0
SPLINE
  5
434
100
AcDbEntity
  8
00_COMPONENTS
100
AcDbSpline
 62
7
  6
CONTINUOUS
 70
0
 71
3
 72
11
 73
7
 74
0
 42
0.0000001
 43
0.0000001
 44
0.0000000001
 40
0.0
 40
0.0
 40
0.0
 40
0.0
 40
0.2896423581
 40
0.5491120121
 40
0.7822364467
 40
1.0
 40
1.0
 40
1.0
 40
1.0
 10
32.8350679673
 20
90.5069396305
 30
0.0
 10
32.8350679673
 20
90.4182891024
 30
0.0
 10
32.8485428053
 20
90.2496549921
 30
0.0
 10
32.9167952779
 20
90.0179573834
 30
0.0
 10
33.0317663778
 20
89.8299023733
 30
0.0
 10
33.1398221278
 20
89.7391888986
 30
0.0
 10
33.1975302251
 20
89.7058409476
 30
0.0
  0
SPLINE
  5
435
100
AcDbEntity
  8
00_COMPONENTS
100
AcDbSpline
 62
7
  6
CONTINUOUS
 70
0
 71
3
 72
11
 73
7
 74
0
 42
0.0000001
 43
0.0000001
 44
0.0000000001
 40
0.0
 40
0.0
 40
0.0
 40
0.0
 40
0.2971428927
 40
0.55967188
 40
0.7898640151
 40
1.0
 40
1.0
 40
1.0
 40
1.0
 10
105.1016730454
 20
51.4236855521
 30
0.0
 10
105.191369906
 20
51.4904213955
 30
0.0
 10
105.3712853829
 20
51.6026683777
 30
0.0
 10
105.6539965991
 20
51.7033837792
 30
0.0
 10
105.922489226
 20
51.719262336
 30
0.0
 10
106.0849615435
 20
51.6666051691
 30
0.0
 10
106.1534176348
 20
51.6270475545
 30
0.0
  0
SPLINE
  5
436
100
AcDbEntity
  8
00_COMPONENTS
100
AcDbSpline
 62
7
  6
CONTINUOUS
 70
0
 71
3
 72
11
 73
7
 74
0
 42
0.0000001
 43
0.0000001
 44
0.0000000001
 40
0.0
 40
0.0
 40
0.0
 40
0.0
 40
0.217745073
 40
0.4508830113
 40
0.7104597664
 40
1.0
 40
1.0
 40
1.0
 40
1.0
 10
104.2481572299
 20
52.5084659911
 30
0.0
 10
104.2151770853
 20
52.4894249936
 30
0.0
 10
104.1534088208
 20
52.4376156518
 30
0.0
 10
104.08770241
 20
52.3301344342
 30
0.0
 10
104.0487492791
 20
52.1977236378
 30
0.0
 10
104.0410172896
 20
52.1013671362
 30
0.0
 10
104.0410172896
 20
52.050728506
 30
0.0
  0
SPLINE
  5
437
100
AcDbEntity
  8
00_COMPONENTS
100
AcDbSpline
 62
7
  6
CONTINUOUS
 70
0
 71
3
 72
11
 73
7
 74
0
 42
0.0000001
 43
0.0000001
 44
0.0000000001
 40
0.0
 40
0.0
 40
0.0
 40
0.0
 40
0.2177651606
 40
0.4508956102
 40
0.7103690052
 40
1.0
 40
1.0
 40
1.0
 40
1.0
 10
104.4034822911
 20
48.5960015955
 30
0.0
 10
104.3457737001
 20
48.6293494857
 30
0.0
 10
104.2377111732
 20
48.7200585973
 30
0.0
 10
104.1227434658
 20
48.9081208728
 30
0.0
 10
104.0544921495
 20
49.1398170714
 30
0.0
 10
104.0410172896
 20
49.3084487264
 30
0.0
 10
104.0410172896
 20
49.3970956503
 30
0.0
  0
SPLINE
  5
438
100
AcDbEntity
  8
00_COMPONENTS
100
AcDbSpline
 62
7
  6
CONTINUOUS
 70
0
 71
3
 72
11
 73
7
 74
0
 42
0.0000001
 43
0.0000001
 44
0.0000000001
 40
0.0
 40
0.0
 40
0.0
 40
0.0
 40
0.2177660095
 40
0.4508968553
 40
0.7103699668
 40
1.0
 40
1.0
 40
1.0
 40
1.0
 10
34.9549505326
 20
97.000687987
 30
0.0
 10
34.8988908402
 20
96.9682924027
 30
0.0
 10
34.7939161158
 20
96.8801744083
 30
0.0
 10
34.6822333715
 20
96.6974852521
 30
0.0
 10
34.6159321579
 20
96.4724094919
 30
0.0
 10
34.6028422802
 20
96.3085964513
 30
0.0
 10
34.6028422802
 20
96.2224826855
 30
0.0
  0
SPLINE
  5
439
100
AcDbEntity
  8
00_COMPONENTS
100
AcDbSpline
 62
7
  6
CONTINUOUS
 70
0
 71
3
 72
11
 73
7
 74
0
 42
0.0000001
 43
0.0000001
 44
0.0000000001
 40
0.0
 40
0.0
 40
0.0
 40
0.0
 40
0.2177651606
 40
0.4508956102
 40
0.7103690052
 40
1.0
 40
1.0
 40
1.0
 40
1.0
 10
34.9653072816
 20
88.6852436894
 30
0.0
 10
34.9075986907
 20
88.7185915796
 30
0.0
 10
34.7995361638
 20
88.8093006912
 30
0.0
 10
34.6845684564
 20
88.9973629667
 30
0.0
 10
34.6163171401
 20
89.2290591653
 30
0.0
 10
34.6028422802
 20
89.3976908203
 30
0.0
 10
34.6028422802
 20
89.4863377442
 30
0.0
  0
SPLINE
  5
43A
100
AcDbEntity
  8
00_COMPONENTS
100
AcDbSpline
 62
7
  6
CONTINUOUS
 70
0
 71
3
 72
9
 73
5
 74
0
 42
0.0000001
 43
0.0000001
 44
0.0000000001
 40
0.0
 40
0.0
 40
0.0
 40
0.0
 40
0.225866401
 40
1.0
 40
1.0
 40
1.0
 40
1.0
 10
113.8727631372
 20
43.2178170514
 30
0.0
 10
113.8484704348
 20
43.2566640609
 30
0.0
 10
113.7569081045
 20
43.4387744191
 30
0.0
 10
113.7284205241
 20
43.6471632616
 30
0.0
 10
113.7284205241
 20
43.8041973134
 30
0.0
  0
SPLINE
  5
43B
100
AcDbEntity
  8
00_COMPONENTS
100
AcDbSpline
 62
7
  6
CONTINUOUS
 70
0
 71
3
 72
9
 73
5
 74
0
 42
0.0000001
 43
0.0000001
 44
0.0000000001
 40
0.0
 40
0.0
 40
0.0
 40
0.0
 40
0.5253281111
 40
1.0
 40
1.0
 40
1.0
 40
1.0
 10
189.3178372085
 20
73.4278750709
 30
0.0
 10
189.0996238371
 20
73.768875772
 30
0.0
 10
188.7613573226
 20
74.4698801765
 30
0.0
 10
188.6107274834
 20
75.2404452149
 30
0.0
 10
188.6107274834
 20
75.6062508843
 30
0.0
  0
SPLINE
  5
43C
100
AcDbEntity
  8
00_COMPONENTS
100
AcDbSpline
 62
7
  6
CONTINUOUS
 70
0
 71
3
 72
9
 73
5
 74
0
 42
0.0000001
 43
0.0000001
 44
0.0000000001
 40
0.0
 40
0.0
 40
0.0
 40
0.0
 40
0.2828377307
 40
1.0
 40
1.0
 40
1.0
 40
1.0
 10
188.6107274834
 20
75.6062508843
 30
0.0
 10
188.6107274834
 20
75.7136935729
 30
0.0
 10
188.6325626015
 20
76.0911531122
 30
0.0
 10
188.7616269993
 20
76.4771823498
 30
0.0
 10
188.9361944807
 20
76.6863353839
 30
0.0
  0
SPLINE
  5
43D
100
AcDbEntity
  8
00_COMPONENTS
100
AcDbSpline
 62
7
  6
CONTINUOUS
 70
0
 71
3
 72
9
 73
5
 74
0
 42
0.0000001
 43
0.0000001
 44
0.0000000001
 40
0.0
 40
0.0
 40
0.0
 40
0.0
 40
0.254664769
 40
1.0
 40
1.0
 40
1.0
 40
1.0
 10
188.9361944807
 20
76.6863353839
 30
0.0
 10
188.9526412953
 20
76.7060406643
 30
0.0
 10
189.0199679531
 20
76.7810745137
 30
0.0
 10
189.0985390604
 20
76.8461057286
 30
0.0
 10
189.1616716771
 20
76.8868163529
 30
0.0
  0
SPLINE
  5
43E
100
AcDbEntity
  8
00_COMPONENTS
100
AcDbSpline
 62
7
  6
CONTINUOUS
 70
0
 71
3
 72
11
 73
7
 74
0
 42
0.0000001
 43
0.0000001
 44
0.0000000001
 40
0.0
 40
0.0
 40
0.0
 40
0.0
 40
0.2372523758
 40
0.4999990758
 40
0.7627462798
 40
1.0
 40
1.0
 40
1.0
 40
1.0
 10
189.3178372085
 20
213.3093939873
 30
0.0
 10
189.0317124421
 20
213.4745844611
 30
0.0
 10
188.490246582
 20
213.9302304899
 30
0.0
 10
187.8585234669
 20
214.7938687012
 30
0.0
 10
187.4264474463
 20
215.7727759471
 30
0.0
 10
187.3025744918
 20
216.4695236011
 30
0.0
 10
187.3025744918
 20
216.7999120265
 30
0.0
  0
SPLINE
  5
43F
100
AcDbEntity
  8
00_COMPONENTS
100
AcDbSpline
 62
7
  6
CONTINUOUS
 70
0
 71
3
 72
9
 73
5
 74
0
 42
0.0000001
 43
0.0000001
 44
0.0000000001
 40
0.0
 40
0.0
 40
0.0
 40
0.0
 40
0.523936769
 40
1.0
 40
1.0
 40
1.0
 40
1.0
 10
68.9364886632
 20
234.0723589073
 30
0.0
 10
68.6245807995
 20
234.7855339557
 30
0.0
 10
68.1422364242
 20
236.1995894188
 30
0.0
 10
67.9428264764
 20
237.6866072063
 30
0.0
 10
67.9428264764
 20
238.3938818515
 30
0.0
  0
SPLINE
  5
440
100
AcDbEntity
  8
00_COMPONENTS
100
AcDbSpline
 62
7
  6
CONTINUOUS
 70
0
 71
3
 72
11
 73
7
 74
0
 42
0.0000001
 43
0.0000001
 44
0.0000000001
 40
0.0
 40
0.0
 40
0.0
 40
0.0
 40
0.2177660095
 40
0.4508968553
 40
0.7103699668
 40
1.0
 40
1.0
 40
1.0
 40
1.0
 10
53.436963591
 20
217.5522562022
 30
0.0
 10
53.6018450394
 20
217.6475373326
 30
0.0
 10
53.9105942287
 20
217.9067079044
 30
0.0
 10
54.2390728884
 20
218.444028952
 30
0.0
 10
54.4340764579
 20
219.106016482
 30
0.0
 10
54.4725760982
 20
219.5878195425
 30
0.0
 10
54.4725760982
 20
219.8410953242
 30
0.0
  0
SPLINE
  5
441
100
AcDbEntity
  8
00_COMPONENTS
100
AcDbSpline
 62
7
  6
CONTINUOUS
 70
0
 71
3
 72
9
 73
5
 74
0
 42
0.0000001
 43
0.0000001
 44
0.0000000001
 40
0.0
 40
0.0
 40
0.0
 40
0.0
 40
0.523936769
 40
1.0
 40
1.0
 40
1.0
 40
1.0
 10
97.2208776691
 20
217.7427287265
 30
0.0
 10
96.9089698053
 20
218.4559037749
 30
0.0
 10
96.4266254301
 20
219.869959238
 30
0.0
 10
96.2272154823
 20
221.3569770254
 30
0.0
 10
96.2272154823
 20
222.0642516707
 30
0.0
  0
SPLINE
  5
442
100
AcDbEntity
  8
00_COMPONENTS
100
AcDbSpline
 62
7
  6
CONTINUOUS
 70
0
 71
3
 72
11
 73
7
 74
0
 42
0.0000001
 43
0.0000001
 44
0.0000000001
 40
0.0
 40
0.0
 40
0.0
 40
0.0
 40
0.2177660095
 40
0.4508968553
 40
0.7103699668
 40
1.0
 40
1.0
 40
1.0
 40
1.0
 10
81.7213525969
 20
201.2226260214
 30
0.0
 10
81.8862340452
 20
201.3179071518
 30
0.0
 10
82.1949832346
 20
201.5770777236
 30
0.0
 10
82.5234618942
 20
202.1143987712
 30
0.0
 10
82.7184654638
 20
202.7763863012
 30
0.0
 10
82.7569651041
 20
203.2581893617
 30
0.0
 10
82.7569651041
 20
203.5114651434
 30
0.0
  0
SPLINE
  5
443
100
AcDbEntity
  8
00_COMPONENTS
100
AcDbSpline
 62
7
  6
CONTINUOUS
 70
0
 71
3
 72
11
 73
7
 74
0
 42
0.0000001
 43
0.0000001
 44
0.0000000001
 40
0.0
 40
0.0
 40
0.0
 40
0.0
 40
0.2372423294
 40
0.4999983821
 40
0.7627553152
 40
1.0
 40
1.0
 40
1.0
 40
1.0
 10
116.9457594697
 20
44.0287524037
 30
0.0
 10
116.8654475704
 20
43.9823845838
 30
0.0
 10
116.713475217
 20
43.8544682305
 30
0.0
 10
116.5360988343
 20
43.6120743188
 30
0.0
 10
116.4148688023
 20
43.3372634297
 30
0.0
 10
116.3800763999
 20
43.1416921226
 30
0.0
 10
116.3800763999
 20
43.0489551469
 30
0.0
  0
SPLINE
  5
444
100
AcDbEntity
  8
00_COMPONENTS
100
AcDbSpline
 62
7
  6
CONTINUOUS
 70
0
 71
3
 72
9
 73
5
 74
0
 42
0.0000001
 43
0.0000001
 44
0.0000000001
 40
0.0
 40
0.0
 40
0.0
 40
0.0
 40
0.5000005437
 40
1.0
 40
1.0
 40
1.0
 40
1.0
 10
115.3194177001
 20
41.4567772612
 30
0.0
 10
115.4243579167
 20
41.3961913695
 30
0.0
 10
115.6729714368
 20
41.3482772782
 30
0.0
 10
115.9215849298
 20
41.3961924442
 30
0.0
 10
116.0265244813
 20
41.4567789609
 30
0.0
  0
SPLINE
  5
445
100
AcDbEntity
  8
00_COMPONENTS
100
AcDbSpline
 62
7
  6
CONTINUOUS
 70
0
 71
3
 72
14
 73
10
 74
0
 42
0.0000001
 43
0.0000001
 44
0.0000000001
 40
0.0
 40
0.0
 40
0.0
 40
0.0
 40
0.3056247416
 40
0.4496264094
 40
0.5832390967
 40
0.704349615
 40
0.8124993402
 40
0.909565262
 40
1.0
 40
1.0
 40
1.0
 40
1.0
 10
92.9460508114
 20
52.0466357787
 30
0.0
 10
92.621367292
 20
52.6314366165
 30
0.0
 10
92.0447009522
 20
53.4439991792
 30
0.0
 10
91.1222864401
 20
54.3303867108
 30
0.0
 10
90.4113862908
 20
54.8426045206
 30
0.0
 10
89.6944371366
 20
55.194513877
 30
0.0
 10
88.995733743
 20
55.37158046
 30
0.0
 10
88.3396721004
 20
55.3608055704
 30
0.0
 10
87.9445388923
 20
55.218825772
 30
0.0
 10
87.7730858157
 20
55.1199415735
 30
0.0
  0
SPLINE
  5
446
100
AcDbEntity
  8
00_COMPONENTS
100
AcDbSpline
 62
7
  6
CONTINUOUS
 70
0
 71
3
 72
14
 73
10
 74
0
 42
0.0000001
 43
0.0000001
 44
0.0000000001
 40
0.0
 40
0.0
 40
0.0
 40
0.0
 40
0.3056247416
 40
0.4496264094
 40
0.5832390967
 40
0.704349615
 40
0.8124993402
 40
0.909565262
 40
1.0
 40
1.0
 40
1.0
 40
1.0
 10
64.6616618055
 20
68.3762659595
 30
0.0
 10
64.3369782861
 20
68.9610667973
 30
0.0
 10
63.7603119463
 20
69.77362936
 30
0.0
 10
62.8378974342
 20
70.6600168917
 30
0.0
 10
62.1269972849
 20
71.1722347014
 30
0.0
 10
61.4100481307
 20
71.5241440578
 30
0.0
 10
60.7113447371
 20
71.7012106408
 30
0.0
 10
60.0552830945
 20
71.6904357512
 30
0.0
 10
59.6601498864
 20
71.5484559529
 30
0.0
 10
59.4886968098
 20
71.4495717543
 30
0.0
  0
SPLINE
  5
447
100
AcDbEntity
  8
00_COMPONENTS
100
AcDbSpline
 62
7
  6
CONTINUOUS
 70
0
 71
3
 72
9
 73
5
 74
0
 42
0.0000001
 43
0.0000001
 44
0.0000000001
 40
0.0
 40
0.0
 40
0.0
 40
0.0
 40
0.523936769
 40
1.0
 40
1.0
 40
1.0
 40
1.0
 10
125.505266675
 20
201.4130985457
 30
0.0
 10
125.1933588112
 20
202.126273594
 30
0.0
 10
124.711014436
 20
203.5403290572
 30
0.0
 10
124.5116044881
 20
205.0273468446
 30
0.0
 10
124.5116044881
 20
205.7346214899
 30
0.0
  0
SPLINE
  5
448
100
AcDbEntity
  8
00_COMPONENTS
100
AcDbSpline
 62
7
  6
CONTINUOUS
 70
0
 71
3
 72
9
 73
5
 74
0
 42
0.0000001
 43
0.0000001
 44
0.0000000001
 40
0.0
 40
0.0
 40
0.0
 40
0.0
 40
0.513872508
 40
1.0
 40
1.0
 40
1.0
 40
1.0
 10
77.7322781255
 20
60.6951687446
 30
0.0
 10
77.5529500891
 20
60.7025430195
 30
0.0
 10
77.200054938
 20
60.6755393359
 30
0.0
 10
76.8684820509
 20
60.5477326587
 30
0.0
 10
76.7214401452
 20
60.4628384552
 30
0.0
  0
SPLINE
  5
449
100
AcDbEntity
  8
00_COMPONENTS
100
AcDbSpline
 62
7
  6
CONTINUOUS
 70
0
 71
3
 72
11
 73
7
 74
0
 42
0.0000001
 43
0.0000001
 44
0.0000000001
 40
0.0
 40
0.0
 40
0.0
 40
0.0
 40
0.2177660095
 40
0.4508968553
 40
0.7103699668
 40
1.0
 40
1.0
 40
1.0
 40
1.0
 10
110.0057416027
 20
184.8929958406
 30
0.0
 10
110.1706230511
 20
184.9882769709
 30
0.0
 10
110.4793722405
 20
185.2474475428
 30
0.0
 10
110.8078509001
 20
185.7847685903
 30
0.0
 10
111.0028544697
 20
186.4467561204
 30
0.0
 10
111.0413541099
 20
186.9285591809
 30
0.0
 10
111.0413541099
 20
187.1818349626
 30
0.0
  0
SPLINE
  5
44A
100
AcDbEntity
  8
00_COMPONENTS
100
AcDbSpline
 62
7
  6
CONTINUOUS
 70
0
 71
3
 72
15
 73
11
 74
0
 42
0.0000001
 43
0.0000001
 44
0.0000000001
 40
0.0
 40
0.0
 40
0.0
 40
0.0
 40
0.0867634565
 40
0.1840980908
 40
0.2973466029
 40
0.4263898291
 40
0.5674456746
 40
0.7145844919
 40
0.861042305
 40
1.0
 40
1.0
 40
1.0
 40
1.0
 10
112.3121290234
 20
76.3045411613
 30
0.0
 10
112.1593966503
 20
76.2163600303
 30
0.0
 10
111.7853980715
 20
76.1089326547
 30
0.0
 10
111.1746865677
 20
76.1930289556
 30
0.0
 10
110.5413500022
 20
76.485517922
 30
0.0
 10
109.9188038929
 20
76.9623732698
 30
0.0
 10
109.3446813953
 20
77.591777884
 30
0.0
 10
108.8562328793
 20
78.3321724848
 30
0.0
 10
108.4866924771
 20
79.1334798842
 30
0.0
 10
108.329486194
 20
79.6955447702
 30
0.0
 10
108.2801430358
 20
79.9736552499
 30
0.0
  0
SPLINE
  5
44B
100
AcDbEntity
  8
00_COMPONENTS
100
AcDbSpline
 62
7
  6
CONTINUOUS
 70
0
 71
3
 72
11
 73
7
 74
0
 42
0.0000001
 43
0.0000001
 44
0.0000000001
 40
0.0
 40
0.0
 40
0.0
 40
0.0
 40
0.2183857687
 40
0.4540782255
 40
0.7140345265
 40
1.0
 40
1.0
 40
1.0
 40
1.0
 10
112.5904090589
 20
76.0690651898
 30
0.0
 10
112.6897092449
 20
76.1504575592
 30
0.0
 10
112.8710472981
 20
76.352094504
 30
0.0
 10
113.0616555569
 20
76.7304634564
 30
0.0
 10
113.1751850998
 20
77.1787658942
 30
0.0
 10
113.198091763
 20
77.5005109209
 30
0.0
 10
113.198091763
 20
77.6686377286
 30
0.0
  0
SPLINE
  5
44C
100
AcDbEntity
  8
00_COMPONENTS
100
AcDbSpline
 62
7
  6
CONTINUOUS
 70
0
 71
3
 72
15
 73
11
 74
0
 42
0.0000001
 43
0.0000001
 44
0.0000000001
 40
0.0
 40
0.0
 40
0.0
 40
0.0
 40
0.0867634565
 40
0.1840980908
 40
0.2973466029
 40
0.4263898291
 40
0.5674456746
 40
0.7145844919
 40
0.861042305
 40
1.0
 40
1.0
 40
1.0
 40
1.0
 10
112.3121290234
 20
158.6896350497
 30
0.0
 10
112.1593966503
 20
158.6014539186
 30
0.0
 10
111.7853980715
 20
158.4940265431
 30
0.0
 10
111.1746865677
 20
158.578122844
 30
0.0
 10
110.5413500022
 20
158.8706118104
 30
0.0
 10
109.9188038929
 20
159.3474671582
 30
0.0
 10
109.3446813953
 20
159.9768717723
 30
0.0
 10
108.8562328793
 20
160.7172663732
 30
0.0
 10
108.4866924771
 20
161.5185737726
 30
0.0
 10
108.329486194
 20
162.0806386586
 30
0.0
 10
108.2801430358
 20
162.3587491383
 30
0.0
  0
SPLINE
  5
44D
100
AcDbEntity
  8
00_COMPONENTS
100
AcDbSpline
 62
7
  6
CONTINUOUS
 70
0
 71
3
 72
11
 73
7
 74
0
 42
0.0000001
 43
0.0000001
 44
0.0000000001
 40
0.0
 40
0.0
 40
0.0
 40
0.0
 40
0.2183857687
 40
0.4540782255
 40
0.7140345265
 40
1.0
 40
1.0
 40
1.0
 40
1.0
 10
112.5904090589
 20
158.4541590782
 30
0.0
 10
112.6897092449
 20
158.5355514476
 30
0.0
 10
112.8710472981
 20
158.7371883924
 30
0.0
 10
113.0616555569
 20
159.1155573447
 30
0.0
 10
113.1751850998
 20
159.5638597825
 30
0.0
 10
113.198091763
 20
159.8856048093
 30
0.0
 10
113.198091763
 20
160.0537316169
 30
0.0
  0
SPLINE
  5
44E
100
AcDbEntity
  8
00_COMPONENTS
100
AcDbSpline
 62
7
  6
CONTINUOUS
 70
0
 71
3
 72
15
 73
11
 74
0
 42
0.0000001
 43
0.0000001
 44
0.0000000001
 40
0.0
 40
0.0
 40
0.0
 40
0.0
 40
0.0867634565
 40
0.1840980908
 40
0.2973466029
 40
0.4263898291
 40
0.5674456746
 40
0.7145844919
 40
0.861042305
 40
1.0
 40
1.0
 40
1.0
 40
1.0
 10
37.6413420479
 20
201.7998587271
 30
0.0
 10
37.4886096748
 20
201.711677596
 30
0.0
 10
37.1146110959
 20
201.6042502204
 30
0.0
 10
36.5038995922
 20
201.6883465213
 30
0.0
 10
35.8705630267
 20
201.9808354877
 30
0.0
 10
35.2480169174
 20
202.4576908355
 30
0.0
 10
34.6738944198
 20
203.0870954497
 30
0.0
 10
34.1854459037
 20
203.8274900505
 30
0.0
 10
33.8159055016
 20
204.6287974499
 30
0.0
 10
33.6586992185
 20
205.1908623359
 30
0.0
 10
33.6093560603
 20
205.4689728156
 30
0.0
  0
SPLINE
  5
44F
100
AcDbEntity
  8
00_COMPONENTS
100
AcDbSpline
 62
7
  6
CONTINUOUS
 70
0
 71
3
 72
11
 73
7
 74
0
 42
0.0000001
 43
0.0000001
 44
0.0000000001
 40
0.0
 40
0.0
 40
0.0
 40
0.0
 40
0.2183857687
 40
0.4540782255
 40
0.7140345265
 40
1.0
 40
1.0
 40
1.0
 40
1.0
 10
37.9196220834
 20
201.5643827555
 30
0.0
 10
38.0189222694
 20
201.645775125
 30
0.0
 10
38.2002603226
 20
201.8474120698
 30
0.0
 10
38.3908685814
 20
202.2257810221
 30
0.0
 10
38.5043981243
 20
202.6740834599
 30
0.0
 10
38.5273047875
 20
202.9958284866
 30
0.0
 10
38.5273047875
 20
203.1639552943
 30
0.0
  0
SPLINE
  5
450
100
AcDbEntity
  8
00_COMPONENTS
100
AcDbSpline
 62
7
  6
CONTINUOUS
 70
0
 71
3
 72
11
 73
7
 74
0
 42
0.0000001
 43
0.0000001
 44
0.0000000001
 40
0.0
 40
0.0
 40
0.0
 40
0.0
 40
0.2177844739
 40
0.4518213888
 40
0.7113787883
 40
1.0
 40
1.0
 40
1.0
 40
1.0
 10
95.2710438232
 20
83.1426964969
 30
0.0
 10
95.0087954159
 20
83.0106980678
 30
0.0
 10
94.4149130024
 20
82.8281833585
 30
0.0
 10
93.4444697249
 20
82.8322448321
 30
0.0
 10
92.4147313675
 20
83.0956858684
 30
0.0
 10
91.7445108169
 20
83.4173906493
 30
0.0
 10
91.4075475651
 20
83.6119320724
 30
0.0
  0
SPLINE
  5
451
100
AcDbEntity
  8
00_COMPONENTS
100
AcDbSpline
 62
7
  6
CONTINUOUS
 70
0
 71
3
 72
9
 73
5
 74
0
 42
0.0000001
 43
0.0000001
 44
0.0000000001
 40
0.0
 40
0.0
 40
0.0
 40
0.0
 40
0.513872508
 40
1.0
 40
1.0
 40
1.0
 40
1.0
 10
106.0166671314
 20
44.3655385638
 30
0.0
 10
105.8373390949
 20
44.3729128387
 30
0.0
 10
105.4844439439
 20
44.3459091551
 30
0.0
 10
105.1528710568
 20
44.2181024779
 30
0.0
 10
105.005829151
 20
44.1332082744
 30
0.0
  0
SPLINE
  5
452
100
AcDbEntity
  8
00_COMPONENTS
100
AcDbSpline
 62
7
  6
CONTINUOUS
 70
0
 71
3
 72
11
 73
7
 74
0
 42
0.0000001
 43
0.0000001
 44
0.0000000001
 40
0.0
 40
0.0
 40
0.0
 40
0.0
 40
0.2177833598
 40
0.4509104088
 40
0.7102966711
 40
1.0
 40
1.0
 40
1.0
 40
1.0
 10
53.4370038056
 20
68.1322448882
 30
0.0
 10
53.6019367673
 20
68.2274684391
 30
0.0
 10
53.9105195597
 20
68.4868933771
 30
0.0
 10
54.2390425152
 20
69.0240433681
 30
0.0
 10
54.4341658311
 20
69.6860118535
 30
0.0
 10
54.4725760982
 20
70.1678122676
 30
0.0
 10
54.4725760982
 20
70.4211529895
 30
0.0
  0
SPLINE
  5
453
100
AcDbEntity
  8
00_COMPONENTS
100
AcDbSpline
 62
7
  6
CONTINUOUS
 70
0
 71
3
 72
11
 73
7
 74
0
 42
0.0000001
 43
0.0000001
 44
0.0000000001
 40
0.0
 40
0.0
 40
0.0
 40
0.0
 40
0.2177833598
 40
0.4509104088
 40
0.7102966711
 40
1.0
 40
1.0
 40
1.0
 40
1.0
 10
110.0057818174
 20
35.4729845265
 30
0.0
 10
110.1707147791
 20
35.5682080775
 30
0.0
 10
110.4792975715
 20
35.8276330154
 30
0.0
 10
110.807820527
 20
36.3647830065
 30
0.0
 10
111.0029438429
 20
37.0267514919
 30
0.0
 10
111.0413541099
 20
37.508551906
 30
0.0
 10
111.0413541099
 20
37.7618926279
 30
0.0
  0
SPLINE
  5
454
100
AcDbEntity
  8
00_COMPONENTS
100
AcDbSpline
 62
7
  6
CONTINUOUS
 70
0
 71
3
 72
9
 73
5
 74
0
 42
0.0000001
 43
0.0000001
 44
0.0000000001
 40
0.0
 40
0.0
 40
0.0
 40
0.0
 40
0.513872508
 40
1.0
 40
1.0
 40
1.0
 40
1.0
 10
49.4478891196
 20
77.0247989254
 30
0.0
 10
49.2685610832
 20
77.0321732004
 30
0.0
 10
48.9156659322
 20
77.0051695167
 30
0.0
 10
48.584093045
 20
76.8773628395
 30
0.0
 10
48.4370511393
 20
76.7924686361
 30
0.0
  0
SPLINE
  5
455
100
AcDbEntity
  8
00_COMPONENTS
100
AcDbSpline
 62
7
  6
CONTINUOUS
 70
0
 71
3
 72
11
 73
7
 74
0
 42
0.0000001
 43
0.0000001
 44
0.0000000001
 40
0.0
 40
0.0
 40
0.0
 40
0.0
 40
0.2177833598
 40
0.4509104088
 40
0.7102966711
 40
1.0
 40
1.0
 40
1.0
 40
1.0
 10
81.7213928115
 20
51.8026147073
 30
0.0
 10
81.8863257732
 20
51.8978382583
 30
0.0
 10
82.1949085656
 20
52.1572631963
 30
0.0
 10
82.5234315211
 20
52.6944131873
 30
0.0
 10
82.718554837
 20
53.3563816727
 30
0.0
 10
82.7569651041
 20
53.8381820868
 30
0.0
 10
82.7569651041
 20
54.0915228087
 30
0.0
  0
SPLINE
  5
456
100
AcDbEntity
  8
00_COMPONENTS
100
AcDbSpline
 62
7
  6
CONTINUOUS
 70
0
 71
3
 72
9
 73
5
 74
0
 42
0.0000001
 43
0.0000001
 44
0.0000000001
 40
0.0
 40
0.0
 40
0.0
 40
0.0
 40
0.2388981749
 40
1.0
 40
1.0
 40
1.0
 40
1.0
 10
38.5273047875
 20
203.1639552943
 30
0.0
 10
38.5273047875
 20
203.2323644991
 30
0.0
 10
38.5188702612
 20
203.5186974671
 30
0.0
 10
38.4791771721
 20
203.8037547339
 30
0.0
 10
38.4351609344
 20
204.0172074475
 30
0.0
  0
SPLINE
  5
457
100
AcDbEntity
  8
00_COMPONENTS
100
AcDbSpline
 62
7
  6
CONTINUOUS
 70
0
 71
3
 72
16
 73
12
 74
0
 42
0.0000001
 43
0.0000001
 44
0.0000000001
 40
0.0
 40
0.0
 40
0.0
 40
0.0
 40
0.1383798347
 40
0.282586945
 40
0.4270997845
 40
0.4977534979
 40
0.5664229111
 40
0.6954339402
 40
0.8107537582
 40
0.9113729645
 40
1.0
 40
1.0
 40
1.0
 40
1.0
 10
38.4191337782
 20
204.0920112288
 30
0.0
 10
38.3564188118
 20
204.3741561815
 30
0.0
 10
38.1792332803
 20
204.9401172797
 30
0.0
 10
37.7921906912
 20
205.7467412795
 30
0.0
 10
37.3759772573
 20
206.3746901117
 30
0.0
 10
36.9965600262
 20
206.8308732076
 30
0.0
 10
36.606062744
 20
207.2334772124
 30
0.0
 10
36.0963727308
 20
207.6484044439
 30
0.0
 10
35.4559284872
 20
207.9904976903
 30
0.0
 10
34.8307719413
 20
208.1463294895
 30
0.0
 10
34.4260871662
 20
208.1084655818
 30
0.0
 10
34.2497134445
 20
208.052258041
 30
0.0
  0
SPLINE
  5
458
100
AcDbEntity
  8
00_COMPONENTS
100
AcDbSpline
 62
7
  6
CONTINUOUS
 70
0
 71
3
 72
9
 73
5
 74
0
 42
0.0000001
 43
0.0000001
 44
0.0000000001
 40
0.0
 40
0.0
 40
0.0
 40
0.0
 40
0.2388981749
 40
1.0
 40
1.0
 40
1.0
 40
1.0
 10
113.198091763
 20
160.0537316169
 30
0.0
 10
113.198091763
 20
160.1221408218
 30
0.0
 10
113.1896572367
 20
160.4084737898
 30
0.0
 10
113.1499641476
 20
160.6935310565
 30
0.0
 10
113.1059479099
 20
160.9069837702
 30
0.0
  0
SPLINE
  5
459
100
AcDbEntity
  8
00_COMPONENTS
100
AcDbSpline
 62
7
  6
CONTINUOUS
 70
0
 71
3
 72
16
 73
12
 74
0
 42
0.0000001
 43
0.0000001
 44
0.0000000001
 40
0.0
 40
0.0
 40
0.0
 40
0.0
 40
0.1383798347
 40
0.282586945
 40
0.4270997845
 40
0.4977534979
 40
0.5664229111
 40
0.6954339402
 40
0.8107537582
 40
0.9113729645
 40
1.0
 40
1.0
 40
1.0
 40
1.0
 10
113.0899207537
 20
160.9817875515
 30
0.0
 10
113.0272057874
 20
161.2639325041
 30
0.0
 10
112.8500202558
 20
161.8298936024
 30
0.0
 10
112.4629776667
 20
162.6365176022
 30
0.0
 10
112.0467642328
 20
163.2644664344
 30
0.0
 10
111.6673470017
 20
163.7206495302
 30
0.0
 10
111.2768497195
 20
164.123253535
 30
0.0
 10
110.7671597063
 20
164.5381807665
 30
0.0
 10
110.1267154628
 20
164.8802740129
 30
0.0
 10
109.5015589169
 20
165.0361058122
 30
0.0
 10
109.0968741417
 20
164.9982419045
 30
0.0
 10
108.92050042
 20
164.9420343637
 30
0.0
  0
SPLINE
  5
45A
100
AcDbEntity
  8
00_COMPONENTS
100
AcDbSpline
 62
7
  6
CONTINUOUS
 70
0
 71
3
 72
9
 73
5
 74
0
 42
0.0000001
 43
0.0000001
 44
0.0000000001
 40
0.0
 40
0.0
 40
0.0
 40
0.0
 40
0.2388981749
 40
1.0
 40
1.0
 40
1.0
 40
1.0
 10
113.198091763
 20
77.6686377286
 30
0.0
 10
113.198091763
 20
77.7370469334
 30
0.0
 10
113.1896572367
 20
78.0233799014
 30
0.0
 10
113.1499641476
 20
78.3084371682
 30
0.0
 10
113.1059479099
 20
78.5218898818
 30
0.0
  0
SPLINE
  5
45B
100
AcDbEntity
  8
00_COMPONENTS
100
AcDbSpline
 62
7
  6
CONTINUOUS
 70
0
 71
3
 72
16
 73
12
 74
0
 42
0.0000001
 43
0.0000001
 44
0.0000000001
 40
0.0
 40
0.0
 40
0.0
 40
0.0
 40
0.1383798347
 40
0.282586945
 40
0.4270997845
 40
0.4977534979
 40
0.5664229111
 40
0.6954339402
 40
0.8107537582
 40
0.9113729645
 40
1.0
 40
1.0
 40
1.0
 40
1.0
 10
113.0899207537
 20
78.5966936631
 30
0.0
 10
113.0272057874
 20
78.8788386157
 30
0.0
 10
112.8500202558
 20
79.444799714
 30
0.0
 10
112.4629776667
 20
80.2514237138
 30
0.0
 10
112.0467642328
 20
80.879372546
 30
0.0
 10
111.6673470017
 20
81.3355556419
 30
0.0
 10
111.2768497195
 20
81.7381596466
 30
0.0
 10
110.7671597063
 20
82.1530868782
 30
0.0
 10
110.1267154628
 20
82.4951801245
 30
0.0
 10
109.5015589169
 20
82.6510119238
 30
0.0
 10
109.0968741417
 20
82.6131480161
 30
0.0
 10
108.92050042
 20
82.5569404753
 30
0.0
  0
SPLINE
  5
45C
100
AcDbEntity
  8
00_COMPONENTS
100
AcDbSpline
 62
7
  6
CONTINUOUS
 70
0
 71
3
 72
10
 73
6
 74
0
 42
0.0000001
 43
0.0000001
 44
0.0000000001
 40
0.0
 40
0.0
 40
0.0
 40
0.0
 40
0.5431920459
 40
0.7783564937
 40
1.0
 40
1.0
 40
1.0
 40
1.0
 10
72.0822061041
 20
94.7393848606
 30
0.0
 10
72.0914364921
 20
94.567341716
 30
0.0
 10
72.1415517807
 20
94.3155105143
 30
0.0
 10
72.3185752131
 20
94.0479913374
 30
0.0
 10
72.4330741878
 20
93.9546639739
 30
0.0
 10
72.4939572183
 20
93.9195139457
 30
0.0
  0
SPLINE
  5
45D
100
AcDbEntity
  8
00_COMPONENTS
100
AcDbSpline
 62
7
  6
CONTINUOUS
 70
0
 71
3
 72
10
 73
6
 74
0
 42
0.0000001
 43
0.0000001
 44
0.0000000001
 40
0.0
 40
0.0
 40
0.0
 40
0.0
 40
0.5431928516
 40
0.7783570802
 40
1.0
 40
1.0
 40
1.0
 40
1.0
 10
76.2383147084
 20
92.3399250193
 30
0.0
 10
76.0847051589
 20
92.2618911845
 30
0.0
 10
75.8415531405
 20
92.1793680322
 30
0.0
 10
75.5213568188
 20
92.1989072132
 30
0.0
 10
75.3832800389
 20
92.2514003426
 30
0.0
 10
75.3223961203
 20
92.2865509268
 30
0.0
  0
SPLINE
  5
45E
100
AcDbEntity
  8
00_COMPONENTS
100
AcDbSpline
 62
7
  6
CONTINUOUS
 70
0
 71
3
 72
11
 73
7
 74
0
 42
0.0000001
 43
0.0000001
 44
0.0000000001
 40
0.0
 40
0.0
 40
0.0
 40
0.0
 40
0.2897762172
 40
0.5490701576
 40
0.7822260326
 40
1.0
 40
1.0
 40
1.0
 40
1.0
 10
88.0952870146
 20
249.8674086499
 30
0.0
 10
88.0952870146
 20
250.2728586859
 30
0.0
 10
88.1565924294
 20
251.0437457432
 30
0.0
 10
88.4690104454
 20
252.1028430472
 30
0.0
 10
88.9945134514
 20
252.9622545793
 30
0.0
 10
89.4883288662
 20
253.3772930839
 30
0.0
 10
89.7522121263
 20
253.5296452551
 30
0.0
  0
SPLINE
  5
45F
100
AcDbEntity
  8
00_COMPONENTS
100
AcDbSpline
 62
7
  6
CONTINUOUS
 70
0
 71
3
 72
11
 73
7
 74
0
 42
0.0000001
 43
0.0000001
 44
0.0000000001
 40
0.0
 40
0.0
 40
0.0
 40
0.0
 40
0.2544038672
 40
0.516635734
 40
0.7700836647
 40
1.0
 40
1.0
 40
1.0
 40
1.0
 10
91.9257764918
 20
241.4737269457
 30
0.0
 10
91.35185934
 20
242.0311602388
 30
0.0
 10
90.3033634896
 20
243.2874266341
 30
0.0
 10
89.0976174958
 20
245.4014766681
 30
0.0
 10
88.3089207289
 20
247.6225614013
 30
0.0
 10
88.0952870146
 20
249.1443486003
 30
0.0
 10
88.0952870146
 20
249.8674086499
 30
0.0
  0
SPLINE
  5
460
100
AcDbEntity
  8
00_COMPONENTS
100
AcDbSpline
 62
7
  6
CONTINUOUS
 70
0
 71
3
 72
11
 73
7
 74
0
 42
0.0000001
 43
0.0000001
 44
0.0000000001
 40
0.0
 40
0.0
 40
0.0
 40
0.0
 40
0.2886221834
 40
0.5481799331
 40
0.7822164678
 40
1.0
 40
1.0
 40
1.0
 40
1.0
 10
26.0262468275
 20
188.2817627963
 30
0.0
 10
26.0262468275
 20
188.6708643377
 30
0.0
 10
26.082747277
 20
189.4121676729
 30
0.0
 10
26.3694699869
 20
190.435699801
 30
0.0
 10
26.8511829422
 20
191.2781840051
 30
0.0
 10
27.3061986657
 20
191.7012542511
 30
0.0
 10
27.5516434235
 20
191.8623713387
 30
0.0
  0
SPLINE
  5
461
100
AcDbEntity
  8
00_COMPONENTS
100
AcDbSpline
 62
7
  6
CONTINUOUS
 70
0
 71
3
 72
11
 73
7
 74
0
 42
0.0000001
 43
0.0000001
 44
0.0000000001
 40
0.0
 40
0.0
 40
0.0
 40
0.0
 40
0.2372196401
 40
0.4999989078
 40
0.76277877
 40
1.0
 40
1.0
 40
1.0
 40
1.0
 10
31.6803004853
 20
118.0946941475
 30
0.0
 10
30.8776309619
 20
118.5581051292
 30
0.0
 10
29.358194192
 20
119.8361337821
 30
0.0
 10
27.5852337097
 20
122.2591009246
 30
0.0
 10
26.373347901
 20
125.0060135379
 30
0.0
 10
26.0262468275
 20
126.9609040872
 30
0.0
 10
26.0262468275
 20
127.8877479882
 30
0.0
  0
SPLINE
  5
462
100
AcDbEntity
  8
00_COMPONENTS
100
AcDbSpline
 62
7
  6
CONTINUOUS
 70
0
 71
3
 72
9
 73
5
 74
0
 42
0.0000001
 43
0.0000001
 44
0.0000000001
 40
0.0
 40
0.0
 40
0.0
 40
0.0
 40
0.5137313691
 40
1.0
 40
1.0
 40
1.0
 40
1.0
 10
94.1119820616
 20
256.1436794728
 30
0.0
 10
94.2550495047
 20
256.414567117
 30
0.0
 10
94.5976833717
 20
256.9121983427
 30
0.0
 10
95.0700240761
 20
257.2927537322
 30
0.0
 10
95.3211707987
 20
257.4376955848
 30
0.0
  0
SPLINE
  5
463
100
AcDbEntity
  8
00_COMPONENTS
100
AcDbSpline
 62
7
  6
CONTINUOUS
 70
0
 71
3
 72
9
 73
5
 74
0
 42
0.0000001
 43
0.0000001
 44
0.0000000001
 40
0.0
 40
0.0
 40
0.0
 40
0.0
 40
0.2543914958
 40
1.0
 40
1.0
 40
1.0
 40
1.0
 10
95.4725005429
 20
257.4394710926
 30
0.0
 10
95.4955878851
 20
257.4800226202
 30
0.0
 10
95.5891472681
 20
257.6378087913
 30
0.0
 10
95.6941109561
 20
257.7888869794
 30
0.0
 10
95.7786369667
 20
257.8964075374
 30
0.0
  0
SPLINE
  5
464
100
AcDbEntity
  8
00_COMPONENTS
100
AcDbSpline
 62
7
  6
CONTINUOUS
 70
0
 71
3
 72
9
 73
5
 74
0
 42
0.0000001
 43
0.0000001
 44
0.0000000001
 40
0.0
 40
0.0
 40
0.0
 40
0.0
 40
0.2558556681
 40
1.0
 40
1.0
 40
1.0
 40
1.0
 10
95.7786369667
 20
257.8964075374
 30
0.0
 10
95.8397640223
 20
257.9741636633
 30
0.0
 10
96.091314459
 20
258.2678455591
 30
0.0
 10
96.3966745996
 20
258.5160089046
 30
0.0
 10
96.6439587003
 20
258.662985133
 30
0.0
  0
SPLINE
  5
465
100
AcDbEntity
  8
00_COMPONENTS
100
AcDbSpline
 62
7
  6
CONTINUOUS
 70
0
 71
3
 72
9
 73
5
 74
0
 42
0.0000001
 43
0.0000001
 44
0.0000000001
 40
0.0
 40
0.0
 40
0.0
 40
0.0
 40
0.2558913949
 40
1.0
 40
1.0
 40
1.0
 40
1.0
 10
34.3164598975
 20
205.8772169695
 30
0.0
 10
34.3097571131
 20
205.9149955525
 30
0.0
 10
34.2855472983
 20
206.0629712243
 30
0.0
 10
34.2694163361
 20
206.2123053022
 30
0.0
 10
34.2626560886
 20
206.3236726333
 30
0.0
  0
SPLINE
  5
466
100
AcDbEntity
  8
00_COMPONENTS
100
AcDbSpline
 62
7
  6
CONTINUOUS
 70
0
 71
3
 72
17
 73
13
 74
0
 42
0.0000001
 43
0.0000001
 44
0.0000000001
 40
0.0
 40
0.0
 40
0.0
 40
0.0
 40
0.128688864
 40
0.2702797703
 40
0.4174318348
 40
0.5617733576
 40
0.6954455149
 40
0.8127096012
 40
0.8646749146
 40
0.9125085807
 40
0.9571389861
 40
1.0
 40
1.0
 40
1.0
 40
1.0
 10
54.4725760982
 20
219.8410953242
 30
0.0
 10
54.4725760982
 20
220.2684698761
 30
0.0
 10
54.3530110941
 20
221.1670897975
 30
0.0
 10
53.9067763202
 20
222.4865138487
 30
0.0
 10
53.219129089
 20
223.7575265356
 30
0.0
 10
52.3453774897
 20
224.8759192397
 30
0.0
 10
51.3569038151
 20
225.7513566551
 30
0.0
 10
50.4621978064
 20
226.2405822666
 30
0.0
 10
49.7623146718
 20
226.426745821
 30
0.0
 10
49.2806225077
 20
226.4622149701
 30
0.0
 10
48.8320874321
 20
226.3964784593
 30
0.0
 10
48.5603342122
 20
226.2835611551
 30
0.0
 10
48.4370913539
 20
226.2123419915
 30
0.0
  0
SPLINE
  5
467
100
AcDbEntity
  8
00_COMPONENTS
100
AcDbSpline
 62
7
  6
CONTINUOUS
 70
0
 71
3
 72
9
 73
5
 74
0
 42
0.0000001
 43
0.0000001
 44
0.0000000001
 40
0.0
 40
0.0
 40
0.0
 40
0.0
 40
0.2558913949
 40
1.0
 40
1.0
 40
1.0
 40
1.0
 10
108.9872468731
 20
162.7669932922
 30
0.0
 10
108.9805440886
 20
162.8047718752
 30
0.0
 10
108.9563342738
 20
162.9527475469
 30
0.0
 10
108.9402033116
 20
163.1020816248
 30
0.0
 10
108.9334430641
 20
163.213448956
 30
0.0
  0
SPLINE
  5
468
100
AcDbEntity
  8
00_COMPONENTS
100
AcDbSpline
 62
7
  6
CONTINUOUS
 70
0
 71
3
 72
9
 73
5
 74
0
 42
0.0000001
 43
0.0000001
 44
0.0000000001
 40
0.0
 40
0.0
 40
0.0
 40
0.0
 40
0.492065888
 40
1.0
 40
1.0
 40
1.0
 40
1.0
 10
77.0828925465
 20
232.9109775459
 30
0.0
 10
76.9056205623
 20
233.5888870532
 30
0.0
 10
76.4223411964
 20
234.9360386649
 30
0.0
 10
75.7391229048
 20
236.1923242887
 30
0.0
 10
75.3462829625
 20
236.7996470008
 30
0.0
  0
SPLINE
  5
469
100
AcDbEntity
  8
00_COMPONENTS
100
AcDbSpline
 62
7
  6
CONTINUOUS
 70
0
 71
3
 72
9
 73
5
 74
0
 42
0.0000001
 43
0.0000001
 44
0.0000000001
 40
0.0
 40
0.0
 40
0.0
 40
0.0
 40
0.2558913949
 40
1.0
 40
1.0
 40
1.0
 40
1.0
 10
108.9872468731
 20
80.3818994038
 30
0.0
 10
108.9805440886
 20
80.4196779868
 30
0.0
 10
108.9563342738
 20
80.5676536586
 30
0.0
 10
108.9402033116
 20
80.7169877365
 30
0.0
 10
108.9334430641
 20
80.8283550676
 30
0.0
  0
SPLINE
  5
46A
100
AcDbEntity
  8
00_COMPONENTS
100
AcDbSpline
 62
7
  6
CONTINUOUS
 70
0
 71
3
 72
9
 73
5
 74
0
 42
0.0000001
 43
0.0000001
 44
0.0000000001
 40
0.0
 40
0.0
 40
0.0
 40
0.0
 40
0.2742054947
 40
1.0
 40
1.0
 40
1.0
 40
1.0
 10
67.9428264764
 20
238.3938818515
 30
0.0
 10
67.9428264764
 20
238.6303700028
 30
0.0
 10
67.9819694347
 20
239.4905174684
 30
0.0
 10
68.1945401603
 20
240.3562820466
 30
0.0
 10
68.4862603314
 20
240.9101104078
 30
0.0
  0
SPLINE
  5
46B
100
AcDbEntity
  8
00_COMPONENTS
100
AcDbSpline
 62
7
  6
CONTINUOUS
 70
0
 71
3
 72
9
 73
5
 74
0
 42
0.0000001
 43
0.0000001
 44
0.0000000001
 40
0.0
 40
0.0
 40
0.0
 40
0.0
 40
0.5135169721
 40
1.0
 40
1.0
 40
1.0
 40
1.0
 10
68.4862603314
 20
240.9101104078
 30
0.0
 10
68.6146714126
 20
241.1538977961
 30
0.0
 10
68.9187157232
 20
241.6035115422
 30
0.0
 10
69.3334010098
 20
241.9565896581
 30
0.0
 10
69.5544691988
 20
242.095396061
 30
0.0
  0
SPLINE
  5
46C
100
AcDbEntity
  8
00_COMPONENTS
100
AcDbSpline
 62
7
  6
CONTINUOUS
 70
0
 71
3
 72
11
 73
7
 74
0
 42
0.0000001
 43
0.0000001
 44
0.0000000001
 40
0.0
 40
0.0
 40
0.0
 40
0.0
 40
0.2897762172
 40
0.5490701576
 40
0.7822260326
 40
1.0
 40
1.0
 40
1.0
 40
1.0
 10
116.3796760204
 20
233.5377784691
 30
0.0
 10
116.3796760204
 20
233.9432285051
 30
0.0
 10
116.4409814353
 20
234.7141155624
 30
0.0
 10
116.7533994513
 20
235.7732128664
 30
0.0
 10
117.2789024573
 20
236.6326243985
 30
0.0
 10
117.7727178721
 20
237.0476629031
 30
0.0
 10
118.0366011322
 20
237.2000150743
 30
0.0
  0
SPLINE
  5
46D
100
AcDbEntity
  8
00_COMPONENTS
100
AcDbSpline
 62
7
  6
CONTINUOUS
 70
0
 71
3
 72
11
 73
7
 74
0
 42
0.0000001
 43
0.0000001
 44
0.0000000001
 40
0.0
 40
0.0
 40
0.0
 40
0.0
 40
0.2544038672
 40
0.516635734
 40
0.7700836647
 40
1.0
 40
1.0
 40
1.0
 40
1.0
 10
120.2101654976
 20
225.1440967648
 30
0.0
 10
119.6362483459
 20
225.701530058
 30
0.0
 10
118.5877524955
 20
226.9577964533
 30
0.0
 10
117.3820065017
 20
229.0718464873
 30
0.0
 10
116.5933097348
 20
231.2929312205
 30
0.0
 10
116.3796760204
 20
232.8147184195
 30
0.0
 10
116.3796760204
 20
233.5377784691
 30
0.0
  0
SPLINE
  5
46E
100
AcDbEntity
  8
00_COMPONENTS
100
AcDbSpline
 62
7
  6
CONTINUOUS
 70
0
 71
3
 72
13
 73
9
 74
0
 42
0.0000001
 43
0.0000001
 44
0.0000000001
 40
0.0
 40
0.0
 40
0.0
 40
0.0
 40
0.305828575
 40
0.5829589594
 40
0.7041501503
 40
0.8123955768
 40
0.909507071
 40
1.0
 40
1.0
 40
1.0
 40
1.0
 10
95.5357158288
 20
194.0573449444
 30
0.0
 10
95.3542368593
 20
194.3839226257
 30
0.0
 10
94.9380056338
 20
194.9697212478
 30
0.0
 10
94.277465635
 20
195.5409710974
 30
0.0
 10
93.7189563234
 20
195.815365271
 30
0.0
 10
93.3286211598
 20
195.9140645015
 30
0.0
 10
92.9621692072
 20
195.9081149318
 30
0.0
 10
92.7415249385
 20
195.828674049
 30
0.0
 10
92.6457832827
 20
195.7734028227
 30
0.0
  0
SPLINE
  5
46F
100
AcDbEntity
  8
00_COMPONENTS
100
AcDbSpline
 62
7
  6
CONTINUOUS
 70
0
 71
3
 72
9
 73
5
 74
0
 42
0.0000001
 43
0.0000001
 44
0.0000000001
 40
0.0
 40
0.0
 40
0.0
 40
0.0
 40
0.5137313691
 40
1.0
 40
1.0
 40
1.0
 40
1.0
 10
122.3963710675
 20
239.814049292
 30
0.0
 10
122.5394385106
 20
240.0849369362
 30
0.0
 10
122.8820723776
 20
240.5825681619
 30
0.0
 10
123.354413082
 20
240.9631235513
 30
0.0
 10
123.6055598046
 20
241.108065404
 30
0.0
  0
SPLINE
  5
470
100
AcDbEntity
  8
00_COMPONENTS
100
AcDbSpline
 62
7
  6
CONTINUOUS
 70
0
 71
3
 72
9
 73
5
 74
0
 42
0.0000001
 43
0.0000001
 44
0.0000000001
 40
0.0
 40
0.0
 40
0.0
 40
0.0
 40
0.2742054947
 40
1.0
 40
1.0
 40
1.0
 40
1.0
 10
124.5116044881
 20
205.7346214899
 30
0.0
 10
124.5116044881
 20
205.9711096412
 30
0.0
 10
124.5507474465
 20
206.8312571068
 30
0.0
 10
124.7633181721
 20
207.697021685
 30
0.0
 10
125.0550383432
 20
208.2508500461
 30
0.0
  0
SPLINE
  5
471
100
AcDbEntity
  8
00_COMPONENTS
100
AcDbSpline
 62
7
  6
CONTINUOUS
 70
0
 71
3
 72
9
 73
5
 74
0
 42
0.0000001
 43
0.0000001
 44
0.0000000001
 40
0.0
 40
0.0
 40
0.0
 40
0.0
 40
0.5135169721
 40
1.0
 40
1.0
 40
1.0
 40
1.0
 10
125.0550383432
 20
208.2508500461
 30
0.0
 10
125.1834494243
 20
208.4946374345
 30
0.0
 10
125.487493735
 20
208.9442511805
 30
0.0
 10
125.9021790215
 20
209.2973292965
 30
0.0
 10
126.1232472105
 20
209.4361356994
 30
0.0
  0
SPLINE
  5
472
100
AcDbEntity
  8
00_COMPONENTS
100
AcDbSpline
 62
7
  6
CONTINUOUS
 70
0
 71
3
 72
9
 73
5
 74
0
 42
0.0000001
 43
0.0000001
 44
0.0000000001
 40
0.0
 40
0.0
 40
0.0
 40
0.0
 40
0.492065888
 40
1.0
 40
1.0
 40
1.0
 40
1.0
 10
133.6516705583
 20
200.2517171843
 30
0.0
 10
133.4743985741
 20
200.9296266915
 30
0.0
 10
132.9911192081
 20
202.2767783033
 30
0.0
 10
132.3079009166
 20
203.5330639271
 30
0.0
 10
131.9150609742
 20
204.1403866392
 30
0.0
  0
SPLINE
  5
473
100
AcDbEntity
  8
00_COMPONENTS
100
AcDbSpline
 62
7
  6
CONTINUOUS
 70
0
 71
3
 72
9
 73
5
 74
0
 42
0.0000001
 43
0.0000001
 44
0.0000000001
 40
0.0
 40
0.0
 40
0.0
 40
0.0
 40
0.2543914958
 40
1.0
 40
1.0
 40
1.0
 40
1.0
 10
123.7568895488
 20
241.1098409118
 30
0.0
 10
123.779976891
 20
241.1503924393
 30
0.0
 10
123.873536274
 20
241.3081786105
 30
0.0
 10
123.978499962
 20
241.4592567986
 30
0.0
 10
124.0630259726
 20
241.5667773566
 30
0.0
  0
SPLINE
  5
474
100
AcDbEntity
  8
00_COMPONENTS
100
AcDbSpline
 62
7
  6
CONTINUOUS
 70
0
 71
3
 72
9
 73
5
 74
0
 42
0.0000001
 43
0.0000001
 44
0.0000000001
 40
0.0
 40
0.0
 40
0.0
 40
0.0
 40
0.2558556681
 40
1.0
 40
1.0
 40
1.0
 40
1.0
 10
124.0630259726
 20
241.5667773566
 30
0.0
 10
124.1241530282
 20
241.6445334825
 30
0.0
 10
124.3757034649
 20
241.9382153783
 30
0.0
 10
124.6810636055
 20
242.1863787238
 30
0.0
 10
124.9283477062
 20
242.3333549522
 30
0.0
  0
SPLINE
  5
475
100
AcDbEntity
  8
00_COMPONENTS
100
AcDbSpline
 62
7
  6
CONTINUOUS
 70
0
 71
3
 72
17
 73
13
 74
0
 42
0.0000001
 43
0.0000001
 44
0.0000000001
 40
0.0
 40
0.0
 40
0.0
 40
0.0
 40
0.128688864
 40
0.2702797703
 40
0.4174318348
 40
0.5617733576
 40
0.6954455149
 40
0.8127096012
 40
0.8646749146
 40
0.9125085807
 40
0.9571389861
 40
1.0
 40
1.0
 40
1.0
 40
1.0
 10
111.0413541099
 20
187.1818349626
 30
0.0
 10
111.0413541099
 20
187.6092095145
 30
0.0
 10
110.9217891058
 20
188.5078294359
 30
0.0
 10
110.4755543319
 20
189.8272534871
 30
0.0
 10
109.7879071008
 20
191.0982661739
 30
0.0
 10
108.9141555014
 20
192.2166588781
 30
0.0
 10
107.9256818269
 20
193.0920962935
 30
0.0
 10
107.0309758182
 20
193.581321905
 30
0.0
 10
106.3310926835
 20
193.7674854594
 30
0.0
 10
105.8494005195
 20
193.8029546084
 30
0.0
 10
105.4008654439
 20
193.7372180976
 30
0.0
 10
105.129112224
 20
193.6243007935
 30
0.0
 10
105.0058693657
 20
193.5530816298
 30
0.0
  0
SPLINE
  5
476
100
AcDbEntity
  8
00_COMPONENTS
100
AcDbSpline
 62
7
  6
CONTINUOUS
 70
0
 71
3
 72
9
 73
5
 74
0
 42
0.0000001
 43
0.0000001
 44
0.0000000001
 40
0.0
 40
0.0
 40
0.0
 40
0.0
 40
0.2543914958
 40
1.0
 40
1.0
 40
1.0
 40
1.0
 10
152.0412785547
 20
224.780210731
 30
0.0
 10
152.0643658969
 20
224.8207622585
 30
0.0
 10
152.1579252798
 20
224.9785484296
 30
0.0
 10
152.2628889679
 20
225.1296266178
 30
0.0
 10
152.3474149785
 20
225.2371471758
 30
0.0
  0
SPLINE
  5
477
100
AcDbEntity
  8
00_COMPONENTS
100
AcDbSpline
 62
7
  6
CONTINUOUS
 70
0
 71
3
 72
9
 73
5
 74
0
 42
0.0000001
 43
0.0000001
 44
0.0000000001
 40
0.0
 40
0.0
 40
0.0
 40
0.0
 40
0.2558556681
 40
1.0
 40
1.0
 40
1.0
 40
1.0
 10
152.3474149785
 20
225.2371471758
 30
0.0
 10
152.4085420341
 20
225.3149033017
 30
0.0
 10
152.6600924708
 20
225.6085851975
 30
0.0
 10
152.9654526114
 20
225.856748543
 30
0.0
 10
153.212736712
 20
226.0037247714
 30
0.0
  0
SPLINE
  5
478
100
AcDbEntity
  8
00_COMPONENTS
100
AcDbSpline
 62
7
  6
CONTINUOUS
 70
0
 71
3
 72
9
 73
5
 74
0
 42
0.0000001
 43
0.0000001
 44
0.0000000001
 40
0.0
 40
0.0
 40
0.0
 40
0.0
 40
0.5137313691
 40
1.0
 40
1.0
 40
1.0
 40
1.0
 10
150.6807600734
 20
223.4844191112
 30
0.0
 10
150.8238275165
 20
223.7553067554
 30
0.0
 10
151.1664613834
 20
224.252937981
 30
0.0
 10
151.6388020879
 20
224.6334933705
 30
0.0
 10
151.8899488105
 20
224.7784352232
 30
0.0
  0
SPLINE
  5
479
100
AcDbEntity
  8
00_COMPONENTS
100
AcDbSpline
 62
7
  6
CONTINUOUS
 70
0
 71
3
 72
11
 73
7
 74
0
 42
0.0000001
 43
0.0000001
 44
0.0000000001
 40
0.0
 40
0.0
 40
0.0
 40
0.0
 40
0.2544038672
 40
0.516635734
 40
0.7700836647
 40
1.0
 40
1.0
 40
1.0
 40
1.0
 10
148.4945545035
 20
208.814466584
 30
0.0
 10
147.9206373518
 20
209.3718998772
 30
0.0
 10
146.8721415013
 20
210.6281662725
 30
0.0
 10
145.6663955075
 20
212.7422163065
 30
0.0
 10
144.8776987406
 20
214.9633010397
 30
0.0
 10
144.6640650263
 20
216.4850882387
 30
0.0
 10
144.6640650263
 20
217.2081482883
 30
0.0
  0
SPLINE
  5
47A
100
AcDbEntity
  8
00_COMPONENTS
100
AcDbSpline
 62
7
  6
CONTINUOUS
 70
0
 71
3
 72
11
 73
7
 74
0
 42
0.0000001
 43
0.0000001
 44
0.0000000001
 40
0.0
 40
0.0
 40
0.0
 40
0.0
 40
0.2897762172
 40
0.5490701576
 40
0.7822260326
 40
1.0
 40
1.0
 40
1.0
 40
1.0
 10
144.6640650263
 20
217.2081482883
 30
0.0
 10
144.6640650263
 20
217.6135983243
 30
0.0
 10
144.7253704411
 20
218.3844853815
 30
0.0
 10
145.0377884571
 20
219.4435826856
 30
0.0
 10
145.5632914632
 20
220.3029942177
 30
0.0
 10
146.057106878
 20
220.7180327223
 30
0.0
 10
146.3209901381
 20
220.8703848935
 30
0.0
  0
SPLINE
  5
47B
100
AcDbEntity
  8
00_COMPONENTS
100
AcDbSpline
 62
7
  6
CONTINUOUS
 70
0
 71
3
 72
13
 73
9
 74
0
 42
0.0000001
 43
0.0000001
 44
0.0000000001
 40
0.0
 40
0.0
 40
0.0
 40
0.0
 40
0.305828575
 40
0.5829589594
 40
0.7041501503
 40
0.8123955768
 40
0.909507071
 40
1.0
 40
1.0
 40
1.0
 40
1.0
 10
67.2513268229
 20
210.3869751252
 30
0.0
 10
67.0698478534
 20
210.7135528065
 30
0.0
 10
66.6536166279
 20
211.2993514286
 30
0.0
 10
65.9930766291
 20
211.8706012782
 30
0.0
 10
65.4345673175
 20
212.1449954518
 30
0.0
 10
65.0442321539
 20
212.2436946823
 30
0.0
 10
64.6777802013
 20
212.2377451126
 30
0.0
 10
64.4571359326
 20
212.1583042298
 30
0.0
 10
64.3613942768
 20
212.1030330035
 30
0.0
  0
SPLINE
  5
47C
100
AcDbEntity
  8
00_COMPONENTS
100
AcDbSpline
 62
7
  6
CONTINUOUS
 70
0
 71
3
 72
17
 73
13
 74
0
 42
0.0000001
 43
0.0000001
 44
0.0000000001
 40
0.0
 40
0.0
 40
0.0
 40
0.0
 40
0.128688864
 40
0.2702797703
 40
0.4174318348
 40
0.5617733576
 40
0.6954455149
 40
0.8127096012
 40
0.8646749146
 40
0.9125085807
 40
0.9571389861
 40
1.0
 40
1.0
 40
1.0
 40
1.0
 10
82.7569651041
 20
203.5114651434
 30
0.0
 10
82.7569651041
 20
203.9388396953
 30
0.0
 10
82.6374000999
 20
204.8374596167
 30
0.0
 10
82.191165326
 20
206.1568836679
 30
0.0
 10
81.5035180949
 20
207.4278963548
 30
0.0
 10
80.6297664955
 20
208.5462890589
 30
0.0
 10
79.641292821
 20
209.4217264743
 30
0.0
 10
78.7465868123
 20
209.9109520858
 30
0.0
 10
78.0467036777
 20
210.0971156402
 30
0.0
 10
77.5650115136
 20
210.1325847893
 30
0.0
 10
77.116476438
 20
210.0668482784
 30
0.0
 10
76.8447232181
 20
209.9539309743
 30
0.0
 10
76.7214803598
 20
209.8827118107
 30
0.0
  0
SPLINE
  5
47D
100
AcDbEntity
  8
00_COMPONENTS
100
AcDbSpline
 62
7
  6
CONTINUOUS
 70
0
 71
3
 72
9
 73
5
 74
0
 42
0.0000001
 43
0.0000001
 44
0.0000000001
 40
0.0
 40
0.0
 40
0.0
 40
0.0
 40
0.2742054947
 40
1.0
 40
1.0
 40
1.0
 40
1.0
 10
96.2272154823
 20
222.0642516707
 30
0.0
 10
96.2272154823
 20
222.300739822
 30
0.0
 10
96.2663584406
 20
223.1608872876
 30
0.0
 10
96.4789291662
 20
224.0266518658
 30
0.0
 10
96.7706493373
 20
224.5804802269
 30
0.0
  0
SPLINE
  5
47E
100
AcDbEntity
  8
00_COMPONENTS
100
AcDbSpline
 62
7
  6
CONTINUOUS
 70
0
 71
3
 72
9
 73
5
 74
0
 42
0.0000001
 43
0.0000001
 44
0.0000000001
 40
0.0
 40
0.0
 40
0.0
 40
0.0
 40
0.5135169721
 40
1.0
 40
1.0
 40
1.0
 40
1.0
 10
96.7706493373
 20
224.5804802269
 30
0.0
 10
96.8990604185
 20
224.8242676153
 30
0.0
 10
97.2031047291
 20
225.2738813614
 30
0.0
 10
97.6177900157
 20
225.6269594773
 30
0.0
 10
97.8388582046
 20
225.7657658802
 30
0.0
  0
SPLINE
  5
47F
100
AcDbEntity
  8
00_COMPONENTS
100
AcDbSpline
 62
7
  6
CONTINUOUS
 70
0
 71
3
 72
9
 73
5
 74
0
 42
0.0000001
 43
0.0000001
 44
0.0000000001
 40
0.0
 40
0.0
 40
0.0
 40
0.0
 40
0.492065888
 40
1.0
 40
1.0
 40
1.0
 40
1.0
 10
105.3672815524
 20
216.5813473651
 30
0.0
 10
105.1900095682
 20
217.2592568723
 30
0.0
 10
104.7067302023
 20
218.6064084841
 30
0.0
 10
104.0235119107
 20
219.8626941079
 30
0.0
 10
103.6306719683
 20
220.47001682
 30
0.0
  0
SPLINE
  5
480
100
AcDbEntity
  8
00_COMPONENTS
100
AcDbSpline
 62
7
  6
CONTINUOUS
 70
0
 71
3
 72
11
 73
7
 74
0
 42
0.0000001
 43
0.0000001
 44
0.0000000001
 40
0.0
 40
0.0
 40
0.0
 40
0.0
 40
0.217855615
 40
0.4509836771
 40
0.7102468026
 40
1.0
 40
1.0
 40
1.0
 40
1.0
 10
124.0886585791
 20
208.2636511652
 30
0.0
 10
123.8181047684
 20
208.107381366
 30
0.0
 10
123.3117324555
 20
207.6820840104
 30
0.0
 10
122.7733527364
 20
206.800949669
 30
0.0
 10
122.4530761352
 20
205.7155456519
 30
0.0
 10
122.3902929765
 20
204.9254435609
 30
0.0
 10
122.3902929765
 20
204.5098890283
 30
0.0
  0
SPLINE
  5
481
100
AcDbEntity
  8
00_COMPONENTS
100
AcDbSpline
 62
7
  6
CONTINUOUS
 70
0
 71
3
 72
11
 73
7
 74
0
 42
0.0000001
 43
0.0000001
 44
0.0000000001
 40
0.0
 40
0.0
 40
0.0
 40
0.0
 40
0.2177660095
 40
0.4508968553
 40
0.7103699668
 40
1.0
 40
1.0
 40
1.0
 40
1.0
 10
105.0058693657
 20
193.5530816298
 30
0.0
 10
104.8409879173
 20
193.4578004994
 30
0.0
 10
104.5322387279
 20
193.1986299276
 30
0.0
 10
104.2037600683
 20
192.66130888
 30
0.0
 10
104.0087564987
 20
191.99932135
 30
0.0
 10
103.9702568585
 20
191.5175182895
 30
0.0
 10
103.9702568585
 20
191.2642425078
 30
0.0
  0
SPLINE
  5
482
100
AcDbEntity
  8
00_COMPONENTS
100
AcDbSpline
 62
7
  6
CONTINUOUS
 70
0
 71
3
 72
11
 73
7
 74
0
 42
0.0000001
 43
0.0000001
 44
0.0000000001
 40
0.0
 40
0.0
 40
0.0
 40
0.0
 40
0.2177833598
 40
0.4509104088
 40
0.7102966711
 40
1.0
 40
1.0
 40
1.0
 40
1.0
 10
48.4370511393
 20
76.7924686361
 30
0.0
 10
48.2721181775
 20
76.6972450851
 30
0.0
 10
47.9635353852
 20
76.4378201471
 30
0.0
 10
47.6350124296
 20
75.9006701561
 30
0.0
 10
47.4398891137
 20
75.2387016707
 30
0.0
 10
47.4014788467
 20
74.7569012566
 30
0.0
 10
47.4014788467
 20
74.5035605347
 30
0.0
  0
SPLINE
  5
483
100
AcDbEntity
  8
00_COMPONENTS
100
AcDbSpline
 62
7
  6
CONTINUOUS
 70
0
 71
3
 72
11
 73
7
 74
0
 42
0.0000001
 43
0.0000001
 44
0.0000000001
 40
0.0
 40
0.0
 40
0.0
 40
0.0
 40
0.2201189527
 40
0.457697894
 40
0.7172795409
 40
1.0
 40
1.0
 40
1.0
 40
1.0
 10
54.6164688917
 20
64.3423545138
 30
0.0
 10
54.3422571781
 20
64.2763512809
 30
0.0
 10
53.7524508892
 20
64.2135986757
 30
0.0
 10
52.8337708441
 20
64.3221944241
 30
0.0
 10
51.875847576
 20
64.6230388779
 30
0.0
 10
51.2507522783
 20
64.9327100044
 30
0.0
 10
50.9370274724
 20
65.1138350079
 30
0.0
  0
SPLINE
  5
484
100
AcDbEntity
  8
00_COMPONENTS
100
AcDbSpline
 62
7
  6
CONTINUOUS
 70
0
 71
3
 72
16
 73
12
 74
0
 42
0.0000001
 43
0.0000001
 44
0.0000000001
 40
0.0
 40
0.0
 40
0.0
 40
0.0
 40
0.0918792654
 40
0.1434128811
 40
0.1989615982
 40
0.3213879432
 40
0.4562074702
 40
0.5979441203
 40
0.7400673761
 40
0.8759626323
 40
1.0
 40
1.0
 40
1.0
 40
1.0
 10
82.6575044358
 20
197.2868203806
 30
0.0
 10
82.1442265022
 20
197.2089255155
 30
0.0
 10
81.3119567178
 20
197.2692272612
 30
0.0
 10
80.2384493944
 20
197.6066962942
 30
0.0
 10
79.0615933596
 20
198.1611615414
 30
0.0
 10
77.6130558565
 20
199.1984048444
 30
0.0
 10
76.0424387252
 20
200.8294753066
 30
0.0
 10
74.6863131023
 20
202.7794189041
 30
0.0
 10
73.6366107819
 20
204.9168385249
 30
0.0
 10
72.9636149175
 20
207.0963968318
 30
0.0
 10
72.7867179795
 20
208.5667985879
 30
0.0
 10
72.7867179795
 20
209.2676597821
 30
0.0
  0
SPLINE
  5
485
100
AcDbEntity
  8
00_COMPONENTS
100
AcDbSpline
 62
7
  6
CONTINUOUS
 70
0
 71
3
 72
16
 73
12
 74
0
 42
0.0000001
 43
0.0000001
 44
0.0000000001
 40
0.0
 40
0.0
 40
0.0
 40
0.0
 40
0.0918792654
 40
0.1434128811
 40
0.1989615982
 40
0.3213879432
 40
0.4562074702
 40
0.5979441203
 40
0.7400673761
 40
0.8759626323
 40
1.0
 40
1.0
 40
1.0
 40
1.0
 10
110.9418934416
 20
180.9571901998
 30
0.0
 10
110.4286155081
 20
180.8792953347
 30
0.0
 10
109.5963457237
 20
180.9395970804
 30
0.0
 10
108.5228384003
 20
181.2770661134
 30
0.0
 10
107.3459823655
 20
181.8315313606
 30
0.0
 10
105.8974448624
 20
182.8687746636
 30
0.0
 10
104.3268277311
 20
184.4998451258
 30
0.0
 10
102.9707021082
 20
186.4497887233
 30
0.0
 10
101.9209997878
 20
188.5872083441
 30
0.0
 10
101.2480039234
 20
190.766766651
 30
0.0
 10
101.0711069854
 20
192.2371684071
 30
0.0
 10
101.0711069854
 20
192.9380296013
 30
0.0
  0
SPLINE
  5
486
100
AcDbEntity
  8
00_COMPONENTS
100
AcDbSpline
 62
7
  6
CONTINUOUS
 70
0
 71
3
 72
16
 73
12
 74
0
 42
0.0000001
 43
0.0000001
 44
0.0000000001
 40
0.0
 40
0.0
 40
0.0
 40
0.0
 40
0.0431347005
 40
0.0875646143
 40
0.1841184079
 40
0.2953613013
 40
0.4218413348
 40
0.5607906978
 40
0.70740565
 40
0.8558439373
 40
1.0
 40
1.0
 40
1.0
 40
1.0
 10
95.3211707987
 20
257.4376955848
 30
0.0
 10
95.500549151
 20
257.5412184596
 30
0.0
 10
95.8889510928
 20
257.712031598
 30
0.0
 10
96.7605170544
 20
257.89082529
 30
0.0
 10
97.9926806189
 20
257.7723304744
 30
0.0
 10
99.4914359487
 20
257.1562472123
 30
0.0
 10
100.9861159432
 20
256.1177815303
 30
0.0
 10
102.3951107369
 20
254.7169171045
 30
0.0
 10
103.6389444678
 20
253.0357036584
 30
0.0
 10
104.6435816757
 20
251.1740457073
 30
0.0
 10
105.1282136218
 20
249.8484943745
 30
0.0
 10
105.311531809
 20
249.1810585559
 30
0.0
  0
SPLINE
  5
487
100
AcDbEntity
  8
00_COMPONENTS
100
AcDbSpline
 62
7
  6
CONTINUOUS
 70
0
 71
3
 72
11
 73
7
 74
0
 42
0.0000001
 43
0.0000001
 44
0.0000000001
 40
0.0
 40
0.0
 40
0.0
 40
0.0
 40
0.217774924
 40
0.4509311967
 40
0.710224778
 40
1.0
 40
1.0
 40
1.0
 40
1.0
 10
118.0366011322
 20
237.2000150743
 30
0.0
 10
118.3004784969
 20
237.3523638418
 30
0.0
 10
118.9068053933
 20
237.5724951629
 30
0.0
 10
119.9138030414
 20
237.5978929759
 30
0.0
 10
120.9871891849
 20
237.3389223365
 30
0.0
 10
121.6854323974
 20
237.0065872327
 30
0.0
 10
122.0365538216
 20
236.80387177
 30
0.0
  0
SPLINE
  5
488
100
AcDbEntity
  8
00_COMPONENTS
100
AcDbSpline
 62
7
  6
CONTINUOUS
 70
0
 71
3
 72
11
 73
7
 74
0
 42
0.0000001
 43
0.0000001
 44
0.0000000001
 40
0.0
 40
0.0
 40
0.0
 40
0.0
 40
0.2177239861
 40
0.4508730345
 40
0.7104683317
 40
1.0
 40
1.0
 40
1.0
 40
1.0
 10
92.6457832827
 20
195.7734028227
 30
0.0
 10
92.5517965293
 20
195.7191446936
 30
0.0
 10
92.3757954659
 20
195.5714486248
 30
0.0
 10
92.1885033763
 20
195.2651472189
 30
0.0
 10
92.0774911411
 20
194.8877570788
 30
0.0
 10
92.0554521018
 20
194.6131371773
 30
0.0
 10
92.0554521018
 20
194.4688208356
 30
0.0
  0
SPLINE
  5
489
100
AcDbEntity
  8
00_COMPONENTS
100
AcDbSpline
 62
7
  6
CONTINUOUS
 70
0
 71
3
 72
11
 73
7
 74
0
 42
0.0000001
 43
0.0000001
 44
0.0000000001
 40
0.0
 40
0.0
 40
0.0
 40
0.0
 40
0.217855615
 40
0.4509836771
 40
0.7102468026
 40
1.0
 40
1.0
 40
1.0
 40
1.0
 10
67.5198805673
 20
240.9229115268
 30
0.0
 10
67.2493267566
 20
240.7666417276
 30
0.0
 10
66.7429544437
 20
240.341344372
 30
0.0
 10
66.2045747246
 20
239.4602100306
 30
0.0
 10
65.8842981234
 20
238.3748060135
 30
0.0
 10
65.8215149647
 20
237.5847039225
 30
0.0
 10
65.8215149647
 20
237.1691493899
 30
0.0
  0
SPLINE
  5
48A
100
AcDbEntity
  8
00_COMPONENTS
100
AcDbSpline
 62
7
  6
CONTINUOUS
 70
0
 71
3
 72
11
 73
7
 74
0
 42
0.0000001
 43
0.0000001
 44
0.0000000001
 40
0.0
 40
0.0
 40
0.0
 40
0.0
 40
0.2177660095
 40
0.4508968553
 40
0.7103699668
 40
1.0
 40
1.0
 40
1.0
 40
1.0
 10
48.4370913539
 20
226.2123419915
 30
0.0
 10
48.2722099055
 20
226.1170608611
 30
0.0
 10
47.9634607161
 20
225.8578902892
 30
0.0
 10
47.6349820565
 20
225.3205692417
 30
0.0
 10
47.439978487
 20
224.6585817116
 30
0.0
 10
47.4014788467
 20
224.1767786511
 30
0.0
 10
47.4014788467
 20
223.9235028694
 30
0.0
  0
SPLINE
  5
48B
100
AcDbEntity
  8
00_COMPONENTS
100
AcDbSpline
 62
7
  6
CONTINUOUS
 70
0
 71
3
 72
9
 73
5
 74
0
 42
0.0000001
 43
0.0000001
 44
0.0000000001
 40
0.0
 40
0.0
 40
0.0
 40
0.0
 40
0.2595235535
 40
1.0
 40
1.0
 40
1.0
 40
1.0
 10
64.446576411
 20
68.2236335312
 30
0.0
 10
64.5119698553
 20
68.1186414869
 30
0.0
 10
64.77903327
 20
67.7239587064
 30
0.0
 10
65.1057115958
 20
67.3674387176
 30
0.0
 10
65.3792416813
 20
67.1444295981
 30
0.0
  0
SPLINE
  5
48C
100
AcDbEntity
  8
00_COMPONENTS
100
AcDbSpline
 62
7
  6
CONTINUOUS
 70
0
 71
3
 72
11
 73
7
 74
0
 42
0.0000001
 43
0.0000001
 44
0.0000000001
 40
0.0
 40
0.0
 40
0.0
 40
0.0
 40
0.217774924
 40
0.4509311967
 40
0.710224778
 40
1.0
 40
1.0
 40
1.0
 40
1.0
 10
96.6768083309
 20
258.6822292009
 30
0.0
 10
96.9736703662
 20
258.8536215644
 30
0.0
 10
97.6557881247
 20
259.1012693006
 30
0.0
 10
98.7886604787
 20
259.1298418402
 30
0.0
 10
99.9962198901
 20
258.8384998709
 30
0.0
 10
100.7817435043
 20
258.4646228791
 30
0.0
 10
101.1767551065
 20
258.2365679836
 30
0.0
  0
SPLINE
  5
48D
100
AcDbEntity
  8
00_COMPONENTS
100
AcDbSpline
 62
7
  6
CONTINUOUS
 70
0
 71
3
 72
13
 73
9
 74
0
 42
0.0000001
 43
0.0000001
 44
0.0000000001
 40
0.0
 40
0.0
 40
0.0
 40
0.0
 40
0.1142484259
 40
0.2375469717
 40
0.4999989156
 40
0.762451453
 40
0.885750692
 40
1.0
 40
1.0
 40
1.0
 40
1.0
 10
50.9370274724
 20
65.1138350079
 30
0.0
 10
50.5013932102
 20
65.3653428766
 30
0.0
 10
49.6407666554
 20
65.968601131
 30
0.0
 10
48.0296404325
 20
67.476547668
 30
0.0
 10
46.3278054266
 20
69.8011496752
 30
0.0
 10
45.1655455067
 20
72.4372802439
 30
0.0
 10
44.6651728414
 20
74.5865357799
 30
0.0
 10
44.5730399461
 20
75.6334953969
 30
0.0
 10
44.5730399461
 20
76.1365235528
 30
0.0
  0
SPLINE
  5
48E
100
AcDbEntity
  8
00_COMPONENTS
100
AcDbSpline
 62
7
  6
CONTINUOUS
 70
0
 71
3
 72
9
 73
5
 74
0
 42
0.0000001
 43
0.0000001
 44
0.0000000001
 40
0.0
 40
0.0
 40
0.0
 40
0.0
 40
0.2749979211
 40
1.0
 40
1.0
 40
1.0
 40
1.0
 10
44.5730399461
 20
76.1365235528
 30
0.0
 10
44.5730399461
 20
76.4034848317
 30
0.0
 10
44.6182985753
 20
77.3714156939
 30
0.0
 10
44.8652190304
 20
78.3467245081
 30
0.0
 10
45.2045389967
 20
78.9633415655
 30
0.0
  0
SPLINE
  5
48F
100
AcDbEntity
  8
00_COMPONENTS
100
AcDbSpline
 62
7
  6
CONTINUOUS
 70
0
 71
3
 72
11
 73
7
 74
0
 42
0.0000001
 43
0.0000001
 44
0.0000000001
 40
0.0
 40
0.0
 40
0.0
 40
0.0
 40
0.289702329
 40
0.5490881649
 40
0.7822156415
 40
1.0
 40
1.0
 40
1.0
 40
1.0
 10
50.9370274724
 20
68.3798446765
 30
0.0
 10
51.1564215928
 20
68.2531802875
 30
0.0
 10
51.592867243
 20
68.0455545353
 30
0.0
 10
52.2636928919
 20
67.8835621601
 30
0.0
 10
52.8931236013
 20
67.8994992315
 30
0.0
 10
53.2720744959
 20
68.0370234457
 30
0.0
 10
53.4370038056
 20
68.1322448882
 30
0.0
  0
SPLINE
  5
490
100
AcDbEntity
  8
00_COMPONENTS
100
AcDbSpline
 62
7
  6
CONTINUOUS
 70
0
 71
3
 72
11
 73
7
 74
0
 42
0.0000001
 43
0.0000001
 44
0.0000000001
 40
0.0
 40
0.0
 40
0.0
 40
0.0
 40
0.229767626
 40
0.4922686692
 40
0.7590244933
 40
1.0
 40
1.0
 40
1.0
 40
1.0
 10
94.4832364624
 20
188.9385504917
 30
0.0
 10
93.9280202071
 20
189.1853684204
 30
0.0
 10
92.8544567362
 20
189.9720963742
 30
0.0
 10
91.5961477396
 20
191.5572521918
 30
0.0
 10
90.7207219797
 20
193.4151318183
 30
0.0
 10
90.4644552202
 20
194.7582837753
 30
0.0
 10
90.4644552202
 20
195.3955275575
 30
0.0
  0
SPLINE
  5
491
100
AcDbEntity
  8
00_COMPONENTS
100
AcDbSpline
 62
7
  6
CONTINUOUS
 70
0
 71
3
 72
11
 73
7
 74
0
 42
0.0000001
 43
0.0000001
 44
0.0000000001
 40
0.0
 40
0.0
 40
0.0
 40
0.0
 40
0.2372413576
 40
0.5000010231
 40
0.762760128
 40
1.0
 40
1.0
 40
1.0
 40
1.0
 10
47.4014788467
 20
74.5035605347
 30
0.0
 10
47.4014788467
 20
73.923959956
 30
0.0
 10
47.6188840465
 20
72.7016286679
 30
0.0
 10
48.3765838137
 20
70.9840446522
 30
0.0
 10
49.4852098712
 20
69.4690732514
 30
0.0
 10
50.4350789515
 20
68.6696382342
 30
0.0
 10
50.9370274724
 20
68.3798446765
 30
0.0
  0
SPLINE
  5
492
100
AcDbEntity
  8
00_COMPONENTS
100
AcDbSpline
 62
7
  6
CONTINUOUS
 70
0
 71
3
 72
16
 73
12
 74
0
 42
0.0000001
 43
0.0000001
 44
0.0000000001
 40
0.0
 40
0.0
 40
0.0
 40
0.0
 40
0.0431347005
 40
0.0875646143
 40
0.1841184079
 40
0.2953613013
 40
0.4218413348
 40
0.5607906978
 40
0.70740565
 40
0.8558439373
 40
1.0
 40
1.0
 40
1.0
 40
1.0
 10
123.6055598046
 20
241.108065404
 30
0.0
 10
123.7849381569
 20
241.2115882788
 30
0.0
 10
124.1733400987
 20
241.3824014172
 30
0.0
 10
125.0449060603
 20
241.5611951091
 30
0.0
 10
126.2770696248
 20
241.4427002936
 30
0.0
 10
127.7758249546
 20
240.8266170315
 30
0.0
 10
129.2705049491
 20
239.7881513495
 30
0.0
 10
130.6794997428
 20
238.3872869237
 30
0.0
 10
131.9233334737
 20
236.7060734776
 30
0.0
 10
132.9279706816
 20
234.8444155265
 30
0.0
 10
133.4126026277
 20
233.5188641937
 30
0.0
 10
133.5959208149
 20
232.8514283751
 30
0.0
  0
SPLINE
  5
493
100
AcDbEntity
  8
00_COMPONENTS
100
AcDbSpline
 62
7
  6
CONTINUOUS
 70
0
 71
3
 72
11
 73
7
 74
0
 42
0.0000001
 43
0.0000001
 44
0.0000000001
 40
0.0
 40
0.0
 40
0.0
 40
0.0
 40
0.2201189527
 40
0.457697894
 40
0.7172795409
 40
1.0
 40
1.0
 40
1.0
 40
1.0
 10
111.1852469034
 20
31.6830941522
 30
0.0
 10
110.9110351898
 20
31.6170909193
 30
0.0
 10
110.321228901
 20
31.5543383141
 30
0.0
 10
109.4025488558
 20
31.6629340625
 30
0.0
 10
108.4446255878
 20
31.9637785162
 30
0.0
 10
107.8195302901
 20
32.2734496428
 30
0.0
 10
107.5058054842
 20
32.4545746463
 30
0.0
  0
SPLINE
  5
494
100
AcDbEntity
  8
00_COMPONENTS
100
AcDbSpline
 62
7
  6
CONTINUOUS
 70
0
 71
3
 72
11
 73
7
 74
0
 42
0.0000001
 43
0.0000001
 44
0.0000000001
 40
0.0
 40
0.0
 40
0.0
 40
0.0
 40
0.2177833598
 40
0.4509104088
 40
0.7102966711
 40
1.0
 40
1.0
 40
1.0
 40
1.0
 10
105.005829151
 20
44.1332082744
 30
0.0
 10
104.8408961893
 20
44.0379847234
 30
0.0
 10
104.5323133969
 20
43.7785597855
 30
0.0
 10
104.2037904414
 20
43.2414097945
 30
0.0
 10
104.0086671255
 20
42.5794413091
 30
0.0
 10
103.9702568585
 20
42.097640895
 30
0.0
 10
103.9702568585
 20
41.8443001731
 30
0.0
  0
SPLINE
  5
495
100
AcDbEntity
  8
00_COMPONENTS
100
AcDbSpline
 62
7
  6
CONTINUOUS
 70
0
 71
3
 72
11
 73
7
 74
0
 42
0.0000001
 43
0.0000001
 44
0.0000000001
 40
0.0
 40
0.0
 40
0.0
 40
0.0
 40
0.217774924
 40
0.4509311967
 40
0.710224778
 40
1.0
 40
1.0
 40
1.0
 40
1.0
 10
124.9611973367
 20
242.3525990201
 30
0.0
 10
125.2580593721
 20
242.5239913836
 30
0.0
 10
125.9401771305
 20
242.7716391198
 30
0.0
 10
127.0730494846
 20
242.8002116594
 30
0.0
 10
128.280608896
 20
242.5088696901
 30
0.0
 10
129.0661325101
 20
242.1349926983
 30
0.0
 10
129.4611441124
 20
241.9069378027
 30
0.0
  0
SPLINE
  5
496
100
AcDbEntity
  8
00_COMPONENTS
100
AcDbSpline
 62
7
  6
CONTINUOUS
 70
0
 71
3
 72
11
 73
7
 74
0
 42
0.0000001
 43
0.0000001
 44
0.0000000001
 40
0.0
 40
0.0
 40
0.0
 40
0.0
 40
0.2372223142
 40
0.5000010921
 40
0.7627792757
 40
1.0
 40
1.0
 40
1.0
 40
1.0
 10
108.7503715919
 20
154.0191305077
 30
0.0
 10
108.7503715919
 20
154.9459407839
 30
0.0
 10
108.4032024518
 20
156.9007405089
 30
0.0
 10
107.1913663607
 20
159.6475280058
 30
0.0
 10
105.4184893737
 20
162.0703895338
 30
0.0
 10
103.8991652929
 20
163.3484317238
 30
0.0
 10
103.0965248891
 20
163.8118258936
 30
0.0
  0
SPLINE
  5
497
100
AcDbEntity
  8
00_COMPONENTS
100
AcDbSpline
 62
7
  6
CONTINUOUS
 70
0
 71
3
 72
11
 73
7
 74
0
 42
0.0000001
 43
0.0000001
 44
0.0000000001
 40
0.0
 40
0.0
 40
0.0
 40
0.0
 40
0.2908214252
 40
0.5497532846
 40
0.7820161355
 40
1.0
 40
1.0
 40
1.0
 40
1.0
 10
42.6184389977
 20
198.728075152
 30
0.0
 10
42.2535019258
 20
198.9387669022
 30
0.0
 10
41.5281296732
 20
199.2816076727
 30
0.0
 10
40.4121561397
 20
199.5349776802
 30
0.0
 10
39.3700818153
 20
199.4775123526
 30
0.0
 10
38.75403412
 20
199.2176674268
 30
0.0
 10
38.489988891
 20
199.0443404482
 30
0.0
  0
SPLINE
  5
498
100
AcDbEntity
  8
00_COMPONENTS
100
AcDbSpline
 62
7
  6
CONTINUOUS
 70
0
 71
3
 72
9
 73
5
 74
0
 42
0.0000001
 43
0.0000001
 44
0.0000000001
 40
0.0
 40
0.0
 40
0.0
 40
0.0
 40
0.2381776723
 40
1.0
 40
1.0
 40
1.0
 40
1.0
 10
33.2239818489
 20
206.2257609532
 30
0.0
 10
33.2239818489
 20
206.1514968957
 30
0.0
 10
33.2339522601
 20
205.8397205438
 30
0.0
 10
33.2806112418
 20
205.5295827945
 30
0.0
 10
33.3321528582
 20
205.2977050187
 30
0.0
  0
SPLINE
  5
499
100
AcDbEntity
  8
00_COMPONENTS
100
AcDbSpline
 62
7
  6
CONTINUOUS
 70
0
 71
3
 72
15
 73
11
 74
0
 42
0.0000001
 43
0.0000001
 44
0.0000000001
 40
0.0
 40
0.0
 40
0.0
 40
0.0
 40
0.1414760378
 40
0.2889129926
 40
0.435882145
 40
0.5759959744
 40
0.7038615654
 40
0.8161646116
 40
0.9131106274
 40
1.0
 40
1.0
 40
1.0
 40
1.0
 10
33.3321528582
 20
205.2977050187
 30
0.0
 10
33.3990162432
 20
204.9968969709
 30
0.0
 10
33.5913061531
 20
204.3941945278
 30
0.0
 10
34.015034703
 20
203.5410299371
 30
0.0
 10
34.557317462
 20
202.7609997964
 30
0.0
 10
35.1837929313
 20
202.1040359235
 30
0.0
 10
35.8558422581
 20
201.6109888855
 30
0.0
 10
36.5354508935
 20
201.3132987122
 30
0.0
 10
37.1882314226
 20
201.234797425
 30
0.0
 10
37.5867338595
 20
201.3526341992
 30
0.0
 10
37.7505954071
 20
201.4473259528
 30
0.0
  0
SPLINE
  5
49A
100
AcDbEntity
  8
00_COMPONENTS
100
AcDbSpline
 62
7
  6
CONTINUOUS
 70
0
 71
3
 72
9
 73
5
 74
0
 42
0.0000001
 43
0.0000001
 44
0.0000000001
 40
0.0
 40
0.0
 40
0.0
 40
0.0
 40
0.2381776723
 40
1.0
 40
1.0
 40
1.0
 40
1.0
 10
107.8947688244
 20
163.1155372758
 30
0.0
 10
107.8947688244
 20
163.0412732183
 30
0.0
 10
107.9047392356
 20
162.7294968664
 30
0.0
 10
107.9513982174
 20
162.4193591172
 30
0.0
 10
108.0029398337
 20
162.1874813413
 30
0.0
  0
SPLINE
  5
49B
100
AcDbEntity
  8
00_COMPONENTS
100
AcDbSpline
 62
7
  6
CONTINUOUS
 70
0
 71
3
 72
15
 73
11
 74
0
 42
0.0000001
 43
0.0000001
 44
0.0000000001
 40
0.0
 40
0.0
 40
0.0
 40
0.0
 40
0.1414760378
 40
0.2889129926
 40
0.435882145
 40
0.5759959744
 40
0.7038615654
 40
0.8161646116
 40
0.9131106274
 40
1.0
 40
1.0
 40
1.0
 40
1.0
 10
108.0029398337
 20
162.1874813413
 30
0.0
 10
108.0698032187
 20
161.8866732936
 30
0.0
 10
108.2620931286
 20
161.2839708505
 30
0.0
 10
108.6858216785
 20
160.4308062598
 30
0.0
 10
109.2281044375
 20
159.6507761191
 30
0.0
 10
109.8545799068
 20
158.9938122461
 30
0.0
 10
110.5266292336
 20
158.5007652082
 30
0.0
 10
111.206237869
 20
158.2030750349
 30
0.0
 10
111.8590183982
 20
158.1245737476
 30
0.0
 10
112.257520835
 20
158.2424105218
 30
0.0
 10
112.4213823826
 20
158.3371022754
 30
0.0
  0
SPLINE
  5
49C
100
AcDbEntity
  8
00_COMPONENTS
100
AcDbSpline
 62
7
  6
CONTINUOUS
 70
0
 71
3
 72
9
 73
5
 74
0
 42
0.0000001
 43
0.0000001
 44
0.0000000001
 40
0.0
 40
0.0
 40
0.0
 40
0.0
 40
0.2381776723
 40
1.0
 40
1.0
 40
1.0
 40
1.0
 10
107.8947688244
 20
80.7304433875
 30
0.0
 10
107.8947688244
 20
80.65617933
 30
0.0
 10
107.9047392356
 20
80.344402978
 30
0.0
 10
107.9513982174
 20
80.0342652288
 30
0.0
 10
108.0029398337
 20
79.8023874529
 30
0.0
  0
SPLINE
  5
49D
100
AcDbEntity
  8
00_COMPONENTS
100
AcDbSpline
 62
7
  6
CONTINUOUS
 70
0
 71
3
 72
15
 73
11
 74
0
 42
0.0000001
 43
0.0000001
 44
0.0000000001
 40
0.0
 40
0.0
 40
0.0
 40
0.0
 40
0.1414760378
 40
0.2889129926
 40
0.435882145
 40
0.5759959744
 40
0.7038615654
 40
0.8161646116
 40
0.9131106274
 40
1.0
 40
1.0
 40
1.0
 40
1.0
 10
108.0029398337
 20
79.8023874529
 30
0.0
 10
108.0698032187
 20
79.5015794052
 30
0.0
 10
108.2620931286
 20
78.8988769621
 30
0.0
 10
108.6858216785
 20
78.0457123714
 30
0.0
 10
109.2281044375
 20
77.2656822307
 30
0.0
 10
109.8545799068
 20
76.6087183578
 30
0.0
 10
110.5266292336
 20
76.1156713198
 30
0.0
 10
111.206237869
 20
75.8179811465
 30
0.0
 10
111.8590183982
 20
75.7394798593
 30
0.0
 10
112.257520835
 20
75.8573166334
 30
0.0
 10
112.4213823826
 20
75.952008387
 30
0.0
  0
SPLINE
  5
49E
100
AcDbEntity
  8
00_COMPONENTS
100
AcDbSpline
 62
7
  6
CONTINUOUS
 70
0
 71
3
 72
11
 73
7
 74
0
 42
0.0000001
 43
0.0000001
 44
0.0000000001
 40
0.0
 40
0.0
 40
0.0
 40
0.0
 40
0.2177833598
 40
0.4509104088
 40
0.7102966711
 40
1.0
 40
1.0
 40
1.0
 40
1.0
 10
76.7214401452
 20
60.4628384552
 30
0.0
 10
76.5565071834
 20
60.3676149043
 30
0.0
 10
76.247924391
 20
60.1081899663
 30
0.0
 10
75.9194014355
 20
59.5710399753
 30
0.0
 10
75.7242781196
 20
58.9090714899
 30
0.0
 10
75.6858678526
 20
58.4272710758
 30
0.0
 10
75.6858678526
 20
58.1739303539
 30
0.0
  0
SPLINE
  5
49F
100
AcDbEntity
  8
00_COMPONENTS
100
AcDbSpline
 62
7
  6
CONTINUOUS
 70
0
 71
3
 72
9
 73
5
 74
0
 42
0.0000001
 43
0.0000001
 44
0.0000000001
 40
0.0
 40
0.0
 40
0.0
 40
0.0
 40
0.2287859928
 40
1.0
 40
1.0
 40
1.0
 40
1.0
 10
116.0265244813
 20
72.1572698449
 30
0.0
 10
116.0023626343
 20
72.1433200794
 30
0.0
 10
115.891353963
 20
72.0918579103
 30
0.0
 10
115.7670185662
 20
72.0727257027
 30
0.0
 10
115.6729717004
 20
72.0727254766
 30
0.0
  0
SPLINE
  5
4A0
100
AcDbEntity
  8
00_COMPONENTS
100
AcDbSpline
 62
7
  6
CONTINUOUS
 70
0
 71
3
 72
11
 73
7
 74
0
 42
0.0000001
 43
0.0000001
 44
0.0000000001
 40
0.0
 40
0.0
 40
0.0
 40
0.0
 40
0.2372423294
 40
0.4999983821
 40
0.7627553152
 40
1.0
 40
1.0
 40
1.0
 40
1.0
 10
116.9457594697
 20
42.7223485363
 30
0.0
 10
117.026071369
 20
42.7687163562
 30
0.0
 10
117.1780437223
 20
42.8966327096
 30
0.0
 10
117.355420105
 20
43.1390266213
 30
0.0
 10
117.476650137
 20
43.4138375104
 30
0.0
 10
117.5114425394
 20
43.6094088174
 30
0.0
 10
117.5114425394
 20
43.7021457931
 30
0.0
  0
SPLINE
  5
4A1
100
AcDbEntity
  8
00_COMPONENTS
100
AcDbSpline
 62
7
  6
CONTINUOUS
 70
0
 71
3
 72
11
 73
7
 74
0
 42
0.0000001
 43
0.0000001
 44
0.0000000001
 40
0.0
 40
0.0
 40
0.0
 40
0.0
 40
0.2201189527
 40
0.457697894
 40
0.7172795409
 40
1.0
 40
1.0
 40
1.0
 40
1.0
 10
82.9008578975
 20
48.012724333
 30
0.0
 10
82.626646184
 20
47.9467211001
 30
0.0
 10
82.0368398951
 20
47.8839684949
 30
0.0
 10
81.1181598499
 20
47.9925642433
 30
0.0
 10
80.1602365819
 20
48.2934086971
 30
0.0
 10
79.5351412842
 20
48.6030798236
 30
0.0
 10
79.2214164783
 20
48.7842048271
 30
0.0
  0
SPLINE
  5
4A2
100
AcDbEntity
  8
00_COMPONENTS
100
AcDbSpline
 62
7
  6
CONTINUOUS
 70
0
 71
3
 72
15
 73
11
 74
0
 42
0.0000001
 43
0.0000001
 44
0.0000000001
 40
0.0
 40
0.0
 40
0.0
 40
0.0
 40
0.0867634565
 40
0.1840980908
 40
0.2973466029
 40
0.4263898291
 40
0.5674456746
 40
0.7145844919
 40
0.861042305
 40
1.0
 40
1.0
 40
1.0
 40
1.0
 10
108.9221523315
 20
82.1761887855
 30
0.0
 10
109.0748847046
 20
82.2643699166
 30
0.0
 10
109.4488832834
 20
82.3717972921
 30
0.0
 10
110.0595947872
 20
82.2877009912
 30
0.0
 10
110.6929313527
 20
81.9952120248
 30
0.0
 10
111.315477462
 20
81.518356677
 30
0.0
 10
111.8895999596
 20
80.8889520628
 30
0.0
 10
112.3780484756
 20
80.148557462
 30
0.0
 10
112.7475888778
 20
79.3472500626
 30
0.0
 10
112.9047951609
 20
78.7851851766
 30
0.0
 10
112.9541383191
 20
78.5070746969
 30
0.0
  0
SPLINE
  5
4A3
100
AcDbEntity
  8
00_COMPONENTS
100
AcDbSpline
 62
7
  6
CONTINUOUS
 70
0
 71
3
 72
11
 73
7
 74
0
 42
0.0000001
 43
0.0000001
 44
0.0000000001
 40
0.0
 40
0.0
 40
0.0
 40
0.0
 40
0.2177239861
 40
0.4508730345
 40
0.7104683317
 40
1.0
 40
1.0
 40
1.0
 40
1.0
 10
64.3613942768
 20
212.1030330035
 30
0.0
 10
64.2674075235
 20
212.0487748744
 30
0.0
 10
64.09140646
 20
211.9010788056
 30
0.0
 10
63.9041143705
 20
211.5947773997
 30
0.0
 10
63.7931021352
 20
211.2173872596
 30
0.0
 10
63.7710630959
 20
210.9427673581
 30
0.0
 10
63.7710630959
 20
210.7984510165
 30
0.0
  0
SPLINE
  5
4A4
100
AcDbEntity
  8
00_COMPONENTS
100
AcDbSpline
 62
7
  6
CONTINUOUS
 70
0
 71
3
 72
9
 73
5
 74
0
 42
0.0000001
 43
0.0000001
 44
0.0000000001
 40
0.0
 40
0.0
 40
0.0
 40
0.0
 40
0.4747301845
 40
1.0
 40
1.0
 40
1.0
 40
1.0
 10
108.6164440791
 20
82.4133503419
 30
0.0
 10
108.4721917927
 20
82.3197745385
 30
0.0
 10
108.2086835898
 20
82.0559433525
 30
0.0
 10
108.0586331201
 20
81.7188611842
 30
0.0
 10
108.0038613682
 20
81.5366654534
 30
0.0
  0
SPLINE
  5
4A5
100
AcDbEntity
  8
00_COMPONENTS
100
AcDbSpline
 62
7
  6
CONTINUOUS
 70
0
 71
3
 72
9
 73
5
 74
0
 42
0.0000001
 43
0.0000001
 44
0.0000000001
 40
0.0
 40
0.0
 40
0.0
 40
0.0
 40
0.2356686145
 40
1.0
 40
1.0
 40
1.0
 40
1.0
 10
108.0038613682
 20
81.5366654534
 30
0.0
 10
107.9854240758
 20
81.475334642
 30
0.0
 10
107.9186855975
 20
81.2116559657
 30
0.0
 10
107.8947688244
 20
80.9381479917
 30
0.0
 10
107.8947688244
 20
80.7304433875
 30
0.0
  0
SPLINE
  5
4A6
100
AcDbEntity
  8
00_COMPONENTS
100
AcDbSpline
 62
7
  6
CONTINUOUS
 70
0
 71
3
 72
15
 73
11
 74
0
 42
0.0000001
 43
0.0000001
 44
0.0000000001
 40
0.0
 40
0.0
 40
0.0
 40
0.0
 40
0.0867634565
 40
0.1840980908
 40
0.2973466029
 40
0.4263898291
 40
0.5674456746
 40
0.7145844919
 40
0.861042305
 40
1.0
 40
1.0
 40
1.0
 40
1.0
 10
108.9221523315
 20
164.5612826738
 30
0.0
 10
109.0748847046
 20
164.6494638049
 30
0.0
 10
109.4488832834
 20
164.7568911805
 30
0.0
 10
110.0595947872
 20
164.6727948796
 30
0.0
 10
110.6929313527
 20
164.3803059132
 30
0.0
 10
111.3154774619
 20
163.9034505654
 30
0.0
 10
111.8895999596
 20
163.2740459512
 30
0.0
 10
112.3780484756
 20
162.5336513504
 30
0.0
 10
112.7475888778
 20
161.732343951
 30
0.0
 10
112.9047951609
 20
161.170279065
 30
0.0
 10
112.9541383191
 20
160.8921685853
 30
0.0
  0
SPLINE
  5
4A7
100
AcDbEntity
  8
00_COMPONENTS
100
AcDbSpline
 62
7
  6
CONTINUOUS
 70
0
 71
3
 72
11
 73
7
 74
0
 42
0.0000001
 43
0.0000001
 44
0.0000000001
 40
0.0
 40
0.0
 40
0.0
 40
0.0
 40
0.229767626
 40
0.4922686692
 40
0.7590244933
 40
1.0
 40
1.0
 40
1.0
 40
1.0
 10
66.1988474565
 20
205.2681806725
 30
0.0
 10
65.6436312012
 20
205.5149986012
 30
0.0
 10
64.5700677304
 20
206.301726555
 30
0.0
 10
63.3117587337
 20
207.8868823726
 30
0.0
 10
62.4363329739
 20
209.7447619991
 30
0.0
 10
62.1800662143
 20
211.0879139562
 30
0.0
 10
62.1800662143
 20
211.7251577383
 30
0.0
  0
SPLINE
  5
4A8
100
AcDbEntity
  8
00_COMPONENTS
100
AcDbSpline
 62
7
  6
CONTINUOUS
 70
0
 71
3
 72
11
 73
7
 74
0
 42
0.0000001
 43
0.0000001
 44
0.0000000001
 40
0.0
 40
0.0
 40
0.0
 40
0.0
 40
0.217774924
 40
0.4509311967
 40
0.710224778
 40
1.0
 40
1.0
 40
1.0
 40
1.0
 10
89.7522121263
 20
253.5296452551
 30
0.0
 10
90.0160894911
 20
253.6819940226
 30
0.0
 10
90.6224163875
 20
253.9021253437
 30
0.0
 10
91.6294140355
 20
253.9275231567
 30
0.0
 10
92.702800179
 20
253.6685525173
 30
0.0
 10
93.4010433915
 20
253.3362174135
 30
0.0
 10
93.7521648157
 20
253.1335019508
 30
0.0
  0
SPLINE
  5
4A9
100
AcDbEntity
  8
00_COMPONENTS
100
AcDbSpline
 62
7
  6
CONTINUOUS
 70
0
 71
3
 72
11
 73
7
 74
0
 42
0.0000001
 43
0.0000001
 44
0.0000000001
 40
0.0
 40
0.0
 40
0.0
 40
0.0
 40
0.217774924
 40
0.4509311967
 40
0.710224778
 40
1.0
 40
1.0
 40
1.0
 40
1.0
 10
146.3209901381
 20
220.8703848935
 30
0.0
 10
146.5848675028
 20
221.022733661
 30
0.0
 10
147.1911943992
 20
221.2428649821
 30
0.0
 10
148.1981920472
 20
221.2682627951
 30
0.0
 10
149.2715781907
 20
221.0092921557
 30
0.0
 10
149.9698214033
 20
220.6769570519
 30
0.0
 10
150.3209428275
 20
220.4742415892
 30
0.0
  0
SPLINE
  5
4AA
100
AcDbEntity
  8
00_COMPONENTS
100
AcDbSpline
 62
7
  6
CONTINUOUS
 70
0
 71
3
 72
9
 73
5
 74
0
 42
0.0000001
 43
0.0000001
 44
0.0000000001
 40
0.0
 40
0.0
 40
0.0
 40
0.0
 40
0.2595235535
 40
1.0
 40
1.0
 40
1.0
 40
1.0
 10
92.7309654169
 20
51.8940033503
 30
0.0
 10
92.7963588611
 20
51.7890113061
 30
0.0
 10
93.0634222759
 20
51.3943285256
 30
0.0
 10
93.3901006017
 20
51.0378085368
 30
0.0
 10
93.6636306872
 20
50.8147994173
 30
0.0
  0
SPLINE
  5
4AB
100
AcDbEntity
  8
00_COMPONENTS
100
AcDbSpline
 62
7
  6
CONTINUOUS
 70
0
 71
3
 72
9
 73
5
 74
0
 42
0.0000001
 43
0.0000001
 44
0.0000000001
 40
0.0
 40
0.0
 40
0.0
 40
0.0
 40
0.4747301845
 40
1.0
 40
1.0
 40
1.0
 40
1.0
 10
108.6164440791
 20
164.7984442303
 30
0.0
 10
108.4721917927
 20
164.7048684268
 30
0.0
 10
108.2086835898
 20
164.4410372409
 30
0.0
 10
108.0586331201
 20
164.1039550726
 30
0.0
 10
108.0038613682
 20
163.9217593418
 30
0.0
  0
SPLINE
  5
4AC
100
AcDbEntity
  8
00_COMPONENTS
100
AcDbSpline
 62
7
  6
CONTINUOUS
 70
0
 71
3
 72
9
 73
5
 74
0
 42
0.0000001
 43
0.0000001
 44
0.0000000001
 40
0.0
 40
0.0
 40
0.0
 40
0.0
 40
0.2356686145
 40
1.0
 40
1.0
 40
1.0
 40
1.0
 10
108.0038613682
 20
163.9217593418
 30
0.0
 10
107.9854240758
 20
163.8604285304
 30
0.0
 10
107.9186855975
 20
163.5967498541
 30
0.0
 10
107.8947688244
 20
163.32324188
 30
0.0
 10
107.8947688244
 20
163.1155372758
 30
0.0
  0
SPLINE
  5
4AD
100
AcDbEntity
  8
00_COMPONENTS
100
AcDbSpline
 62
7
  6
CONTINUOUS
 70
0
 71
3
 72
15
 73
11
 74
0
 42
0.0000001
 43
0.0000001
 44
0.0000000001
 40
0.0
 40
0.0
 40
0.0
 40
0.0
 40
0.0867634565
 40
0.1840980908
 40
0.2973466029
 40
0.4263898291
 40
0.5674456746
 40
0.7145844919
 40
0.861042305
 40
1.0
 40
1.0
 40
1.0
 40
1.0
 10
34.2513653559
 20
207.6715063512
 30
0.0
 10
34.404097729
 20
207.7596874823
 30
0.0
 10
34.7780963079
 20
207.8671148578
 30
0.0
 10
35.3888078116
 20
207.7830185569
 30
0.0
 10
36.0221443771
 20
207.4905295905
 30
0.0
 10
36.6446904864
 20
207.0136742427
 30
0.0
 10
37.2188129841
 20
206.3842696286
 30
0.0
 10
37.7072615001
 20
205.6438750277
 30
0.0
 10
38.0768019023
 20
204.8425676283
 30
0.0
 10
38.2340081854
 20
204.2805027423
 30
0.0
 10
38.2833513435
 20
204.0023922626
 30
0.0
  0
SPLINE
  5
4AE
100
AcDbEntity
  8
00_COMPONENTS
100
AcDbSpline
 62
7
  6
CONTINUOUS
 70
0
 71
3
 72
11
 73
7
 74
0
 42
0.0000001
 43
0.0000001
 44
0.0000000001
 40
0.0
 40
0.0
 40
0.0
 40
0.0
 40
0.2299153265
 40
0.4833631387
 40
0.7455954944
 40
1.0
 40
1.0
 40
1.0
 40
1.0
 10
93.7521648157
 20
253.1335019508
 30
0.0
 10
94.3783609422
 20
252.7719756274
 30
0.0
 10
95.5894668999
 20
251.8260675155
 30
0.0
 10
97.1186525974
 20
250.0324770575
 30
0.0
 10
98.3466135159
 20
247.9312175094
 30
0.0
 10
98.9103268172
 20
246.3950377635
 30
0.0
 10
99.1061187988
 20
245.6192828291
 30
0.0
  0
SPLINE
  5
4AF
100
AcDbEntity
  8
00_COMPONENTS
100
AcDbSpline
 62
7
  6
CONTINUOUS
 70
0
 71
3
 72
16
 73
12
 74
0
 42
0.0000001
 43
0.0000001
 44
0.0000000001
 40
0.0
 40
0.0
 40
0.0
 40
0.0
 40
0.0918792654
 40
0.1434128811
 40
0.1989615982
 40
0.3213879432
 40
0.4562074702
 40
0.5979441203
 40
0.7400673761
 40
0.8759626323
 40
1.0
 40
1.0
 40
1.0
 40
1.0
 10
54.3731154299
 20
213.6164505614
 30
0.0
 10
53.8598374963
 20
213.5385556963
 30
0.0
 10
53.0275677119
 20
213.598857442
 30
0.0
 10
51.9540603885
 20
213.936326475
 30
0.0
 10
50.7772043537
 20
214.4907917222
 30
0.0
 10
49.3286668507
 20
215.5280350252
 30
0.0
 10
47.7580497193
 20
217.1591054874
 30
0.0
 10
46.4019240965
 20
219.1090490849
 30
0.0
 10
45.352221776
 20
221.2464687057
 30
0.0
 10
44.6792259116
 20
223.4260270126
 30
0.0
 10
44.5023289736
 20
224.8964287687
 30
0.0
 10
44.5023289736
 20
225.597289963
 30
0.0
  0
SPLINE
  5
4B0
100
AcDbEntity
  8
00_COMPONENTS
100
AcDbSpline
 62
7
  6
CONTINUOUS
 70
0
 71
3
 72
11
 73
7
 74
0
 42
0.0000001
 43
0.0000001
 44
0.0000000001
 40
0.0
 40
0.0
 40
0.0
 40
0.0
 40
0.289775222
 40
0.5490688033
 40
0.782225076
 40
1.0
 40
1.0
 40
1.0
 40
1.0
 10
99.6211266646
 20
256.5219284279
 30
0.0
 10
99.2700052404
 20
256.7246438906
 30
0.0
 10
98.5717620278
 20
257.0569789944
 30
0.0
 10
97.4983758843
 20
257.3159496338
 30
0.0
 10
96.4913782363
 20
257.2905518208
 30
0.0
 10
95.8850513399
 20
257.0704204998
 30
0.0
 10
95.6211739752
 20
256.9180717322
 30
0.0
  0
SPLINE
  5
4B1
100
AcDbEntity
  8
00_COMPONENTS
100
AcDbSpline
 62
7
  6
CONTINUOUS
 70
0
 71
3
 72
11
 73
7
 74
0
 42
0.0000001
 43
0.0000001
 44
0.0000000001
 40
0.0
 40
0.0
 40
0.0
 40
0.0
 40
0.2544045056
 40
0.5166368613
 40
0.7700846735
 40
1.0
 40
1.0
 40
1.0
 40
1.0
 10
104.9750806476
 20
249.0077093062
 30
0.0
 10
104.779288666
 20
249.7834642407
 30
0.0
 10
104.2155753648
 20
251.3196439866
 30
0.0
 10
102.9876144463
 20
253.4209035347
 30
0.0
 10
101.4584287487
 20
255.2144939927
 30
0.0
 10
100.2473227911
 20
256.1604021045
 30
0.0
 10
99.6211266646
 20
256.5219284279
 30
0.0
  0
SPLINE
  5
4B2
100
AcDbEntity
  8
00_COMPONENTS
100
AcDbSpline
 62
7
  6
CONTINUOUS
 70
0
 71
3
 72
11
 73
7
 74
0
 42
0.0000001
 43
0.0000001
 44
0.0000000001
 40
0.0
 40
0.0
 40
0.0
 40
0.0
 40
0.2372207243
 40
0.4999989079
 40
0.7627776858
 40
1.0
 40
1.0
 40
1.0
 40
1.0
 10
91.4075475657
 20
157.0632244842
 30
0.0
 10
92.2101879694
 20
156.5998303144
 30
0.0
 10
93.7295120502
 20
155.3217881243
 30
0.0
 10
95.5023890372
 20
152.8989265963
 30
0.0
 10
96.7142251283
 20
150.1521390994
 30
0.0
 10
97.0613942685
 20
148.1973393744
 30
0.0
 10
97.0613942685
 20
147.2705290983
 30
0.0
  0
SPLINE
  5
4B3
100
AcDbEntity
  8
00_COMPONENTS
100
AcDbSpline
 62
7
  6
CONTINUOUS
 70
0
 71
3
 72
11
 73
7
 74
0
 42
0.0000001
 43
0.0000001
 44
0.0000000001
 40
0.0
 40
0.0
 40
0.0
 40
0.0
 40
0.2908224442
 40
0.5497546719
 40
0.7820171075
 40
1.0
 40
1.0
 40
1.0
 40
1.0
 10
97.0613942685
 20
86.8762753181
 30
0.0
 10
97.0613942685
 20
86.4548723377
 30
0.0
 10
96.9956227621
 20
85.6552378634
 30
0.0
 10
96.6570608755
 20
84.5620589179
 30
0.0
 10
96.0862479496
 20
83.6883039366
 30
0.0
 10
95.5531787359
 20
83.2847044719
 30
0.0
 10
95.2710438232
 20
83.1426964969
 30
0.0
  0
SPLINE
  5
4B4
100
AcDbEntity
  8
00_COMPONENTS
100
AcDbSpline
 62
7
  6
CONTINUOUS
 70
0
 71
3
 72
16
 73
12
 74
0
 42
0.0000001
 43
0.0000001
 44
0.0000000001
 40
0.0
 40
0.0
 40
0.0
 40
0.0
 40
0.1441603913
 40
0.2925971631
 40
0.4392104089
 40
0.5781586241
 40
0.7046366089
 40
0.8158772814
 40
0.9124314192
 40
0.9568627025
 40
1.0
 40
1.0
 40
1.0
 40
1.0
 10
106.8666029759
 20
250.0812314749
 30
0.0
 10
106.6831941314
 20
250.7485592709
 30
0.0
 10
106.1984421861
 20
252.0738585296
 30
0.0
 10
105.1937401787
 20
253.9351346286
 30
0.0
 10
103.9499421992
 20
255.6159675118
 30
0.0
 10
102.5410500265
 20
257.0164888946
 30
0.0
 10
101.0465261915
 20
258.0546704891
 30
0.0
 10
99.5479634953
 20
258.6705368097
 30
0.0
 10
98.315974479
 20
258.788959615
 30
0.0
 10
97.4445306164
 20
258.6101266208
 30
0.0
 10
97.0561636466
 20
258.4393443062
 30
0.0
 10
96.8767999808
 20
258.335831458
 30
0.0
  0
SPLINE
  5
4B5
100
AcDbEntity
  8
00_COMPONENTS
100
AcDbSpline
 62
7
  6
CONTINUOUS
 70
0
 71
3
 72
11
 73
7
 74
0
 42
0.0000001
 43
0.0000001
 44
0.0000000001
 40
0.0
 40
0.0
 40
0.0
 40
0.0
 40
0.2292259228
 40
0.481515342
 40
0.7435216175
 40
1.0
 40
1.0
 40
1.0
 40
1.0
 10
101.1767551065
 20
258.2365679836
 30
0.0
 10
101.8502583684
 20
257.8477294907
 30
0.0
 10
103.1566753785
 20
256.8395931456
 30
0.0
 10
104.8245614245
 20
254.9308196492
 30
0.0
 10
106.190990909
 20
252.6872461726
 30
0.0
 10
106.8441711266
 20
251.0420208929
 30
0.0
 10
107.0855121572
 20
250.2060101984
 30
0.0
  0
SPLINE
  5
4B6
100
AcDbEntity
  8
00_COMPONENTS
100
AcDbSpline
 62
7
  6
CONTINUOUS
 70
0
 71
3
 72
11
 73
7
 74
0
 42
0.0000001
 43
0.0000001
 44
0.0000000001
 40
0.0
 40
0.0
 40
0.0
 40
0.0
 40
0.289775222
 40
0.5490688033
 40
0.782225076
 40
1.0
 40
1.0
 40
1.0
 40
1.0
 10
102.2374108623
 20
258.8489342144
 30
0.0
 10
101.8423992601
 20
259.0769891099
 30
0.0
 10
101.0568756459
 20
259.4508661017
 30
0.0
 10
99.8493162345
 20
259.742208071
 30
0.0
 10
98.7164438805
 20
259.7136355314
 30
0.0
 10
98.034326122
 20
259.4659877952
 30
0.0
 10
97.7374640867
 20
259.2945954317
 30
0.0
  0
SPLINE
  5
4B7
100
AcDbEntity
  8
00_COMPONENTS
100
AcDbSpline
 62
7
  6
CONTINUOUS
 70
0
 71
3
 72
11
 73
7
 74
0
 42
0.0000001
 43
0.0000001
 44
0.0000000001
 40
0.0
 40
0.0
 40
0.0
 40
0.0
 40
0.2564783825
 40
0.518484658
 40
0.7707740772
 40
1.0
 40
1.0
 40
1.0
 40
1.0
 10
108.1461679131
 20
250.8183764292
 30
0.0
 10
107.9048268825
 20
251.6543871237
 30
0.0
 10
107.2516466648
 20
253.2996124034
 30
0.0
 10
105.8852171803
 20
255.5431858801
 30
0.0
 10
104.2173311343
 20
257.4519593764
 30
0.0
 10
102.9109141242
 20
258.4600957215
 30
0.0
 10
102.2374108623
 20
258.8489342144
 30
0.0
  0
SPLINE
  5
4B8
100
AcDbEntity
  8
00_COMPONENTS
100
AcDbSpline
 62
7
  6
CONTINUOUS
 70
0
 71
3
 72
9
 73
5
 74
0
 42
0.0000001
 43
0.0000001
 44
0.0000000001
 40
0.0
 40
0.0
 40
0.0
 40
0.0
 40
0.4747301845
 40
1.0
 40
1.0
 40
1.0
 40
1.0
 10
33.9456571036
 20
207.9086679076
 30
0.0
 10
33.8014048172
 20
207.8150921042
 30
0.0
 10
33.5378966143
 20
207.5512609182
 30
0.0
 10
33.3878461446
 20
207.2141787499
 30
0.0
 10
33.3330743927
 20
207.0319830191
 30
0.0
  0
SPLINE
  5
4B9
100
AcDbEntity
  8
00_COMPONENTS
100
AcDbSpline
 62
7
  6
CONTINUOUS
 70
0
 71
3
 72
9
 73
5
 74
0
 42
0.0000001
 43
0.0000001
 44
0.0000000001
 40
0.0
 40
0.0
 40
0.0
 40
0.0
 40
0.2356686145
 40
1.0
 40
1.0
 40
1.0
 40
1.0
 10
33.3330743927
 20
207.0319830191
 30
0.0
 10
33.3146371002
 20
206.9706522077
 30
0.0
 10
33.2478986219
 20
206.7069735314
 30
0.0
 10
33.2239818489
 20
206.4334655574
 30
0.0
 10
33.2239818489
 20
206.2257609532
 30
0.0
  0
SPLINE
  5
4BA
100
AcDbEntity
  8
00_COMPONENTS
100
AcDbSpline
 62
7
  6
CONTINUOUS
 70
0
 71
3
 72
11
 73
7
 74
0
 42
0.0000001
 43
0.0000001
 44
0.0000000001
 40
0.0
 40
0.0
 40
0.0
 40
0.0
 40
0.2179828925
 40
0.4502453281
 40
0.7091775558
 40
1.0
 40
1.0
 40
1.0
 40
1.0
 10
106.9600211465
 20
89.0245403115
 30
0.0
 10
107.2421560592
 20
89.1665482865
 30
0.0
 10
107.7752252728
 20
89.5701477511
 30
0.0
 10
108.3460381988
 20
90.4439027323
 30
0.0
 10
108.6846000854
 20
91.5370816776
 30
0.0
 10
108.7503715919
 20
92.3367161518
 30
0.0
 10
108.7503715919
 20
92.7581191322
 30
0.0
  0
SPLINE
  5
4BB
100
AcDbEntity
  8
00_COMPONENTS
100
AcDbSpline
 62
7
  6
CONTINUOUS
 70
0
 71
3
 72
11
 73
7
 74
0
 42
0.0000001
 43
0.0000001
 44
0.0000000001
 40
0.0
 40
0.0
 40
0.0
 40
0.0
 40
0.2179838645
 40
0.4502467154
 40
0.7091785748
 40
1.0
 40
1.0
 40
1.0
 40
1.0
 10
27.5516434235
 20
191.8623713387
 30
0.0
 10
27.8156886526
 20
192.0356983173
 30
0.0
 10
28.4317363481
 20
192.2955432432
 30
0.0
 10
29.4738106727
 20
192.3530085707
 30
0.0
 10
30.5897842063
 20
192.099638563
 30
0.0
 10
31.315156459
 20
191.7567977924
 30
0.0
 10
31.6800935311
 20
191.5461060421
 30
0.0
  0
SPLINE
  5
4BC
100
AcDbEntity
  8
00_COMPONENTS
100
AcDbSpline
 62
7
  6
CONTINUOUS
 70
0
 71
3
 72
13
 73
9
 74
0
 42
0.0000001
 43
0.0000001
 44
0.0000000001
 40
0.0
 40
0.0
 40
0.0
 40
0.0
 40
0.1142484259
 40
0.2375469717
 40
0.4999989156
 40
0.762451453
 40
0.885750692
 40
1.0
 40
1.0
 40
1.0
 40
1.0
 10
107.5058054842
 20
32.4545746463
 30
0.0
 10
107.070171222
 20
32.706082515
 30
0.0
 10
106.2095446671
 20
33.3093407694
 30
0.0
 10
104.5984184443
 20
34.8172873064
 30
0.0
 10
102.8965834383
 20
37.1418893136
 30
0.0
 10
101.7343235184
 20
39.7780198823
 30
0.0
 10
101.2339508532
 20
41.9272754182
 30
0.0
 10
101.1418179579
 20
42.9742350353
 30
0.0
 10
101.1418179579
 20
43.4772631912
 30
0.0
  0
SPLINE
  5
4BD
100
AcDbEntity
  8
00_COMPONENTS
100
AcDbSpline
 62
7
  6
CONTINUOUS
 70
0
 71
3
 72
9
 73
5
 74
0
 42
0.0000001
 43
0.0000001
 44
0.0000000001
 40
0.0
 40
0.0
 40
0.0
 40
0.0
 40
0.2749979211
 40
1.0
 40
1.0
 40
1.0
 40
1.0
 10
101.1418179579
 20
43.4772631912
 30
0.0
 10
101.1418179579
 20
43.7442244701
 30
0.0
 10
101.187076587
 20
44.7121553323
 30
0.0
 10
101.4339970422
 20
45.6874641465
 30
0.0
 10
101.7733170085
 20
46.3040812039
 30
0.0
  0
SPLINE
  5
4BE
100
AcDbEntity
  8
00_COMPONENTS
100
AcDbSpline
 62
7
  6
CONTINUOUS
 70
0
 71
3
 72
17
 73
13
 74
0
 42
0.0000001
 43
0.0000001
 44
0.0000000001
 40
0.0
 40
0.0
 40
0.0
 40
0.0
 40
0.128688864
 40
0.2702797703
 40
0.4174318348
 40
0.5617733576
 40
0.6954455149
 40
0.8127096012
 40
0.8646749146
 40
0.9125085807
 40
0.9571389861
 40
1.0
 40
1.0
 40
1.0
 40
1.0
 10
47.4014788467
 20
223.9235028694
 30
0.0
 10
47.4014788467
 20
223.4961283176
 30
0.0
 10
47.5210438508
 20
222.5975083961
 30
0.0
 10
47.9672786247
 20
221.2780843449
 30
0.0
 10
48.6549258559
 20
220.0070716581
 30
0.0
 10
49.5286774552
 20
218.888678954
 30
0.0
 10
50.5171511298
 20
218.0132415385
 30
0.0
 10
51.4118571385
 20
217.524015927
 30
0.0
 10
52.1117402731
 20
217.3378523727
 30
0.0
 10
52.5934324372
 20
217.3023832236
 30
0.0
 10
53.0419675128
 20
217.3681197344
 30
0.0
 10
53.3137207326
 20
217.4810370385
 30
0.0
 10
53.436963591
 20
217.5522562022
 30
0.0
  0
SPLINE
  5
4BF
100
AcDbEntity
  8
00_COMPONENTS
100
AcDbSpline
 62
7
  6
CONTINUOUS
 70
0
 71
3
 72
11
 73
7
 74
0
 42
0.0000001
 43
0.0000001
 44
0.0000000001
 40
0.0
 40
0.0
 40
0.0
 40
0.0
 40
0.2372413576
 40
0.5000010231
 40
0.762760128
 40
1.0
 40
1.0
 40
1.0
 40
1.0
 10
103.9702568585
 20
41.8443001731
 30
0.0
 10
103.9702568585
 20
41.2646995944
 30
0.0
 10
104.1876620582
 20
40.0423683062
 30
0.0
 10
104.9453618254
 20
38.3247842906
 30
0.0
 10
106.053987883
 20
36.8098128898
 30
0.0
 10
107.0038569632
 20
36.0103778725
 30
0.0
 10
107.5058054842
 20
35.7205843148
 30
0.0
  0
SPLINE
  5
4C0
100
AcDbEntity
  8
00_COMPONENTS
100
AcDbSpline
 62
7
  6
CONTINUOUS
 70
0
 71
3
 72
11
 73
7
 74
0
 42
0.0000001
 43
0.0000001
 44
0.0000000001
 40
0.0
 40
0.0
 40
0.0
 40
0.0
 40
0.2848876306
 40
0.5446761732
 40
0.7810580059
 40
1.0
 40
1.0
 40
1.0
 40
1.0
 10
44.5023289736
 20
225.597289963
 30
0.0
 10
44.5023289736
 20
225.9900533364
 30
0.0
 10
44.5536962403
 20
226.7426736895
 30
0.0
 10
44.8085784189
 20
227.7952472248
 30
0.0
 10
45.2353619984
 20
228.6928692946
 30
0.0
 10
45.6424042668
 20
229.1822926732
 30
0.0
 10
45.8666644987
 20
229.384329277
 30
0.0
  0
SPLINE
  5
4C1
100
AcDbEntity
  8
00_COMPONENTS
100
AcDbSpline
 62
7
  6
CONTINUOUS
 70
0
 71
3
 72
11
 73
7
 74
0
 42
0.0000001
 43
0.0000001
 44
0.0000000001
 40
0.0
 40
0.0
 40
0.0
 40
0.0
 40
0.289702329
 40
0.5490881649
 40
0.7822156415
 40
1.0
 40
1.0
 40
1.0
 40
1.0
 10
107.5058054842
 20
35.7205843148
 30
0.0
 10
107.7251996046
 20
35.5939199259
 30
0.0
 10
108.1616452548
 20
35.3862941737
 30
0.0
 10
108.8324709037
 20
35.2243017985
 30
0.0
 10
109.4619016131
 20
35.2402388698
 30
0.0
 10
109.8408525077
 20
35.3777630841
 30
0.0
 10
110.0057818174
 20
35.4729845265
 30
0.0
  0
SPLINE
  5
4C2
100
AcDbEntity
  8
00_COMPONENTS
100
AcDbSpline
 62
7
  6
CONTINUOUS
 70
0
 71
3
 72
9
 73
5
 74
0
 42
0.0000001
 43
0.0000001
 44
0.0000000001
 40
0.0
 40
0.0
 40
0.0
 40
0.0
 40
0.2416941799
 40
1.0
 40
1.0
 40
1.0
 40
1.0
 10
65.8215149647
 20
237.1691493899
 30
0.0
 10
65.8215149647
 20
237.062649896
 30
0.0
 10
65.8307164683
 20
236.6220323888
 30
0.0
 10
65.8749022763
 20
236.1823793508
 30
0.0
 10
65.9247847354
 20
235.8519858317
 30
0.0
  0
SPLINE
  5
4C3
100
AcDbEntity
  8
00_COMPONENTS
100
AcDbSpline
 62
7
  6
CONTINUOUS
 70
0
 71
3
 72
16
 73
12
 74
0
 42
0.0000001
 43
0.0000001
 44
0.0000000001
 40
0.0
 40
0.0
 40
0.0
 40
0.0
 40
0.0431347005
 40
0.0875646143
 40
0.1841184079
 40
0.2953613013
 40
0.4218413348
 40
0.5607906978
 40
0.70740565
 40
0.8558439373
 40
1.0
 40
1.0
 40
1.0
 40
1.0
 10
151.8899488105
 20
224.7784352232
 30
0.0
 10
152.0693271627
 20
224.881958098
 30
0.0
 10
152.4577291046
 20
225.0527712364
 30
0.0
 10
153.3292950661
 20
225.2315649283
 30
0.0
 10
154.5614586307
 20
225.1130701128
 30
0.0
 10
156.0602139605
 20
224.4969868507
 30
0.0
 10
157.554893955
 20
223.4585211687
 30
0.0
 10
158.9638887487
 20
222.0576567429
 30
0.0
 10
160.2077224796
 20
220.3764432968
 30
0.0
 10
161.2123596875
 20
218.5147853456
 30
0.0
 10
161.6969916335
 20
217.1892340129
 30
0.0
 10
161.8803098208
 20
216.5217981943
 30
0.0
  0
SPLINE
  5
4C4
100
AcDbEntity
  8
00_COMPONENTS
100
AcDbSpline
 62
7
  6
CONTINUOUS
 70
0
 71
3
 72
11
 73
7
 74
0
 42
0.0000001
 43
0.0000001
 44
0.0000000001
 40
0.0
 40
0.0
 40
0.0
 40
0.0
 40
0.217774924
 40
0.4509311967
 40
0.710224778
 40
1.0
 40
1.0
 40
1.0
 40
1.0
 10
153.2455863426
 20
226.0229688393
 30
0.0
 10
153.542448378
 20
226.1943612028
 30
0.0
 10
154.2245661364
 20
226.442008939
 30
0.0
 10
155.3574384904
 20
226.4705814786
 30
0.0
 10
156.5649979019
 20
226.1792395093
 30
0.0
 10
157.350521516
 20
225.8053625175
 30
0.0
 10
157.7455331182
 20
225.5773076219
 30
0.0
  0
SPLINE
  5
4C5
100
AcDbEntity
  8
00_COMPONENTS
100
AcDbSpline
 62
7
  6
CONTINUOUS
 70
0
 71
3
 72
11
 73
7
 74
0
 42
0.0000001
 43
0.0000001
 44
0.0000000001
 40
0.0
 40
0.0
 40
0.0
 40
0.0
 40
0.217855615
 40
0.4509836771
 40
0.7102468026
 40
1.0
 40
1.0
 40
1.0
 40
1.0
 10
95.8042695732
 20
224.593281346
 30
0.0
 10
95.5337157625
 20
224.4370115468
 30
0.0
 10
95.0273434496
 20
224.0117141912
 30
0.0
 10
94.4889637305
 20
223.1305798498
 30
0.0
 10
94.1686871293
 20
222.0451758327
 30
0.0
 10
94.1059039706
 20
221.2550737417
 30
0.0
 10
94.1059039706
 20
220.8395192091
 30
0.0
  0
SPLINE
  5
4C6
100
AcDbEntity
  8
00_COMPONENTS
100
AcDbSpline
 62
7
  6
CONTINUOUS
 70
0
 71
3
 72
11
 73
7
 74
0
 42
0.0000001
 43
0.0000001
 44
0.0000000001
 40
0.0
 40
0.0
 40
0.0
 40
0.0
 40
0.2299153265
 40
0.4833631387
 40
0.7455954944
 40
1.0
 40
1.0
 40
1.0
 40
1.0
 10
122.0365538216
 20
236.80387177
 30
0.0
 10
122.6627499481
 20
236.4423454466
 30
0.0
 10
123.8738559057
 20
235.4964373347
 30
0.0
 10
125.4030416033
 20
233.7028468767
 30
0.0
 10
126.6310025218
 20
231.6015873286
 30
0.0
 10
127.194715823
 20
230.0654075827
 30
0.0
 10
127.3905078046
 20
229.2896526483
 30
0.0
  0
SPLINE
  5
4C7
100
AcDbEntity
  8
00_COMPONENTS
100
AcDbSpline
 62
7
  6
CONTINUOUS
 70
0
 71
3
 72
11
 73
7
 74
0
 42
0.0000001
 43
0.0000001
 44
0.0000000001
 40
0.0
 40
0.0
 40
0.0
 40
0.0
 40
0.289775222
 40
0.5490688033
 40
0.782225076
 40
1.0
 40
1.0
 40
1.0
 40
1.0
 10
127.9055156705
 20
240.1922982471
 30
0.0
 10
127.5543942463
 20
240.3950137098
 30
0.0
 10
126.8561510337
 20
240.7273488136
 30
0.0
 10
125.7827648902
 20
240.986319453
 30
0.0
 10
124.7757672422
 20
240.96092164
 30
0.0
 10
124.1694403458
 20
240.740790319
 30
0.0
 10
123.905562981
 20
240.5884415514
 30
0.0
  0
SPLINE
  5
4C8
100
AcDbEntity
  8
00_COMPONENTS
100
AcDbSpline
 62
7
  6
CONTINUOUS
 70
0
 71
3
 72
10
 73
6
 74
0
 42
0.0000001
 43
0.0000001
 44
0.0000000001
 40
0.0
 40
0.0
 40
0.0
 40
0.0
 40
0.2216434966
 40
0.4568079295
 40
1.0
 40
1.0
 40
1.0
 40
1.0
 10
75.3223961203
 20
92.2865509268
 30
0.0
 10
75.2615128096
 20
92.3217011601
 30
0.0
 10
75.1470132982
 20
92.4150290413
 30
0.0
 10
74.9699895613
 20
92.6825499609
 30
0.0
 10
74.9198746606
 20
92.9343825587
 30
0.0
 10
74.9106447392
 20
93.1064265909
 30
0.0
  0
SPLINE
  5
4C9
100
AcDbEntity
  8
00_COMPONENTS
100
AcDbSpline
 62
7
  6
CONTINUOUS
 70
0
 71
3
 72
13
 73
9
 74
0
 42
0.0000001
 43
0.0000001
 44
0.0000000001
 40
0.0
 40
0.0
 40
0.0
 40
0.0
 40
0.1231879526
 40
0.2580727713
 40
0.5397550669
 40
0.6750466565
 40
0.7989677735
 40
1.0
 40
1.0
 40
1.0
 40
1.0
 10
92.0554521018
 20
194.4688208356
 30
0.0
 10
92.0554521018
 20
194.255612716
 30
0.0
 10
92.1078310141
 20
193.8083176935
 30
0.0
 10
92.3782280842
 20
192.9111782997
 30
0.0
 10
92.8606663607
 20
192.0673819516
 30
0.0
 10
93.5004289712
 20
191.3767684815
 30
0.0
 10
94.1311753401
 20
190.8945746481
 30
0.0
 10
94.6992639102
 20
190.6846431196
 30
0.0
 10
95.0465453221
 20
190.7059995056
 30
0.0
  0
SPLINE
  5
4CA
100
AcDbEntity
  8
00_COMPONENTS
100
AcDbSpline
 62
7
  6
CONTINUOUS
 70
0
 71
3
 72
11
 73
7
 74
0
 42
0.0000001
 43
0.0000001
 44
0.0000000001
 40
0.0
 40
0.0
 40
0.0
 40
0.0
 40
0.2544045056
 40
0.5166368613
 40
0.7700846735
 40
1.0
 40
1.0
 40
1.0
 40
1.0
 10
133.2594696535
 20
232.6780791254
 30
0.0
 10
133.0636776719
 20
233.4538340599
 30
0.0
 10
132.4999643707
 20
234.9900138057
 30
0.0
 10
131.2720034522
 20
237.0912733539
 30
0.0
 10
129.7428177546
 20
238.8848638119
 30
0.0
 10
128.531711797
 20
239.8307719237
 30
0.0
 10
127.9055156705
 20
240.1922982471
 30
0.0
  0
SPLINE
  5
4CB
100
AcDbEntity
  8
00_COMPONENTS
100
AcDbSpline
 62
7
  6
CONTINUOUS
 70
0
 71
3
 72
16
 73
12
 74
0
 42
0.0000001
 43
0.0000001
 44
0.0000000001
 40
0.0
 40
0.0
 40
0.0
 40
0.0
 40
0.1441603913
 40
0.2925971631
 40
0.4392104089
 40
0.5781586241
 40
0.7046366089
 40
0.8158772814
 40
0.9124314192
 40
0.9568627025
 40
1.0
 40
1.0
 40
1.0
 40
1.0
 10
135.1509919818
 20
233.7516012941
 30
0.0
 10
134.9675831373
 20
234.4189290901
 30
0.0
 10
134.482831192
 20
235.7442283488
 30
0.0
 10
133.4781291846
 20
237.6055044477
 30
0.0
 10
132.2343312051
 20
239.286337331
 30
0.0
 10
130.8254390323
 20
240.6868587138
 30
0.0
 10
129.3309151974
 20
241.7250403083
 30
0.0
 10
127.8323525012
 20
242.3409066289
 30
0.0
 10
126.6003634849
 20
242.4593294342
 30
0.0
 10
125.7289196223
 20
242.2804964399
 30
0.0
 10
125.3405526524
 20
242.1097141254
 30
0.0
 10
125.1611889867
 20
242.0062012771
 30
0.0
  0
SPLINE
  5
4CC
100
AcDbEntity
  8
00_COMPONENTS
100
AcDbSpline
 62
7
  6
CONTINUOUS
 70
0
 71
3
 72
9
 73
5
 74
0
 42
0.0000001
 43
0.0000001
 44
0.0000000001
 40
0.0
 40
0.0
 40
0.0
 40
0.0
 40
0.2416941799
 40
1.0
 40
1.0
 40
1.0
 40
1.0
 10
122.3902929765
 20
204.5098890283
 30
0.0
 10
122.3902929765
 20
204.4033895344
 30
0.0
 10
122.3994944801
 20
203.9627720271
 30
0.0
 10
122.4436802881
 20
203.5231189891
 30
0.0
 10
122.4935627472
 20
203.1927254701
 30
0.0
  0
SPLINE
  5
4CD
100
AcDbEntity
  8
00_COMPONENTS
100
AcDbSpline
 62
7
  6
CONTINUOUS
 70
0
 71
3
 72
11
 73
7
 74
0
 42
0.0000001
 43
0.0000001
 44
0.0000000001
 40
0.0
 40
0.0
 40
0.0
 40
0.0
 40
0.2292259228
 40
0.481515342
 40
0.7435216175
 40
1.0
 40
1.0
 40
1.0
 40
1.0
 10
129.4611441124
 20
241.9069378027
 30
0.0
 10
130.1346473742
 20
241.5180993099
 30
0.0
 10
131.4410643843
 20
240.5099629648
 30
0.0
 10
133.1089504303
 20
238.6011894684
 30
0.0
 10
134.4753799149
 20
236.3576159917
 30
0.0
 10
135.1285601325
 20
234.7123907121
 30
0.0
 10
135.3699011631
 20
233.8763800176
 30
0.0
  0
SPLINE
  5
4CE
100
AcDbEntity
  8
00_COMPONENTS
100
AcDbSpline
 62
7
  6
CONTINUOUS
 70
0
 71
3
 72
11
 73
7
 74
0
 42
0.0000001
 43
0.0000001
 44
0.0000000001
 40
0.0
 40
0.0
 40
0.0
 40
0.0
 40
0.2848876306
 40
0.5446761732
 40
0.7810580059
 40
1.0
 40
1.0
 40
1.0
 40
1.0
 10
101.0711069854
 20
192.9380296013
 30
0.0
 10
101.0711069854
 20
193.3307929748
 30
0.0
 10
101.1224742521
 20
194.0834133279
 30
0.0
 10
101.3773564306
 20
195.1359868632
 30
0.0
 10
101.8041400102
 20
196.033608933
 30
0.0
 10
102.2111822785
 20
196.5230323116
 30
0.0
 10
102.4354425105
 20
196.7250689154
 30
0.0
  0
SPLINE
  5
4CF
100
AcDbEntity
  8
00_COMPONENTS
100
AcDbSpline
 62
7
  6
CONTINUOUS
 70
0
 71
3
 72
17
 73
13
 74
0
 42
0.0000001
 43
0.0000001
 44
0.0000000001
 40
0.0
 40
0.0
 40
0.0
 40
0.0
 40
0.128688864
 40
0.2702797703
 40
0.4174318348
 40
0.5617733576
 40
0.6954455149
 40
0.8127096012
 40
0.8646749146
 40
0.9125085807
 40
0.9571389861
 40
1.0
 40
1.0
 40
1.0
 40
1.0
 10
103.9702568585
 20
191.2642425078
 30
0.0
 10
103.9702568585
 20
190.8368679559
 30
0.0
 10
104.0898218626
 20
189.9382480345
 30
0.0
 10
104.5360566365
 20
188.6188239833
 30
0.0
 10
105.2237038676
 20
187.3478112965
 30
0.0
 10
106.097455467
 20
186.2294185923
 30
0.0
 10
107.0859291415
 20
185.3539811769
 30
0.0
 10
107.9806351502
 20
184.8647555654
 30
0.0
 10
108.6805182848
 20
184.678592011
 30
0.0
 10
109.1622104489
 20
184.643122862
 30
0.0
 10
109.6107455245
 20
184.7088593728
 30
0.0
 10
109.8824987444
 20
184.8217766769
 30
0.0
 10
110.0057416027
 20
184.8929958406
 30
0.0
  0
SPLINE
  5
4D0
100
AcDbEntity
  8
00_COMPONENTS
100
AcDbSpline
 62
7
  6
CONTINUOUS
 70
0
 71
3
 72
11
 73
7
 74
0
 42
0.0000001
 43
0.0000001
 44
0.0000000001
 40
0.0
 40
0.0
 40
0.0
 40
0.0
 40
0.289775222
 40
0.5490688033
 40
0.782225076
 40
1.0
 40
1.0
 40
1.0
 40
1.0
 10
130.5217998682
 20
242.5193040336
 30
0.0
 10
130.126788266
 20
242.7473589291
 30
0.0
 10
129.3412646518
 20
243.1212359209
 30
0.0
 10
128.1337052404
 20
243.4125778902
 30
0.0
 10
127.0008328864
 20
243.3840053506
 30
0.0
 10
126.3187151279
 20
243.1363576144
 30
0.0
 10
126.0218530926
 20
242.9649652509
 30
0.0
  0
SPLINE
  5
4D1
100
AcDbEntity
  8
00_COMPONENTS
100
AcDbSpline
 62
7
  6
CONTINUOUS
 70
0
 71
3
 72
11
 73
7
 74
0
 42
0.0000001
 43
0.0000001
 44
0.0000000001
 40
0.0
 40
0.0
 40
0.0
 40
0.0
 40
0.2564783825
 40
0.518484658
 40
0.7707740772
 40
1.0
 40
1.0
 40
1.0
 40
1.0
 10
136.4305569189
 20
234.4887462484
 30
0.0
 10
136.1892158883
 20
235.3247569429
 30
0.0
 10
135.5360356707
 20
236.9699822226
 30
0.0
 10
134.1696061862
 20
239.2135556992
 30
0.0
 10
132.5017201402
 20
241.1223291956
 30
0.0
 10
131.1953031301
 20
242.1304655407
 30
0.0
 10
130.5217998682
 20
242.5193040336
 30
0.0
  0
SPLINE
  5
4D2
100
AcDbEntity
  8
00_COMPONENTS
100
AcDbSpline
 62
7
  6
CONTINUOUS
 70
0
 71
3
 72
11
 73
7
 74
0
 42
0.0000001
 43
0.0000001
 44
0.0000000001
 40
0.0
 40
0.0
 40
0.0
 40
0.0
 40
0.2177660095
 40
0.4508968553
 40
0.7103699668
 40
1.0
 40
1.0
 40
1.0
 40
1.0
 10
76.7214803598
 20
209.8827118107
 30
0.0
 10
76.5565989114
 20
209.7874306803
 30
0.0
 10
76.247849722
 20
209.5282601084
 30
0.0
 10
75.9193710624
 20
208.9909390609
 30
0.0
 10
75.7243674929
 20
208.3289515308
 30
0.0
 10
75.6858678526
 20
207.8471484703
 30
0.0
 10
75.6858678526
 20
207.5938726886
 30
0.0
  0
SPLINE
  5
4D3
100
AcDbEntity
  8
00_COMPONENTS
100
AcDbSpline
 62
7
  6
CONTINUOUS
 70
0
 71
3
 72
11
 73
7
 74
0
 42
0.0000001
 43
0.0000001
 44
0.0000000001
 40
0.0
 40
0.0
 40
0.0
 40
0.0
 40
0.2564783825
 40
0.518484658
 40
0.7707740772
 40
1.0
 40
1.0
 40
1.0
 40
1.0
 10
164.7149459248
 20
218.1591160676
 30
0.0
 10
164.4736048942
 20
218.9951267621
 30
0.0
 10
163.8204246766
 20
220.6403520417
 30
0.0
 10
162.453995192
 20
222.8839255184
 30
0.0
 10
160.786109146
 20
224.7926990148
 30
0.0
 10
159.4796921359
 20
225.8008353599
 30
0.0
 10
158.8061888741
 20
226.1896738527
 30
0.0
  0
SPLINE
  5
4D4
100
AcDbEntity
  8
00_COMPONENTS
100
AcDbSpline
 62
7
  6
CONTINUOUS
 70
0
 71
3
 72
11
 73
7
 74
0
 42
0.0000001
 43
0.0000001
 44
0.0000000001
 40
0.0
 40
0.0
 40
0.0
 40
0.0
 40
0.289775222
 40
0.5490688033
 40
0.782225076
 40
1.0
 40
1.0
 40
1.0
 40
1.0
 10
158.8061888741
 20
226.1896738527
 30
0.0
 10
158.4111772718
 20
226.4177287483
 30
0.0
 10
157.6256536577
 20
226.7916057401
 30
0.0
 10
156.4180942463
 20
227.0829477094
 30
0.0
 10
155.2852218922
 20
227.0543751698
 30
0.0
 10
154.6031041338
 20
226.8067274336
 30
0.0
 10
154.3062420984
 20
226.6353350701
 30
0.0
  0
SPLINE
  5
4D5
100
AcDbEntity
  8
00_COMPONENTS
100
AcDbSpline
 62
7
  6
CONTINUOUS
 70
0
 71
3
 72
11
 73
7
 74
0
 42
0.0000001
 43
0.0000001
 44
0.0000000001
 40
0.0
 40
0.0
 40
0.0
 40
0.0
 40
0.2292259228
 40
0.481515342
 40
0.7435216175
 40
1.0
 40
1.0
 40
1.0
 40
1.0
 10
157.7455331182
 20
225.5773076219
 30
0.0
 10
158.4190363801
 20
225.1884691291
 30
0.0
 10
159.7254533902
 20
224.180332784
 30
0.0
 10
161.3933394362
 20
222.2715592876
 30
0.0
 10
162.7597689208
 20
220.0279858109
 30
0.0
 10
163.4129491384
 20
218.3827605313
 30
0.0
 10
163.654290169
 20
217.5467498368
 30
0.0
  0
SPLINE
  5
4D6
100
AcDbEntity
  8
00_COMPONENTS
100
AcDbSpline
 62
7
  6
CONTINUOUS
 70
0
 71
3
 72
13
 73
9
 74
0
 42
0.0000001
 43
0.0000001
 44
0.0000000001
 40
0.0
 40
0.0
 40
0.0
 40
0.0
 40
0.1142484259
 40
0.2375469717
 40
0.4999989156
 40
0.762451453
 40
0.885750692
 40
1.0
 40
1.0
 40
1.0
 40
1.0
 10
79.2214164783
 20
48.7842048271
 30
0.0
 10
78.7857822161
 20
49.0357126958
 30
0.0
 10
77.9251556613
 20
49.6389709502
 30
0.0
 10
76.3140294384
 20
51.1469174872
 30
0.0
 10
74.6121944324
 20
53.4715194944
 30
0.0
 10
73.4499345125
 20
56.1076500631
 30
0.0
 10
72.9495618473
 20
58.256905599
 30
0.0
 10
72.857428952
 20
59.3038652161
 30
0.0
 10
72.857428952
 20
59.806893372
 30
0.0
  0
SPLINE
  5
4D7
100
AcDbEntity
  8
00_COMPONENTS
100
AcDbSpline
 62
7
  6
CONTINUOUS
 70
0
 71
3
 72
16
 73
12
 74
0
 42
0.0000001
 43
0.0000001
 44
0.0000000001
 40
0.0
 40
0.0
 40
0.0
 40
0.0
 40
0.1441603913
 40
0.2925971631
 40
0.4392104089
 40
0.5781586241
 40
0.7046366089
 40
0.8158772814
 40
0.9124314192
 40
0.9568627025
 40
1.0
 40
1.0
 40
1.0
 40
1.0
 10
163.4353809877
 20
217.4219711132
 30
0.0
 10
163.2519721432
 20
218.0892989093
 30
0.0
 10
162.7672201978
 20
219.4145981679
 30
0.0
 10
161.7625181905
 20
221.2758742669
 30
0.0
 10
160.518720211
 20
222.9567071502
 30
0.0
 10
159.1098280382
 20
224.3572285329
 30
0.0
 10
157.6153042032
 20
225.3954101275
 30
0.0
 10
156.1167415071
 20
226.0112764481
 30
0.0
 10
154.8847524908
 20
226.1296992534
 30
0.0
 10
154.0133086282
 20
225.9508662591
 30
0.0
 10
153.6249416583
 20
225.7800839446
 30
0.0
 10
153.4455779925
 20
225.6765710963
 30
0.0
  0
SPLINE
  5
4D8
100
AcDbEntity
  8
00_COMPONENTS
100
AcDbSpline
 62
7
  6
CONTINUOUS
 70
0
 71
3
 72
9
 73
5
 74
0
 42
0.0000001
 43
0.0000001
 44
0.0000000001
 40
0.0
 40
0.0
 40
0.0
 40
0.0
 40
0.2749979211
 40
1.0
 40
1.0
 40
1.0
 40
1.0
 10
72.857428952
 20
59.806893372
 30
0.0
 10
72.857428952
 20
60.0738546509
 30
0.0
 10
72.9026875812
 20
61.0417855131
 30
0.0
 10
73.1496080363
 20
62.0170943273
 30
0.0
 10
73.4889280026
 20
62.6337113847
 30
0.0
  0
SPLINE
  5
4D9
100
AcDbEntity
  8
00_COMPONENTS
100
AcDbSpline
 62
7
  6
CONTINUOUS
 70
0
 71
3
 72
11
 73
7
 74
0
 42
0.0000001
 43
0.0000001
 44
0.0000000001
 40
0.0
 40
0.0
 40
0.0
 40
0.0
 40
0.2544045056
 40
0.5166368613
 40
0.7700846735
 40
1.0
 40
1.0
 40
1.0
 40
1.0
 10
161.5438586594
 20
216.3484489446
 30
0.0
 10
161.3480666778
 20
217.1242038791
 30
0.0
 10
160.7843533766
 20
218.6603836249
 30
0.0
 10
159.5563924581
 20
220.761643173
 30
0.0
 10
158.0272067605
 20
222.555233631
 30
0.0
 10
156.8161008028
 20
223.5011417429
 30
0.0
 10
156.1899046764
 20
223.8626680663
 30
0.0
  0
SPLINE
  5
4DA
100
AcDbEntity
  8
00_COMPONENTS
100
AcDbSpline
 62
7
  6
CONTINUOUS
 70
0
 71
3
 72
11
 73
7
 74
0
 42
0.0000001
 43
0.0000001
 44
0.0000000001
 40
0.0
 40
0.0
 40
0.0
 40
0.0
 40
0.289775222
 40
0.5490688033
 40
0.782225076
 40
1.0
 40
1.0
 40
1.0
 40
1.0
 10
156.1899046764
 20
223.8626680663
 30
0.0
 10
155.8387832522
 20
224.065383529
 30
0.0
 10
155.1405400396
 20
224.3977186328
 30
0.0
 10
154.0671538961
 20
224.6566892722
 30
0.0
 10
153.0601562481
 20
224.6312914592
 30
0.0
 10
152.4538293517
 20
224.4111601381
 30
0.0
 10
152.1899519869
 20
224.2588113706
 30
0.0
  0
SPLINE
  5
4DB
100
AcDbEntity
  8
00_COMPONENTS
100
AcDbSpline
 62
7
  6
CONTINUOUS
 70
0
 71
3
 72
11
 73
7
 74
0
 42
0.0000001
 43
0.0000001
 44
0.0000000001
 40
0.0
 40
0.0
 40
0.0
 40
0.0
 40
0.2299153265
 40
0.4833631387
 40
0.7455954944
 40
1.0
 40
1.0
 40
1.0
 40
1.0
 10
150.3209428275
 20
220.4742415892
 30
0.0
 10
150.947138954
 20
220.1127152658
 30
0.0
 10
152.1582449116
 20
219.1668071539
 30
0.0
 10
153.6874306092
 20
217.3732166959
 30
0.0
 10
154.9153915277
 20
215.2719571478
 30
0.0
 10
155.4791048289
 20
213.7357774019
 30
0.0
 10
155.6748968105
 20
212.9600224675
 30
0.0
  0
SPLINE
  5
4DC
100
AcDbEntity
  8
00_COMPONENTS
100
AcDbSpline
 62
7
  6
CONTINUOUS
 70
0
 71
3
 72
13
 73
9
 74
0
 42
0.0000001
 43
0.0000001
 44
0.0000000001
 40
0.0
 40
0.0
 40
0.0
 40
0.0
 40
0.1231879526
 40
0.2580727713
 40
0.5397550669
 40
0.6750466565
 40
0.7989677735
 40
1.0
 40
1.0
 40
1.0
 40
1.0
 10
63.7710630959
 20
210.7984510165
 30
0.0
 10
63.7710630959
 20
210.5852428968
 30
0.0
 10
63.8234420082
 20
210.1379478743
 30
0.0
 10
64.0938390784
 20
209.2408084805
 30
0.0
 10
64.5762773548
 20
208.3970121324
 30
0.0
 10
65.2160399653
 20
207.7063986623
 30
0.0
 10
65.8467863342
 20
207.224204829
 30
0.0
 10
66.4148749043
 20
207.0142733004
 30
0.0
 10
66.7621563163
 20
207.0356296864
 30
0.0
  0
SPLINE
  5
4DD
100
AcDbEntity
  8
00_COMPONENTS
100
AcDbSpline
 62
7
  6
CONTINUOUS
 70
0
 71
3
 72
11
 73
7
 74
0
 42
0.0000001
 43
0.0000001
 44
0.0000000001
 40
0.0
 40
0.0
 40
0.0
 40
0.0
 40
0.2372413576
 40
0.5000010231
 40
0.762760128
 40
1.0
 40
1.0
 40
1.0
 40
1.0
 10
75.6858678526
 20
58.1739303539
 30
0.0
 10
75.6858678526
 20
57.5943297752
 30
0.0
 10
75.9032730524
 20
56.371998487
 30
0.0
 10
76.6609728196
 20
54.6544144714
 30
0.0
 10
77.7695988771
 20
53.1394430706
 30
0.0
 10
78.7194679573
 20
52.3400080533
 30
0.0
 10
79.2214164783
 20
52.0502144956
 30
0.0
  0
SPLINE
  5
4DE
100
AcDbEntity
  8
00_COMPONENTS
100
AcDbSpline
 62
7
  6
CONTINUOUS
 70
0
 71
3
 72
17
 73
13
 74
0
 42
0.0000001
 43
0.0000001
 44
0.0000000001
 40
0.0
 40
0.0
 40
0.0
 40
0.0
 40
0.128688864
 40
0.2702797703
 40
0.4174318348
 40
0.5617733576
 40
0.6954455149
 40
0.8127096012
 40
0.8646749146
 40
0.9125085807
 40
0.9571389861
 40
1.0
 40
1.0
 40
1.0
 40
1.0
 10
75.6858678526
 20
207.5938726886
 30
0.0
 10
75.6858678526
 20
207.1664981367
 30
0.0
 10
75.8054328567
 20
206.2678782153
 30
0.0
 10
76.2516676306
 20
204.9484541641
 30
0.0
 10
76.9393148617
 20
203.6774414773
 30
0.0
 10
77.8130664611
 20
202.5590487731
 30
0.0
 10
78.8015401356
 20
201.6836113577
 30
0.0
 10
79.6962461443
 20
201.1943857462
 30
0.0
 10
80.396129279
 20
201.0082221918
 30
0.0
 10
80.8778214431
 20
200.9727530428
 30
0.0
 10
81.3263565186
 20
201.0384895536
 30
0.0
 10
81.5981097385
 20
201.1514068577
 30
0.0
 10
81.7213525969
 20
201.2226260214
 30
0.0
  0
SPLINE
  5
4DF
100
AcDbEntity
  8
00_COMPONENTS
100
AcDbSpline
 62
7
  6
CONTINUOUS
 70
0
 71
3
 72
11
 73
7
 74
0
 42
0.0000001
 43
0.0000001
 44
0.0000000001
 40
0.0
 40
0.0
 40
0.0
 40
0.0
 40
0.2848876306
 40
0.5446761732
 40
0.7810580059
 40
1.0
 40
1.0
 40
1.0
 40
1.0
 10
72.7867179795
 20
209.2676597821
 30
0.0
 10
72.7867179795
 20
209.6604231556
 30
0.0
 10
72.8380852462
 20
210.4130435087
 30
0.0
 10
73.0929674247
 20
211.465617044
 30
0.0
 10
73.5197510043
 20
212.3632391138
 30
0.0
 10
73.9267932726
 20
212.8526624924
 30
0.0
 10
74.1510535046
 20
213.0546990962
 30
0.0
  0
SPLINE
  5
4E0
100
AcDbEntity
  8
00_COMPONENTS
100
AcDbSpline
 62
7
  6
CONTINUOUS
 70
0
 71
3
 72
11
 73
7
 74
0
 42
0.0000001
 43
0.0000001
 44
0.0000000001
 40
0.0
 40
0.0
 40
0.0
 40
0.0
 40
0.289702329
 40
0.5490881649
 40
0.7822156415
 40
1.0
 40
1.0
 40
1.0
 40
1.0
 10
79.2214164783
 20
52.0502144956
 30
0.0
 10
79.4408105987
 20
51.9235501067
 30
0.0
 10
79.8772562489
 20
51.7159243545
 30
0.0
 10
80.5480818978
 20
51.5539319793
 30
0.0
 10
81.1775126072
 20
51.5698690506
 30
0.0
 10
81.5564635018
 20
51.7073932649
 30
0.0
 10
81.7213928115
 20
51.8026147073
 30
0.0
  0
SPLINE
  5
4E1
100
AcDbEntity
  8
00_COMPONENTS
100
AcDbSpline
 62
7
  6
CONTINUOUS
 70
0
 71
3
 72
9
 73
5
 74
0
 42
0.0000001
 43
0.0000001
 44
0.0000000001
 40
0.0
 40
0.0
 40
0.0
 40
0.0
 40
0.2416941799
 40
1.0
 40
1.0
 40
1.0
 40
1.0
 10
94.1059039706
 20
220.8395192091
 30
0.0
 10
94.1059039706
 20
220.7330197152
 30
0.0
 10
94.1151054742
 20
220.2924022079
 30
0.0
 10
94.1592912822
 20
219.85274917
 30
0.0
 10
94.2091737413
 20
219.5223556509
 30
0.0
  0
ELLIPSE
  5
4E2
100
AcDbEntity
  8
00_COMPONENTS
100
AcDbEllipse
 62
7
  6
CONTINUOUS
 10
97.3491583279
 20
186.2167340252
 30
0.0
 11
-0.412556678
 21
1.1933004748
 31
0.0
 40
0.6687732567
 41
-2.2277698218
 42
0.1284160005
  0
ELLIPSE
  5
4E3
100
AcDbEntity
  8
00_COMPONENTS
100
AcDbEllipse
 62
7
  6
CONTINUOUS
 10
62.5336481614
 20
67.318626012
 30
0.0
 11
-3.1883826642
 21
4.0352317524
 31
0.0
 40
0.4542240545
 41
-2.4224635842
 42
-1.666109048
  0
ELLIPSE
  5
4E4
100
AcDbEntity
  8
00_COMPONENTS
100
AcDbEllipse
 62
7
  6
CONTINUOUS
 10
90.8180371673
 20
50.9889958312
 30
0.0
 11
-3.1883826642
 21
4.0352317524
 31
0.0
 40
0.4542240545
 41
-2.4224635842
 42
-1.666109048
  0
ELLIPSE
  5
4E5
100
AcDbEntity
  8
00_COMPONENTS
100
AcDbEllipse
 62
7
  6
CONTINUOUS
 10
55.8868191002
 20
72.4624999754
 30
0.0
 11
-0.7189490321
 21
0.9099051991
 31
0.0
 40
0.4542240545
 41
-2.4224635842
 42
-0.0662777716
  0
ELLIPSE
  5
4E6
100
AcDbEntity
  8
00_COMPONENTS
100
AcDbEllipse
 62
7
  6
CONTINUOUS
 10
96.8991831587
 20
48.7845362132
 30
0.0
 11
-0.7189490321
 21
0.9099051991
 31
0.0
 40
0.4542240545
 41
-2.4224635842
 42
-0.0662777716
  0
ELLIPSE
  5
4E7
100
AcDbEntity
  8
00_COMPONENTS
100
AcDbEllipse
 62
7
  6
CONTINUOUS
 10
32.941106164
 20
84.4035015887
 30
0.0
 11
-1.7817432535
 21
2.2549824499
 31
0.0
 40
0.4542240545
 41
3.0753097483
 42
4.7250873453
  0
ELLIPSE
  5
4E8
100
AcDbEntity
  8
00_COMPONENTS
100
AcDbEllipse
 62
7
  6
CONTINUOUS
 10
96.8991831587
 20
48.7845362132
 30
0.0
 11
-0.7189490321
 21
0.9099051991
 31
0.0
 40
0.4542240545
 41
0.7191290694
 42
3.075314882
  0
ELLIPSE
  5
4E9
100
AcDbEntity
  8
00_COMPONENTS
100
AcDbEllipse
 62
7
  6
CONTINUOUS
 10
49.1692678794
 20
71.4417463774
 30
0.0
 11
-5.6265576428
 21
7.1209972101
 31
0.0
 40
0.4542240545
 41
0.0
 42
6.2831853072
  0
ELLIPSE
  5
4EA
100
AcDbEntity
  8
00_COMPONENTS
100
AcDbEllipse
 62
7
  6
CONTINUOUS
 10
90.8180371673
 20
50.9889958312
 30
0.0
 11
-3.1883826642
 21
4.0352317524
 31
0.0
 40
0.4542240545
 41
-0.0372254667
 42
0.7191290694
  0
ELLIPSE
  5
4EB
100
AcDbEntity
  8
00_COMPONENTS
100
AcDbEllipse
 62
7
  6
CONTINUOUS
 10
120.4105791647
 20
33.9041202545
 30
0.0
 11
-1.7817432535
 21
2.2549824499
 31
0.0
 40
0.4542240545
 41
-0.0662829053
 42
1.5834946917
  0
ELLIPSE
  5
4EC
100
AcDbEntity
  8
00_COMPONENTS
100
AcDbEllipse
 62
7
  6
CONTINUOUS
 10
97.3491583279
 20
186.2167340252
 30
0.0
 11
-0.412556678
 21
1.1933004748
 31
0.0
 40
0.6687732567
 41
0.9138228318
 42
3.2700086541
  0
ELLIPSE
  5
4ED
100
AcDbEntity
  8
00_COMPONENTS
100
AcDbEllipse
 62
7
  6
CONTINUOUS
 10
34.6735214579
 20
224.3316184314
 30
0.0
 11
-0.9406292258
 21
2.7207250825
 31
0.0
 40
0.6687732567
 41
-3.7985661486
 42
-0.656973495
  0
ELLIPSE
  5
4EE
100
AcDbEntity
  8
00_COMPONENTS
100
AcDbEllipse
 62
7
  6
CONTINUOUS
 10
49.522819798
 20
221.0658107891
 30
0.0
 11
-3.0034126158
 21
8.6872274564
 31
0.0
 40
0.6687732567
 41
0.0
 42
6.2831853072
  0
ELLIPSE
  5
4EF
100
AcDbEntity
  8
00_COMPONENTS
100
AcDbEllipse
 62
7
  6
CONTINUOUS
 10
62.9591961071
 20
208.0108955369
 30
0.0
 11
-1.6832312462
 21
4.8686659371
 31
0.0
 40
0.6687732567
 41
0.9138228318
 42
4.0554154854
  0
ELLIPSE
  5
4F0
100
AcDbEntity
  8
00_COMPONENTS
100
AcDbEllipse
 62
7
  6
CONTINUOUS
 10
91.243585113
 20
191.681265356
 30
0.0
 11
-1.6832312462
 21
4.8686659371
 31
0.0
 40
0.6687732567
 41
0.9138228318
 42
4.0554154854
  0
ELLIPSE
  5
4F1
100
AcDbEntity
  8
00_COMPONENTS
100
AcDbEllipse
 62
7
  6
CONTINUOUS
 10
105.7380458912
 20
38.7824860158
 30
0.0
 11
-5.6265576428
 21
7.1209972101
 31
0.0
 40
0.4542240545
 41
0.0
 42
6.2831853072
  0
ELLIPSE
  5
4F2
100
AcDbEntity
  8
00_COMPONENTS
100
AcDbEllipse
 62
7
  6
CONTINUOUS
 10
119.5266884755
 20
175.342727889
 30
0.0
 11
-0.9406292258
 21
2.7207250825
 31
0.0
 40
0.6687732567
 41
5.6262118122
 42
8.7678044658
  0
ELLIPSE
  5
4F3
100
AcDbEntity
  8
00_COMPONENTS
100
AcDbEllipse
 62
7
  6
CONTINUOUS
 10
55.8868191002
 20
72.4624999754
 30
0.0
 11
-0.7189490321
 21
0.9099051991
 31
0.0
 40
0.4542240545
 41
0.7191290694
 42
3.075314882
  0
ELLIPSE
  5
4F4
100
AcDbEntity
  8
00_COMPONENTS
100
AcDbEllipse
 62
7
  6
CONTINUOUS
 10
62.5336481614
 20
67.318626012
 30
0.0
 11
-3.1883826642
 21
4.0352317524
 31
0.0
 40
0.4542240545
 41
-0.0372254667
 42
0.7191290694
  0
ELLIPSE
  5
4F5
100
AcDbEntity
  8
00_COMPONENTS
100
AcDbEllipse
 62
7
  6
CONTINUOUS
 10
106.0915978098
 20
188.4065504275
 30
0.0
 11
-3.0034126158
 21
8.6872274564
 31
0.0
 40
0.6687732567
 41
0.0
 42
6.2831853072
  0
ELLIPSE
  5
4F6
100
AcDbEntity
  8
00_COMPONENTS
100
AcDbEllipse
 62
7
  6
CONTINUOUS
 10
77.4536568853
 20
55.1121161966
 30
0.0
 11
-5.6265576428
 21
7.1209972101
 31
0.0
 40
0.4542240545
 41
0.0
 42
6.2831853072
  0
ELLIPSE
  5
4F7
100
AcDbEntity
  8
00_COMPONENTS
100
AcDbEllipse
 62
7
  6
CONTINUOUS
 10
56.3367942693
 20
209.8946977874
 30
0.0
 11
-0.4290589451
 21
1.2410324938
 31
0.0
 40
0.6687732567
 41
0.0
 42
6.2831853072
  0
ELLIPSE
  5
4F8
100
AcDbEntity
  8
00_COMPONENTS
100
AcDbEllipse
 62
7
  6
CONTINUOUS
 10
77.8072088039
 20
204.7361806083
 30
0.0
 11
-3.0034126158
 21
8.6872274564
 31
0.0
 40
0.6687732567
 41
0.0
 42
6.2831853072
  0
ENDSEC
  0
SECTION
  2
OBJECTS
  0
DICTIONARY
  5
C
100
AcDbDictionary
280
0
281
1
  3
ACAD_GROUP
350
D
  3
ACAD_MLINESTYLE
350
17
  3
ACAD_LAYOUT
350
1A
  3
ACAD_PLOTSETTINGS
350
19
  3
ACAD_PLOTSTYLENAME
350
E
  0
DICTIONARY
  5
D
102
{ACAD_REACTORS
330
C
102
}
100
AcDbDictionary
280
0
281
1
  0
ACDBDICTIONARYWDFLT
  5
E
102
{ACAD_REACTORS
330
C
102
}
100
AcDbDictionary
281
1
  3
Normal
350
F
100
AcDbDictionaryWithDefault
340
F
  0
DICTIONARY
  5
17
102
{ACAD_REACTORS
330
C
102
}
100
AcDbDictionary
280
0
281
1
  3
Standard
350
18
  0
DICTIONARY
  5
19
102
{ACAD_REACTORS
330
C
102
}
100
AcDbDictionary
281
1
  0
DICTIONARY
  5
1A
102
{ACAD_REACTORS
330
C
102
}
100
AcDbDictionary
281
1
  3
Model
350
4F9
  3
Layout1
350
4FA
  0
ACDBPLACEHOLDER
  5
F
102
{ACAD_REACTORS
330
E
102
}
  0
MLINESTYLE
  5
18
102
{ACAD_REACTORS
330
17
102
}
100
AcDbMlineStyle
  2
STANDARD
 70
0
  3

 62
256
 51
90.0
 52
90.0
 71
2
 49
0.5
 62
256
  6
BYLAYER
 49
-0.5
 62
256
  6
BYLAYER
  0
LAYOUT
  5
4F9
102
{ACAD_REACTORS
330
1A
102
}
100
AcDbPlotSettings
  1

  2
none_device
  4

  6

 40
0.0
 41
0.0
 42
0.0
 43
0.0
 44
210.0
 45
297.0
 46
0.0
 47
0.0
 48
0.0
 49
0.0
140
0.0
141
0.0
142
1.0
143
1.0
 70
1024
 72
1
 73
0
 74
0
  7

 75
0
147
1.0
148
0.0
149
0.0
100
AcDbLayout
  1
Model
 70
0
 71
0
 10
0.0
 20
0.0
 11
210.0
 21
297.0
 12
0.0
 22
0.0
 32
0.0
 14
0.0
 24
0.0
 34
0.0
 15
0.0
 25
0.0
 35
0.0
146
0.0
 13
0.0
 23
0.0
 33
0.0
 16
1.0
 26
0.0
 36
0.0
 17
0.0
 27
1.0
 37
0.0
 76
0
330
213
345
0
346
0
  0
LAYOUT
  5
4FA
102
{ACAD_REACTORS
330
1A
102
}
100
AcDbPlotSettings
  1

  2
none_device
  4

  6

 40
0.0
 41
0.0
 42
0.0
 43
0.0
 44
210.0
 45
297.0
 46
0.0
 47
0.0
 48
0.0
 49
0.0
140
0.0
141
0.0
142
1.0
143
1.0
 70
0
 72
1
 73
0
 74
0
  7

 75
0
147
1.0
148
0.0
149
0.0
100
AcDbLayout
  1
Layout1
 70
0
 71
1
 10
0.0
 20
0.0
 11
210.0
 21
297.0
 12
0.0
 22
0.0
 32
0.0
 14
0.0
 24
0.0
 34
0.0
 15
0.0
 25
0.0
 35
0.0
146
0.0
 13
0.0
 23
0.0
 33
0.0
 16
1.0
 26
0.0
 36
0.0
 17
0.0
 27
1.0
 37
0.0
 76
0
330
214
345
0
346
0
  0
ENDSEC
  0
EOF
