999
DXF file: C:\Users\SESA621925\Desktop\Projects\Drawing_creation_tool\Gen2D (3) (1)\CAD\G40F4A250_3D-CAD\drw0001_1.dxf
999
Pro/ENGINEER 2019471 by Parametric Technology Corporation
  0
SECTION
  2
HEADER
  9
$ACADVER
  1
AC1024
  9
$DWGCODEPAGE
  3
ANSI_1252
  9
$EXTMAX
 10
239.1592604809
 20
338.2395255373
 30
0.0
  9
$EXTMIN
 10
0.0
 20
0.0
 30
0.0
  9
$LIMMIN
 10
0.0
 20
0.0
  9
$LIMMAX
 10
239.1592604809
 20
338.2395255373
  9
$VIEWCTR
 10
119.5796302405
 20
169.1197627686
  9
$VIEWSIZE
 40
338.2395255373
  9
$CLAYER
  8
0
  9
$LTSCALE
 40
22.0482061091
  9
$CELTYPE
  6
BYLAYER
  9
$DIMSCALE
 40
1.0
  9
$DIMASZ
 40
2.8471340533
  9
$DIMEXO
 40
1.0
  9
$DIMDLI
 40
15.233306039
  9
$DIMEXE
 40
1.0
  9
$DIMCEN
 40
3.6078882724
  9
$DIMLFAC
 40
1.0
  9
$DIMBLK
  1
_FILLED
  9
$DIMALT
 70
0
  9
$DIMALTF
 40
0.0393700787
  9
$DIMTXT
 40
3.9859876747
  9
$DIMTOL
 70
1
  9
$DIMLIM
 70
0
  9
$DIMTFAC
 40
1.0
  9
$DIMTP
 40
0.01
  9
$DIMTM
 40
0.01
  9
$DIMGAP
 40
0.625
  9
$DIMDSEP
 70
46
  9
$AUNITS
 70
0
  9
$PDMODE
 70
3
  9
$PDSIZE
 40
0.3125
  9
$HANDSEED
  5
5AD
  9
$TILEMODE
 70
1
  9
$MEASUREMENT
 70
1
  9
$INSUNITS
 70
4
  0
ENDSEC
  0
SECTION
  2
CLASSES
  0
CLASS
  1
ACDBDICTIONARYWDFLT
  2
AcDbDictionaryWithDefault
  3
AutoCAD 2000
 90
0
 91
1
280
0
281
0
  0
CLASS
  1
ACDBPLACEHOLDER
  2
AcDbPlaceHolder
  3
AutoCAD 2000
 90
0
 91
1
280
0
281
0
  0
CLASS
  1
LAYOUT
  2
AcDbLayout
  3
AutoCAD 2000
 90
0
 91
0
280
0
281
0
  0
ENDSEC
  0
SECTION
  2
TABLES
  0
TABLE
  2
VPORT
  5
8
100
AcDbSymbolTable
 70
2
  0
VPORT
  5
1F4
100
AcDbSymbolTableRecord
100
AcDbViewportTableRecord
  2
*ACTIVE
 70
0
 10
0.0
 20
0.0
 11
1.0
 21
1.0
 12
119.5796302405
 22
169.1197627686
 13
0.0
 23
0.0
 14
1.0
 24
1.0
 15
0.0
 25
0.0
 16
0.0
 26
0.0
 36
1.0
 17
0.0
 27
0.0
 37
0.0
 40
338.2395255373
 41
0.7070707071
 42
50.0
 43
0.0
 44
0.0
 50
0.0
 51
0.0
 71
0
 72
100
 73
1
 74
1
 75
0
 76
0
 77
0
 78
0
  0
ENDTAB
  0
TABLE
  2
LTYPE
  5
5
100
AcDbSymbolTable
 70
6
  0
LTYPE
  5
14
100
AcDbSymbolTableRecord
100
AcDbLinetypeTableRecord
  2
BYBLOCK
 70
0
  3

 72
65
 73
0
 40
0.0
  0
LTYPE
  5
15
100
AcDbSymbolTableRecord
100
AcDbLinetypeTableRecord
  2
BYLAYER
 70
0
  3

 72
65
 73
0
 40
0.0
  0
LTYPE
  5
16
100
AcDbSymbolTableRecord
100
AcDbLinetypeTableRecord
  2
CONTINUOUS
 70
64
  3
Solid line
 72
65
 73
0
 40
0.0
  0
LTYPE
  5
1F5
100
AcDbSymbolTableRecord
100
AcDbLinetypeTableRecord
  2
CENTER
 70
64
  3
____ _ ____ _ ____ _ ____ _ ____ _ ____ _ ____
 72
65
 73
4
 40
0.6
 49
0.375
 74
0
 49
-0.075
 74
0
 49
0.075
 74
0
 49
-0.075
 74
0
  0
LTYPE
  5
1F6
100
AcDbSymbolTableRecord
100
AcDbLinetypeTableRecord
  2
HIDDEN
 70
64
  3
- - - - - - - - - - - - - - - - - - - -
 72
65
 73
2
 40
0.2
 49
0.1
 74
0
 49
-0.1
 74
0
  0
LTYPE
  5
1F7
100
AcDbSymbolTableRecord
100
AcDbLinetypeTableRecord
  2
PHANTOM
 70
64
  3
_____ _ _ _____ _ _ _____ _ _ _____
 72
65
 73
6
 40
0.8
 49
0.45
 74
0
 49
-0.05
 74
0
 49
0.1
 74
0
 49
-0.05
 74
0
 49
0.1
 74
0
 49
-0.05
 74
0
  0
LTYPE
  5
1F8
100
AcDbSymbolTableRecord
100
AcDbLinetypeTableRecord
  2
DOT
 70
64
  3
. . . . . . . . . . . . . . . . . . . .
 72
65
 73
2
 40
0.2
 49
0.1
 74
0
 49
-0.1
 74
0
  0
LTYPE
  5
1F9
100
AcDbSymbolTableRecord
100
AcDbLinetypeTableRecord
  2
DASHED
 70
64
  3
- - - - - - - - - - - - - - - - - - - -
 72
65
 73
2
 40
0.2
 49
0.1
 74
0
 49
-0.1
 74
0
  0
ENDTAB
  0
TABLE
  2
LAYER
  5
2
100
AcDbSymbolTable
 70
36
  0
LAYER
  5
10
100
AcDbSymbolTableRecord
100
AcDbLayerTableRecord
  2
0
 70
0
 62
7
  6
CONTINUOUS
370
-3
390
F
  0
LAYER
  5
1FA
100
AcDbSymbolTableRecord
100
AcDbLayerTableRecord
  2
DEFAULT_1
 70
0
 62
7
  6
CENTER
370
-3
390
F
  0
LAYER
  5
1FB
100
AcDbSymbolTableRecord
100
AcDbLayerTableRecord
  2
DEFAULT_2
 70
0
 62
8
  6
HIDDEN
370
-3
390
F
  0
LAYER
  5
1FC
100
AcDbSymbolTableRecord
100
AcDbLayerTableRecord
  2
DEFAULT_3
 70
0
 62
7
  6
PHANTOM
370
-3
390
F
  0
LAYER
  5
1FD
100
AcDbSymbolTableRecord
100
AcDbLayerTableRecord
  2
00_COMPONENTS
 70
0
 62
7
  6
CONTINUOUS
370
-3
390
F
  0
LAYER
  5
1FE
100
AcDbSymbolTableRecord
100
AcDbLayerTableRecord
  2
00_COMPONENTS_1
 70
0
 62
7
  6
CONTINUOUS
370
-3
390
F
  0
LAYER
  5
1FF
100
AcDbSymbolTableRecord
100
AcDbLayerTableRecord
  2
00_COMPONENTS_2
 70
0
 62
7
  6
CONTINUOUS
370
-3
390
F
  0
LAYER
  5
200
100
AcDbSymbolTableRecord
100
AcDbLayerTableRecord
  2
00_COMPONENTS_4
 70
0
 62
7
  6
CONTINUOUS
370
-3
390
F
  0
LAYER
  5
201
100
AcDbSymbolTableRecord
100
AcDbLayerTableRecord
  2
01_1_DEFAULT_DATUMS
 70
0
 62
7
  6
CONTINUOUS
370
-3
390
F
  0
LAYER
  5
202
100
AcDbSymbolTableRecord
100
AcDbLayerTableRecord
  2
01_PLANES
 70
0
 62
7
  6
CONTINUOUS
370
-3
390
F
  0
LAYER
  5
203
100
AcDbSymbolTableRecord
100
AcDbLayerTableRecord
  2
02_COORD_SYS
 70
0
 62
7
  6
CONTINUOUS
370
-3
390
F
  0
LAYER
  5
204
100
AcDbSymbolTableRecord
100
AcDbLayerTableRecord
  2
03_AXES
 70
0
 62
7
  6
CONTINUOUS
370
-3
390
F
  0
LAYER
  5
205
100
AcDbSymbolTableRecord
100
AcDbLayerTableRecord
  2
04_POINTS
 70
0
 62
7
  6
CONTINUOUS
370
-3
390
F
  0
LAYER
  5
206
100
AcDbSymbolTableRecord
100
AcDbLayerTableRecord
  2
05_CURVES
 70
0
 62
7
  6
CONTINUOUS
370
-3
390
F
  0
LAYER
  5
207
100
AcDbSymbolTableRecord
100
AcDbLayerTableRecord
  2
06_SURFS
 70
0
 62
7
  6
CONTINUOUS
370
-3
390
F
  0
LAYER
  5
208
100
AcDbSymbolTableRecord
100
AcDbLayerTableRecord
  2
07_COSMETICS
 70
0
 62
7
  6
CONTINUOUS
370
-3
390
F
  0
LAYER
  5
209
100
AcDbSymbolTableRecord
100
AcDbLayerTableRecord
  2
10_NOTES
 70
0
 62
7
  6
CONTINUOUS
370
-3
390
F
  0
LAYER
  5
20A
100
AcDbSymbolTableRecord
100
AcDbLayerTableRecord
  2
11_NOTES_PUB
 70
0
 62
7
  6
CONTINUOUS
370
-3
390
F
  0
LAYER
  5
20B
100
AcDbSymbolTableRecord
100
AcDbLayerTableRecord
  2
13_REF_GTOL
 70
0
 62
7
  6
CONTINUOUS
370
-3
390
F
  0
LAYER
  5
20C
100
AcDbSymbolTableRecord
100
AcDbLayerTableRecord
  2
16_MISC
 70
0
 62
7
  6
CONTINUOUS
370
-3
390
F
  0
LAYER
  5
20D
100
AcDbSymbolTableRecord
100
AcDbLayerTableRecord
  2
17_NO_PRINT
 70
0
 62
7
  6
CONTINUOUS
370
-3
390
F
  0
LAYER
  5
20E
100
AcDbSymbolTableRecord
100
AcDbLayerTableRecord
  2
18_DATUM_CAMS_JOINTS
 70
0
 62
7
  6
CONTINUOUS
370
-3
390
F
  0
LAYER
  5
20F
100
AcDbSymbolTableRecord
100
AcDbLayerTableRecord
  2
19_DATUM_FUNCTIONAL
 70
0
 62
7
  6
CONTINUOUS
370
-3
390
F
  0
LAYER
  5
210
100
AcDbSymbolTableRecord
100
AcDbLayerTableRecord
  2
20_DATUM_KINEMATIC_SCHEME
 70
0
 62
7
  6
CONTINUOUS
370
-3
390
F
  0
ENDTAB
  0
TABLE
  2
STYLE
  5
3
100
AcDbSymbolTable
 70
1
  0
STYLE
  5
11
100
AcDbSymbolTableRecord
100
AcDbTextStyleTableRecord
  2
STANDARD
 70
0
 40
0.0
 41
0.8
 50
0.0
 71
0
 42
0.2
  3
txt
  4

  0
STYLE
  5
211
100
AcDbSymbolTableRecord
100
AcDbTextStyleTableRecord
  2
TEXTSTYLE_1
 70
0
 40
0.0
 41
0.8
 50
0.0
 71
0
 42
0.2
  3
gdt
  4

  0
ENDTAB
  0
TABLE
  2
VIEW
  5
6
100
AcDbSymbolTable
 70
0
  0
ENDTAB
  0
TABLE
  2
UCS
  5
7
100
AcDbSymbolTable
 70
0
  0
ENDTAB
  0
TABLE
  2
APPID
  5
9
100
AcDbSymbolTable
 70
1
  0
APPID
  5
212
100
AcDbSymbolTableRecord
100
AcDbRegAppTableRecord
  2
ACAD
 70
0
  0
ENDTAB
  0
TABLE
  2
BLOCK_RECORD
  5
1
100
AcDbSymbolTable
 70
0
  0
BLOCK_RECORD
  5
213
100
AcDbSymbolTableRecord
100
AcDbBlockTableRecord
  2
*Model_Space
  0
BLOCK_RECORD
  5
214
100
AcDbSymbolTableRecord
100
AcDbBlockTableRecord
  2
*Paper_Space
  0
BLOCK_RECORD
  5
215
100
AcDbSymbolTableRecord
100
AcDbBlockTableRecord
  2
_FILLED
  0
ENDTAB
  0
TABLE
  2
DIMSTYLE
  5
A
100
AcDbSymbolTable
 70
1
100
AcDbDimStyleTable
 71
0
  0
DIMSTYLE
105
216
100
AcDbSymbolTableRecord
100
AcDbDimStyleTableRecord
  2
STANDARD
 70
0
  3

  4

 40
1.0
 41
2.8471340533
 42
1.0
 43
0.38
 44
1.0
 45
0.0
 46
0.0
 47
0.01
 48
0.01
140
3.9859876747
141
0.09
142
0.0
143
25.4
144
1.0
145
0.0
146
1.0
147
0.625
 71
1
 72
0
 73
0
 74
0
 75
0
 76
0
 77
1
 78
8
 79
2
170
0
171
1
172
0
173
0
174
0
175
0
176
0
177
0
178
0
270
2
179
2
271
2
272
2
273
2
274
2
275
0
280
0
281
0
282
0
283
1
284
8
285
0
286
0
287
3
288
0
340
11
278
46
341
215
342
215
343
215
344
215
  0
ENDTAB
  0
ENDSEC
  0
SECTION
  2
BLOCKS
  0
BLOCK
  5
20
100
AcDbEntity
  8
0
100
AcDbBlockBegin
  2
*Model_Space
 70
0
 10
0.0
 20
0.0
 30
0.0
  3
*Model_Space
  1

  0
ENDBLK
  5
21
100
AcDbEntity
  8
0
100
AcDbBlockEnd
  0
BLOCK
  5
1C
100
AcDbEntity
  8
0
100
AcDbBlockBegin
  2
*Paper_Space
 70
0
 10
0.0
 20
0.0
 30
0.0
  3
*Paper_Space
  1

  0
ENDBLK
  5
1D
100
AcDbEntity
  8
0
100
AcDbBlockEnd
  0
BLOCK
  5
217
100
AcDbEntity
  8
0
100
AcDbBlockBegin
  2
_FILLED
 70
64
 10
0.0
 20
0.0
  3
_FILLED
  1

  0
SOLID
  5
218
100
AcDbEntity
  8
0
  6
BYBLOCK
 62
0
100
AcDbTrace
 10
0.0
 20
0.0
 11
-1.0
 21
0.25
 12
-1.0
 22
-0.25
 13
-1.0
 23
-0.25
  0
ENDBLK
  5
219
100
AcDbEntity
  8
0
  6
BYBLOCK
 62
0
100
AcDbBlockEnd
  0
ENDSEC
  0
SECTION
  2
ENTITIES
  0
LINE
  5
21A
100
AcDbEntity
  8
00_COMPONENTS
100
AcDbLine
 62
7
  6
CONTINUOUS
 10
35.3819560822
 20
265.7976525109
 11
103.0517933036
 21
304.8666180364
  0
LINE
  5
21B
100
AcDbEntity
  8
00_COMPONENTS
100
AcDbLine
 62
7
  6
CONTINUOUS
 10
48.4633923793
 20
271.2273085957
 11
57.3021903445
 21
276.3303605191
  0
LINE
  5
21C
100
AcDbEntity
  8
00_COMPONENTS
100
AcDbLine
 62
7
  6
CONTINUOUS
 10
59.4235018561
 20
277.5550929807
 11
90.8896226122
 21
295.721957828
  0
LINE
  5
21D
100
AcDbEntity
  8
00_COMPONENTS
100
AcDbLine
 62
7
  6
CONTINUOUS
 10
35.3691047817
 20
258.2784106158
 11
32.9456531203
 21
256.8792173346
  0
LINE
  5
21E
100
AcDbEntity
  8
00_COMPONENTS
100
AcDbLine
 62
7
  6
CONTINUOUS
 10
90.3239595614
 20
286.9037968965
 11
98.1728527812
 21
291.4354278147
  0
LINE
  5
21F
100
AcDbEntity
  8
00_COMPONENTS
100
AcDbLine
 62
7
  6
CONTINUOUS
 10
64.8187667228
 20
271.9907612986
 11
66.9400782344
 21
273.2154937602
  0
LINE
  5
220
100
AcDbEntity
  8
00_COMPONENTS
100
AcDbLine
 62
7
  6
CONTINUOUS
 10
94.6628512716
 20
286.3290180618
 11
93.6021955158
 21
285.716651831
  0
LINE
  5
221
100
AcDbEntity
  8
00_COMPONENTS
100
AcDbLine
 62
7
  6
CONTINUOUS
 10
93.8021946205
 20
285.3702411525
 11
92.2465661786
 21
284.472104014
  0
LINE
  5
222
100
AcDbEntity
  8
00_COMPONENTS
100
AcDbLine
 62
7
  6
CONTINUOUS
 10
31.8335716309
 20
249.1744147117
 11
34.2152601117
 21
250.5494749892
  0
LINE
  5
223
100
AcDbEntity
  8
00_COMPONENTS
100
AcDbLine
 62
7
  6
CONTINUOUS
 10
64.8187667228
 20
268.1368698897
 11
66.9400782344
 21
269.3616023513
  0
LINE
  5
224
100
AcDbEntity
  8
00_COMPONENTS
100
AcDbLine
 62
7
  6
CONTINUOUS
 10
92.5465648355
 20
283.9524879963
 11
85.3341056959
 21
279.7883976268
  0
LINE
  5
225
100
AcDbEntity
  8
00_COMPONENTS
100
AcDbLine
 62
7
  6
CONTINUOUS
 10
72.2717032259
 20
267.6879037459
 11
74.3930147375
 21
268.9126362075
  0
LINE
  5
226
100
AcDbEntity
  8
00_COMPONENTS
100
AcDbLine
 62
7
  6
CONTINUOUS
 10
106.0924817028
 20
286.8631313641
 11
103.1226455865
 21
285.1485059179
  0
LINE
  5
227
100
AcDbEntity
  8
00_COMPONENTS
100
AcDbLine
 62
7
  6
CONTINUOUS
 10
27.9573569596
 20
240.8535514788
 11
31.4928761457
 21
242.8947722481
  0
LINE
  5
228
100
AcDbEntity
  8
00_COMPONENTS
100
AcDbLine
 62
7
  6
CONTINUOUS
 10
64.8187667228
 20
268.1368698897
 11
64.4455169255
 21
267.9569026267
  0
LINE
  5
229
100
AcDbEntity
  8
00_COMPONENTS
100
AcDbLine
 62
7
  6
CONTINUOUS
 10
141.7555842028
 20
53.3874764135
 11
142.1555687389
 21
53.4270836918
  0
LINE
  5
22A
100
AcDbEntity
  8
00_COMPONENTS
100
AcDbLine
 62
7
  6
CONTINUOUS
 10
142.5555532751
 20
54.7730948374
 11
142.1555687389
 21
54.7334875592
  0
LINE
  5
22B
100
AcDbEntity
  8
00_COMPONENTS
100
AcDbLine
 62
7
  6
CONTINUOUS
 10
32.9456531203
 20
256.8792173346
 11
32.5663883349
 21
254.2515678852
  0
LINE
  5
22C
100
AcDbEntity
  8
00_COMPONENTS
100
AcDbLine
 62
7
  6
CONTINUOUS
 10
31.8335716309
 20
249.1744147117
 11
31.4928761457
 21
246.8139838504
  0
LINE
  5
22D
100
AcDbEntity
  8
00_COMPONENTS
100
AcDbLine
 62
7
  6
CONTINUOUS
 10
35.3819560822
 20
265.7976525109
 11
34.5077186108
 21
259.7406978478
  0
LINE
  5
22E
100
AcDbEntity
  8
00_COMPONENTS
100
AcDbLine
 62
7
  6
CONTINUOUS
 10
34.1991642091
 20
257.6029491432
 11
34.006317708
 21
256.2668562028
  0
LINE
  5
22F
100
AcDbEntity
  8
00_COMPONENTS
100
AcDbLine
 62
7
  6
CONTINUOUS
 10
35.497672226
 20
259.1691607915
 11
35.1891178243
 21
257.0314120869
  0
LINE
  5
230
100
AcDbEntity
  8
00_COMPONENTS
100
AcDbLine
 62
7
  6
CONTINUOUS
 10
90.647890194
 20
274.9975583054
 11
86.5056488878
 21
272.6060484476
  0
LINE
  5
231
100
AcDbEntity
  8
00_COMPONENTS
100
AcDbLine
 62
7
  6
CONTINUOUS
 10
67.5556848777
 20
260.2046177489
 11
72.6642784616
 21
263.1540480241
  0
LINE
  5
232
100
AcDbEntity
  8
00_COMPONENTS
100
AcDbLine
 62
7
  6
CONTINUOUS
 10
78.5157943545
 20
266.5324021339
 11
85.3944542237
 21
270.5037745552
  0
LINE
  5
233
100
AcDbEntity
  8
00_COMPONENTS
100
AcDbLine
 62
7
  6
CONTINUOUS
 10
58.9994209021
 20
252.1624113099
 11
59.7065247394
 21
252.5706554638
  0
LINE
  5
234
100
AcDbEntity
  8
00_COMPONENTS
100
AcDbLine
 62
7
  6
CONTINUOUS
 10
92.162526689
 20
270.7217801003
 11
89.3333542572
 21
269.0883663854
  0
LINE
  5
235
100
AcDbEntity
  8
00_COMPONENTS
100
AcDbLine
 62
7
  6
CONTINUOUS
 10
113.3757118718
 20
282.7399018343
 11
81.9095911158
 21
264.573036987
  0
LINE
  5
236
100
AcDbEntity
  8
00_COMPONENTS
100
AcDbLine
 62
7
  6
CONTINUOUS
 10
79.7882796042
 20
263.3483045254
 11
70.949481639
 21
258.245252602
  0
LINE
  5
237
100
AcDbEntity
  8
00_COMPONENTS
100
AcDbLine
 62
7
  6
CONTINUOUS
 10
62.2521197499
 20
251.1009887475
 11
129.214853134
 21
289.7617101192
  0
LINE
  5
238
100
AcDbEntity
  8
00_COMPONENTS
100
AcDbLine
 62
7
  6
CONTINUOUS
 10
64.3734489253
 20
249.876266484
 11
131.3361823095
 21
288.5369878556
  0
LINE
  5
239
100
AcDbEntity
  8
00_COMPONENTS
100
AcDbLine
 62
7
  6
CONTINUOUS
 10
146.1860517792
 20
34.1983852935
 11
122.5685869592
 21
47.8336264945
  0
LINE
  5
23A
100
AcDbEntity
  8
00_COMPONENTS
100
AcDbLine
 62
7
  6
CONTINUOUS
 10
115.3560677627
 20
51.9976821906
 11
94.2841979534
 21
64.1632566753
  0
LINE
  5
23B
100
AcDbEntity
  8
00_COMPONENTS
100
AcDbLine
 62
7
  6
CONTINUOUS
 10
87.0716787569
 20
68.3273123714
 11
65.9998089475
 21
80.4928868561
  0
LINE
  5
23C
100
AcDbEntity
  8
00_COMPONENTS
100
AcDbLine
 62
7
  6
CONTINUOUS
 10
58.787289751
 20
84.6569425522
 11
35.1698249311
 21
98.2921837532
  0
LINE
  5
23D
100
AcDbEntity
  8
00_COMPONENTS
100
AcDbLine
 62
7
  6
CONTINUOUS
 10
122.3387855679
 20
49.0277253499
 11
120.9422269371
 21
49.8340106108
  0
LINE
  5
23E
100
AcDbEntity
  8
00_COMPONENTS
100
AcDbLine
 62
7
  6
CONTINUOUS
 10
118.8208977616
 20
51.0587328744
 11
116.2753027511
 21
52.5283995906
  0
LINE
  5
23F
100
AcDbEntity
  8
00_COMPONENTS
100
AcDbLine
 62
7
  6
CONTINUOUS
 10
94.0543965621
 20
65.3573555308
 11
92.6578379312
 21
66.1636407916
  0
LINE
  5
240
100
AcDbEntity
  8
00_COMPONENTS
100
AcDbLine
 62
7
  6
CONTINUOUS
 10
90.5365087558
 20
67.3883630552
 11
87.9909137452
 21
68.8580297714
  0
LINE
  5
241
100
AcDbEntity
  8
00_COMPONENTS
100
AcDbLine
 62
7
  6
CONTINUOUS
 10
65.7700075562
 20
81.6869857116
 11
64.3734489253
 21
82.4932709724
  0
LINE
  5
242
100
AcDbEntity
  8
00_COMPONENTS
100
AcDbLine
 62
7
  6
CONTINUOUS
 10
62.2521197499
 20
83.717993236
 11
59.7065247394
 21
85.1876599523
  0
LINE
  5
243
100
AcDbEntity
  8
00_COMPONENTS
100
AcDbLine
 62
7
  6
CONTINUOUS
 10
34.2081637125
 20
103.2891881404
 11
35.1981173277
 21
102.7176510841
  0
LINE
  5
244
100
AcDbEntity
  8
00_COMPONENTS
100
AcDbLine
 62
7
  6
CONTINUOUS
 10
144.2344369453
 20
39.7669267371
 11
145.2243905605
 21
39.1953896807
  0
LINE
  5
245
100
AcDbEntity
  8
00_COMPONENTS
100
AcDbLine
 62
7
  6
CONTINUOUS
 10
144.8849807187
 20
40.959038288
 11
143.8950271035
 21
41.5305753443
  0
LINE
  5
246
100
AcDbEntity
  8
00_COMPONENTS
100
AcDbLine
 62
7
  6
CONTINUOUS
 10
34.8587074858
 20
104.4812996913
 11
33.8687538706
 21
105.0528367477
  0
LINE
  5
247
100
AcDbEntity
  8
00_COMPONENTS
100
AcDbLine
 62
7
  6
CONTINUOUS
 10
61.2621661347
 20
89.8417467288
 11
62.2521197499
 21
89.2702096725
  0
LINE
  5
248
100
AcDbEntity
  8
00_COMPONENTS
100
AcDbLine
 62
7
  6
CONTINUOUS
 10
64.3734489253
 20
88.0454874089
 11
64.5679387282
 21
87.9332012091
  0
LINE
  5
249
100
AcDbEntity
  8
00_COMPONENTS
100
AcDbLine
 62
7
  6
CONTINUOUS
 10
89.5465551406
 20
73.512116548
 11
90.5365087558
 21
72.9405794917
  0
LINE
  5
24A
100
AcDbEntity
  8
00_COMPONENTS
100
AcDbLine
 62
7
  6
CONTINUOUS
 10
92.6578379312
 20
71.7158572281
 11
92.8523277341
 21
71.6035710283
  0
LINE
  5
24B
100
AcDbEntity
  8
00_COMPONENTS
100
AcDbLine
 62
7
  6
CONTINUOUS
 10
117.8309441464
 20
57.1824863672
 11
118.8208977616
 21
56.6109493108
  0
LINE
  5
24C
100
AcDbEntity
  8
00_COMPONENTS
100
AcDbLine
 62
7
  6
CONTINUOUS
 10
120.9422269371
 20
55.3862270473
 11
121.13671674
 21
55.2739408475
  0
LINE
  5
24D
100
AcDbEntity
  8
00_COMPONENTS
100
AcDbLine
 62
7
  6
CONTINUOUS
 10
33.6566227194
 20
106.1551171272
 11
32.5959581317
 21
106.767478259
  0
LINE
  5
24E
100
AcDbEntity
  8
00_COMPONENTS
100
AcDbLine
 62
7
  6
CONTINUOUS
 10
144.6728495675
 20
42.0613186675
 11
145.7335141552
 21
41.4489575357
  0
LINE
  5
24F
100
AcDbEntity
  8
00_COMPONENTS
100
AcDbLine
 62
7
  6
CONTINUOUS
 10
118.8208977616
 20
58.570555112
 11
117.8309441464
 21
59.1420921683
  0
LINE
  5
250
100
AcDbEntity
  8
00_COMPONENTS
100
AcDbLine
 62
7
  6
CONTINUOUS
 10
90.5365087558
 20
74.9001852928
 11
89.5465551406
 21
75.4717223491
  0
LINE
  5
251
100
AcDbEntity
  8
00_COMPONENTS
100
AcDbLine
 62
7
  6
CONTINUOUS
 10
62.2521197499
 20
91.2298154736
 11
61.2621661347
 21
91.8013525299
  0
LINE
  5
252
100
AcDbEntity
  8
00_COMPONENTS
100
AcDbLine
 62
7
  6
CONTINUOUS
 10
31.2807449945
 20
113.6016166121
 11
31.4691247627
 21
112.6227536717
  0
LINE
  5
253
100
AcDbEntity
  8
00_COMPONENTS
100
AcDbLine
 62
7
  6
CONTINUOUS
 10
32.0823105984
 20
109.436504448
 11
32.5959581317
 21
106.767478259
  0
LINE
  5
254
100
AcDbEntity
  8
00_COMPONENTS
100
AcDbLine
 62
7
  6
CONTINUOUS
 10
33.6566227194
 20
106.1551171272
 11
33.8687538706
 21
105.0528367477
  0
LINE
  5
255
100
AcDbEntity
  8
00_COMPONENTS
100
AcDbLine
 62
7
  6
CONTINUOUS
 10
34.2081637125
 20
103.2891881404
 11
35.1698249311
 21
98.2921837532
  0
LINE
  5
256
100
AcDbEntity
  8
00_COMPONENTS
100
AcDbLine
 62
7
  6
CONTINUOUS
 10
34.8587074858
 20
104.4812996913
 11
35.1981173277
 21
102.7176510841
  0
LINE
  5
257
100
AcDbEntity
  8
00_COMPONENTS
100
AcDbLine
 62
7
  6
CONTINUOUS
 10
27.7452258084
 20
117.2759127626
 11
27.7452258084
 21
147.9764036467
  0
LINE
  5
258
100
AcDbEntity
  8
00_COMPONENTS
100
AcDbLine
 62
7
  6
CONTINUOUS
 10
27.9573569596
 20
148.2621773763
 11
27.9573569596
 21
240.8535514788
  0
LINE
  5
259
100
AcDbEntity
  8
00_COMPONENTS
100
AcDbLine
 62
7
  6
CONTINUOUS
 10
31.2807449945
 20
113.6016166121
 11
31.2807449945
 21
115.2347259867
  0
LINE
  5
25A
100
AcDbEntity
  8
00_COMPONENTS
100
AcDbLine
 62
7
  6
CONTINUOUS
 10
31.4928761457
 20
242.8947722481
 11
31.4928761457
 21
246.8139838504
  0
LINE
  5
25B
100
AcDbEntity
  8
00_COMPONENTS
100
AcDbLine
 62
7
  6
CONTINUOUS
 10
33.6142347608
 20
154.3043788954
 11
33.6142347608
 21
230.647354897
  0
LINE
  5
25C
100
AcDbEntity
  8
00_COMPONENTS
100
AcDbLine
 62
7
  6
CONTINUOUS
 10
33.9677866794
 20
154.5085009723
 11
33.9677866794
 21
230.4432362194
  0
LINE
  5
25D
100
AcDbEntity
  8
00_COMPONENTS
100
AcDbLine
 62
7
  6
CONTINUOUS
 10
34.1799225409
 20
222.1720681705
 11
34.1799225409
 21
157.2437959603
  0
LINE
  5
25E
100
AcDbEntity
  8
00_COMPONENTS
100
AcDbLine
 62
7
  6
CONTINUOUS
 10
52.9793656379
 20
237.7863715976
 11
53.3518996492
 21
238.4241963027
  0
LINE
  5
25F
100
AcDbEntity
  8
00_COMPONENTS
100
AcDbLine
 62
7
  6
CONTINUOUS
 10
54.7471399508
 20
236.7657697113
 11
54.3746059395
 21
236.1279450063
  0
LINE
  5
260
100
AcDbEntity
  8
00_COMPONENTS
100
AcDbLine
 62
7
  6
CONTINUOUS
 10
76.7477813852
 20
254.8976784149
 11
85.5865793504
 21
260.0007303383
  0
LINE
  5
261
100
AcDbEntity
  8
00_COMPONENTS
100
AcDbLine
 62
7
  6
CONTINUOUS
 10
87.707890862
 20
261.2254627999
 11
119.174011618
 21
279.3923276472
  0
LINE
  5
262
100
AcDbEntity
  8
00_COMPONENTS
100
AcDbLine
 62
7
  6
CONTINUOUS
 10
66.2119400986
 20
247.9983556138
 11
66.9190439359
 21
248.4065997677
  0
LINE
  5
263
100
AcDbEntity
  8
00_COMPONENTS
100
AcDbLine
 62
7
  6
CONTINUOUS
 10
64.3734489253
 20
246.7735149708
 11
62.2521197499
 21
245.5487723111
  0
LINE
  5
264
100
AcDbEntity
  8
00_COMPONENTS
100
AcDbLine
 62
7
  6
CONTINUOUS
 10
64.3734489253
 20
245.9569928006
 11
61.2621661347
 21
244.1607035663
  0
LINE
  5
265
100
AcDbEntity
  8
00_COMPONENTS
100
AcDbLine
 62
7
  6
CONTINUOUS
 10
64.3734489253
 20
244.8139091697
 11
62.2521197499
 21
243.58916651
  0
LINE
  5
266
100
AcDbEntity
  8
00_COMPONENTS
100
AcDbLine
 62
7
  6
CONTINUOUS
 10
65.009895333
 20
243.9566058554
 11
62.2521197499
 21
242.3644128843
  0
LINE
  5
267
100
AcDbEntity
  8
00_COMPONENTS
100
AcDbLine
 62
7
  6
CONTINUOUS
 10
65.3634025405
 20
242.9359908209
 11
64.3734489253
 21
242.3644442464
  0
LINE
  5
268
100
AcDbEntity
  8
00_COMPONENTS
100
AcDbLine
 62
7
  6
CONTINUOUS
 10
56.8793950338
 20
237.474296252
 11
59.7065247394
 21
239.1065306054
  0
LINE
  5
269
100
AcDbEntity
  8
00_COMPONENTS
100
AcDbLine
 62
7
  6
CONTINUOUS
 10
34.5334744595
 20
222.3761902474
 11
34.1799225409
 21
222.1720681705
  0
LINE
  5
26A
100
AcDbEntity
  8
00_COMPONENTS
100
AcDbLine
 62
7
  6
CONTINUOUS
 10
118.6083485672
 20
270.5741667157
 11
126.457241787
 21
275.1057976339
  0
LINE
  5
26B
100
AcDbEntity
  8
00_COMPONENTS
100
AcDbLine
 62
7
  6
CONTINUOUS
 10
93.1031557287
 20
255.6611311178
 11
95.2244672403
 21
256.8858635794
  0
LINE
  5
26C
100
AcDbEntity
  8
00_COMPONENTS
100
AcDbLine
 62
7
  6
CONTINUOUS
 10
93.1031557287
 20
251.8072397089
 11
92.7299059314
 21
251.6272724459
  0
LINE
  5
26D
100
AcDbEntity
  8
00_COMPONENTS
100
AcDbLine
 62
7
  6
CONTINUOUS
 10
120.4472949122
 20
58.8563291475
 11
118.8208977616
 21
59.7953087376
  0
LINE
  5
26E
100
AcDbEntity
  8
00_COMPONENTS
100
AcDbLine
 62
7
  6
CONTINUOUS
 10
92.1629059063
 20
75.1859593283
 11
90.5365087558
 21
76.1249389185
  0
LINE
  5
26F
100
AcDbEntity
  8
00_COMPONENTS
100
AcDbLine
 62
7
  6
CONTINUOUS
 10
63.8785169004
 20
91.5155895092
 11
62.2521197499
 21
92.4545690993
  0
LINE
  5
270
100
AcDbEntity
  8
00_COMPONENTS
100
AcDbLine
 62
7
  6
CONTINUOUS
 10
144.418301018
 20
48.2830958888
 11
118.7568983423
 21
63.098378465
  0
LINE
  5
271
100
AcDbEntity
  8
00_COMPONENTS
100
AcDbLine
 62
7
  6
CONTINUOUS
 10
113.5109256819
 20
66.1270736743
 11
90.4725093364
 21
79.4280086458
  0
LINE
  5
272
100
AcDbEntity
  8
00_COMPONENTS
100
AcDbLine
 62
7
  6
CONTINUOUS
 10
85.2265366761
 20
82.4567038552
 11
62.1881203306
 21
95.7576388266
  0
LINE
  5
273
100
AcDbEntity
  8
00_COMPONENTS
100
AcDbLine
 62
7
  6
CONTINUOUS
 10
56.9421476702
 20
98.786334036
 11
31.2807449945
 21
113.6016166121
  0
LINE
  5
274
100
AcDbEntity
  8
00_COMPONENTS
100
AcDbLine
 62
7
  6
CONTINUOUS
 10
140.8827818319
 20
51.9573920394
 11
139.1150075191
 21
52.9779939257
  0
LINE
  5
275
100
AcDbEntity
  8
00_COMPONENTS
100
AcDbLine
 62
7
  6
CONTINUOUS
 10
57.7973891272
 20
99.9256806955
 11
27.7452258084
 21
117.2759127626
  0
LINE
  5
276
100
AcDbEntity
  8
00_COMPONENTS
100
AcDbLine
 62
7
  6
CONTINUOUS
 10
58.4073237979
 20
100.4105490273
 11
60.1750981107
 21
99.389947141
  0
LINE
  5
277
100
AcDbEntity
  8
00_COMPONENTS
100
AcDbLine
 62
7
  6
CONTINUOUS
 10
62.5792711762
 20
98.0019285756
 11
129.6132731202
 21
59.3007050471
  0
LINE
  5
278
100
AcDbEntity
  8
00_COMPONENTS
100
AcDbLine
 62
7
  6
CONTINUOUS
 10
137.5329020418
 20
54.7284085965
 11
139.1150075191
 21
53.8150002373
  0
LINE
  5
279
100
AcDbEntity
  8
00_COMPONENTS
100
AcDbLine
 62
7
  6
CONTINUOUS
 10
58.0448772366
 20
101.211674786
 11
59.8126515494
 21
100.1910728997
  0
LINE
  5
27A
100
AcDbEntity
  8
00_COMPONENTS
100
AcDbLine
 62
7
  6
CONTINUOUS
 10
62.2168246149
 20
98.8030543343
 11
129.2508265589
 21
60.1018308058
  0
LINE
  5
27B
100
AcDbEntity
  8
00_COMPONENTS
100
AcDbLine
 62
7
  6
CONTINUOUS
 10
137.1704554805
 20
55.5295343552
 11
138.9382297934
 21
54.5089324689
  0
LINE
  5
27C
100
AcDbEntity
  8
00_COMPONENTS
100
AcDbLine
 62
7
  6
CONTINUOUS
 10
137.1704554805
 20
57.4482303578
 11
131.5137198964
 21
60.7140742867
  0
LINE
  5
27D
100
AcDbEntity
  8
00_COMPONENTS
100
AcDbLine
 62
7
  6
CONTINUOUS
 10
62.2168246149
 20
100.7217503369
 11
62.075544887
 21
100.8033163806
  0
LINE
  5
27E
100
AcDbEntity
  8
00_COMPONENTS
100
AcDbLine
 62
7
  6
CONTINUOUS
 10
144.418301018
 20
53.6720118419
 11
144.1354522403
 21
53.8353109656
  0
LINE
  5
27F
100
AcDbEntity
  8
00_COMPONENTS
100
AcDbLine
 62
7
  6
CONTINUOUS
 10
62.0400474781
 20
101.2321472872
 11
59.9187183026
 21
102.4568695508
  0
LINE
  5
280
100
AcDbEntity
  8
00_COMPONENTS
100
AcDbLine
 62
7
  6
CONTINUOUS
 10
130.3114823147
 20
62.9390319276
 11
131.3632434279
 21
62.331811103
  0
LINE
  5
281
100
AcDbEntity
  8
00_COMPONENTS
100
AcDbLine
 62
7
  6
CONTINUOUS
 10
129.957936284
 20
63.1637253241
 11
136.4633457554
 21
59.4079103825
  0
LINE
  5
282
100
AcDbEntity
  8
00_COMPONENTS
100
AcDbLine
 62
7
  6
CONTINUOUS
 10
145.4789567738
 20
54.2843780727
 11
145.1961079961
 21
54.4476771964
  0
LINE
  5
283
100
AcDbEntity
  8
00_COMPONENTS
100
AcDbLine
 62
7
  6
CONTINUOUS
 10
59.4202035912
 20
217.7526063362
 11
60.0622970032
 21
218.7231033436
  0
LINE
  5
284
100
AcDbEntity
  8
00_COMPONENTS
100
AcDbLine
 62
7
  6
CONTINUOUS
 10
122.9472402775
 20
269.9993878809
 11
121.8865845217
 21
269.3870216501
  0
LINE
  5
285
100
AcDbEntity
  8
00_COMPONENTS
100
AcDbLine
 62
7
  6
CONTINUOUS
 10
122.0865836263
 20
269.0406109717
 11
120.5309551845
 21
268.1424738332
  0
LINE
  5
286
100
AcDbEntity
  8
00_COMPONENTS
100
AcDbLine
 62
7
  6
CONTINUOUS
 10
93.1031557287
 20
251.8072397089
 11
95.2244672403
 21
253.0319721705
  0
LINE
  5
287
100
AcDbEntity
  8
00_COMPONENTS
100
AcDbLine
 62
7
  6
CONTINUOUS
 10
120.8309538414
 20
267.6228578155
 11
113.6184947018
 21
263.458767446
  0
LINE
  5
288
100
AcDbEntity
  8
00_COMPONENTS
100
AcDbLine
 62
7
  6
CONTINUOUS
 10
100.5560922317
 20
251.3582735651
 11
102.6774037434
 21
252.5830060267
  0
LINE
  5
289
100
AcDbEntity
  8
00_COMPONENTS
100
AcDbLine
 62
7
  6
CONTINUOUS
 10
134.3768707087
 20
270.5335011833
 11
131.4070345924
 21
268.818875737
  0
LINE
  5
28A
100
AcDbEntity
  8
00_COMPONENTS
100
AcDbLine
 62
7
  6
CONTINUOUS
 10
118.9322791999
 20
258.6679281245
 11
114.7900378937
 21
256.2764182668
  0
LINE
  5
28B
100
AcDbEntity
  8
00_COMPONENTS
100
AcDbLine
 62
7
  6
CONTINUOUS
 10
95.8400738836
 20
243.8749875681
 11
100.9486674675
 21
246.8244178433
  0
LINE
  5
28C
100
AcDbEntity
  8
00_COMPONENTS
100
AcDbLine
 62
7
  6
CONTINUOUS
 10
106.8001833604
 20
250.2027719531
 11
113.6788432295
 21
254.1741443743
  0
LINE
  5
28D
100
AcDbEntity
  8
00_COMPONENTS
100
AcDbLine
 62
7
  6
CONTINUOUS
 10
59.9187183026
 20
105.7228792193
 11
62.0400474781
 21
104.4981569557
  0
LINE
  5
28E
100
AcDbEntity
  8
00_COMPONENTS_2
100
AcDbLine
 62
7
  6
CONTINUOUS
 10
71.6473128253
 20
104.8151754008
 11
57.6116611718
 21
112.91847934
  0
LINE
  5
28F
100
AcDbEntity
  8
00_COMPONENTS_2
100
AcDbLine
 62
7
  6
CONTINUOUS
 10
69.7058204165
 20
110.8876472218
 11
55.6701687629
 21
118.990951161
  0
LINE
  5
290
100
AcDbEntity
  8
00_COMPONENTS_2
100
AcDbLine
 62
7
  6
CONTINUOUS
 10
57.6116611718
 20
112.91847934
 11
55.6701687629
 21
118.990951161
  0
LINE
  5
291
100
AcDbEntity
  8
00_COMPONENTS
100
AcDbLine
 62
7
  6
CONTINUOUS
 10
58.787289751
 20
84.6569425522
 11
56.4538470882
 21
96.7820267271
  0
LINE
  5
292
100
AcDbEntity
  8
00_COMPONENTS
100
AcDbLine
 62
7
  6
CONTINUOUS
 10
51.5748217795
 20
147.2010733991
 11
51.5748217795
 21
212.1293456093
  0
LINE
  5
293
100
AcDbEntity
  8
00_COMPONENTS
100
AcDbLine
 62
7
  6
CONTINUOUS
 10
51.8370943584
 20
199.3335966622
 11
51.8370943584
 21
138.9391605238
  0
LINE
  5
294
100
AcDbEntity
  8
00_COMPONENTS
100
AcDbLine
 62
7
  6
CONTINUOUS
 10
51.9283736981
 20
200.2130758365
 11
51.9283736981
 21
212.3334676862
  0
LINE
  5
295
100
AcDbEntity
  8
00_COMPONENTS
100
AcDbLine
 62
7
  6
CONTINUOUS
 10
52.1405095596
 20
219.9514471286
 11
52.1405095596
 21
201.0023629143
  0
LINE
  5
296
100
AcDbEntity
  8
00_COMPONENTS
100
AcDbLine
 62
7
  6
CONTINUOUS
 10
56.8793950338
 20
237.474296252
 11
58.9994209021
 21
252.1624113099
  0
LINE
  5
297
100
AcDbEntity
  8
00_COMPONENTS
100
AcDbLine
 62
7
  6
CONTINUOUS
 10
66.2119400986
 20
247.9983556138
 11
64.0919142303
 21
233.3102405559
  0
LINE
  5
298
100
AcDbEntity
  8
00_COMPONENTS
100
AcDbLine
 62
7
  6
CONTINUOUS
 10
64.0941988744
 20
213.8222441145
 11
63.4521054624
 21
212.8517471071
  0
LINE
  5
299
100
AcDbEntity
  8
00_COMPONENTS
100
AcDbLine
 62
7
  6
CONTINUOUS
 10
64.3007654101
 20
210.096201093
 11
53.3624199427
 21
202.9142319836
  0
LINE
  5
29A
100
AcDbEntity
  8
00_COMPONENTS
100
AcDbLine
 62
7
  6
CONTINUOUS
 10
87.283809908
 20
235.8327811291
 11
87.9909137452
 21
236.241025283
  0
LINE
  5
29B
100
AcDbEntity
  8
00_COMPONENTS
100
AcDbLine
 62
7
  6
CONTINUOUS
 10
120.4469156949
 20
254.3921499195
 11
117.6177432631
 21
252.7587362046
  0
LINE
  5
29C
100
AcDbEntity
  8
00_COMPONENTS
100
AcDbLine
 62
7
  6
CONTINUOUS
 10
141.6601008777
 20
266.4102716535
 11
110.1939801217
 21
248.2434068062
  0
LINE
  5
29D
100
AcDbEntity
  8
00_COMPONENTS
100
AcDbLine
 62
7
  6
CONTINUOUS
 10
108.07266861
 20
247.0186743446
 11
99.2338706449
 21
241.9156224212
  0
LINE
  5
29E
100
AcDbEntity
  8
00_COMPONENTS
100
AcDbLine
 62
7
  6
CONTINUOUS
 10
60.7333666116
 20
219.1107465433
 11
60.0622088211
 21
218.7232557253
  0
LINE
  5
29F
100
AcDbEntity
  8
00_COMPONENTS
100
AcDbLine
 62
7
  6
CONTINUOUS
 10
90.5365087558
 20
234.7713585667
 11
157.4992421399
 21
273.4320799384
  0
LINE
  5
2A0
100
AcDbEntity
  8
00_COMPONENTS
100
AcDbLine
 62
7
  6
CONTINUOUS
 10
51.9283736981
 20
212.3334676862
 11
51.5748217795
 21
212.1293456093
  0
LINE
  5
2A1
100
AcDbEntity
  8
00_COMPONENTS
100
AcDbLine
 62
7
  6
CONTINUOUS
 10
60.1273074284
 20
216.9289596558
 11
59.4202035912
 21
216.5207155019
  0
LINE
  5
2A2
100
AcDbEntity
  8
00_COMPONENTS
100
AcDbLine
 62
7
  6
CONTINUOUS
 10
61.9375083248
 20
217.1157541585
 11
61.2304044876
 21
216.7075100047
  0
LINE
  5
2A3
100
AcDbEntity
  8
00_COMPONENTS
100
AcDbLine
 62
7
  6
CONTINUOUS
 10
61.9375083248
 20
215.8838633242
 11
61.2304044876
 21
215.4756191703
  0
LINE
  5
2A4
100
AcDbEntity
  8
00_COMPONENTS
100
AcDbLine
 62
7
  6
CONTINUOUS
 10
92.6578379312
 20
233.5466363032
 11
159.6205713154
 21
272.2073576748
  0
LINE
  5
2A5
100
AcDbEntity
  8
00_COMPONENTS
100
AcDbLine
 62
7
  6
CONTINUOUS
 10
61.9375083248
 20
214.8387402303
 11
61.2304044876
 21
214.4304960764
  0
LINE
  5
2A6
100
AcDbEntity
  8
00_COMPONENTS
100
AcDbLine
 62
7
  6
CONTINUOUS
 10
62.9911018153
 20
215.2755846
 11
62.2839979781
 21
214.8673404461
  0
LINE
  5
2A7
100
AcDbEntity
  8
00_COMPONENTS
100
AcDbLine
 62
7
  6
CONTINUOUS
 10
64.1292979369
 20
215.074399281
 11
64.0941988744
 21
215.0541349488
  0
LINE
  5
2A8
100
AcDbEntity
  8
00_COMPONENTS
100
AcDbLine
 62
7
  6
CONTINUOUS
 10
105.0321703911
 20
238.5680482341
 11
113.8709683563
 21
243.6711001575
  0
LINE
  5
2A9
100
AcDbEntity
  8
00_COMPONENTS
100
AcDbLine
 62
7
  6
CONTINUOUS
 10
115.9922798679
 20
244.8958326191
 11
147.4584006239
 21
263.0626974664
  0
LINE
  5
2AA
100
AcDbEntity
  8
00_COMPONENTS
100
AcDbLine
 62
7
  6
CONTINUOUS
 10
94.4963291045
 20
231.668725433
 11
95.2034329417
 21
232.0769695869
  0
LINE
  5
2AB
100
AcDbEntity
  8
00_COMPONENTS
100
AcDbLine
 62
7
  6
CONTINUOUS
 10
92.6578379312
 20
230.44388479
 11
90.5365087558
 21
229.2191421303
  0
LINE
  5
2AC
100
AcDbEntity
  8
00_COMPONENTS
100
AcDbLine
 62
7
  6
CONTINUOUS
 10
64.0941988744
 20
213.8222441145
 11
64.2307551317
 21
213.9010844358
  0
LINE
  5
2AD
100
AcDbEntity
  8
00_COMPONENTS
100
AcDbLine
 62
7
  6
CONTINUOUS
 10
64.1592974817
 20
213.2598388793
 11
63.4521936445
 21
212.8515947254
  0
LINE
  5
2AE
100
AcDbEntity
  8
00_COMPONENTS
100
AcDbLine
 62
7
  6
CONTINUOUS
 10
92.6578379312
 20
229.6273626198
 11
89.5465551406
 21
227.8310733855
  0
LINE
  5
2AF
100
AcDbEntity
  8
00_COMPONENTS
100
AcDbLine
 62
7
  6
CONTINUOUS
 10
92.6578379312
 20
228.4842789889
 11
90.5365087558
 21
227.2595363291
  0
LINE
  5
2B0
100
AcDbEntity
  8
00_COMPONENTS
100
AcDbLine
 62
7
  6
CONTINUOUS
 10
93.2942843389
 20
227.6269756746
 11
90.5365087558
 21
226.0347827034
  0
LINE
  5
2B1
100
AcDbEntity
  8
00_COMPONENTS
100
AcDbLine
 62
7
  6
CONTINUOUS
 10
91.4206926437
 20
106.9683737866
 11
97.0175399962
 21
105.3141417936
  0
LINE
  5
2B2
100
AcDbEntity
  8
00_COMPONENTS
100
AcDbLine
 62
7
  6
CONTINUOUS
 10
137.5240103431
 20
74.0233193302
 11
138.9382297934
 21
73.2068378211
  0
LINE
  5
2B3
100
AcDbEntity
  8
00_COMPONENTS
100
AcDbLine
 62
7
  6
CONTINUOUS
 10
138.5846660989
 20
74.635685561
 11
139.1150075191
 21
74.3294997261
  0
LINE
  5
2B4
100
AcDbEntity
  8
00_COMPONENTS
100
AcDbLine
 62
7
  6
CONTINUOUS
 10
91.4206926437
 20
106.9683737866
 11
105.5628871466
 21
98.8035586962
  0
LINE
  5
2B5
100
AcDbEntity
  8
00_COMPONENTS
100
AcDbLine
 62
7
  6
CONTINUOUS
 10
59.4590966869
 20
125.6251179662
 11
58.0448772366
 21
126.4415994753
  0
LINE
  5
2B6
100
AcDbEntity
  8
00_COMPONENTS
100
AcDbLine
 62
7
  6
CONTINUOUS
 10
137.5240103431
 20
80.5553386672
 11
138.9382297934
 21
79.7388571582
  0
LINE
  5
2B7
100
AcDbEntity
  8
00_COMPONENTS
100
AcDbLine
 62
7
  6
CONTINUOUS
 10
97.4562035143
 20
104.4812547941
 11
100.2846424149
 21
102.848291776
  0
LINE
  5
2B8
100
AcDbEntity
  8
00_COMPONENTS
100
AcDbLine
 62
7
  6
CONTINUOUS
 10
100.5775125573
 20
104.1720925443
 11
101.2846254478
 21
103.7638499623
  0
LINE
  5
2B9
100
AcDbEntity
  8
00_COMPONENTS
100
AcDbLine
 62
7
  6
CONTINUOUS
 10
117.218395096
 20
94.6636747586
 11
83.3323875289
 21
114.2273277603
  0
LINE
  5
2BA
100
AcDbEntity
  8
00_COMPONENTS
100
AcDbLine
 62
7
  6
CONTINUOUS
 10
62.382131235
 20
126.3226902375
 11
57.4911480162
 21
129.1464368338
  0
LINE
  5
2BB
100
AcDbEntity
  8
00_COMPONENTS
100
AcDbLine
 62
7
  6
CONTINUOUS
 10
140.8827818319
 20
82.6578829235
 11
139.1150075191
 21
83.6784848098
  0
LINE
  5
2BC
100
AcDbEntity
  8
00_COMPONENTS
100
AcDbLine
 62
7
  6
CONTINUOUS
 10
53.7636233089
 20
132.9550146751
 11
27.7452258084
 21
147.9764036467
  0
LINE
  5
2BD
100
AcDbEntity
  8
00_COMPONENTS
100
AcDbLine
 62
7
  6
CONTINUOUS
 10
138.9382297934
 20
83.8230437331
 11
121.0547099993
 21
94.1478651217
  0
LINE
  5
2BE
100
AcDbEntity
  8
00_COMPONENTS
100
AcDbLine
 62
7
  6
CONTINUOUS
 10
141.0949129831
 20
82.943656653
 11
121.3628948189
 21
94.3356849297
  0
LINE
  5
2BF
100
AcDbEntity
  8
00_COMPONENTS
100
AcDbLine
 62
7
  6
CONTINUOUS
 10
53.4100738784
 20
133.5673768524
 11
27.9573569596
 21
148.2621773763
  0
LINE
  5
2C0
100
AcDbEntity
  8
00_COMPONENTS_2
100
AcDbLine
 62
7
  6
CONTINUOUS
 10
71.6473128253
 20
104.8151754008
 11
69.7058204165
 21
110.8876472218
  0
LINE
  5
2C1
100
AcDbEntity
  8
00_COMPONENTS
100
AcDbLine
 62
7
  6
CONTINUOUS
 10
63.6663662847
 20
92.617971031
 11
65.9998089475
 21
80.4928868561
  0
LINE
  5
2C2
100
AcDbEntity
  8
00_COMPONENTS
100
AcDbLine
 62
7
  6
CONTINUOUS
 10
57.3021903445
 20
266.1243416558
 11
57.3021903445
 21
276.3303605191
  0
LINE
  5
2C3
100
AcDbEntity
  8
00_COMPONENTS
100
AcDbLine
 62
7
  6
CONTINUOUS
 10
57.7973891272
 20
99.9256806955
 11
57.7973891272
 21
112.8112516808
  0
LINE
  5
2C4
100
AcDbEntity
  8
00_COMPONENTS
100
AcDbLine
 62
7
  6
CONTINUOUS
 10
57.7973891272
 20
121.3145971489
 11
57.7973891272
 21
128.9696324458
  0
LINE
  5
2C5
100
AcDbEntity
  8
00_COMPONENTS
100
AcDbLine
 62
7
  6
CONTINUOUS
 10
58.0448772366
 20
101.211674786
 11
58.0448772366
 21
112.6683675867
  0
LINE
  5
2C6
100
AcDbEntity
  8
00_COMPONENTS
100
AcDbLine
 62
7
  6
CONTINUOUS
 10
58.0448772366
 20
126.4415994753
 11
58.0448772366
 21
128.8267483517
  0
LINE
  5
2C7
100
AcDbEntity
  8
00_COMPONENTS
100
AcDbLine
 62
7
  6
CONTINUOUS
 10
59.4590966869
 20
125.6251179662
 11
59.4590966869
 21
123.1297452967
  0
LINE
  5
2C8
100
AcDbEntity
  8
00_COMPONENTS
100
AcDbLine
 62
7
  6
CONTINUOUS
 10
59.7065247394
 20
85.1876599523
 11
59.7065247394
 21
98.3449596759
  0
LINE
  5
2C9
100
AcDbEntity
  8
00_COMPONENTS
100
AcDbLine
 62
7
  6
CONTINUOUS
 10
59.7065247394
 20
239.1065306054
 11
59.7065247394
 21
252.5706554638
  0
LINE
  5
2CA
100
AcDbEntity
  8
00_COMPONENTS
100
AcDbLine
 62
7
  6
CONTINUOUS
 10
59.8126515494
 20
106.927217841
 11
59.8126515494
 21
100.1910728997
  0
LINE
  5
2CB
100
AcDbEntity
  8
00_COMPONENTS
100
AcDbLine
 62
7
  6
CONTINUOUS
 10
59.9187183026
 20
102.4568695508
 11
59.9187183026
 21
105.7228792193
  0
LINE
  5
2CC
100
AcDbEntity
  8
00_COMPONENTS
100
AcDbLine
 62
7
  6
CONTINUOUS
 10
60.8733073053
 20
107.5395840718
 11
60.8733073053
 21
106.2740081471
  0
LINE
  5
2CD
100
AcDbEntity
  8
00_COMPONENTS
100
AcDbLine
 62
7
  6
CONTINUOUS
 10
61.2304044876
 20
214.4304960764
 11
61.2304044876
 21
215.4756191703
  0
LINE
  5
2CE
100
AcDbEntity
  8
00_COMPONENTS
100
AcDbLine
 62
7
  6
CONTINUOUS
 10
61.2304044876
 20
216.7075100047
 11
61.2304044876
 21
217.7526330986
  0
LINE
  5
2CF
100
AcDbEntity
  8
00_COMPONENTS
100
AcDbLine
 62
7
  6
CONTINUOUS
 10
61.2621661347
 20
91.8013525299
 11
61.2621661347
 21
89.8417467288
  0
LINE
  5
2D0
100
AcDbEntity
  8
00_COMPONENTS
100
AcDbLine
 62
7
  6
CONTINUOUS
 10
61.2621661347
 20
244.1607035663
 11
61.2621661347
 21
246.1203093674
  0
LINE
  5
2D1
100
AcDbEntity
  8
00_COMPONENTS
100
AcDbLine
 62
7
  6
CONTINUOUS
 10
61.9375083248
 20
214.8387402303
 11
61.9375083248
 21
215.8838633242
  0
LINE
  5
2D2
100
AcDbEntity
  8
00_COMPONENTS
100
AcDbLine
 62
7
  6
CONTINUOUS
 10
61.9375083248
 20
217.1157541585
 11
61.9375083248
 21
217.3443957434
  0
LINE
  5
2D3
100
AcDbEntity
  8
00_COMPONENTS
100
AcDbLine
 62
7
  6
CONTINUOUS
 10
62.0400474781
 20
104.4981569557
 11
62.0400474781
 21
101.2321472872
  0
LINE
  5
2D4
100
AcDbEntity
  8
00_COMPONENTS
100
AcDbLine
 62
7
  6
CONTINUOUS
 10
62.2168246149
 20
105.5391992756
 11
62.2168246149
 21
98.8030543343
  0
LINE
  5
2D5
100
AcDbEntity
  8
00_COMPONENTS
100
AcDbLine
 62
7
  6
CONTINUOUS
 10
62.2521197499
 20
92.4545690993
 11
62.2521197499
 21
91.2298154736
  0
LINE
  5
2D6
100
AcDbEntity
  8
00_COMPONENTS
100
AcDbLine
 62
7
  6
CONTINUOUS
 10
62.2521197499
 20
89.2702096725
 11
62.2521197499
 21
83.717993236
  0
LINE
  5
2D7
100
AcDbEntity
  8
00_COMPONENTS
100
AcDbLine
 62
7
  6
CONTINUOUS
 10
62.2521197499
 20
242.3644128843
 11
62.2521197499
 21
243.58916651
  0
LINE
  5
2D8
100
AcDbEntity
  8
00_COMPONENTS
100
AcDbLine
 62
7
  6
CONTINUOUS
 10
62.2521197499
 20
245.5487723111
 11
62.2521197499
 21
251.1009887475
  0
LINE
  5
2D9
100
AcDbEntity
  8
00_COMPONENTS
100
AcDbLine
 62
7
  6
CONTINUOUS
 10
62.2839979781
 20
217.1443543743
 11
62.2839979781
 21
216.0992312804
  0
LINE
  5
2DA
100
AcDbEntity
  8
00_COMPONENTS
100
AcDbLine
 62
7
  6
CONTINUOUS
 10
62.2839979781
 20
214.8673404461
 11
62.2839979781
 21
213.8222173522
  0
LINE
  5
2DB
100
AcDbEntity
  8
00_COMPONENTS
100
AcDbLine
 62
7
  6
CONTINUOUS
 10
64.3734489253
 20
242.3644442464
 11
64.3734489253
 21
241.1396906207
  0
LINE
  5
2DC
100
AcDbEntity
  8
00_COMPONENTS
100
AcDbLine
 62
7
  6
CONTINUOUS
 10
64.3734489253
 20
88.0454874089
 11
64.3734489253
 21
82.4932709724
  0
LINE
  5
2DD
100
AcDbEntity
  8
00_COMPONENTS
100
AcDbLine
 62
7
  6
CONTINUOUS
 10
64.3734489253
 20
244.3240500475
 11
64.3734489253
 21
249.876266484
  0
LINE
  5
2DE
100
AcDbEntity
  8
00_COMPONENTS
100
AcDbLine
 62
7
  6
CONTINUOUS
 10
64.8187667228
 20
268.1368698897
 11
64.8187667228
 21
271.9907612986
  0
LINE
  5
2DF
100
AcDbEntity
  8
00_COMPONENTS
100
AcDbLine
 62
7
  6
CONTINUOUS
 10
65.3634025405
 20
243.7525129912
 11
65.3634025405
 21
242.1194569311
  0
LINE
  5
2E0
100
AcDbEntity
  8
00_COMPONENTS
100
AcDbLine
 62
7
  6
CONTINUOUS
 10
66.9400782344
 20
269.3616023513
 11
66.9400782344
 21
273.2154937602
  0
LINE
  5
2E1
100
AcDbEntity
  8
00_COMPONENTS
100
AcDbLine
 62
7
  6
CONTINUOUS
 10
81.2283991575
 20
221.4771534545
 11
81.6158345292
 21
222.1404911478
  0
LINE
  5
2E2
100
AcDbEntity
  8
00_COMPONENTS
100
AcDbLine
 62
7
  6
CONTINUOUS
 10
83.0668844429
 20
220.4157274928
 11
82.6794490712
 21
219.7523897995
  0
LINE
  5
2E3
100
AcDbEntity
  8
00_COMPONENTS
100
AcDbLine
 62
7
  6
CONTINUOUS
 10
57.4908620983
 20
202.597894317
 11
68.4292075658
 21
209.7798634264
  0
LINE
  5
2E4
100
AcDbEntity
  8
00_COMPONENTS
100
AcDbLine
 62
7
  6
CONTINUOUS
 10
93.6477915464
 20
226.6063606401
 11
92.6578379312
 21
226.0348140656
  0
LINE
  5
2E5
100
AcDbEntity
  8
00_COMPONENTS
100
AcDbLine
 62
7
  6
CONTINUOUS
 10
85.1637840397
 20
221.1446660712
 11
87.9909137452
 21
222.7769004245
  0
LINE
  5
2E6
100
AcDbEntity
  8
00_COMPONENTS
100
AcDbLine
 62
7
  6
CONTINUOUS
 10
146.8927375731
 20
254.2445365349
 11
154.7416307929
 21
258.7761674531
  0
LINE
  5
2E7
100
AcDbEntity
  8
00_COMPONENTS
100
AcDbLine
 62
7
  6
CONTINUOUS
 10
121.3875447346
 20
239.3315009369
 11
123.5088562462
 21
240.5562333986
  0
LINE
  5
2E8
100
AcDbEntity
  8
00_COMPONENTS
100
AcDbLine
 62
7
  6
CONTINUOUS
 10
151.2316292834
 20
253.6697577001
 11
150.1709735276
 21
253.0573914693
  0
LINE
  5
2E9
100
AcDbEntity
  8
00_COMPONENTS
100
AcDbLine
 62
7
  6
CONTINUOUS
 10
150.3709726322
 20
252.7109807909
 11
148.8153441903
 21
251.8128436524
  0
LINE
  5
2EA
100
AcDbEntity
  8
00_COMPONENTS
100
AcDbLine
 62
7
  6
CONTINUOUS
 10
121.3875447346
 20
235.4776095281
 11
123.5088562462
 21
236.7023419897
  0
LINE
  5
2EB
100
AcDbEntity
  8
00_COMPONENTS
100
AcDbLine
 62
7
  6
CONTINUOUS
 10
149.1153428473
 20
251.2932276347
 11
141.9028837077
 21
247.1291372652
  0
LINE
  5
2EC
100
AcDbEntity
  8
00_COMPONENTS
100
AcDbLine
 62
7
  6
CONTINUOUS
 10
121.3875447346
 20
235.4776095281
 11
121.0142949373
 21
235.297642265
  0
LINE
  5
2ED
100
AcDbEntity
  8
00_COMPONENTS
100
AcDbLine
 62
7
  6
CONTINUOUS
 10
100.7846447776
 20
103.7143408645
 11
101.2846254478
 21
103.7638499623
  0
LINE
  5
2EE
100
AcDbEntity
  8
00_COMPONENTS_2
100
AcDbLine
 62
7
  6
CONTINUOUS
 10
79.2895304926
 20
120.202193269
 11
64.5626578959
 21
128.7045647777
  0
LINE
  5
2EF
100
AcDbEntity
  8
00_COMPONENTS
100
AcDbLine
 62
7
  6
CONTINUOUS
 10
143.2162244948
 20
84.0050886312
 11
143.0748001059
 21
84.0867381931
  0
LINE
  5
2F0
100
AcDbEntity
  8
00_COMPONENTS
100
AcDbLine
 62
7
  6
CONTINUOUS
 10
136.9547849536
 20
88.3268997865
 11
135.9011914631
 21
88.9351785107
  0
LINE
  5
2F1
100
AcDbEntity
  8
00_COMPONENTS
100
AcDbLine
 62
7
  6
CONTINUOUS
 10
95.6985628356
 20
112.3316468145
 11
87.026657623
 21
117.3382603587
  0
LINE
  5
2F2
100
AcDbEntity
  8
00_COMPONENTS
100
AcDbLine
 62
7
  6
CONTINUOUS
 10
136.9547849536
 20
89.1433812955
 11
136.6082953003
 21
89.3434226646
  0
LINE
  5
2F3
100
AcDbEntity
  8
00_COMPONENTS
100
AcDbLine
 62
7
  6
CONTINUOUS
 10
138.76498585
 20
88.3269265488
 11
136.9547849536
 21
89.3720228804
  0
LINE
  5
2F4
100
AcDbEntity
  8
00_COMPONENTS
100
AcDbLine
 62
7
  6
CONTINUOUS
 10
135.9011914631
 20
89.9803016046
 11
134.0909905667
 21
91.0253979362
  0
LINE
  5
2F5
100
AcDbEntity
  8
00_COMPONENTS
100
AcDbLine
 62
7
  6
CONTINUOUS
 10
138.9290941953
 20
89.048662204
 11
137.6618887908
 21
89.7802670342
  0
LINE
  5
2F6
100
AcDbEntity
  8
00_COMPONENTS
100
AcDbLine
 62
7
  6
CONTINUOUS
 10
136.6082953003
 20
90.3885457585
 11
134.798094404
 21
91.4336420901
  0
LINE
  5
2F7
100
AcDbEntity
  8
00_COMPONENTS
100
AcDbLine
 62
7
  6
CONTINUOUS
 10
134.0909905667
 20
92.2572887705
 11
135.9011914631
 21
91.2121924389
  0
LINE
  5
2F8
100
AcDbEntity
  8
00_COMPONENTS
100
AcDbLine
 62
7
  6
CONTINUOUS
 10
136.9547849536
 20
90.6039137147
 11
138.76498585
 21
89.5588173831
  0
LINE
  5
2F9
100
AcDbEntity
  8
00_COMPONENTS
100
AcDbLine
 62
7
  6
CONTINUOUS
 10
135.9011914631
 20
92.2573155328
 11
136.9547849536
 21
91.6490368086
  0
LINE
  5
2FA
100
AcDbEntity
  8
00_COMPONENTS
100
AcDbLine
 62
7
  6
CONTINUOUS
 10
51.8370943584
 20
143.7836440122
 11
33.6142347608
 21
154.3043788954
  0
LINE
  5
2FB
100
AcDbEntity
  8
00_COMPONENTS
100
AcDbLine
 62
7
  6
CONTINUOUS
 10
51.8370943584
 20
144.1918847667
 11
33.9677866794
 21
154.5085009723
  0
LINE
  5
2FC
100
AcDbEntity
  8
00_COMPONENTS
100
AcDbLine
 62
7
  6
CONTINUOUS
 10
34.1799225409
 20
157.2437959603
 11
51.5748217795
 21
147.2010733991
  0
LINE
  5
2FD
100
AcDbEntity
  8
00_COMPONENTS
100
AcDbLine
 62
7
  6
CONTINUOUS
 10
101.7795987227
 20
103.0698197203
 11
105.5628871466
 21
98.8035586962
  0
LINE
  5
2FE
100
AcDbEntity
  8
00_COMPONENTS
100
AcDbLine
 62
7
  6
CONTINUOUS
 10
72.2717032259
 20
263.8340123371
 11
72.2717032259
 21
267.6879037459
  0
LINE
  5
2FF
100
AcDbEntity
  8
00_COMPONENTS
100
AcDbLine
 62
7
  6
CONTINUOUS
 10
79.0107733221
 20
180.5938410984
 11
79.0107733221
 21
143.7804809002
  0
LINE
  5
300
100
AcDbEntity
  8
00_COMPONENTS
100
AcDbLine
 62
7
  6
CONTINUOUS
 10
85.1637840397
 20
221.1446660712
 11
87.283809908
 21
235.8327811291
  0
LINE
  5
301
100
AcDbEntity
  8
00_COMPONENTS
100
AcDbLine
 62
7
  6
CONTINUOUS
 10
52.6001014413
 20
100.3133497101
 11
52.7232917589
 21
100.7733924277
  0
LINE
  5
302
100
AcDbEntity
  8
00_COMPONENTS
100
AcDbLine
 62
7
  6
CONTINUOUS
 10
54.2264538091
 20
99.3743959747
 11
54.1032634915
 21
98.9143532572
  0
LINE
  5
303
100
AcDbEntity
  8
00_COMPONENTS
100
AcDbLine
 62
7
  6
CONTINUOUS
 10
128.8404812376
 20
235.0286433843
 11
130.9617927493
 21
236.2533758459
  0
LINE
  5
304
100
AcDbEntity
  8
00_COMPONENTS
100
AcDbLine
 62
7
  6
CONTINUOUS
 10
162.6612597146
 20
254.2038710025
 11
159.6914235983
 21
252.4892455562
  0
LINE
  5
305
100
AcDbEntity
  8
00_COMPONENTS
100
AcDbLine
 62
7
  6
CONTINUOUS
 10
147.2166682057
 20
242.3382979437
 11
143.0744268996
 21
239.946788086
  0
LINE
  5
306
100
AcDbEntity
  8
00_COMPONENTS
100
AcDbLine
 62
7
  6
CONTINUOUS
 10
124.1244628895
 20
227.5453573873
 11
129.2330564734
 21
230.4947876625
  0
LINE
  5
307
100
AcDbEntity
  8
00_COMPONENTS
100
AcDbLine
 62
7
  6
CONTINUOUS
 10
135.0845723663
 20
233.8731417723
 11
141.9632322354
 21
237.8445141935
  0
LINE
  5
308
100
AcDbEntity
  8
00_COMPONENTS
100
AcDbLine
 62
7
  6
CONTINUOUS
 10
115.5681989139
 20
219.5031509483
 11
116.2753027511
 21
219.9113951022
  0
LINE
  5
309
100
AcDbEntity
  8
00_COMPONENTS
100
AcDbLine
 62
7
  6
CONTINUOUS
 10
148.7313047008
 20
238.0625197387
 11
145.902132269
 21
236.4291060237
  0
LINE
  5
30A
100
AcDbEntity
  8
00_COMPONENTS
100
AcDbLine
 62
7
  6
CONTINUOUS
 10
169.9444898836
 20
250.0806414726
 11
138.4783691276
 21
231.9137766254
  0
LINE
  5
30B
100
AcDbEntity
  8
00_COMPONENTS
100
AcDbLine
 62
7
  6
CONTINUOUS
 10
136.3570576159
 20
230.6890441638
 11
127.5182596508
 21
225.5859922404
  0
LINE
  5
30C
100
AcDbEntity
  8
00_COMPONENTS
100
AcDbLine
 62
7
  6
CONTINUOUS
 10
118.8208977616
 20
218.4417283859
 11
185.7836311458
 21
257.1024497576
  0
LINE
  5
30D
100
AcDbEntity
  8
00_COMPONENTS_2
100
AcDbLine
 62
7
  6
CONTINUOUS
 10
95.1372202554
 20
133.8055870523
 11
95.1615230798
 21
133.7915561274
  0
LINE
  5
30E
100
AcDbEntity
  8
00_COMPONENTS_2
100
AcDbLine
 62
7
  6
CONTINUOUS
 10
94.8715659592
 20
134.6364830271
 11
79.0333387583
 21
143.7804809002
  0
LINE
  5
30F
100
AcDbEntity
  8
00_COMPONENTS
100
AcDbLine
 62
7
  6
CONTINUOUS
 10
100.5775216106
 20
104.1721082256
 11
100.7846447776
 21
103.7143408645
  0
LINE
  5
310
100
AcDbEntity
  8
00_COMPONENTS_2
100
AcDbLine
 62
7
  6
CONTINUOUS
 10
81.2234268684
 20
145.0862331758
 11
81.7703746826
 21
143.3755259003
  0
LINE
  5
311
100
AcDbEntity
  8
00_COMPONENTS
100
AcDbLine
 62
7
  6
CONTINUOUS
 10
87.0716787569
 20
68.3273123714
 11
84.7382360941
 21
80.4523965463
  0
LINE
  5
312
100
AcDbEntity
  8
00_COMPONENTS
100
AcDbLine
 62
7
  6
CONTINUOUS
 10
91.9507552906
 20
76.2883408502
 11
94.2841979534
 21
64.1632566753
  0
LINE
  5
313
100
AcDbEntity
  8
00_COMPONENTS
100
AcDbLine
 62
7
  6
CONTINUOUS
 10
85.5865793504
 20
249.794711475
 11
85.5865793504
 21
260.0007303383
  0
LINE
  5
314
100
AcDbEntity
  8
00_COMPONENTS
100
AcDbLine
 62
7
  6
CONTINUOUS
 10
86.5056488878
 20
272.6060484476
 11
86.5056488878
 21
276.3782896147
  0
LINE
  5
315
100
AcDbEntity
  8
00_COMPONENTS
100
AcDbLine
 62
7
  6
CONTINUOUS
 10
87.9909137452
 20
68.8580297714
 11
87.9909137452
 21
82.0153294951
  0
LINE
  5
316
100
AcDbEntity
  8
00_COMPONENTS
100
AcDbLine
 62
7
  6
CONTINUOUS
 10
87.9909137452
 20
222.7769004245
 11
87.9909137452
 21
236.241025283
  0
LINE
  5
317
100
AcDbEntity
  8
00_COMPONENTS
100
AcDbLine
 62
7
  6
CONTINUOUS
 10
89.5465551406
 20
75.4717223491
 11
89.5465551406
 21
73.512116548
  0
LINE
  5
318
100
AcDbEntity
  8
00_COMPONENTS
100
AcDbLine
 62
7
  6
CONTINUOUS
 10
89.5465551406
 20
227.8310733855
 11
89.5465551406
 21
229.7906791866
  0
LINE
  5
319
100
AcDbEntity
  8
00_COMPONENTS
100
AcDbLine
 62
7
  6
CONTINUOUS
 10
94.4963291045
 20
231.668725433
 11
92.3763032362
 21
216.980610375
  0
LINE
  5
31A
100
AcDbEntity
  8
00_COMPONENTS
100
AcDbLine
 62
7
  6
CONTINUOUS
 10
120.9422269371
 20
217.2170061224
 11
187.9049603212
 21
255.877727494
  0
LINE
  5
31B
100
AcDbEntity
  8
00_COMPONENTS
100
AcDbLine
 62
7
  6
CONTINUOUS
 10
133.316559397
 20
222.2384180533
 11
142.1553573621
 21
227.3414699767
  0
LINE
  5
31C
100
AcDbEntity
  8
00_COMPONENTS
100
AcDbLine
 62
7
  6
CONTINUOUS
 10
144.2766688738
 20
228.5662024383
 11
175.7427896298
 21
246.7330672856
  0
LINE
  5
31D
100
AcDbEntity
  8
00_COMPONENTS
100
AcDbLine
 62
7
  6
CONTINUOUS
 10
122.7807181104
 20
215.3390952522
 11
123.4878219476
 21
215.7473394061
  0
LINE
  5
31E
100
AcDbEntity
  8
00_COMPONENTS
100
AcDbLine
 62
7
  6
CONTINUOUS
 10
120.9422269371
 20
214.1142546092
 11
118.8208977616
 21
212.8895119494
  0
LINE
  5
31F
100
AcDbEntity
  8
00_COMPONENTS
100
AcDbLine
 62
7
  6
CONTINUOUS
 10
120.9422269371
 20
213.297732439
 11
117.8309441464
 21
211.5014432047
  0
LINE
  5
320
100
AcDbEntity
  8
00_COMPONENTS
100
AcDbLine
 62
7
  6
CONTINUOUS
 10
120.9422269371
 20
212.1546488081
 11
118.8208977616
 21
210.9299061483
  0
LINE
  5
321
100
AcDbEntity
  8
00_COMPONENTS
100
AcDbLine
 62
7
  6
CONTINUOUS
 10
121.5786733447
 20
211.2973454938
 11
118.8208977616
 21
209.7051525226
  0
LINE
  5
322
100
AcDbEntity
  8
00_COMPONENTS
100
AcDbLine
 62
7
  6
CONTINUOUS
 10
121.9321805523
 20
210.2767304593
 11
120.9422269371
 21
209.7051838848
  0
LINE
  5
323
100
AcDbEntity
  8
00_COMPONENTS
100
AcDbLine
 62
7
  6
CONTINUOUS
 10
113.4481730456
 20
204.8150358903
 11
116.2753027511
 21
206.4472702437
  0
LINE
  5
324
100
AcDbEntity
  8
00_COMPONENTS
100
AcDbLine
 62
7
  6
CONTINUOUS
 10
175.177126579
 20
237.914906354
 11
183.0260197988
 21
242.4465372723
  0
LINE
  5
325
100
AcDbEntity
  8
00_COMPONENTS
100
AcDbLine
 62
7
  6
CONTINUOUS
 10
149.6719337404
 20
223.0018707561
 11
151.7932452521
 21
224.2266032178
  0
LINE
  5
326
100
AcDbEntity
  8
00_COMPONENTS
100
AcDbLine
 62
7
  6
CONTINUOUS
 10
149.6719337404
 20
219.1479793473
 11
149.2986839432
 21
218.9680120842
  0
LINE
  5
327
100
AcDbEntity
  8
00_COMPONENTS_2
100
AcDbLine
 62
7
  6
CONTINUOUS
 10
82.644717416
 20
144.2656692592
 11
81.2234268684
 21
145.0862331758
  0
LINE
  5
328
100
AcDbEntity
  8
00_COMPONENTS_2
100
AcDbLine
 62
7
  6
CONTINUOUS
 10
95.6985628356
 20
137.6434198373
 11
81.8183160079
 21
145.6570027882
  0
LINE
  5
329
100
AcDbEntity
  8
00_COMPONENTS
100
AcDbLine
 62
7
  6
CONTINUOUS
 10
213.0780665365
 20
79.513577558
 11
214.0680201517
 21
78.9420405017
  0
LINE
  5
32A
100
AcDbEntity
  8
00_COMPONENTS_2
100
AcDbLine
 62
7
  6
CONTINUOUS
 10
94.8715659592
 20
134.6364830271
 11
95.1461531696
 21
133.7776472725
  0
LINE
  5
32B
100
AcDbEntity
  8
00_COMPONENTS_2
100
AcDbLine
 62
7
  6
CONTINUOUS
 10
95.6985628356
 20
132.1118386231
 11
95.1615230798
 21
133.7915561274
  0
LINE
  5
32C
100
AcDbEntity
  8
00_COMPONENTS
100
AcDbLine
 62
7
  6
CONTINUOUS
 10
90.3239595614
 20
282.6692739027
 11
90.3239595614
 21
286.9037968965
  0
LINE
  5
32D
100
AcDbEntity
  8
00_COMPONENTS
100
AcDbLine
 62
7
  6
CONTINUOUS
 10
90.5365087558
 20
76.1249389185
 11
90.5365087558
 21
74.9001852928
  0
LINE
  5
32E
100
AcDbEntity
  8
00_COMPONENTS
100
AcDbLine
 62
7
  6
CONTINUOUS
 10
90.5365087558
 20
72.9405794917
 11
90.5365087558
 21
67.3883630552
  0
LINE
  5
32F
100
AcDbEntity
  8
00_COMPONENTS
100
AcDbLine
 62
7
  6
CONTINUOUS
 10
90.5365087558
 20
226.0347827034
 11
90.5365087558
 21
227.2595363291
  0
LINE
  5
330
100
AcDbEntity
  8
00_COMPONENTS
100
AcDbLine
 62
7
  6
CONTINUOUS
 10
90.5365087558
 20
229.2191421303
 11
90.5365087558
 21
234.7713585667
  0
LINE
  5
331
100
AcDbEntity
  8
00_COMPONENTS
100
AcDbLine
 62
7
  6
CONTINUOUS
 10
90.8896226122
 20
287.2303919487
 11
90.8896226122
 21
295.721957828
  0
LINE
  5
332
100
AcDbEntity
  8
00_COMPONENTS
100
AcDbLine
 62
7
  6
CONTINUOUS
 10
91.4206926437
 20
109.5576482672
 11
91.4206926437
 21
106.9683737866
  0
LINE
  5
333
100
AcDbEntity
  8
00_COMPONENTS
100
AcDbLine
 62
7
  6
CONTINUOUS
 10
92.162526689
 20
273.1133416231
 11
92.162526689
 21
270.4925367655
  0
LINE
  5
334
100
AcDbEntity
  8
00_COMPONENTS
100
AcDbLine
 62
7
  6
CONTINUOUS
 10
92.6578379312
 20
226.0348140656
 11
92.6578379312
 21
224.8100604399
  0
LINE
  5
335
100
AcDbEntity
  8
00_COMPONENTS
100
AcDbLine
 62
7
  6
CONTINUOUS
 10
92.6578379312
 20
71.7158572281
 11
92.6578379312
 21
66.1636407916
  0
LINE
  5
336
100
AcDbEntity
  8
00_COMPONENTS
100
AcDbLine
 62
7
  6
CONTINUOUS
 10
92.6578379312
 20
227.9944198667
 11
92.6578379312
 21
233.5466363032
  0
LINE
  5
337
100
AcDbEntity
  8
00_COMPONENTS
100
AcDbLine
 62
7
  6
CONTINUOUS
 10
93.1031557287
 20
251.8072397089
 11
93.1031557287
 21
255.6611311178
  0
LINE
  5
338
100
AcDbEntity
  8
00_COMPONENTS
100
AcDbLine
 62
7
  6
CONTINUOUS
 10
93.6477915464
 20
227.4228828104
 11
93.6477915464
 21
225.7898267503
  0
LINE
  5
339
100
AcDbEntity
  8
00_COMPONENTS
100
AcDbLine
 62
7
  6
CONTINUOUS
 10
95.2244672403
 20
253.0319721705
 11
95.2244672403
 21
256.8858635794
  0
LINE
  5
33A
100
AcDbEntity
  8
00_COMPONENTS
100
AcDbLine
 62
7
  6
CONTINUOUS
 10
95.6985628356
 20
170.9593592917
 11
95.6985628356
 21
112.3316468145
  0
LINE
  5
33B
100
AcDbEntity
  8
00_COMPONENTS
100
AcDbLine
 62
7
  6
CONTINUOUS
 10
100.5560922317
 20
247.5043821563
 11
100.5560922317
 21
251.3582735651
  0
LINE
  5
33C
100
AcDbEntity
  8
00_COMPONENTS
100
AcDbLine
 62
7
  6
CONTINUOUS
 10
33.9677866794
 20
154.5085009723
 11
33.6142347608
 21
154.3043788954
  0
LINE
  5
33D
100
AcDbEntity
  8
00_COMPONENTS
100
AcDbLine
 62
7
  6
CONTINUOUS
 10
179.5160182893
 20
237.3401275193
 11
178.4553625335
 21
236.7277612885
  0
LINE
  5
33E
100
AcDbEntity
  8
00_COMPONENTS
100
AcDbLine
 62
7
  6
CONTINUOUS
 10
178.6553616381
 20
236.3813506101
 11
177.0997331962
 21
235.4832134715
  0
LINE
  5
33F
100
AcDbEntity
  8
00_COMPONENTS
100
AcDbLine
 62
7
  6
CONTINUOUS
 10
149.6719337404
 20
219.1479793473
 11
151.7932452521
 21
220.3727118089
  0
LINE
  5
340
100
AcDbEntity
  8
00_COMPONENTS
100
AcDbLine
 62
7
  6
CONTINUOUS
 10
177.3997318532
 20
234.9635974539
 11
170.1872727136
 21
230.7995070844
  0
LINE
  5
341
100
AcDbEntity
  8
00_COMPONENTS
100
AcDbLine
 62
7
  6
CONTINUOUS
 10
27.7452258084
 20
147.9764036467
 11
28.0987813485
 21
148.1805278145
  0
LINE
  5
342
100
AcDbEntity
  8
00_COMPONENTS
100
AcDbLine
 62
7
  6
CONTINUOUS
 10
157.1248702435
 20
218.6990132035
 11
159.2461817551
 21
219.9237456651
  0
LINE
  5
343
100
AcDbEntity
  8
00_COMPONENTS
100
AcDbLine
 62
7
  6
CONTINUOUS
 10
190.9456487204
 20
237.8742408217
 11
187.9758126042
 21
236.1596153754
  0
LINE
  5
344
100
AcDbEntity
  8
00_COMPONENTS
100
AcDbLine
 62
7
  6
CONTINUOUS
 10
175.5010572116
 20
226.0086677629
 11
171.3588159055
 21
223.6171579052
  0
LINE
  5
345
100
AcDbEntity
  8
00_COMPONENTS
100
AcDbLine
 62
7
  6
CONTINUOUS
 10
152.4088518953
 20
211.2157272065
 11
157.5174454793
 21
214.1651574816
  0
LINE
  5
346
100
AcDbEntity
  8
00_COMPONENTS
100
AcDbLine
 62
7
  6
CONTINUOUS
 10
163.3689613722
 20
217.5435115915
 11
170.2476212413
 21
221.5148840127
  0
LINE
  5
347
100
AcDbEntity
  8
00_COMPONENTS
100
AcDbLine
 62
7
  6
CONTINUOUS
 10
141.5898856692
 20
53.7536903024
 11
141.7555842028
 21
53.3874764135
  0
LINE
  5
348
100
AcDbEntity
  8
00_COMPONENTS
100
AcDbLine
 62
7
  6
CONTINUOUS
 10
142.7212518087
 20
54.4068809486
 11
142.5555532751
 21
54.7730948374
  0
LINE
  5
349
100
AcDbEntity
  8
00_COMPONENTS
100
AcDbLine
 62
7
  6
CONTINUOUS
 10
115.3560677627
 20
51.9976821906
 11
113.0226250999
 21
64.1227663655
  0
LINE
  5
34A
100
AcDbEntity
  8
00_COMPONENTS
100
AcDbLine
 62
7
  6
CONTINUOUS
 10
120.2351442964
 20
59.9587106694
 11
122.5685869592
 21
47.8336264945
  0
LINE
  5
34B
100
AcDbEntity
  8
00_COMPONENTS
100
AcDbLine
 62
7
  6
CONTINUOUS
 10
101.7795987227
 20
103.5770663528
 11
101.7795987227
 21
103.0698197203
  0
LINE
  5
34C
100
AcDbEntity
  8
00_COMPONENTS
100
AcDbLine
 62
7
  6
CONTINUOUS
 10
105.5628871466
 20
101.3928331768
 11
105.5628871466
 21
98.8035586962
  0
LINE
  5
34D
100
AcDbEntity
  8
00_COMPONENTS
100
AcDbLine
 62
7
  6
CONTINUOUS
 10
113.4481730456
 20
204.8150358903
 11
115.5681989139
 21
219.5031509483
  0
LINE
  5
34E
100
AcDbEntity
  8
00_COMPONENTS
100
AcDbLine
 62
7
  6
CONTINUOUS
 10
122.2761187023
 20
197.7787776546
 11
122.6486527136
 21
198.4166023597
  0
LINE
  5
34F
100
AcDbEntity
  8
00_COMPONENTS
100
AcDbLine
 62
7
  6
CONTINUOUS
 10
124.0438930152
 20
196.7581757683
 11
123.6713590039
 21
196.1203510633
  0
LINE
  5
350
100
AcDbEntity
  8
00_COMPONENTS_2
100
AcDbLine
 62
7
  6
CONTINUOUS
 10
55.6701687629
 20
118.990951161
 11
64.5626578959
 21
128.7045647777
  0
LINE
  5
351
100
AcDbEntity
  8
00_COMPONENTS_2
100
AcDbLine
 62
7
  6
CONTINUOUS
 10
64.5626578959
 20
128.7045647777
 11
79.0333387583
 21
143.7804809002
  0
LINE
  5
352
100
AcDbEntity
  8
00_COMPONENTS_2
100
AcDbLine
 62
7
  6
CONTINUOUS
 10
81.0337372786
 20
142.6255764034
 11
82.644717416
 21
144.2656692592
  0
LINE
  5
353
100
AcDbEntity
  8
00_COMPONENTS_2
100
AcDbLine
 62
7
  6
CONTINUOUS
 10
81.8183160079
 20
145.6570027882
 11
81.2234268684
 21
145.0862331758
  0
LINE
  5
354
100
AcDbEntity
  8
00_COMPONENTS
100
AcDbLine
 62
7
  6
CONTINUOUS
 10
177.0156937066
 20
221.7328895579
 11
174.1865212748
 21
220.0994758429
  0
LINE
  5
355
100
AcDbEntity
  8
00_COMPONENTS
100
AcDbLine
 62
7
  6
CONTINUOUS
 10
198.2288788895
 20
233.7510112918
 11
166.7627581334
 21
215.5841464446
  0
LINE
  5
356
100
AcDbEntity
  8
00_COMPONENTS
100
AcDbLine
 62
7
  6
CONTINUOUS
 10
164.6414466218
 20
214.3594139829
 11
155.8026486566
 21
209.2563620595
  0
LINE
  5
357
100
AcDbEntity
  8
00_COMPONENTS
100
AcDbLine
 62
7
  6
CONTINUOUS
 10
51.8370943584
 20
147.3524956393
 11
51.5748217795
 21
147.2010733991
  0
LINE
  5
358
100
AcDbEntity
  8
00_COMPONENTS
100
AcDbLine
 62
7
  6
CONTINUOUS
 10
214.0680201517
 20
240.7728195767
 11
146.3981829303
 21
201.7038540512
  0
LINE
  5
359
100
AcDbEntity
  8
00_COMPONENTS
100
AcDbLine
 62
7
  6
CONTINUOUS
 10
145.5239454589
 20
195.6468993882
 11
214.0680201517
 21
235.2206031403
  0
LINE
  5
35A
100
AcDbEntity
  8
00_COMPONENTS
100
AcDbLine
 62
7
  6
CONTINUOUS
 10
144.2254374419
 20
194.0806877399
 11
213.0780665365
 21
233.8325343955
  0
LINE
  5
35B
100
AcDbEntity
  8
00_COMPONENTS
100
AcDbLine
 62
7
  6
CONTINUOUS
 10
95.6985628356
 20
170.9593592917
 11
79.0107733221
 21
180.5938410984
  0
LINE
  5
35C
100
AcDbEntity
  8
00_COMPONENTS
100
AcDbLine
 62
7
  6
CONTINUOUS
 10
113.8709683563
 20
233.4650812941
 11
113.8709683563
 21
243.6711001575
  0
LINE
  5
35D
100
AcDbEntity
  8
00_COMPONENTS
100
AcDbLine
 62
7
  6
CONTINUOUS
 10
114.7900378937
 20
256.2764182668
 11
114.7900378937
 21
260.0486594339
  0
LINE
  5
35E
100
AcDbEntity
  8
00_COMPONENTS
100
AcDbLine
 62
7
  6
CONTINUOUS
 10
116.2753027511
 20
52.5283995906
 11
116.2753027511
 21
65.6856993143
  0
LINE
  5
35F
100
AcDbEntity
  8
00_COMPONENTS
100
AcDbLine
 62
7
  6
CONTINUOUS
 10
116.2753027511
 20
206.4472702437
 11
116.2753027511
 21
219.9113951022
  0
LINE
  5
360
100
AcDbEntity
  8
00_COMPONENTS
100
AcDbLine
 62
7
  6
CONTINUOUS
 10
117.8309441464
 20
59.1420921683
 11
117.8309441464
 21
57.1824863672
  0
LINE
  5
361
100
AcDbEntity
  8
00_COMPONENTS
100
AcDbLine
 62
7
  6
CONTINUOUS
 10
117.8309441464
 20
211.5014432047
 11
117.8309441464
 21
213.4610490058
  0
LINE
  5
362
100
AcDbEntity
  8
00_COMPONENTS
100
AcDbLine
 62
7
  6
CONTINUOUS
 10
118.6083485672
 20
266.3396437219
 11
118.6083485672
 21
270.5741667157
  0
LINE
  5
363
100
AcDbEntity
  8
00_COMPONENTS
100
AcDbLine
 62
7
  6
CONTINUOUS
 10
118.8208977616
 20
59.7953087376
 11
118.8208977616
 21
58.570555112
  0
LINE
  5
364
100
AcDbEntity
  8
00_COMPONENTS
100
AcDbLine
 62
7
  6
CONTINUOUS
 10
118.8208977616
 20
56.6109493108
 11
118.8208977616
 21
51.0587328744
  0
LINE
  5
365
100
AcDbEntity
  8
00_COMPONENTS
100
AcDbLine
 62
7
  6
CONTINUOUS
 10
118.8208977616
 20
209.7051525226
 11
118.8208977616
 21
210.9299061483
  0
LINE
  5
366
100
AcDbEntity
  8
00_COMPONENTS
100
AcDbLine
 62
7
  6
CONTINUOUS
 10
118.8208977616
 20
212.8895119494
 11
118.8208977616
 21
218.4417283859
  0
LINE
  5
367
100
AcDbEntity
  8
00_COMPONENTS
100
AcDbLine
 62
7
  6
CONTINUOUS
 10
119.174011618
 20
270.9007617679
 11
119.174011618
 21
279.3923276472
  0
LINE
  5
368
100
AcDbEntity
  8
00_COMPONENTS
100
AcDbLine
 62
7
  6
CONTINUOUS
 10
120.4469156949
 20
256.7837114423
 11
120.4469156949
 21
254.1629065847
  0
LINE
  5
369
100
AcDbEntity
  8
00_COMPONENTS
100
AcDbLine
 62
7
  6
CONTINUOUS
 10
120.9422269371
 20
209.7051838848
 11
120.9422269371
 21
208.4804302591
  0
LINE
  5
36A
100
AcDbEntity
  8
00_COMPONENTS
100
AcDbLine
 62
7
  6
CONTINUOUS
 10
120.9422269371
 20
55.3862270473
 11
120.9422269371
 21
49.8340106108
  0
LINE
  5
36B
100
AcDbEntity
  8
00_COMPONENTS
100
AcDbLine
 62
7
  6
CONTINUOUS
 10
120.9422269371
 20
211.6647896859
 11
120.9422269371
 21
217.2170061224
  0
LINE
  5
36C
100
AcDbEntity
  8
00_COMPONENTS
100
AcDbLine
 62
7
  6
CONTINUOUS
 10
121.3875447346
 20
235.4776095281
 11
121.3875447346
 21
239.3315009369
  0
LINE
  5
36D
100
AcDbEntity
  8
00_COMPONENTS
100
AcDbLine
 62
7
  6
CONTINUOUS
 10
121.9321805523
 20
211.0932526296
 11
121.9321805523
 21
209.4601965695
  0
LINE
  5
36E
100
AcDbEntity
  8
00_COMPONENTS
100
AcDbLine
 62
7
  6
CONTINUOUS
 10
122.8722417994
 20
158.3222717845
 11
122.8722417994
 21
97.9280180043
  0
LINE
  5
36F
100
AcDbEntity
  8
00_COMPONENTS
100
AcDbLine
 62
7
  6
CONTINUOUS
 10
122.7807181104
 20
215.3390952522
 11
120.6606922421
 21
200.6509801942
  0
LINE
  5
370
100
AcDbEntity
  8
00_COMPONENTS
100
AcDbLine
 62
7
  6
CONTINUOUS
 10
93.6124654998
 20
76.6353859479
 11
93.7356558174
 21
77.0954286655
  0
LINE
  5
371
100
AcDbEntity
  8
00_COMPONENTS
100
AcDbLine
 62
7
  6
CONTINUOUS
 10
95.2388178677
 20
75.6964322125
 11
95.1156275501
 21
75.236389495
  0
LINE
  5
372
100
AcDbEntity
  8
00_COMPONENTS
100
AcDbLine
 62
7
  6
CONTINUOUS
 10
145.2153910572
 20
193.5091506835
 11
214.0680201517
 21
233.2609973391
  0
LINE
  5
373
100
AcDbEntity
  8
00_COMPONENTS
100
AcDbLine
 62
7
  6
CONTINUOUS
 10
145.0225445561
 20
192.1730577431
 11
214.0680201517
 21
232.0362437135
  0
LINE
  5
374
100
AcDbEntity
  8
00_COMPONENTS
100
AcDbLine
 62
7
  6
CONTINUOUS
 10
146.0832091438
 20
191.5606966114
 11
215.1286847394
 21
231.4238825817
  0
LINE
  5
375
100
AcDbEntity
  8
00_COMPONENTS
100
AcDbLine
 62
7
  6
CONTINUOUS
 10
145.7039443584
 20
188.9330471619
 11
215.1286847394
 21
229.0152004511
  0
LINE
  5
376
100
AcDbEntity
  8
00_COMPONENTS
100
AcDbLine
 62
7
  6
CONTINUOUS
 10
128.9074513828
 20
174.8635229917
 11
117.2184740595
 21
168.1149215823
  0
LINE
  5
377
100
AcDbEntity
  8
00_COMPONENTS
100
AcDbLine
 62
7
  6
CONTINUOUS
 10
215.1286847394
 20
224.3611366735
 11
144.9711276544
 21
183.8558939885
  0
LINE
  5
378
100
AcDbEntity
  8
00_COMPONENTS
100
AcDbLine
 62
7
  6
CONTINUOUS
 10
135.4041535872
 20
176.000522866
 11
134.7329957967
 21
175.613032048
  0
LINE
  5
379
100
AcDbEntity
  8
00_COMPONENTS
100
AcDbLine
 62
7
  6
CONTINUOUS
 10
117.2184740595
 20
168.1149215823
 11
57.4908620983
 21
202.597894317
  0
LINE
  5
37A
100
AcDbEntity
  8
00_COMPONENTS
100
AcDbLine
 62
7
  6
CONTINUOUS
 10
144.2344369453
 20
39.7669267371
 11
143.8950271035
 21
41.5305753443
  0
LINE
  5
37B
100
AcDbEntity
  8
00_COMPONENTS
100
AcDbLine
 62
7
  6
CONTINUOUS
 10
146.1860517792
 20
34.1983852935
 11
145.2243905605
 21
39.1953896807
  0
LINE
  5
37C
100
AcDbEntity
  8
00_COMPONENTS
100
AcDbLine
 62
7
  6
CONTINUOUS
 10
144.8849807187
 20
40.959038288
 11
144.6728495675
 21
42.0613186675
  0
LINE
  5
37D
100
AcDbEntity
  8
00_COMPONENTS
100
AcDbLine
 62
7
  6
CONTINUOUS
 10
145.7335141552
 20
41.4489575357
 11
145.2198666219
 21
44.1179837247
  0
LINE
  5
37E
100
AcDbEntity
  8
00_COMPONENTS
100
AcDbLine
 62
7
  6
CONTINUOUS
 10
144.6066807862
 20
47.3042329484
 11
144.418301018
 21
48.2830958888
  0
LINE
  5
37F
100
AcDbEntity
  8
00_COMPONENTS
100
AcDbLine
 62
7
  6
CONTINUOUS
 10
123.5088562462
 20
236.7023419897
 11
123.5088562462
 21
240.5562333986
  0
LINE
  5
380
100
AcDbEntity
  8
00_COMPONENTS
100
AcDbLine
 62
7
  6
CONTINUOUS
 10
128.8404812376
 20
231.1747519754
 11
128.8404812376
 21
235.0286433843
  0
LINE
  5
381
100
AcDbEntity
  8
00_COMPONENTS
100
AcDbLine
 62
7
  6
CONTINUOUS
 10
129.214853134
 20
287.3122451959
 11
129.214853134
 21
289.7617101192
  0
LINE
  5
382
100
AcDbEntity
  8
00_COMPONENTS
100
AcDbLine
 62
7
  6
CONTINUOUS
 10
129.2508265589
 20
62.7554636615
 11
129.2508265589
 21
60.1018308058
  0
LINE
  5
383
100
AcDbEntity
  8
00_COMPONENTS
100
AcDbLine
 62
7
  6
CONTINUOUS
 10
130.3114823147
 20
62.9596100458
 11
130.3114823147
 21
62.1284207076
  0
LINE
  5
384
100
AcDbEntity
  8
00_COMPONENTS
100
AcDbLine
 62
7
  6
CONTINUOUS
 10
134.0909905667
 20
174.6423826589
 11
134.7330839788
 21
175.6128796662
  0
LINE
  5
385
100
AcDbEntity
  8
00_COMPONENTS_2
100
AcDbLine
 62
7
  6
CONTINUOUS
 10
69.7058204165
 20
110.8876472218
 11
79.2895304926
 21
120.202193269
  0
LINE
  5
386
100
AcDbEntity
  8
00_COMPONENTS_2
100
AcDbLine
 62
7
  6
CONTINUOUS
 10
79.2895304926
 20
120.202193269
 11
94.8715659592
 21
134.6364830271
  0
LINE
  5
387
100
AcDbEntity
  8
00_COMPONENTS_2
100
AcDbLine
 62
7
  6
CONTINUOUS
 10
95.1615230798
 20
133.7915561274
 11
95.1461531697
 21
133.7776472725
  0
LINE
  5
388
100
AcDbEntity
  8
00_COMPONENTS
100
AcDbLine
 62
7
  6
CONTINUOUS
 10
134.798094404
 20
173.8187359784
 11
134.0909905667
 21
173.4104918245
  0
LINE
  5
389
100
AcDbEntity
  8
00_COMPONENTS
100
AcDbLine
 62
7
  6
CONTINUOUS
 10
136.6082953003
 20
174.0055304812
 11
135.9011914631
 21
173.5972863273
  0
LINE
  5
38A
100
AcDbEntity
  8
00_COMPONENTS
100
AcDbLine
 62
7
  6
CONTINUOUS
 10
141.0949129831
 20
175.5350307555
 11
144.6304321692
 21
177.5762515249
  0
LINE
  5
38B
100
AcDbEntity
  8
00_COMPONENTS
100
AcDbLine
 62
7
  6
CONTINUOUS
 10
136.6082953003
 20
172.7736396468
 11
135.9011914631
 21
172.365395493
  0
LINE
  5
38C
100
AcDbEntity
  8
00_COMPONENTS
100
AcDbLine
 62
7
  6
CONTINUOUS
 10
136.6082953003
 20
171.7285165529
 11
135.9011914631
 21
171.320272399
  0
LINE
  5
38D
100
AcDbEntity
  8
00_COMPONENTS
100
AcDbLine
 62
7
  6
CONTINUOUS
 10
137.6618887908
 20
172.1653609226
 11
136.9547849536
 21
171.7571167687
  0
LINE
  5
38E
100
AcDbEntity
  8
00_COMPONENTS
100
AcDbLine
 62
7
  6
CONTINUOUS
 10
138.8000849124
 20
171.9641756037
 11
138.76498585
 21
171.9439112715
  0
LINE
  5
38F
100
AcDbEntity
  8
00_COMPONENTS
100
AcDbLine
 62
7
  6
CONTINUOUS
 10
138.76498585
 20
170.7120204372
 11
138.9015421072
 21
170.7908607584
  0
LINE
  5
390
100
AcDbEntity
  8
00_COMPONENTS
100
AcDbLine
 62
7
  6
CONTINUOUS
 10
138.8300844573
 20
170.149615202
 11
138.12298062
 21
169.7413710481
  0
LINE
  5
391
100
AcDbEntity
  8
00_COMPONENTS
100
AcDbLine
 62
7
  6
CONTINUOUS
 10
122.8722417994
 20
158.3223629633
 11
134.5612191228
 21
165.0709643727
  0
LINE
  5
392
100
AcDbEntity
  8
00_COMPONENTS
100
AcDbLine
 62
7
  6
CONTINUOUS
 10
51.5748217795
 20
212.1293456093
 11
34.1799225409
 21
222.1720681705
  0
LINE
  5
393
100
AcDbEntity
  8
00_COMPONENTS
100
AcDbLine
 62
7
  6
CONTINUOUS
 10
51.9283736981
 20
212.3334676862
 11
34.5334744595
 21
222.3761902474
  0
LINE
  5
394
100
AcDbEntity
  8
00_COMPONENTS
100
AcDbLine
 62
7
  6
CONTINUOUS
 10
68.4292075658
 20
209.7798634264
 11
128.9074513828
 21
174.8635229917
  0
LINE
  5
395
100
AcDbEntity
  8
00_COMPONENTS
100
AcDbLine
 62
7
  6
CONTINUOUS
 10
136.9547849536
 20
170.7119936748
 11
135.9011914631
 21
171.320272399
  0
LINE
  5
396
100
AcDbEntity
  8
00_COMPONENTS
100
AcDbLine
 62
7
  6
CONTINUOUS
 10
62.2839979781
 20
213.8222173522
 11
61.2304044876
 21
214.4304960764
  0
LINE
  5
397
100
AcDbEntity
  8
00_COMPONENTS
100
AcDbLine
 62
7
  6
CONTINUOUS
 10
33.6142347608
 20
230.647354897
 11
52.1405095596
 21
219.9514471286
  0
LINE
  5
398
100
AcDbEntity
  8
00_COMPONENTS
100
AcDbLine
 62
7
  6
CONTINUOUS
 10
136.9547849536
 20
171.5284751839
 11
136.6082953003
 21
171.7285165529
  0
LINE
  5
399
100
AcDbEntity
  8
00_COMPONENTS
100
AcDbLine
 62
7
  6
CONTINUOUS
 10
62.2839979781
 20
214.6386988612
 11
61.9375083248
 21
214.8387402303
  0
LINE
  5
39A
100
AcDbEntity
  8
00_COMPONENTS
100
AcDbLine
 62
7
  6
CONTINUOUS
 10
138.76498585
 20
170.7120204372
 11
136.9547849536
 21
171.7571167687
  0
LINE
  5
39B
100
AcDbEntity
  8
00_COMPONENTS
100
AcDbLine
 62
7
  6
CONTINUOUS
 10
135.9011914631
 20
172.365395493
 11
134.0909905667
 21
173.4104918245
  0
LINE
  5
39C
100
AcDbEntity
  8
00_COMPONENTS
100
AcDbLine
 62
7
  6
CONTINUOUS
 10
64.0941988744
 20
213.8222441145
 11
62.2839979781
 21
214.8673404461
  0
LINE
  5
39D
100
AcDbEntity
  8
00_COMPONENTS
100
AcDbLine
 62
7
  6
CONTINUOUS
 10
61.2304044876
 20
215.4756191703
 11
59.4202035912
 21
216.5207155019
  0
LINE
  5
39E
100
AcDbEntity
  8
00_COMPONENTS
100
AcDbLine
 62
7
  6
CONTINUOUS
 10
138.9290941953
 20
171.4337560923
 11
137.6618887908
 21
172.1653609226
  0
LINE
  5
39F
100
AcDbEntity
  8
00_COMPONENTS
100
AcDbLine
 62
7
  6
CONTINUOUS
 10
136.6082953003
 20
172.7736396468
 11
134.798094404
 21
173.8187359784
  0
LINE
  5
3A0
100
AcDbEntity
  8
00_COMPONENTS
100
AcDbLine
 62
7
  6
CONTINUOUS
 10
64.2583072198
 20
214.5439797697
 11
62.9911018153
 21
215.2755846
  0
LINE
  5
3A1
100
AcDbEntity
  8
00_COMPONENTS
100
AcDbLine
 62
7
  6
CONTINUOUS
 10
61.9375083248
 20
215.8838633242
 11
60.1273074284
 21
216.9289596558
  0
LINE
  5
3A2
100
AcDbEntity
  8
00_COMPONENTS
100
AcDbLine
 62
7
  6
CONTINUOUS
 10
59.4202035912
 20
217.7526063362
 11
61.2304044876
 21
216.7075100047
  0
LINE
  5
3A3
100
AcDbEntity
  8
00_COMPONENTS
100
AcDbLine
 62
7
  6
CONTINUOUS
 10
62.2839979781
 20
216.0992312804
 11
64.0941988744
 21
215.0541349488
  0
LINE
  5
3A4
100
AcDbEntity
  8
00_COMPONENTS
100
AcDbLine
 62
7
  6
CONTINUOUS
 10
134.0909905667
 20
174.6423826589
 11
135.9011914631
 21
173.5972863273
  0
LINE
  5
3A5
100
AcDbEntity
  8
00_COMPONENTS
100
AcDbLine
 62
7
  6
CONTINUOUS
 10
136.9547849536
 20
172.9890076031
 11
138.76498585
 21
171.9439112715
  0
LINE
  5
3A6
100
AcDbEntity
  8
00_COMPONENTS
100
AcDbLine
 62
7
  6
CONTINUOUS
 10
61.2304044876
 20
217.7526330986
 11
62.2839979781
 21
217.1443543743
  0
LINE
  5
3A7
100
AcDbEntity
  8
00_COMPONENTS
100
AcDbLine
 62
7
  6
CONTINUOUS
 10
135.9011914631
 20
174.6424094212
 11
136.9547849536
 21
174.034130697
  0
LINE
  5
3A8
100
AcDbEntity
  8
00_COMPONENTS
100
AcDbLine
 62
7
  6
CONTINUOUS
 10
134.5612191228
 20
165.0709643727
 11
134.5612191228
 21
103.8097706394
  0
LINE
  5
3A9
100
AcDbEntity
  8
00_COMPONENTS
100
AcDbLine
 62
7
  6
CONTINUOUS
 10
135.9011914631
 20
88.9351785107
 11
135.9011914631
 21
89.9803016046
  0
LINE
  5
3AA
100
AcDbEntity
  8
00_COMPONENTS
100
AcDbLine
 62
7
  6
CONTINUOUS
 10
135.9011914631
 20
91.2121924389
 11
135.9011914631
 21
92.2573155328
  0
LINE
  5
3AB
100
AcDbEntity
  8
00_COMPONENTS
100
AcDbLine
 62
7
  6
CONTINUOUS
 10
135.9011914631
 20
171.320272399
 11
135.9011914631
 21
172.365395493
  0
LINE
  5
3AC
100
AcDbEntity
  8
00_COMPONENTS
100
AcDbLine
 62
7
  6
CONTINUOUS
 10
135.9011914631
 20
173.5972863273
 11
135.9011914631
 21
174.6424094212
  0
LINE
  5
3AD
100
AcDbEntity
  8
00_COMPONENTS
100
AcDbLine
 62
7
  6
CONTINUOUS
 10
136.6082953003
 20
89.3434226646
 11
136.6082953003
 21
90.3885457585
  0
LINE
  5
3AE
100
AcDbEntity
  8
00_COMPONENTS
100
AcDbLine
 62
7
  6
CONTINUOUS
 10
136.6082953003
 20
91.6204365928
 11
136.6082953003
 21
91.8490781776
  0
LINE
  5
3AF
100
AcDbEntity
  8
00_COMPONENTS
100
AcDbLine
 62
7
  6
CONTINUOUS
 10
136.6082953003
 20
171.7285165529
 11
136.6082953003
 21
172.7736396468
  0
LINE
  5
3B0
100
AcDbEntity
  8
00_COMPONENTS
100
AcDbLine
 62
7
  6
CONTINUOUS
 10
136.6082953003
 20
174.0055304812
 11
136.6082953003
 21
174.234172066
  0
LINE
  5
3B1
100
AcDbEntity
  8
00_COMPONENTS
100
AcDbLine
 62
7
  6
CONTINUOUS
 10
136.9547849536
 20
174.034130697
 11
136.9547849536
 21
172.9890076031
  0
LINE
  5
3B2
100
AcDbEntity
  8
00_COMPONENTS
100
AcDbLine
 62
7
  6
CONTINUOUS
 10
136.9547849536
 20
171.7571167687
 11
136.9547849536
 21
170.7119936748
  0
LINE
  5
3B3
100
AcDbEntity
  8
00_COMPONENTS
100
AcDbLine
 62
7
  6
CONTINUOUS
 10
136.9547849536
 20
91.6490368086
 11
136.9547849536
 21
90.6039137147
  0
LINE
  5
3B4
100
AcDbEntity
  8
00_COMPONENTS
100
AcDbLine
 62
7
  6
CONTINUOUS
 10
136.9547849536
 20
89.3720228804
 11
136.9547849536
 21
88.3268997865
  0
LINE
  5
3B5
100
AcDbEntity
  8
00_COMPONENTS
100
AcDbLine
 62
7
  6
CONTINUOUS
 10
137.1704554805
 20
58.1831672108
 11
137.1704554805
 21
55.5295343552
  0
LINE
  5
3B6
100
AcDbEntity
  8
00_COMPONENTS
100
AcDbLine
 62
7
  6
CONTINUOUS
 10
137.5240103431
 20
74.0233193302
 11
137.5240103431
 21
80.5553386672
  0
LINE
  5
3B7
100
AcDbEntity
  8
00_COMPONENTS
100
AcDbLine
 62
7
  6
CONTINUOUS
 10
138.5846660989
 20
74.635685561
 11
138.5846660989
 21
79.9429826344
  0
LINE
  5
3B8
100
AcDbEntity
  8
00_COMPONENTS
100
AcDbLine
 62
7
  6
CONTINUOUS
 10
138.9382297934
 20
54.5089324689
 11
138.9382297934
 21
73.2068378211
  0
LINE
  5
3B9
100
AcDbEntity
  8
00_COMPONENTS
100
AcDbLine
 62
7
  6
CONTINUOUS
 10
138.9382297934
 20
79.7388571582
 11
138.9382297934
 21
83.8230437331
  0
LINE
  5
3BA
100
AcDbEntity
  8
00_COMPONENTS
100
AcDbLine
 62
7
  6
CONTINUOUS
 10
139.1150075191
 20
52.9779939257
 11
139.1150075191
 21
83.6784848098
  0
LINE
  5
3BB
100
AcDbEntity
  8
00_COMPONENTS
100
AcDbLine
 62
7
  6
CONTINUOUS
 10
140.8827818319
 20
51.9573920394
 11
140.8827818319
 21
82.6578829235
  0
LINE
  5
3BC
100
AcDbEntity
  8
00_COMPONENTS
100
AcDbLine
 62
7
  6
CONTINUOUS
 10
141.0949129831
 20
82.943656653
 11
141.0949129831
 21
175.5350307555
  0
LINE
  5
3BD
100
AcDbEntity
  8
00_COMPONENTS
100
AcDbLine
 62
7
  6
CONTINUOUS
 10
142.1553573621
 20
217.1354511133
 11
142.1553573621
 21
227.3414699767
  0
LINE
  5
3BE
100
AcDbEntity
  8
00_COMPONENTS
100
AcDbLine
 62
7
  6
CONTINUOUS
 10
143.0744268996
 20
239.946788086
 11
143.0744268996
 21
243.7190292531
  0
LINE
  5
3BF
100
AcDbEntity
  8
00_COMPONENTS
100
AcDbLine
 62
7
  6
CONTINUOUS
 10
143.2162244948
 20
84.0050886312
 11
143.2162244948
 21
84.1683891147
  0
LINE
  5
3C0
100
AcDbEntity
  8
00_COMPONENTS
100
AcDbLine
 62
7
  6
CONTINUOUS
 10
144.418301018
 20
48.2830958888
 11
144.418301018
 21
53.6720118419
  0
LINE
  5
3C1
100
AcDbEntity
  8
00_COMPONENTS
100
AcDbLine
 62
7
  6
CONTINUOUS
 10
144.6304321692
 20
177.5762515249
 11
144.6304321692
 21
181.4954631271
  0
LINE
  5
3C2
100
AcDbEntity
  8
00_COMPONENTS
100
AcDbLine
 62
7
  6
CONTINUOUS
 10
144.2254374419
 20
194.0806877399
 11
144.5339918436
 21
196.2184364445
  0
LINE
  5
3C3
100
AcDbEntity
  8
00_COMPONENTS
100
AcDbLine
 62
7
  6
CONTINUOUS
 10
145.0225445561
 20
192.1730577431
 11
145.2153910572
 21
193.5091506835
  0
LINE
  5
3C4
100
AcDbEntity
  8
00_COMPONENTS
100
AcDbLine
 62
7
  6
CONTINUOUS
 10
145.5239454589
 20
195.6468993882
 11
146.3981829303
 21
201.7038540512
  0
LINE
  5
3C5
100
AcDbEntity
  8
00_COMPONENTS
100
AcDbLine
 62
7
  6
CONTINUOUS
 10
144.6304321692
 20
181.4954631271
 11
144.9711276544
 21
183.8558939885
  0
LINE
  5
3C6
100
AcDbEntity
  8
00_COMPONENTS
100
AcDbLine
 62
7
  6
CONTINUOUS
 10
145.7039443584
 20
188.9330471619
 11
146.0832091438
 21
191.5606966114
  0
LINE
  5
3C7
100
AcDbEntity
  8
00_COMPONENTS
100
AcDbLine
 62
7
  6
CONTINUOUS
 10
138.76498585
 20
170.7120204372
 11
138.1228924379
 21
169.7415234298
  0
LINE
  5
3C8
100
AcDbEntity
  8
00_COMPONENTS_2
100
AcDbLine
 62
7
  6
CONTINUOUS
 10
95.6985628356
 20
124.6408429878
 11
81.6552127679
 21
112.8149844545
  0
LINE
  5
3C9
100
AcDbEntity
  8
00_COMPONENTS_2
100
AcDbLine
 62
7
  6
CONTINUOUS
 10
71.6473128253
 20
104.8151754008
 11
81.6552127679
 21
112.8149844545
  0
LINE
  5
3CA
100
AcDbEntity
  8
00_COMPONENTS
100
AcDbLine
 62
7
  6
CONTINUOUS
 10
34.2081637125
 20
103.2891881404
 11
35.0001316745
 21
103.7464283272
  0
LINE
  5
3CB
100
AcDbEntity
  8
00_COMPONENTS
100
AcDbLine
 62
7
  6
CONTINUOUS
 10
60.8733073053
 20
107.5395840718
 11
59.8126515494
 21
106.927217841
  0
LINE
  5
3CC
100
AcDbEntity
  8
00_COMPONENTS
100
AcDbLine
 62
7
  6
CONTINUOUS
 10
32.0823105984
 20
109.436504448
 11
32.175446239
 21
109.4840263005
  0
LINE
  5
3CD
100
AcDbEntity
  8
00_COMPONENTS
100
AcDbLine
 62
7
  6
CONTINUOUS
 10
141.0949129831
 20
175.5350307555
 11
27.9573569596
 21
240.8535514788
  0
LINE
  5
3CE
100
AcDbEntity
  8
00_COMPONENTS
100
AcDbLine
 62
7
  6
CONTINUOUS
 10
144.6304321692
 20
177.5762515249
 11
31.4928761457
 21
242.8947722481
  0
LINE
  5
3CF
100
AcDbEntity
  8
00_COMPONENTS
100
AcDbLine
 62
7
  6
CONTINUOUS
 10
144.6304321692
 20
181.4954631271
 11
31.4928761457
 21
246.8139838504
  0
LINE
  5
3D0
100
AcDbEntity
  8
00_COMPONENTS
100
AcDbLine
 62
7
  6
CONTINUOUS
 10
145.4789567738
 20
54.2843780727
 11
145.4789567738
 21
54.6109790396
  0
LINE
  5
3D1
100
AcDbEntity
  8
00_COMPONENTS
100
AcDbLine
 62
7
  6
CONTINUOUS
 10
146.8927375731
 20
250.0100135411
 11
146.8927375731
 21
254.2445365349
  0
LINE
  5
3D2
100
AcDbEntity
  8
00_COMPONENTS
100
AcDbLine
 62
7
  6
CONTINUOUS
 10
147.4584006239
 20
254.5711315871
 11
147.4584006239
 21
263.0626974664
  0
LINE
  5
3D3
100
AcDbEntity
  8
00_COMPONENTS
100
AcDbLine
 62
7
  6
CONTINUOUS
 10
148.7313047008
 20
240.4540812615
 11
148.7313047008
 21
237.8332764039
  0
LINE
  5
3D4
100
AcDbEntity
  8
00_COMPONENTS
100
AcDbLine
 62
7
  6
CONTINUOUS
 10
149.6719337404
 20
219.1479793473
 11
149.6719337404
 21
223.0018707561
  0
LINE
  5
3D5
100
AcDbEntity
  8
00_COMPONENTS
100
AcDbLine
 62
7
  6
CONTINUOUS
 10
151.7932452521
 20
220.3727118089
 11
151.7932452521
 21
224.2266032178
  0
LINE
  5
3D6
100
AcDbEntity
  8
00_COMPONENTS
100
AcDbLine
 62
7
  6
CONTINUOUS
 10
121.8968545057
 20
60.3057557671
 11
122.0200448233
 21
60.7657984847
  0
LINE
  5
3D7
100
AcDbEntity
  8
00_COMPONENTS
100
AcDbLine
 62
7
  6
CONTINUOUS
 10
123.5232068735
 20
59.3668020317
 11
123.4000165559
 21
58.9067593142
  0
LINE
  5
3D8
100
AcDbEntity
  8
00_COMPONENTS
100
AcDbLine
 62
7
  6
CONTINUOUS
 10
57.0154755791
 20
98.8303897449
 11
56.9421476702
 21
98.786334036
  0
LINE
  5
3D9
100
AcDbEntity
  8
00_COMPONENTS
100
AcDbLine
 62
7
  6
CONTINUOUS
 10
59.9187183026
 20
105.7228792193
 11
61.8082383251
 21
106.8137876011
  0
LINE
  5
3DA
100
AcDbEntity
  8
00_COMPONENTS
100
AcDbLine
 62
7
  6
CONTINUOUS
 10
62.0400474781
 20
104.4981569557
 11
62.2168246149
 21
104.6002186741
  0
LINE
  5
3DB
100
AcDbEntity
  8
00_COMPONENTS
100
AcDbLine
 62
7
  6
CONTINUOUS
 10
58.522268219
 20
100.3441873361
 11
57.7973891272
 21
99.9256806955
  0
LINE
  5
3DC
100
AcDbEntity
  8
00_COMPONENTS
100
AcDbLine
 62
7
  6
CONTINUOUS
 10
62.0400474781
 20
101.2321472872
 11
62.2168246149
 21
101.3342090055
  0
LINE
  5
3DD
100
AcDbEntity
  8
00_COMPONENTS
100
AcDbLine
 62
7
  6
CONTINUOUS
 10
59.4337361356
 20
98.5024562012
 11
56.4538470882
 21
96.7820267271
  0
LINE
  5
3DE
100
AcDbEntity
  8
00_COMPONENTS
100
AcDbLine
 62
7
  6
CONTINUOUS
 10
34.006317708
 20
256.2668562028
 11
32.9456531203
 21
256.8792173346
  0
LINE
  5
3DF
100
AcDbEntity
  8
00_COMPONENTS
100
AcDbLine
 62
7
  6
CONTINUOUS
 10
145.0225445561
 20
192.1730577431
 11
146.0832091438
 21
191.5606966114
  0
LINE
  5
3E0
100
AcDbEntity
  8
00_COMPONENTS
100
AcDbLine
 62
7
  6
CONTINUOUS
 10
34.1991642091
 20
257.6029491432
 11
35.1891178243
 21
257.0314120869
  0
LINE
  5
3E1
100
AcDbEntity
  8
00_COMPONENTS
100
AcDbLine
 62
7
  6
CONTINUOUS
 10
144.225437442
 20
194.0806877399
 11
145.2153910572
 21
193.5091506835
  0
LINE
  5
3E2
100
AcDbEntity
  8
00_COMPONENTS
100
AcDbLine
 62
7
  6
CONTINUOUS
 10
120.9422269371
 20
208.4804302591
 11
118.8208977616
 21
209.7051525226
  0
LINE
  5
3E3
100
AcDbEntity
  8
00_COMPONENTS
100
AcDbLine
 62
7
  6
CONTINUOUS
 10
92.6578379312
 20
224.8100604399
 11
90.5365087558
 21
226.0347827034
  0
LINE
  5
3E4
100
AcDbEntity
  8
00_COMPONENTS
100
AcDbLine
 62
7
  6
CONTINUOUS
 10
64.3734489253
 20
241.1396906207
 11
62.2521197499
 21
242.3644128843
  0
LINE
  5
3E5
100
AcDbEntity
  8
00_COMPONENTS
100
AcDbLine
 62
7
  6
CONTINUOUS
 10
157.1248702435
 20
214.8451217946
 11
157.1248702435
 21
218.6990132035
  0
LINE
  5
3E6
100
AcDbEntity
  8
00_COMPONENTS
100
AcDbLine
 62
7
  6
CONTINUOUS
 10
157.4992421399
 20
270.9826150151
 11
157.4992421399
 21
273.4320799384
  0
LINE
  5
3E7
100
AcDbEntity
  8
00_COMPONENTS
100
AcDbLine
 62
7
  6
CONTINUOUS
 10
63.3128026665
 20
91.8421973856
 11
62.2521197499
 21
91.2298154736
  0
LINE
  5
3E8
100
AcDbEntity
  8
00_COMPONENTS
100
AcDbLine
 62
7
  6
CONTINUOUS
 10
63.9068011396
 20
91.3686183466
 11
61.2621661347
 21
89.8417467288
  0
LINE
  5
3E9
100
AcDbEntity
  8
00_COMPONENTS
100
AcDbLine
 62
7
  6
CONTINUOUS
 10
64.1047867927
 20
90.3398411035
 11
62.2521197499
 21
89.2702096725
  0
LINE
  5
3EA
100
AcDbEntity
  8
00_COMPONENTS
100
AcDbLine
 62
7
  6
CONTINUOUS
 10
64.5290417637
 20
88.1353184398
 11
64.3734489253
 21
88.0454874089
  0
LINE
  5
3EB
100
AcDbEntity
  8
00_COMPONENTS
100
AcDbLine
 62
7
  6
CONTINUOUS
 10
59.7065247394
 20
85.1876599523
 11
58.787289751
 21
84.6569425522
  0
LINE
  5
3EC
100
AcDbEntity
  8
00_COMPONENTS
100
AcDbLine
 62
7
  6
CONTINUOUS
 10
62.2521197499
 20
83.717993236
 11
64.3734489253
 21
84.9427358957
  0
LINE
  5
3ED
100
AcDbEntity
  8
00_COMPONENTS
100
AcDbLine
 62
7
  6
CONTINUOUS
 10
121.8886731236
 20
209.1587652859
 11
120.9422269371
 21
209.7051838848
  0
LINE
  5
3EE
100
AcDbEntity
  8
00_COMPONENTS
100
AcDbLine
 62
7
  6
CONTINUOUS
 10
118.8208977616
 20
210.9299061483
 11
117.8309441464
 21
211.5014432047
  0
LINE
  5
3EF
100
AcDbEntity
  8
00_COMPONENTS
100
AcDbLine
 62
7
  6
CONTINUOUS
 10
93.6042841177
 20
225.4883954667
 11
92.6578379312
 21
226.0348140656
  0
LINE
  5
3F0
100
AcDbEntity
  8
00_COMPONENTS
100
AcDbLine
 62
7
  6
CONTINUOUS
 10
90.5365087558
 20
227.2595363291
 11
89.5465551406
 21
227.8310733855
  0
LINE
  5
3F1
100
AcDbEntity
  8
00_COMPONENTS
100
AcDbLine
 62
7
  6
CONTINUOUS
 10
65.3198951118
 20
241.8180256475
 11
64.3734489253
 21
242.3644442464
  0
LINE
  5
3F2
100
AcDbEntity
  8
00_COMPONENTS
100
AcDbLine
 62
7
  6
CONTINUOUS
 10
62.2521197499
 20
243.58916651
 11
61.2621661347
 21
244.1607035663
  0
LINE
  5
3F3
100
AcDbEntity
  8
00_COMPONENTS
100
AcDbLine
 62
7
  6
CONTINUOUS
 10
145.5239454589
 20
195.6468993882
 11
144.5339918436
 21
196.2184364445
  0
LINE
  5
3F4
100
AcDbEntity
  8
00_COMPONENTS
100
AcDbLine
 62
7
  6
CONTINUOUS
 10
35.497672226
 20
259.1691607915
 11
34.5077186108
 21
259.7406978478
  0
LINE
  5
3F5
100
AcDbEntity
  8
00_COMPONENTS
100
AcDbLine
 62
7
  6
CONTINUOUS
 10
61.2621661347
 20
246.1203093674
 11
62.2521197499
 21
245.5487723111
  0
LINE
  5
3F6
100
AcDbEntity
  8
00_COMPONENTS
100
AcDbLine
 62
7
  6
CONTINUOUS
 10
64.3734489253
 20
244.3240500475
 11
65.3634025405
 21
243.7525129912
  0
LINE
  5
3F7
100
AcDbEntity
  8
00_COMPONENTS
100
AcDbLine
 62
7
  6
CONTINUOUS
 10
89.5465551406
 20
229.7906791866
 11
90.5365087558
 21
229.2191421303
  0
LINE
  5
3F8
100
AcDbEntity
  8
00_COMPONENTS
100
AcDbLine
 62
7
  6
CONTINUOUS
 10
92.6578379312
 20
227.9944198667
 11
93.6477915464
 21
227.4228828104
  0
LINE
  5
3F9
100
AcDbEntity
  8
00_COMPONENTS
100
AcDbLine
 62
7
  6
CONTINUOUS
 10
117.8309441464
 20
213.4610490058
 11
118.8208977616
 21
212.8895119494
  0
LINE
  5
3FA
100
AcDbEntity
  8
00_COMPONENTS
100
AcDbLine
 62
7
  6
CONTINUOUS
 10
120.9422269371
 20
211.6647896859
 11
121.9321805523
 21
211.0932526296
  0
LINE
  5
3FB
100
AcDbEntity
  8
00_COMPONENTS
100
AcDbLine
 62
7
  6
CONTINUOUS
 10
146.3981829303
 20
201.7038540512
 11
122.7807181104
 21
215.3390952522
  0
LINE
  5
3FC
100
AcDbEntity
  8
00_COMPONENTS
100
AcDbLine
 62
7
  6
CONTINUOUS
 10
115.5681989139
 20
219.5031509483
 11
94.4963291045
 21
231.668725433
  0
LINE
  5
3FD
100
AcDbEntity
  8
00_COMPONENTS
100
AcDbLine
 62
7
  6
CONTINUOUS
 10
87.283809908
 20
235.8327811291
 11
66.2119400986
 21
247.9983556138
  0
LINE
  5
3FE
100
AcDbEntity
  8
00_COMPONENTS
100
AcDbLine
 62
7
  6
CONTINUOUS
 10
58.9994209021
 20
252.1624113099
 11
35.3819560822
 21
265.7976525109
  0
LINE
  5
3FF
100
AcDbEntity
  8
00_COMPONENTS
100
AcDbLine
 62
7
  6
CONTINUOUS
 10
123.4878219476
 20
215.7473394061
 11
120.9422269371
 21
217.2170061224
  0
LINE
  5
400
100
AcDbEntity
  8
00_COMPONENTS
100
AcDbLine
 62
7
  6
CONTINUOUS
 10
118.8208977616
 20
218.4417283859
 11
116.2753027511
 21
219.9113951022
  0
LINE
  5
401
100
AcDbEntity
  8
00_COMPONENTS
100
AcDbLine
 62
7
  6
CONTINUOUS
 10
95.2034329417
 20
232.0769695869
 11
92.6578379312
 21
233.5466363032
  0
LINE
  5
402
100
AcDbEntity
  8
00_COMPONENTS
100
AcDbLine
 62
7
  6
CONTINUOUS
 10
90.5365087558
 20
234.7713585667
 11
87.9909137452
 21
236.241025283
  0
LINE
  5
403
100
AcDbEntity
  8
00_COMPONENTS
100
AcDbLine
 62
7
  6
CONTINUOUS
 10
66.9190439359
 20
248.4065997677
 11
64.3734489253
 21
249.876266484
  0
LINE
  5
404
100
AcDbEntity
  8
00_COMPONENTS
100
AcDbLine
 62
7
  6
CONTINUOUS
 10
62.2521197499
 20
251.1009887475
 11
59.7065247394
 21
252.5706554638
  0
LINE
  5
405
100
AcDbEntity
  8
00_COMPONENTS
100
AcDbLine
 62
7
  6
CONTINUOUS
 10
86.5056488878
 20
272.6060484476
 11
89.3333542572
 21
269.0883663854
  0
LINE
  5
406
100
AcDbEntity
  8
00_COMPONENTS
100
AcDbLine
 62
7
  6
CONTINUOUS
 10
92.162526689
 20
273.1133416231
 11
89.3348213196
 21
276.6310236854
  0
LINE
  5
407
100
AcDbEntity
  8
00_COMPONENTS
100
AcDbLine
 62
7
  6
CONTINUOUS
 10
103.1226455865
 20
285.1485059179
 11
106.728873415
 21
278.9023707689
  0
LINE
  5
408
100
AcDbEntity
  8
00_COMPONENTS
100
AcDbLine
 62
7
  6
CONTINUOUS
 10
171.3588159055
 20
223.6171579052
 11
171.3588159055
 21
227.3893990723
  0
LINE
  5
409
100
AcDbEntity
  8
00_COMPONENTS
100
AcDbLine
 62
7
  6
CONTINUOUS
 10
175.177126579
 20
233.6803833603
 11
175.177126579
 21
237.914906354
  0
LINE
  5
40A
100
AcDbEntity
  8
00_COMPONENTS
100
AcDbLine
 62
7
  6
CONTINUOUS
 10
175.7427896298
 20
238.2415014062
 11
175.7427896298
 21
246.7330672856
  0
LINE
  5
40B
100
AcDbEntity
  8
00_COMPONENTS
100
AcDbLine
 62
7
  6
CONTINUOUS
 10
177.0156937066
 20
224.1244510807
 11
177.0156937066
 21
221.5036462231
  0
LINE
  5
40C
100
AcDbEntity
  8
00_COMPONENTS
100
AcDbLine
 62
7
  6
CONTINUOUS
 10
134.0909905667
 20
92.2572887705
 11
134.7330839788
 21
93.2277857779
  0
LINE
  5
40D
100
AcDbEntity
  8
00_COMPONENTS
100
AcDbLine
 62
7
  6
CONTINUOUS
 10
85.299864585
 20
82.5007595641
 11
85.2265366761
 21
82.4567038552
  0
LINE
  5
40E
100
AcDbEntity
  8
00_COMPONENTS
100
AcDbLine
 62
7
  6
CONTINUOUS
 10
101.2846254478
 20
103.7638499623
 11
101.3703483612
 21
103.813341814
  0
LINE
  5
40F
100
AcDbEntity
  8
00_COMPONENTS
100
AcDbLine
 62
7
  6
CONTINUOUS
 10
101.7795963232
 20
103.2331174075
 11
101.2846254478
 21
102.9473475452
  0
LINE
  5
410
100
AcDbEntity
  8
00_COMPONENTS
100
AcDbLine
 62
7
  6
CONTINUOUS
 10
174.1865212748
 20
220.0994758429
 11
174.6562674072
 21
220.1414389453
  0
LINE
  5
411
100
AcDbEntity
  8
00_COMPONENTS
100
AcDbLine
 62
7
  6
CONTINUOUS
 10
174.1879883373
 20
227.6421331429
 11
171.3588159055
 21
227.3893990723
  0
LINE
  5
412
100
AcDbEntity
  8
00_COMPONENTS
100
AcDbLine
 62
7
  6
CONTINUOUS
 10
155.8026486566
 20
209.2563620595
 11
133.316559397
 21
222.2384180533
  0
LINE
  5
413
100
AcDbEntity
  8
00_COMPONENTS
100
AcDbLine
 62
7
  6
CONTINUOUS
 10
127.5182596508
 20
225.5859922404
 11
105.0321703911
 21
238.5680482341
  0
LINE
  5
414
100
AcDbEntity
  8
00_COMPONENTS
100
AcDbLine
 62
7
  6
CONTINUOUS
 10
99.2338706449
 20
241.9156224212
 11
76.7477813852
 21
254.8976784149
  0
LINE
  5
415
100
AcDbEntity
  8
00_COMPONENTS
100
AcDbLine
 62
7
  6
CONTINUOUS
 10
70.949481639
 20
258.245252602
 11
48.4633923793
 21
271.2273085957
  0
LINE
  5
416
100
AcDbEntity
  8
00_COMPONENTS
100
AcDbLine
 62
7
  6
CONTINUOUS
 10
114.7900378937
 20
256.2764182668
 11
117.6177432631
 21
252.7587362046
  0
LINE
  5
417
100
AcDbEntity
  8
00_COMPONENTS
100
AcDbLine
 62
7
  6
CONTINUOUS
 10
120.4469156949
 20
256.7837114423
 11
117.6192103255
 21
260.3013935045
  0
LINE
  5
418
100
AcDbEntity
  8
00_COMPONENTS
100
AcDbLine
 62
7
  6
CONTINUOUS
 10
109.6987095313
 20
280.6169962152
 11
106.0924817028
 21
286.8631313641
  0
LINE
  5
419
100
AcDbEntity
  8
00_COMPONENTS
100
AcDbLine
 62
7
  6
CONTINUOUS
 10
185.7836311458
 20
254.6529848342
 11
185.7836311458
 21
257.1024497576
  0
LINE
  5
41A
100
AcDbEntity
  8
00_COMPONENTS
100
AcDbLine
 62
7
  6
CONTINUOUS
 10
138.76498585
 20
88.3269265488
 11
138.1228924379
 21
87.3564295414
  0
LINE
  5
41B
100
AcDbEntity
  8
00_COMPONENTS
100
AcDbLine
 62
7
  6
CONTINUOUS
 10
87.7181251415
 20
82.1728260204
 11
84.7382360941
 21
80.4523965463
  0
LINE
  5
41C
100
AcDbEntity
  8
00_COMPONENTS
100
AcDbLine
 62
7
  6
CONTINUOUS
 10
91.5971916723
 20
75.5125672047
 11
90.5365087558
 21
74.9001852928
  0
LINE
  5
41D
100
AcDbEntity
  8
00_COMPONENTS
100
AcDbLine
 62
7
  6
CONTINUOUS
 10
92.1911901455
 20
75.0389881658
 11
89.5465551406
 21
73.512116548
  0
LINE
  5
41E
100
AcDbEntity
  8
00_COMPONENTS
100
AcDbLine
 62
7
  6
CONTINUOUS
 10
134.5612191228
 20
103.8097706394
 11
122.8722417994
 21
97.9279268249
  0
LINE
  5
41F
100
AcDbEntity
  8
00_COMPONENTS
100
AcDbLine
 62
7
  6
CONTINUOUS
 10
132.770935322
 20
100.0761625277
 11
121.0819579986
 21
94.1943187132
  0
LINE
  5
420
100
AcDbEntity
  8
00_COMPONENTS
100
AcDbLine
 62
7
  6
CONTINUOUS
 10
145.9021322689
 20
236.4291060237
 11
146.3718784013
 21
236.4710691261
  0
LINE
  5
421
100
AcDbEntity
  8
00_COMPONENTS
100
AcDbLine
 62
7
  6
CONTINUOUS
 10
57.3021903445
 20
276.3303605191
 11
64.8187667228
 21
271.9907612986
  0
LINE
  5
422
100
AcDbEntity
  8
00_COMPONENTS
100
AcDbLine
 62
7
  6
CONTINUOUS
 10
72.2717032259
 20
267.6879037459
 11
79.7882796042
 21
263.3483045254
  0
LINE
  5
423
100
AcDbEntity
  8
00_COMPONENTS
100
AcDbLine
 62
7
  6
CONTINUOUS
 10
85.5865793504
 20
260.0007303383
 11
93.1031557287
 21
255.6611311178
  0
LINE
  5
424
100
AcDbEntity
  8
00_COMPONENTS
100
AcDbLine
 62
7
  6
CONTINUOUS
 10
100.5560922317
 20
251.3582735651
 11
108.07266861
 21
247.0186743446
  0
LINE
  5
425
100
AcDbEntity
  8
00_COMPONENTS
100
AcDbLine
 62
7
  6
CONTINUOUS
 10
113.8709683563
 20
243.6711001575
 11
121.3875447346
 21
239.3315009369
  0
LINE
  5
426
100
AcDbEntity
  8
00_COMPONENTS
100
AcDbLine
 62
7
  6
CONTINUOUS
 10
128.8404812376
 20
235.0286433843
 11
136.3570576159
 21
230.6890441638
  0
LINE
  5
427
100
AcDbEntity
  8
00_COMPONENTS
100
AcDbLine
 62
7
  6
CONTINUOUS
 10
142.1553573621
 20
227.3414699767
 11
149.6719337404
 21
223.0018707561
  0
LINE
  5
428
100
AcDbEntity
  8
00_COMPONENTS
100
AcDbLine
 62
7
  6
CONTINUOUS
 10
157.1248702435
 20
218.6990132035
 11
164.6414466218
 21
214.3594139829
  0
LINE
  5
429
100
AcDbEntity
  8
00_COMPONENTS
100
AcDbLine
 62
7
  6
CONTINUOUS
 10
166.7627581334
 20
215.5841464446
 11
159.2461817551
 21
219.9237456651
  0
LINE
  5
42A
100
AcDbEntity
  8
00_COMPONENTS
100
AcDbLine
 62
7
  6
CONTINUOUS
 10
151.7932452521
 20
224.2266032178
 11
144.2766688738
 21
228.5662024383
  0
LINE
  5
42B
100
AcDbEntity
  8
00_COMPONENTS
100
AcDbLine
 62
7
  6
CONTINUOUS
 10
138.4783691276
 20
231.9137766254
 11
130.9617927493
 21
236.2533758459
  0
LINE
  5
42C
100
AcDbEntity
  8
00_COMPONENTS
100
AcDbLine
 62
7
  6
CONTINUOUS
 10
123.5088562462
 20
240.5562333986
 11
115.9922798679
 21
244.8958326191
  0
LINE
  5
42D
100
AcDbEntity
  8
00_COMPONENTS
100
AcDbLine
 62
7
  6
CONTINUOUS
 10
110.1939801217
 20
248.2434068062
 11
102.6774037434
 21
252.5830060267
  0
LINE
  5
42E
100
AcDbEntity
  8
00_COMPONENTS
100
AcDbLine
 62
7
  6
CONTINUOUS
 10
95.2244672403
 20
256.8858635794
 11
87.707890862
 21
261.2254627999
  0
LINE
  5
42F
100
AcDbEntity
  8
00_COMPONENTS
100
AcDbLine
 62
7
  6
CONTINUOUS
 10
81.9095911158
 20
264.573036987
 11
74.3930147375
 21
268.9126362075
  0
LINE
  5
430
100
AcDbEntity
  8
00_COMPONENTS
100
AcDbLine
 62
7
  6
CONTINUOUS
 10
66.9400782344
 20
273.2154937602
 11
59.4235018561
 21
277.5550929807
  0
LINE
  5
431
100
AcDbEntity
  8
00_COMPONENTS
100
AcDbLine
 62
7
  6
CONTINUOUS
 10
143.0744268996
 20
239.946788086
 11
145.9021322689
 21
236.4291060237
  0
LINE
  5
432
100
AcDbEntity
  8
00_COMPONENTS
100
AcDbLine
 62
7
  6
CONTINUOUS
 10
148.7313047008
 20
240.4540812615
 11
145.9035993314
 21
243.9717633237
  0
LINE
  5
433
100
AcDbEntity
  8
00_COMPONENTS
100
AcDbLine
 62
7
  6
CONTINUOUS
 10
131.4070345924
 20
268.818875737
 11
135.0132624209
 21
262.5727405881
  0
LINE
  5
434
100
AcDbEntity
  8
00_COMPONENTS
100
AcDbLine
 62
7
  6
CONTINUOUS
 10
137.9830985372
 20
264.2873660344
 11
134.3768707087
 21
270.5335011833
  0
LINE
  5
435
100
AcDbEntity
  8
00_COMPONENTS
100
AcDbLine
 62
7
  6
CONTINUOUS
 10
92.3891757986
 20
74.0102109227
 11
90.5365087558
 21
72.9405794917
  0
LINE
  5
436
100
AcDbEntity
  8
00_COMPONENTS
100
AcDbLine
 62
7
  6
CONTINUOUS
 10
92.8134307696
 20
71.805688259
 11
92.6578379312
 21
71.7158572281
  0
LINE
  5
437
100
AcDbEntity
  8
00_COMPONENTS
100
AcDbLine
 62
7
  6
CONTINUOUS
 10
87.9909137452
 20
68.8580297714
 11
87.0716787569
 21
68.3273123714
  0
LINE
  5
438
100
AcDbEntity
  8
00_COMPONENTS
100
AcDbLine
 62
7
  6
CONTINUOUS
 10
135.4041535872
 20
93.6154289776
 11
134.7329957967
 21
93.2279381596
  0
LINE
  5
439
100
AcDbEntity
  8
00_COMPONENTS
100
AcDbLine
 62
7
  6
CONTINUOUS
 10
90.5365087558
 20
67.3883630552
 11
92.6578379312
 21
68.6131057149
  0
LINE
  5
43A
100
AcDbEntity
  8
00_COMPONENTS
100
AcDbLine
 62
7
  6
CONTINUOUS
 10
134.798094404
 20
91.4336420901
 11
134.0909905667
 21
91.0253979362
  0
LINE
  5
43B
100
AcDbEntity
  8
00_COMPONENTS
100
AcDbLine
 62
7
  6
CONTINUOUS
 10
136.6082953003
 20
91.6204365928
 11
135.9011914631
 21
91.2121924389
  0
LINE
  5
43C
100
AcDbEntity
  8
00_COMPONENTS
100
AcDbLine
 62
7
  6
CONTINUOUS
 10
136.6082953003
 20
90.3885457585
 11
135.9011914631
 21
89.9803016046
  0
LINE
  5
43D
100
AcDbEntity
  8
00_COMPONENTS
100
AcDbLine
 62
7
  6
CONTINUOUS
 10
136.6082953003
 20
89.3434226646
 11
135.9011914631
 21
88.9351785107
  0
LINE
  5
43E
100
AcDbEntity
  8
00_COMPONENTS
100
AcDbLine
 62
7
  6
CONTINUOUS
 10
137.6618887908
 20
89.7802670342
 11
136.9547849536
 21
89.3720228804
  0
LINE
  5
43F
100
AcDbEntity
  8
00_COMPONENTS
100
AcDbLine
 62
7
  6
CONTINUOUS
 10
138.8000849124
 20
89.5790817153
 11
138.76498585
 21
89.5588173831
  0
LINE
  5
440
100
AcDbEntity
  8
00_COMPONENTS
100
AcDbLine
 62
7
  6
CONTINUOUS
 10
145.9035993314
 20
243.9717633237
 11
143.0744268996
 21
243.7190292531
  0
LINE
  5
441
100
AcDbEntity
  8
00_COMPONENTS
100
AcDbLine
 62
7
  6
CONTINUOUS
 10
171.3588159055
 20
223.6171579052
 11
174.1865212748
 21
220.0994758429
  0
LINE
  5
442
100
AcDbEntity
  8
00_COMPONENTS
100
AcDbLine
 62
7
  6
CONTINUOUS
 10
177.0156937066
 20
224.1244510807
 11
174.1879883373
 21
227.6421331429
  0
LINE
  5
443
100
AcDbEntity
  8
00_COMPONENTS
100
AcDbLine
 62
7
  6
CONTINUOUS
 10
159.6914235983
 20
252.4892455562
 11
163.2976514268
 21
246.2431104073
  0
LINE
  5
444
100
AcDbEntity
  8
00_COMPONENTS
100
AcDbLine
 62
7
  6
CONTINUOUS
 10
166.2674875431
 20
247.9577358536
 11
162.6612597146
 21
254.2038710025
  0
LINE
  5
445
100
AcDbEntity
  8
00_COMPONENTS
100
AcDbLine
 62
7
  6
CONTINUOUS
 10
113.5842535909
 20
66.1711293833
 11
113.5109256819
 21
66.1270736743
  0
LINE
  5
446
100
AcDbEntity
  8
00_COMPONENTS
100
AcDbLine
 62
7
  6
CONTINUOUS
 10
138.76498585
 20
88.3269265488
 11
138.9015421072
 21
88.4057668701
  0
LINE
  5
447
100
AcDbEntity
  8
00_COMPONENTS
100
AcDbLine
 62
7
  6
CONTINUOUS
 10
138.8300844573
 20
87.7645213136
 11
138.12298062
 21
87.3562771597
  0
LINE
  5
448
100
AcDbEntity
  8
00_COMPONENTS
100
AcDbLine
 62
7
  6
CONTINUOUS
 10
138.9382297934
 20
83.8230437331
 11
139.2549799705
 21
84.0059184416
  0
LINE
  5
449
100
AcDbEntity
  8
00_COMPONENTS
100
AcDbLine
 62
7
  6
CONTINUOUS
 10
139.1150075191
 20
83.6784848098
 11
139.4685630591
 21
83.8826089775
  0
LINE
  5
44A
100
AcDbEntity
  8
00_COMPONENTS
100
AcDbLine
 62
7
  6
CONTINUOUS
 10
143.2162244948
 20
84.1683891147
 11
141.0949129831
 21
82.943656653
  0
LINE
  5
44B
100
AcDbEntity
  8
00_COMPONENTS
100
AcDbLine
 62
7
  6
CONTINUOUS
 10
140.8827818319
 20
82.6578829235
 11
143.2162244948
 21
84.0050886312
  0
LINE
  5
44C
100
AcDbEntity
  8
00_COMPONENTS
100
AcDbLine
 62
7
  6
CONTINUOUS
 10
139.1150075191
 20
79.8409192164
 11
138.9382297934
 21
79.7388571582
  0
LINE
  5
44D
100
AcDbEntity
  8
00_COMPONENTS
100
AcDbLine
 62
7
  6
CONTINUOUS
 10
116.0025141474
 20
65.8431958396
 11
113.0226250999
 21
64.1227663655
  0
LINE
  5
44E
100
AcDbEntity
  8
00_COMPONENTS
100
AcDbLine
 62
7
  6
CONTINUOUS
 10
117.6177432631
 20
252.7587362046
 11
118.0874893954
 21
252.8006993069
  0
LINE
  5
44F
100
AcDbEntity
  8
00_COMPONENTS
100
AcDbLine
 62
7
  6
CONTINUOUS
 10
213.0780665365
 20
80.3301208923
 11
213.0780665365
 21
79.513577558
  0
LINE
  5
450
100
AcDbEntity
  8
00_COMPONENTS
100
AcDbLine
 62
7
  6
CONTINUOUS
 10
213.0780665365
 20
233.8325343955
 11
213.0780665365
 21
234.6490565657
  0
LINE
  5
451
100
AcDbEntity
  8
00_COMPONENTS
100
AcDbLine
 62
7
  6
CONTINUOUS
 10
214.0680201517
 20
78.9420405017
 11
214.0680201517
 21
73.3898240652
  0
LINE
  5
452
100
AcDbEntity
  8
00_COMPONENTS
100
AcDbLine
 62
7
  6
CONTINUOUS
 10
214.0680201517
 20
232.0362437135
 11
214.0680201517
 21
233.2609973391
  0
LINE
  5
453
100
AcDbEntity
  8
00_COMPONENTS
100
AcDbLine
 62
7
  6
CONTINUOUS
 10
214.0680201517
 20
235.2206031403
 11
214.0680201517
 21
240.7728195767
  0
LINE
  5
454
100
AcDbEntity
  8
00_COMPONENTS
100
AcDbLine
 62
7
  6
CONTINUOUS
 10
215.1286847394
 20
231.4238825817
 11
215.1286847394
 21
229.0152004511
  0
LINE
  5
455
100
AcDbEntity
  8
00_COMPONENTS
100
AcDbLine
 62
7
  6
CONTINUOUS
 10
215.1286847394
 20
224.3611366735
 11
215.1286847394
 21
88.0198878749
  0
LINE
  5
456
100
AcDbEntity
  8
00_COMPONENTS
100
AcDbLine
 62
7
  6
CONTINUOUS
 10
215.1286847394
 20
84.4796177571
 11
215.1286847394
 21
81.5140387967
  0
LINE
  5
457
100
AcDbEntity
  8
00_COMPONENTS
100
AcDbLine
 62
7
  6
CONTINUOUS
 10
138.5846660989
 20
74.635685561
 11
137.5240103431
 21
74.0233193302
  0
LINE
  5
458
100
AcDbEntity
  8
00_COMPONENTS
100
AcDbLine
 62
7
  6
CONTINUOUS
 10
139.1150075191
 20
73.3088998794
 11
138.9382297934
 21
73.2068378211
  0
LINE
  5
459
100
AcDbEntity
  8
00_COMPONENTS
100
AcDbLine
 62
7
  6
CONTINUOUS
 10
119.8815806782
 20
59.1829370239
 11
118.8208977616
 21
58.570555112
  0
LINE
  5
45A
100
AcDbEntity
  8
00_COMPONENTS
100
AcDbLine
 62
7
  6
CONTINUOUS
 10
120.4755791514
 20
58.709357985
 11
117.8309441464
 21
57.1824863672
  0
LINE
  5
45B
100
AcDbEntity
  8
00_COMPONENTS
100
AcDbLine
 62
7
  6
CONTINUOUS
 10
129.9579423935
 20
63.163714742
 11
129.2508265589
 21
62.7554636615
  0
LINE
  5
45C
100
AcDbEntity
  8
00_COMPONENTS
100
AcDbLine
 62
7
  6
CONTINUOUS
 10
120.6735648045
 20
57.6805807419
 11
118.8208977616
 21
56.6109493108
  0
LINE
  5
45D
100
AcDbEntity
  8
00_COMPONENTS
100
AcDbLine
 62
7
  6
CONTINUOUS
 10
121.0978197755
 20
55.4760580782
 11
120.9422269371
 21
55.3862270473
  0
LINE
  5
45E
100
AcDbEntity
  8
00_COMPONENTS
100
AcDbLine
 62
7
  6
CONTINUOUS
 10
116.2753027511
 20
52.5283995906
 11
115.3560677627
 21
51.9976821906
  0
LINE
  5
45F
100
AcDbEntity
  8
00_COMPONENTS
100
AcDbLine
 62
7
  6
CONTINUOUS
 10
117.6192103255
 20
260.3013935045
 11
114.7900378937
 21
260.0486594339
  0
LINE
  5
460
100
AcDbEntity
  8
00_COMPONENTS
100
AcDbLine
 62
7
  6
CONTINUOUS
 10
187.9758126042
 20
236.1596153754
 11
180.0561836825
 21
240.7319118261
  0
LINE
  5
461
100
AcDbEntity
  8
00_COMPONENTS
100
AcDbLine
 62
7
  6
CONTINUOUS
 10
95.2030166649
 20
289.7208023685
 11
103.1226455865
 21
285.1485059179
  0
LINE
  5
462
100
AcDbEntity
  8
00_COMPONENTS
100
AcDbLine
 62
7
  6
CONTINUOUS
 10
123.4874056707
 20
273.3911721877
 11
131.4070345924
 21
268.818875737
  0
LINE
  5
463
100
AcDbEntity
  8
00_COMPONENTS
100
AcDbLine
 62
7
  6
CONTINUOUS
 10
151.7717946766
 20
257.0615420069
 11
159.6914235983
 21
252.4892455562
  0
LINE
  5
464
100
AcDbEntity
  8
00_COMPONENTS
100
AcDbLine
 62
7
  6
CONTINUOUS
 10
98.1728527812
 20
291.4354278147
 11
106.0924817028
 21
286.8631313641
  0
LINE
  5
465
100
AcDbEntity
  8
00_COMPONENTS
100
AcDbLine
 62
7
  6
CONTINUOUS
 10
126.457241787
 20
275.1057976339
 11
134.3768707087
 21
270.5335011833
  0
LINE
  5
466
100
AcDbEntity
  8
00_COMPONENTS
100
AcDbLine
 62
7
  6
CONTINUOUS
 10
154.7416307929
 20
258.7761674531
 11
162.6612597146
 21
254.2038710025
  0
LINE
  5
467
100
AcDbEntity
  8
00_COMPONENTS
100
AcDbLine
 62
7
  6
CONTINUOUS
 10
183.0260197988
 20
242.4465372723
 11
190.9456487204
 21
237.8742408217
  0
LINE
  5
468
100
AcDbEntity
  8
00_COMPONENTS
100
AcDbLine
 62
7
  6
CONTINUOUS
 10
198.2288788895
 20
233.7510112918
 11
175.7427896298
 21
246.7330672856
  0
LINE
  5
469
100
AcDbEntity
  8
00_COMPONENTS
100
AcDbLine
 62
7
  6
CONTINUOUS
 10
169.9444898836
 20
250.0806414726
 11
147.4584006239
 21
263.0626974664
  0
LINE
  5
46A
100
AcDbEntity
  8
00_COMPONENTS
100
AcDbLine
 62
7
  6
CONTINUOUS
 10
141.6601008777
 20
266.4102716535
 11
119.174011618
 21
279.3923276472
  0
LINE
  5
46B
100
AcDbEntity
  8
00_COMPONENTS
100
AcDbLine
 62
7
  6
CONTINUOUS
 10
113.3757118718
 20
282.7399018343
 11
90.8896226122
 21
295.721957828
  0
LINE
  5
46C
100
AcDbEntity
  8
00_COMPONENTS
100
AcDbLine
 62
7
  6
CONTINUOUS
 10
187.9758126042
 20
236.1596153754
 11
191.5820404327
 21
229.9134802265
  0
LINE
  5
46D
100
AcDbEntity
  8
00_COMPONENTS
100
AcDbLine
 62
7
  6
CONTINUOUS
 10
194.551876549
 20
231.6281056728
 11
190.9456487204
 21
237.8742408217
  0
LINE
  5
46E
100
AcDbEntity
  8
00_COMPONENTS
100
AcDbLine
 62
7
  6
CONTINUOUS
 10
118.8208977616
 20
51.0587328744
 11
120.9422269371
 21
52.2834755341
  0
LINE
  5
46F
100
AcDbEntity
  8
00_COMPONENTS
100
AcDbLine
 62
7
  6
CONTINUOUS
 10
89.3333542572
 20
269.0883663854
 11
89.8031003896
 21
269.1303294877
  0
LINE
  5
470
100
AcDbEntity
  8
00_COMPONENTS
100
AcDbLine
 62
7
  6
CONTINUOUS
 10
89.3348213196
 20
276.6310236854
 11
86.5056488878
 21
276.3782896147
  0
LINE
  5
471
100
AcDbEntity
  8
00_COMPONENTS
100
AcDbLine
 62
7
  6
CONTINUOUS
 10
214.0680201517
 20
232.0362437135
 11
215.1286847394
 21
231.4238825817
  0
LINE
  5
472
100
AcDbEntity
  8
00_COMPONENTS
100
AcDbLine
 62
7
  6
CONTINUOUS
 10
214.0680201517
 20
233.2609973391
 11
213.0780665365
 21
233.8325343955
  0
LINE
  5
473
100
AcDbEntity
  8
00_COMPONENTS
100
AcDbLine
 62
7
  6
CONTINUOUS
 10
214.0680201517
 20
240.7728195767
 11
187.9049603212
 21
255.877727494
  0
LINE
  5
474
100
AcDbEntity
  8
00_COMPONENTS
100
AcDbLine
 62
7
  6
CONTINUOUS
 10
185.7836311458
 20
257.1024497576
 11
159.6205713154
 21
272.2073576748
  0
LINE
  5
475
100
AcDbEntity
  8
00_COMPONENTS
100
AcDbLine
 62
7
  6
CONTINUOUS
 10
157.4992421399
 20
273.4320799384
 11
131.3361823095
 21
288.5369878556
  0
LINE
  5
476
100
AcDbEntity
  8
00_COMPONENTS
100
AcDbLine
 62
7
  6
CONTINUOUS
 10
129.214853134
 20
289.7617101192
 11
103.0517933036
 21
304.8666180364
  0
LINE
  5
477
100
AcDbEntity
  8
00_COMPONENTS
100
AcDbLine
 62
7
  6
CONTINUOUS
 10
145.4789567738
 20
54.6109790396
 11
140.8827818319
 21
51.9573920394
  0
LINE
  5
478
100
AcDbEntity
  8
00_COMPONENTS
100
AcDbLine
 62
7
  6
CONTINUOUS
 10
144.418301018
 20
53.6720118419
 11
145.4789567738
 21
54.2843780727
  0
LINE
  5
479
100
AcDbEntity
  8
00_COMPONENTS
100
AcDbLine
 62
7
  6
CONTINUOUS
 10
144.6066807862
 20
47.3042329484
 11
215.1286847394
 21
88.0198878749
  0
LINE
  5
47A
100
AcDbEntity
  8
00_COMPONENTS
100
AcDbLine
 62
7
  6
CONTINUOUS
 10
215.1286847394
 20
84.4796177571
 11
145.2198666219
 21
44.1179837247
  0
LINE
  5
47B
100
AcDbEntity
  8
00_COMPONENTS
100
AcDbLine
 62
7
  6
CONTINUOUS
 10
144.6066807862
 20
47.3042329484
 11
144.5135451456
 21
47.256711096
  0
LINE
  5
47C
100
AcDbEntity
  8
00_COMPONENTS
100
AcDbLine
 62
7
  6
CONTINUOUS
 10
144.8849807187
 20
40.959038288
 11
215.1286847394
 21
81.5140387967
  0
LINE
  5
47D
100
AcDbEntity
  8
00_COMPONENTS
100
AcDbLine
 62
7
  6
CONTINUOUS
 10
144.2344369453
 20
39.7669267371
 11
213.0780665365
 21
79.513577558
  0
LINE
  5
47E
100
AcDbEntity
  8
00_COMPONENTS
100
AcDbLine
 62
7
  6
CONTINUOUS
 10
145.2243905605
 20
39.1953896807
 11
214.0680201517
 21
78.9420405017
  0
LINE
  5
47F
100
AcDbEntity
  8
00_COMPONENTS
100
AcDbLine
 62
7
  6
CONTINUOUS
 10
146.1860517792
 20
34.1983852935
 11
214.0680201517
 21
73.3898240652
  0
ARC
  5
480
100
AcDbEntity
  8
00_COMPONENTS
100
AcDbCircle
 62
7
  6
CONTINUOUS
 10
66.1503738927
 20
98.2082619795
 40
4.9220977052
100
AcDbArc
 50
204.9676985302
 51
211.9357594488
  0
ARC
  5
481
100
AcDbEntity
  8
00_COMPONENTS
100
AcDbCircle
 62
7
  6
CONTINUOUS
 10
122.718248287
 20
65.5484462777
 40
4.9210426423
100
AcDbArc
 50
204.911184923
 51
211.9306243986
  0
ARC
  5
482
100
AcDbEntity
  8
00_COMPONENTS
100
AcDbCircle
 62
7
  6
CONTINUOUS
 10
94.4338592811
 20
81.8780764585
 40
4.9210426423
100
AcDbArc
 50
204.911184923
 51
211.9306243986
  0
ARC
  5
483
100
AcDbEntity
  8
00_COMPONENTS
100
AcDbCircle
 62
7
  6
CONTINUOUS
 10
103.7585753017
 20
65.1424755271
 40
4.8092373981
100
AcDbArc
 50
0.0094114351
 51
1.8118141065
  0
ARC
  5
484
100
AcDbEntity
  8
00_COMPONENTS
100
AcDbCircle
 62
7
  6
CONTINUOUS
 10
75.4741862961
 20
81.4721057079
 40
4.8092373979
100
AcDbArc
 50
0.0094114351
 51
1.8118141066
  0
ARC
  5
485
100
AcDbEntity
  8
00_COMPONENTS
100
AcDbCircle
 62
7
  6
CONTINUOUS
 10
132.0429643079
 20
48.8128453462
 40
4.8092373978
100
AcDbArc
 50
0.009411435
 51
1.8118141066
  0
ARC
  5
486
100
AcDbEntity
  8
00_COMPONENTS
100
AcDbCircle
 62
7
  6
CONTINUOUS
 10
47.1897972902
 20
97.8017358887
 40
4.8092373979
100
AcDbArc
 50
0.0094114351
 51
1.8118141066
  0
ARC
  5
487
100
AcDbEntity
  8
00_COMPONENTS
100
AcDbCircle
 62
7
  6
CONTINUOUS
 10
65.9310596061
 20
98.1063580082
 40
4.6802648367
100
AcDbArc
 50
199.9310020217
 51
204.9700676308
  0
ARC
  5
488
100
AcDbEntity
  8
00_COMPONENTS
100
AcDbCircle
 62
7
  6
CONTINUOUS
 10
122.4981395759
 20
65.4463959793
 40
4.6784275516
100
AcDbArc
 50
199.9117396401
 51
204.9131064425
  0
ARC
  5
489
100
AcDbEntity
  8
00_COMPONENTS
100
AcDbCircle
 62
7
  6
CONTINUOUS
 10
94.21375057
 20
81.7760261601
 40
4.6784275516
100
AcDbArc
 50
199.9117396401
 51
204.9131064425
  0
ARC
  5
48A
100
AcDbEntity
  8
00_COMPONENTS
100
AcDbCircle
 62
7
  6
CONTINUOUS
 10
93.5690653626
 20
219.8245758531
 40
3.8359125477
100
AcDbArc
 50
246.0136650805
 51
248.7883615527
  0
ARC
  5
48B
100
AcDbEntity
  8
00_COMPONENTS
100
AcDbCircle
 62
7
  6
CONTINUOUS
 10
65.2846763568
 20
236.1542060341
 40
3.8359125478
100
AcDbArc
 50
246.0136650805
 51
248.7883615527
  0
ARC
  5
48C
100
AcDbEntity
  8
00_COMPONENTS
100
AcDbCircle
 62
7
  6
CONTINUOUS
 10
121.8534543686
 20
203.4949456724
 40
3.8359125478
100
AcDbArc
 50
246.0136650805
 51
248.7883615526
  0
ARC
  5
48D
100
AcDbEntity
  8
00_COMPONENTS
100
AcDbCircle
 62
7
  6
CONTINUOUS
 10
79.6849484416
 20
78.4834126414
 40
3.1772598439
100
AcDbArc
 50
283.5120808527
 51
288.9729428125
  0
ARC
  5
48E
100
AcDbEntity
  8
00_COMPONENTS
100
AcDbCircle
 62
7
  6
CONTINUOUS
 10
51.4005594357
 20
94.8130428222
 40
3.1772598439
100
AcDbArc
 50
283.5120808527
 51
288.9729428125
  0
ARC
  5
48F
100
AcDbEntity
  8
00_COMPONENTS
100
AcDbCircle
 62
7
  6
CONTINUOUS
 10
107.9693374474
 20
62.1537824606
 40
3.1772598439
100
AcDbArc
 50
283.5120808527
 51
288.9729428125
  0
ARC
  5
490
100
AcDbEntity
  8
00_COMPONENTS
100
AcDbCircle
 62
7
  6
CONTINUOUS
 10
136.2537264533
 20
45.8241522798
 40
3.1772598439
100
AcDbArc
 50
283.5120808527
 51
288.9729428125
  0
ARC
  5
491
100
AcDbEntity
  8
00_COMPONENTS
100
AcDbCircle
 62
7
  6
CONTINUOUS
 10
102.0355836932
 20
221.8066330617
 40
3.0966552208
100
AcDbArc
 50
124.3041978184
 51
132.041758873
  0
ARC
  5
492
100
AcDbEntity
  8
00_COMPONENTS
100
AcDbCircle
 62
7
  6
CONTINUOUS
 10
130.319972699
 20
205.4770028809
 40
3.0966552207
100
AcDbArc
 50
124.3041978184
 51
132.041758873
  0
ARC
  5
493
100
AcDbEntity
  8
00_COMPONENTS
100
AcDbCircle
 62
7
  6
CONTINUOUS
 10
45.4668056814
 20
254.4658934233
 40
3.0966552207
100
AcDbArc
 50
124.3041978184
 51
132.041758873
  0
ARC
  5
494
100
AcDbEntity
  8
00_COMPONENTS
100
AcDbCircle
 62
7
  6
CONTINUOUS
 10
73.7511946873
 20
238.1362632425
 40
3.0966552207
100
AcDbArc
 50
124.3041978184
 51
132.041758873
  0
ARC
  5
495
100
AcDbEntity
  8
00_COMPONENTS
100
AcDbCircle
 62
7
  6
CONTINUOUS
 10
123.4102041256
 20
266.7523651878
 40
3.0434238416
100
AcDbArc
 50
120.0407594663
 51
131.0192635256
  0
ARC
  5
496
100
AcDbEntity
  8
00_COMPONENTS
100
AcDbCircle
 62
7
  6
CONTINUOUS
 10
151.6945931315
 20
250.422735007
 40
3.0434238416
100
AcDbArc
 50
120.0407594663
 51
131.0192635256
  0
ARC
  5
497
100
AcDbEntity
  8
00_COMPONENTS
100
AcDbCircle
 62
7
  6
CONTINUOUS
 10
179.9789821374
 20
234.0931048262
 40
3.0434238416
100
AcDbArc
 50
120.0407594663
 51
131.0192635256
  0
ARC
  5
498
100
AcDbEntity
  8
00_COMPONENTS
100
AcDbCircle
 62
7
  6
CONTINUOUS
 10
95.1258151197
 20
283.0819953686
 40
3.0434238416
100
AcDbArc
 50
120.0407594663
 51
131.0192635256
  0
ARC
  5
499
100
AcDbEntity
  8
00_COMPONENTS
100
AcDbCircle
 62
7
  6
CONTINUOUS
 10
137.5792764018
 20
88.1248605738
 40
1.2976017711
100
AcDbArc
 50
305.788723636
 51
315.6253620664
  0
ARC
  5
49A
100
AcDbEntity
  8
00_COMPONENTS
100
AcDbCircle
 62
7
  6
CONTINUOUS
 10
137.5792764018
 20
170.5099544622
 40
1.2976017711
100
AcDbArc
 50
305.7887236361
 51
315.6253620664
  0
ARC
  5
49B
100
AcDbEntity
  8
00_COMPONENTS
100
AcDbCircle
 62
7
  6
CONTINUOUS
 10
62.9084894263
 20
213.6201781395
 40
1.2976017711
100
AcDbArc
 50
305.788723636
 51
315.6253620664
  0
ARC
  5
49C
100
AcDbEntity
  8
00_COMPONENTS
100
AcDbCircle
 62
7
  6
CONTINUOUS
 10
140.8449876606
 20
54.8369329614
 40
1.2931363962
100
AcDbArc
 50
324.8100881342
 51
335.1882606787
  0
ARC
  5
49D
100
AcDbEntity
  8
00_COMPONENTS
100
AcDbCircle
 62
7
  6
CONTINUOUS
 10
60.4447454934
 20
217.8962464173
 40
1.267315894
100
AcDbArc
 50
110.83430243
 51
119.9742463581
  0
ARC
  5
49E
100
AcDbEntity
  8
00_COMPONENTS
100
AcDbCircle
 62
7
  6
CONTINUOUS
 10
135.1155324689
 20
174.78602274
 40
1.267315894
100
AcDbArc
 50
110.8343024299
 51
119.9742463582
  0
ARC
  5
49F
100
AcDbEntity
  8
00_COMPONENTS
100
AcDbCircle
 62
7
  6
CONTINUOUS
 10
135.1155324689
 20
92.4009288516
 40
1.267315894
100
AcDbArc
 50
110.8343024299
 51
119.9742463581
  0
ARC
  5
4A0
100
AcDbEntity
  8
00_COMPONENTS
100
AcDbCircle
 62
7
  6
CONTINUOUS
 10
137.6018513626
 20
88.095453789
 40
1.2605463076
100
AcDbArc
 50
300.0033183377
 51
305.7380296391
  0
ARC
  5
4A1
100
AcDbEntity
  8
00_COMPONENTS
100
AcDbCircle
 62
7
  6
CONTINUOUS
 10
137.6018513626
 20
170.4805476774
 40
1.2605463076
100
AcDbArc
 50
300.0033183377
 51
305.7380296391
  0
ARC
  5
4A2
100
AcDbEntity
  8
00_COMPONENTS
100
AcDbCircle
 62
7
  6
CONTINUOUS
 10
62.931064387
 20
213.5907713548
 40
1.2605463076
100
AcDbArc
 50
300.0033183377
 51
305.738029639
  0
ARC
  5
4A3
100
AcDbEntity
  8
00_COMPONENTS
100
AcDbCircle
 62
7
  6
CONTINUOUS
 10
101.5719594762
 20
104.1711435811
 40
0.9944383335
100
AcDbArc
 50
175.681311615
 51
179.9444208249
  0
LINE
  5
4A4
100
AcDbEntity
  8
00_COMPONENTS_2
100
AcDbLine
 62
7
  6
CONTINUOUS
 10
94.3373835589
 20
134.9448865976
 11
95.6985645671
 21
136.1761744822
  0
SPLINE
  5
4A5
100
AcDbEntity
  8
00_COMPONENTS
100
AcDbSpline
 62
7
  6
CONTINUOUS
 70
0
 71
3
 72
15
 73
11
 74
0
 42
0.0000001
 43
0.0000001
 44
0.0000000001
 40
0.0
 40
0.0
 40
0.0
 40
0.0
 40
0.1288285297
 40
0.2705731043
 40
0.4178848725
 40
0.5623830488
 40
0.6962002801
 40
0.8135916328
 40
0.9130641676
 40
1.0
 40
1.0
 40
1.0
 40
1.0
 10
62.2168246149
 20
105.5391992756
 30
0.0
 10
62.2168246149
 20
105.6845066233
 30
0.0
 10
62.1761711251
 20
105.9900384392
 30
0.0
 10
62.024458165
 20
106.4386374627
 30
0.0
 10
61.790631649
 20
106.8708016451
 30
0.0
 10
61.4936512076
 20
107.2509837451
 30
0.0
 10
61.1572550395
 20
107.5488691122
 30
0.0
 10
60.8064231109
 20
107.7405059655
 30
0.0
 10
60.4630335073
 20
107.809273318
 30
0.0
 10
60.2496594661
 20
107.7544846716
 30
0.0
 10
60.1647598019
 20
107.7054231425
 30
0.0
  0
SPLINE
  5
4A6
100
AcDbEntity
  8
00_COMPONENTS
100
AcDbSpline
 62
7
  6
CONTINUOUS
 70
0
 71
3
 72
11
 73
7
 74
0
 42
0.0000001
 43
0.0000001
 44
0.0000000001
 40
0.0
 40
0.0
 40
0.0
 40
0.0
 40
0.2372539654
 40
0.5000012591
 40
0.7627478695
 40
1.0
 40
1.0
 40
1.0
 40
1.0
 10
137.1704554805
 20
58.1831672108
 30
0.0
 10
137.1704554805
 20
58.299093094
 30
0.0
 10
137.1269912149
 20
58.5435661185
 30
0.0
 10
136.9753854597
 20
58.887042417
 30
0.0
 10
136.7537282215
 20
59.1900732164
 30
0.0
 10
136.5637403065
 20
59.3499488726
 30
0.0
 10
136.4633457554
 20
59.4079103825
 30
0.0
  0
SPLINE
  5
4A7
100
AcDbEntity
  8
00_COMPONENTS
100
AcDbSpline
 62
7
  6
CONTINUOUS
 70
0
 71
3
 72
11
 73
7
 74
0
 42
0.0000001
 43
0.0000001
 44
0.0000000001
 40
0.0
 40
0.0
 40
0.0
 40
0.0
 40
0.2895391946
 40
0.5491157945
 40
0.7822541179
 40
1.0
 40
1.0
 40
1.0
 40
1.0
 10
129.957936284
 20
63.1637253241
 30
0.0
 10
129.9140830262
 20
63.1890434415
 30
0.0
 10
129.826771968
 20
63.2305235004
 30
0.0
 10
129.6926277825
 20
63.2629925677
 30
0.0
 10
129.5666963713
 20
63.2598291129
 30
0.0
 10
129.4909458842
 20
63.2322417054
 30
0.0
 10
129.4579664992
 20
63.2132011465
 30
0.0
  0
SPLINE
  5
4A8
100
AcDbEntity
  8
00_COMPONENTS
100
AcDbSpline
 62
7
  6
CONTINUOUS
 70
0
 71
3
 72
11
 73
7
 74
0
 42
0.0000001
 43
0.0000001
 44
0.0000000001
 40
0.0
 40
0.0
 40
0.0
 40
0.0
 40
0.2896423581
 40
0.5491120121
 40
0.7822364467
 40
1.0
 40
1.0
 40
1.0
 40
1.0
 10
62.2168246149
 20
98.8030543343
 30
0.0
 10
62.2168246149
 20
98.7144038062
 30
0.0
 10
62.230299453
 20
98.5457696959
 30
0.0
 10
62.2985519255
 20
98.3140720872
 30
0.0
 10
62.4135230254
 20
98.126017077
 30
0.0
 10
62.5215787754
 20
98.0353036024
 30
0.0
 10
62.5792868727
 20
98.0019556513
 30
0.0
  0
SPLINE
  5
4A9
100
AcDbEntity
  8
00_COMPONENTS
100
AcDbSpline
 62
7
  6
CONTINUOUS
 70
0
 71
3
 72
16
 73
12
 74
0
 42
0.0000001
 43
0.0000001
 44
0.0000000001
 40
0.0
 40
0.0
 40
0.0
 40
0.0
 40
0.1287450452
 40
0.2703977788
 40
0.4176140475
 40
0.562018456
 40
0.6957487187
 40
0.8130635968
 40
0.9124710976
 40
0.9571206415
 40
1.0
 40
1.0
 40
1.0
 40
1.0
 10
131.7256899891
 20
61.5306853443
 30
0.0
 10
131.7256899891
 20
61.3811044628
 30
0.0
 10
131.683840346
 20
61.0665875205
 30
0.0
 10
131.5276718163
 20
60.6047913028
 30
0.0
 10
131.2869527941
 20
60.1599285968
 30
0.0
 10
130.9813061703
 20
59.7685180302
 30
0.0
 10
130.6348043493
 20
59.4620201003
 30
0.0
 10
130.2743213667
 20
59.2642801736
 30
0.0
 10
129.9683050775
 20
59.2045212331
 30
0.0
 10
129.7515393582
 20
59.2362911924
 30
0.0
 10
129.6564263098
 20
59.2758106027
 30
0.0
 10
129.6132915603
 20
59.3007367509
 30
0.0
  0
SPLINE
  5
4AA
100
AcDbEntity
  8
00_COMPONENTS
100
AcDbSpline
 62
7
  6
CONTINUOUS
 70
0
 71
3
 72
11
 73
7
 74
0
 42
0.0000001
 43
0.0000001
 44
0.0000000001
 40
0.0
 40
0.0
 40
0.0
 40
0.0
 40
0.2896423581
 40
0.5491120121
 40
0.7822364467
 40
1.0
 40
1.0
 40
1.0
 40
1.0
 10
137.1704554805
 20
55.5295343552
 30
0.0
 10
137.1704554805
 20
55.440883827
 30
0.0
 10
137.1839303186
 20
55.2722497167
 30
0.0
 10
137.2521827911
 20
55.0405521081
 30
0.0
 10
137.367153891
 20
54.8524970979
 30
0.0
 10
137.475209641
 20
54.7617836232
 30
0.0
 10
137.5329177383
 20
54.7284356722
 30
0.0
  0
SPLINE
  5
4AB
100
AcDbEntity
  8
00_COMPONENTS
100
AcDbSpline
 62
7
  6
CONTINUOUS
 70
0
 71
3
 72
9
 73
5
 74
0
 42
0.0000001
 43
0.0000001
 44
0.0000000001
 40
0.0
 40
0.0
 40
0.0
 40
0.0
 40
0.2550804373
 40
1.0
 40
1.0
 40
1.0
 40
1.0
 10
60.8733073053
 20
107.5395840718
 30
0.0
 10
60.8733073053
 20
107.552114516
 30
0.0
 10
60.8738914238
 20
107.6012353642
 30
0.0
 10
60.8768444291
 20
107.6503352258
 30
0.0
 10
60.8805130987
 20
107.6867439156
 30
0.0
  0
SPLINE
  5
4AC
100
AcDbEntity
  8
00_COMPONENTS
100
AcDbSpline
 62
7
  6
CONTINUOUS
 70
0
 71
3
 72
11
 73
7
 74
0
 42
0.0000001
 43
0.0000001
 44
0.0000000001
 40
0.0
 40
0.0
 40
0.0
 40
0.0
 40
0.2177684544
 40
0.4508929427
 40
0.7103598948
 40
1.0
 40
1.0
 40
1.0
 40
1.0
 10
131.363226904
 20
62.33178271
 30
0.0
 10
131.4209366132
 20
62.2984349335
 30
0.0
 10
131.5289898305
 20
62.2077159475
 30
0.0
 10
131.6439609012
 20
62.0196621525
 30
0.0
 10
131.7122151176
 20
61.7879670624
 30
0.0
 10
131.7256899891
 20
61.6193349279
 30
0.0
 10
131.7256899891
 20
61.5306853443
 30
0.0
  0
SPLINE
  5
4AD
100
AcDbEntity
  8
00_COMPONENTS
100
AcDbSpline
 62
7
  6
CONTINUOUS
 70
0
 71
3
 72
9
 73
5
 74
0
 42
0.0000001
 43
0.0000001
 44
0.0000000001
 40
0.0
 40
0.0
 40
0.0
 40
0.0
 40
0.2321887394
 40
1.0
 40
1.0
 40
1.0
 40
1.0
 10
142.119929638
 20
54.693169046
 30
0.0
 10
142.1190406947
 20
54.661207874
 30
0.0
 10
142.1063097149
 20
54.5238374445
 30
0.0
 10
142.0631076557
 20
54.390263441
 30
0.0
 10
142.0187565991
 20
54.2942837024
 30
0.0
  0
SPLINE
  5
4AE
100
AcDbEntity
  8
00_COMPONENTS
100
AcDbSpline
 62
7
  6
CONTINUOUS
 70
0
 71
3
 72
9
 73
5
 74
0
 42
0.0000001
 43
0.0000001
 44
0.0000000001
 40
0.0
 40
0.0
 40
0.0
 40
0.0
 40
0.2657137908
 40
1.0
 40
1.0
 40
1.0
 40
1.0
 10
141.9017986977
 20
54.0917134158
 30
0.0
 10
141.8807164423
 20
54.0618280996
 30
0.0
 10
141.7966078025
 20
53.9529969555
 30
0.0
 10
141.6930659928
 20
53.8576442357
 30
0.0
 10
141.6069781169
 20
53.8046951655
 30
0.0
  0
SPLINE
  5
4AF
100
AcDbEntity
  8
00_COMPONENTS
100
AcDbSpline
 62
7
  6
CONTINUOUS
 70
0
 71
3
 72
9
 73
5
 74
0
 42
0.0000001
 43
0.0000001
 44
0.0000000001
 40
0.0
 40
0.0
 40
0.0
 40
0.0
 40
0.2455260382
 40
1.0
 40
1.0
 40
1.0
 40
1.0
 10
62.2687897477
 20
101.3618022524
 30
0.0
 10
62.2664190001
 20
101.3448433302
 30
0.0
 10
62.2559198137
 20
101.2758912359
 30
0.0
 10
62.2421179487
 20
101.20744886
 30
0.0
 10
62.2300211374
 20
101.1562386105
 30
0.0
  0
SPLINE
  5
4B0
100
AcDbEntity
  8
00_COMPONENTS
100
AcDbSpline
 62
7
  6
CONTINUOUS
 70
0
 71
3
 72
14
 73
10
 74
0
 42
0.0000001
 43
0.0000001
 44
0.0000000001
 40
0.0
 40
0.0
 40
0.0
 40
0.0
 40
0.2893446514
 40
0.4363726623
 40
0.5763167387
 40
0.7039351752
 40
0.8160571334
 40
0.912982863
 40
1.0
 40
1.0
 40
1.0
 40
1.0
 10
62.2300211374
 20
101.1562386105
 30
0.0
 10
62.1631586517
 20
100.8731851274
 30
0.0
 10
61.9870758196
 20
100.4614149462
 30
0.0
 10
61.6521924496
 20
99.9873589169
 30
0.0
 10
61.361101375
 20
99.6863138031
 30
0.0
 10
61.0499918612
 20
99.4612202031
 30
0.0
 10
60.7359261686
 20
99.3259735276
 30
0.0
 10
60.4346166409
 20
99.2913950986
 30
0.0
 10
60.2508489887
 20
99.3462155683
 30
0.0
 10
60.1751165509
 20
99.3899788448
 30
0.0
  0
SPLINE
  5
4B1
100
AcDbEntity
  8
00_COMPONENTS
100
AcDbSpline
 62
7
  6
CONTINUOUS
 70
0
 71
3
 72
11
 73
7
 74
0
 42
0.0000001
 43
0.0000001
 44
0.0000000001
 40
0.0
 40
0.0
 40
0.0
 40
0.0
 40
0.2896423581
 40
0.5491120121
 40
0.7822364467
 40
1.0
 40
1.0
 40
1.0
 40
1.0
 10
58.0448772366
 20
101.211674786
 30
0.0
 10
58.0448772366
 20
101.1230242578
 30
0.0
 10
58.0583520746
 20
100.9543901475
 30
0.0
 10
58.1266045471
 20
100.7226925389
 30
0.0
 10
58.2415756471
 20
100.5346375287
 30
0.0
 10
58.3496313971
 20
100.443924054
 30
0.0
 10
58.4073394944
 20
100.410576103
 30
0.0
  0
SPLINE
  5
4B2
100
AcDbEntity
  8
00_COMPONENTS
100
AcDbSpline
 62
7
  6
CONTINUOUS
 70
0
 71
3
 72
11
 73
7
 74
0
 42
0.0000001
 43
0.0000001
 44
0.0000000001
 40
0.0
 40
0.0
 40
0.0
 40
0.0
 40
0.2971428927
 40
0.55967188
 40
0.7898640151
 40
1.0
 40
1.0
 40
1.0
 40
1.0
 10
130.3114823147
 20
62.1284207076
 30
0.0
 10
130.4011791753
 20
62.1951565509
 30
0.0
 10
130.5810946521
 20
62.3074035332
 30
0.0
 10
130.8638058684
 20
62.4081189347
 30
0.0
 10
131.1322984953
 20
62.4239974914
 30
0.0
 10
131.2947708128
 20
62.3713403246
 30
0.0
 10
131.363226904
 20
62.33178271
 30
0.0
  0
SPLINE
  5
4B3
100
AcDbEntity
  8
00_COMPONENTS
100
AcDbSpline
 62
7
  6
CONTINUOUS
 70
0
 71
3
 72
11
 73
7
 74
0
 42
0.0000001
 43
0.0000001
 44
0.0000000001
 40
0.0
 40
0.0
 40
0.0
 40
0.0
 40
0.217745073
 40
0.4508830113
 40
0.7104597664
 40
1.0
 40
1.0
 40
1.0
 40
1.0
 10
129.4579664992
 20
63.2132011465
 30
0.0
 10
129.4249863545
 20
63.1941601491
 30
0.0
 10
129.36321809
 20
63.1423508073
 30
0.0
 10
129.2975116793
 20
63.0348695896
 30
0.0
 10
129.2585585483
 20
62.9024587933
 30
0.0
 10
129.2508265589
 20
62.8061022917
 30
0.0
 10
129.2508265589
 20
62.7554636615
 30
0.0
  0
SPLINE
  5
4B4
100
AcDbEntity
  8
00_COMPONENTS
100
AcDbSpline
 62
7
  6
CONTINUOUS
 70
0
 71
3
 72
11
 73
7
 74
0
 42
0.0000001
 43
0.0000001
 44
0.0000000001
 40
0.0
 40
0.0
 40
0.0
 40
0.0
 40
0.2177651606
 40
0.4508956102
 40
0.7103690052
 40
1.0
 40
1.0
 40
1.0
 40
1.0
 10
129.6132915603
 20
59.3007367509
 30
0.0
 10
129.5555829694
 20
59.3340846411
 30
0.0
 10
129.4475204425
 20
59.4247937528
 30
0.0
 10
129.3325527351
 20
59.6128560282
 30
0.0
 10
129.2643014188
 20
59.8445522268
 30
0.0
 10
129.2508265589
 20
60.0131838819
 30
0.0
 10
129.2508265589
 20
60.1018308058
 30
0.0
  0
SPLINE
  5
4B5
100
AcDbEntity
  8
00_COMPONENTS
100
AcDbSpline
 62
7
  6
CONTINUOUS
 70
0
 71
3
 72
11
 73
7
 74
0
 42
0.0000001
 43
0.0000001
 44
0.0000000001
 40
0.0
 40
0.0
 40
0.0
 40
0.0
 40
0.2177660095
 40
0.4508968553
 40
0.7103699668
 40
1.0
 40
1.0
 40
1.0
 40
1.0
 10
60.1647598019
 20
107.7054231425
 30
0.0
 10
60.1087001094
 20
107.6730275582
 30
0.0
 10
60.0037253851
 20
107.5849095637
 30
0.0
 10
59.8920426408
 20
107.4022204076
 30
0.0
 10
59.8257414271
 20
107.1771446473
 30
0.0
 10
59.8126515494
 20
107.0133316068
 30
0.0
 10
59.8126515494
 20
106.927217841
 30
0.0
  0
SPLINE
  5
4B6
100
AcDbEntity
  8
00_COMPONENTS
100
AcDbSpline
 62
7
  6
CONTINUOUS
 70
0
 71
3
 72
11
 73
7
 74
0
 42
0.0000001
 43
0.0000001
 44
0.0000000001
 40
0.0
 40
0.0
 40
0.0
 40
0.0
 40
0.2177651606
 40
0.4508956102
 40
0.7103690052
 40
1.0
 40
1.0
 40
1.0
 40
1.0
 10
60.1751165509
 20
99.3899788448
 30
0.0
 10
60.1174079599
 20
99.423326735
 30
0.0
 10
60.0093454331
 20
99.5140358466
 30
0.0
 10
59.8943777256
 20
99.7020981221
 30
0.0
 10
59.8261264093
 20
99.9337943207
 30
0.0
 10
59.8126515494
 20
100.1024259758
 30
0.0
 10
59.8126515494
 20
100.1910728997
 30
0.0
  0
SPLINE
  5
4B7
100
AcDbEntity
  8
00_COMPONENTS
100
AcDbSpline
 62
7
  6
CONTINUOUS
 70
0
 71
3
 72
9
 73
5
 74
0
 42
0.0000001
 43
0.0000001
 44
0.0000000001
 40
0.0
 40
0.0
 40
0.0
 40
0.0
 40
0.225866401
 40
1.0
 40
1.0
 40
1.0
 40
1.0
 10
139.0825724065
 20
53.9225522068
 30
0.0
 10
139.0582797041
 20
53.9613992164
 30
0.0
 10
138.9667173738
 20
54.1435095745
 30
0.0
 10
138.9382297934
 20
54.351898417
 30
0.0
 10
138.9382297934
 20
54.5089324689
 30
0.0
  0
SPLINE
  5
4B8
100
AcDbEntity
  8
00_COMPONENTS
100
AcDbSpline
 62
7
  6
CONTINUOUS
 70
0
 71
3
 72
9
 73
5
 74
0
 42
0.0000001
 43
0.0000001
 44
0.0000000001
 40
0.0
 40
0.0
 40
0.0
 40
0.0
 40
0.5253281111
 40
1.0
 40
1.0
 40
1.0
 40
1.0
 10
215.1286847394
 20
84.4796177571
 30
0.0
 10
214.910471368
 20
84.8206184583
 30
0.0
 10
214.5722048535
 20
85.5216228627
 30
0.0
 10
214.4215750143
 20
86.2921879012
 30
0.0
 10
214.4215750143
 20
86.6579935706
 30
0.0
  0
SPLINE
  5
4B9
100
AcDbEntity
  8
00_COMPONENTS
100
AcDbSpline
 62
7
  6
CONTINUOUS
 70
0
 71
3
 72
9
 73
5
 74
0
 42
0.0000001
 43
0.0000001
 44
0.0000000001
 40
0.0
 40
0.0
 40
0.0
 40
0.0
 40
0.2828377307
 40
1.0
 40
1.0
 40
1.0
 40
1.0
 10
214.4215750143
 20
86.6579935706
 30
0.0
 10
214.4215750143
 20
86.7654362592
 30
0.0
 10
214.4434101324
 20
87.1428957984
 30
0.0
 10
214.5724745302
 20
87.528925036
 30
0.0
 10
214.7470420116
 20
87.7380780701
 30
0.0
  0
SPLINE
  5
4BA
100
AcDbEntity
  8
00_COMPONENTS
100
AcDbSpline
 62
7
  6
CONTINUOUS
 70
0
 71
3
 72
11
 73
7
 74
0
 42
0.0000001
 43
0.0000001
 44
0.0000000001
 40
0.0
 40
0.0
 40
0.0
 40
0.0
 40
0.2372523758
 40
0.4999990758
 40
0.7627462798
 40
1.0
 40
1.0
 40
1.0
 40
1.0
 10
215.1286847394
 20
224.3611366735
 30
0.0
 10
214.842559973
 20
224.5263271473
 30
0.0
 10
214.3010941129
 20
224.9819731762
 30
0.0
 10
213.6693709978
 20
225.8456113874
 30
0.0
 10
213.2372949772
 20
226.8245186334
 30
0.0
 10
213.1134220227
 20
227.5212662873
 30
0.0
 10
213.1134220227
 20
227.8516547127
 30
0.0
  0
SPLINE
  5
4BB
100
AcDbEntity
  8
00_COMPONENTS
100
AcDbSpline
 62
7
  6
CONTINUOUS
 70
0
 71
3
 72
11
 73
7
 74
0
 42
0.0000001
 43
0.0000001
 44
0.0000000001
 40
0.0
 40
0.0
 40
0.0
 40
0.0
 40
0.2177660095
 40
0.4508968553
 40
0.7103699668
 40
1.0
 40
1.0
 40
1.0
 40
1.0
 10
50.963422116
 20
244.9336290692
 30
0.0
 10
51.1283035644
 20
245.0289101996
 30
0.0
 10
51.4370527538
 20
245.2880807715
 30
0.0
 10
51.7655314134
 20
245.825401819
 30
0.0
 10
51.9605349829
 20
246.4873893491
 30
0.0
 10
51.9990346232
 20
246.9691924096
 30
0.0
 10
51.9990346232
 20
247.2224681913
 30
0.0
  0
SPLINE
  5
4BC
100
AcDbEntity
  8
00_COMPONENTS
100
AcDbSpline
 62
7
  6
CONTINUOUS
 70
0
 71
3
 72
9
 73
5
 74
0
 42
0.0000001
 43
0.0000001
 44
0.0000000001
 40
0.0
 40
0.0
 40
0.0
 40
0.0
 40
0.5239335415
 40
1.0
 40
1.0
 40
1.0
 40
1.0
 10
65.8616545335
 20
261.107307679
 30
0.0
 10
65.5498249395
 20
261.8203909418
 30
0.0
 10
65.0676021386
 20
263.2342618152
 30
0.0
 10
64.8682467398
 20
264.721068299
 30
0.0
 10
64.8682467398
 20
265.4282471878
 30
0.0
  0
SPLINE
  5
4BD
100
AcDbEntity
  8
00_COMPONENTS
100
AcDbSpline
 62
7
  6
CONTINUOUS
 70
0
 71
3
 72
9
 73
5
 74
0
 42
0.0000001
 43
0.0000001
 44
0.0000000001
 40
0.0
 40
0.0
 40
0.0
 40
0.0
 40
0.4999983279
 40
1.0
 40
1.0
 40
1.0
 40
1.0
 10
142.1555687389
 20
54.7334875592
 30
0.0
 10
141.9876656786
 20
54.6365492607
 30
0.0
 10
141.7223811588
 20
54.3303912631
 30
0.0
 10
141.5898856692
 20
53.9475690639
 30
0.0
 10
141.5898856692
 20
53.7536903024
 30
0.0
  0
SPLINE
  5
4BE
100
AcDbEntity
  8
00_COMPONENTS
100
AcDbSpline
 62
7
  6
CONTINUOUS
 70
0
 71
3
 72
13
 73
9
 74
0
 42
0.0000001
 43
0.0000001
 44
0.0000000001
 40
0.0
 40
0.0
 40
0.0
 40
0.0
 40
0.305828575
 40
0.5829589594
 40
0.7041501503
 40
0.8123955768
 40
0.909507071
 40
1.0
 40
1.0
 40
1.0
 40
1.0
 10
121.3465633597
 20
205.1090876306
 30
0.0
 10
121.1650843902
 20
205.4356653119
 30
0.0
 10
120.7488531647
 20
206.0214639341
 30
0.0
 10
120.0883131659
 20
206.5927137836
 30
0.0
 10
119.5298038543
 20
206.8671079572
 30
0.0
 10
119.1394686907
 20
206.9658071877
 30
0.0
 10
118.7730167381
 20
206.959857618
 30
0.0
 10
118.5523724694
 20
206.8804167352
 30
0.0
 10
118.4566308136
 20
206.8251455089
 30
0.0
  0
SPLINE
  5
4BF
100
AcDbEntity
  8
00_COMPONENTS
100
AcDbSpline
 62
7
  6
CONTINUOUS
 70
0
 71
3
 72
11
 73
7
 74
0
 42
0.0000001
 43
0.0000001
 44
0.0000000001
 40
0.0
 40
0.0
 40
0.0
 40
0.0
 40
0.2177833598
 40
0.4509104088
 40
0.7102966711
 40
1.0
 40
1.0
 40
1.0
 40
1.0
 10
50.9634623306
 20
95.5136177552
 30
0.0
 10
51.1283952924
 20
95.6088413062
 30
0.0
 10
51.4369780847
 20
95.8682662441
 30
0.0
 10
51.7655010403
 20
96.4054162351
 30
0.0
 10
51.9606243562
 20
97.0673847205
 30
0.0
 10
51.9990346232
 20
97.5491851347
 30
0.0
 10
51.9990346232
 20
97.8025258566
 30
0.0
  0
SPLINE
  5
4C0
100
AcDbEntity
  8
00_COMPONENTS
100
AcDbSpline
 62
7
  6
CONTINUOUS
 70
0
 71
3
 72
13
 73
9
 74
0
 42
0.0000001
 43
0.0000001
 44
0.0000000001
 40
0.0
 40
0.0
 40
0.0
 40
0.0
 40
0.305828575
 40
0.5829589594
 40
0.7041501503
 40
0.8123955768
 40
0.909507071
 40
1.0
 40
1.0
 40
1.0
 40
1.0
 10
93.0621743538
 20
221.4387178114
 30
0.0
 10
92.8806953843
 20
221.7652954927
 30
0.0
 10
92.4644641588
 20
222.3510941149
 30
0.0
 10
91.80392416
 20
222.9223439644
 30
0.0
 10
91.2454148484
 20
223.1967381381
 30
0.0
 10
90.8550796848
 20
223.2954373685
 30
0.0
 10
90.4886277322
 20
223.2894877988
 30
0.0
 10
90.2679834635
 20
223.210046916
 30
0.0
 10
90.1722418077
 20
223.1547756897
 30
0.0
  0
SPLINE
  5
4C1
100
AcDbEntity
  8
00_COMPONENTS
100
AcDbSpline
 62
7
  6
CONTINUOUS
 70
0
 71
3
 72
13
 73
9
 74
0
 42
0.0000001
 43
0.0000001
 44
0.0000000001
 40
0.0
 40
0.0
 40
0.0
 40
0.0
 40
0.3058136086
 40
0.5829423471
 40
0.7041348793
 40
0.8123823767
 40
0.9094988893
 40
1.0
 40
1.0
 40
1.0
 40
1.0
 10
64.7779931775
 20
237.767976129
 30
0.0
 10
64.5965325874
 20
238.0945924434
 30
0.0
 10
64.1803090626
 20
238.6804749227
 30
0.0
 10
63.5197527167
 20
239.2518276784
 30
0.0
 10
62.961201783
 20
239.5263074089
 30
0.0
 10
62.5708206655
 20
239.625049404
 30
0.0
 10
62.2043040311
 20
239.6191439165
 30
0.0
 10
61.9836187295
 20
239.5396802179
 30
0.0
 10
61.8878578726
 20
239.4843967329
 30
0.0
  0
SPLINE
  5
4C2
100
AcDbEntity
  8
00_COMPONENTS
100
AcDbSpline
 62
7
  6
CONTINUOUS
 70
0
 71
3
 72
9
 73
5
 74
0
 42
0.0000001
 43
0.0000001
 44
0.0000000001
 40
0.0
 40
0.0
 40
0.0
 40
0.0
 40
0.2742054947
 40
1.0
 40
1.0
 40
1.0
 40
1.0
 10
93.1526357456
 20
249.098617007
 30
0.0
 10
93.1526357456
 20
249.3351051582
 30
0.0
 10
93.191778704
 20
250.1952526239
 30
0.0
 10
93.4043494296
 20
251.0610172021
 30
0.0
 10
93.6960696007
 20
251.6148455632
 30
0.0
  0
SPLINE
  5
4C3
100
AcDbEntity
  8
00_COMPONENTS
100
AcDbSpline
 62
7
  6
CONTINUOUS
 70
0
 71
3
 72
9
 73
5
 74
0
 42
0.0000001
 43
0.0000001
 44
0.0000000001
 40
0.0
 40
0.0
 40
0.0
 40
0.0
 40
0.5135169721
 40
1.0
 40
1.0
 40
1.0
 40
1.0
 10
93.6960696007
 20
251.6148455632
 30
0.0
 10
93.8244806818
 20
251.8586329516
 30
0.0
 10
94.1285249925
 20
252.3082466976
 30
0.0
 10
94.543210279
 20
252.6613248136
 30
0.0
 10
94.764278468
 20
252.8001312165
 30
0.0
  0
SPLINE
  5
4C4
100
AcDbEntity
  8
00_COMPONENTS
100
AcDbSpline
 62
7
  6
CONTINUOUS
 70
0
 71
3
 72
9
 73
5
 74
0
 42
0.0000001
 43
0.0000001
 44
0.0000000001
 40
0.0
 40
0.0
 40
0.0
 40
0.0
 40
0.2430108496
 40
1.0
 40
1.0
 40
1.0
 40
1.0
 10
102.2927018158
 20
243.6157127013
 30
0.0
 10
102.2052185518
 20
243.9502592833
 30
0.0
 10
101.7841816112
 20
245.3104902575
 30
0.0
 10
101.1411252545
 20
246.5999327769
 30
0.0
 10
100.5560922317
 20
247.5043821563
 30
0.0
  0
SPLINE
  5
4C5
100
AcDbEntity
  8
00_COMPONENTS
100
AcDbSpline
 62
7
  6
CONTINUOUS
 70
0
 71
3
 72
11
 73
7
 74
0
 42
0.0000001
 43
0.0000001
 44
0.0000000001
 40
0.0
 40
0.0
 40
0.0
 40
0.0
 40
0.2177833598
 40
0.4509104088
 40
0.7102966711
 40
1.0
 40
1.0
 40
1.0
 40
1.0
 10
135.8166293483
 20
46.5247272128
 30
0.0
 10
135.98156231
 20
46.6199507638
 30
0.0
 10
136.2901451024
 20
46.8793757017
 30
0.0
 10
136.6186680579
 20
47.4165256927
 30
0.0
 10
136.8137913738
 20
48.0784941781
 30
0.0
 10
136.8522016408
 20
48.5602945922
 30
0.0
 10
136.8522016408
 20
48.8136353141
 30
0.0
  0
SPLINE
  5
4C6
100
AcDbEntity
  8
00_COMPONENTS
100
AcDbSpline
 62
7
  6
CONTINUOUS
 70
0
 71
3
 72
16
 73
12
 74
0
 42
0.0000001
 43
0.0000001
 44
0.0000000001
 40
0.0
 40
0.0
 40
0.0
 40
0.0
 40
0.128744776
 40
0.2703971998
 40
0.4176131979
 40
0.5620174334
 40
0.6957476677
 40
0.8130627022
 40
0.912470568
 40
0.9571203641
 40
1.0
 40
1.0
 40
1.0
 40
1.0
 10
80.2834236291
 20
230.8928380105
 30
0.0
 10
80.2834236291
 20
231.3202125623
 30
0.0
 10
80.1638518288
 20
232.2188336538
 30
0.0
 10
79.7176506485
 20
233.5382519216
 30
0.0
 10
79.0298739121
 20
234.8092869039
 30
0.0
 10
78.156587824
 20
235.927599466
 30
0.0
 10
77.1665716928
 20
236.8033024294
 30
0.0
 10
76.1366094802
 20
237.3682662467
 30
0.0
 10
75.2622697791
 20
237.5389977068
 30
0.0
 10
74.6429349422
 20
237.4482197202
 30
0.0
 10
74.3711817431
 20
237.3353038414
 30
0.0
 10
74.2479388848
 20
237.2640846777
 30
0.0
  0
SPLINE
  5
4C7
100
AcDbEntity
  8
00_COMPONENTS
100
AcDbSpline
 62
7
  6
CONTINUOUS
 70
0
 71
3
 72
9
 73
5
 74
0
 42
0.0000001
 43
0.0000001
 44
0.0000000001
 40
0.0
 40
0.0
 40
0.0
 40
0.0
 40
0.2543909099
 40
1.0
 40
1.0
 40
1.0
 40
1.0
 10
120.6823422556
 20
268.1442632319
 30
0.0
 10
120.7054274684
 20
268.1848094573
 30
0.0
 10
120.7989780369
 20
268.3425754715
 30
0.0
 10
120.9039302192
 20
268.4936348474
 30
0.0
 10
120.988446236
 20
268.6011426929
 30
0.0
  0
SPLINE
  5
4C8
100
AcDbEntity
  8
00_COMPONENTS
100
AcDbSpline
 62
7
  6
CONTINUOUS
 70
0
 71
3
 72
9
 73
5
 74
0
 42
0.0000001
 43
0.0000001
 44
0.0000000001
 40
0.0
 40
0.0
 40
0.0
 40
0.0
 40
0.2537112966
 40
1.0
 40
1.0
 40
1.0
 40
1.0
 10
120.988446236
 20
268.6011426929
 30
0.0
 10
121.0207035015
 20
268.6421752598
 30
0.0
 10
121.1514544082
 20
268.8010226514
 30
0.0
 10
121.2969039153
 20
268.947864228
 30
0.0
 10
121.4127663025
 20
269.0485948851
 30
0.0
  0
SPLINE
  5
4C9
100
AcDbEntity
  8
00_COMPONENTS
100
AcDbSpline
 62
7
  6
CONTINUOUS
 70
0
 71
3
 72
9
 73
5
 74
0
 42
0.0000001
 43
0.0000001
 44
0.0000000001
 40
0.0
 40
0.0
 40
0.0
 40
0.0
 40
0.5137185127
 40
1.0
 40
1.0
 40
1.0
 40
1.0
 10
119.3222653934
 20
266.8493118453
 30
0.0
 10
119.4653191331
 20
267.1200031948
 30
0.0
 10
119.8078702302
 20
267.6172707902
 30
0.0
 10
120.2799679397
 20
267.9975666224
 30
0.0
 10
120.5309797895
 20
268.1424312256
 30
0.0
  0
SPLINE
  5
4CA
100
AcDbEntity
  8
00_COMPONENTS
100
AcDbSpline
 62
7
  6
CONTINUOUS
 70
0
 71
3
 72
11
 73
7
 74
0
 42
0.0000001
 43
0.0000001
 44
0.0000000001
 40
0.0
 40
0.0
 40
0.0
 40
0.0
 40
0.2544038672
 40
0.516635734
 40
0.7700836647
 40
1.0
 40
1.0
 40
1.0
 40
1.0
 10
115.7920884703
 20
251.4027982088
 30
0.0
 10
115.2181713186
 20
251.9602315019
 30
0.0
 10
114.1696754681
 20
253.2164978972
 30
0.0
 10
112.9639294743
 20
255.3305479312
 30
0.0
 10
112.1752327074
 20
257.5516326644
 30
0.0
 10
111.9615989931
 20
259.0734198634
 30
0.0
 10
111.9615989931
 20
259.796479913
 30
0.0
  0
SPLINE
  5
4CB
100
AcDbEntity
  8
00_COMPONENTS
100
AcDbSpline
 62
7
  6
CONTINUOUS
 70
0
 71
3
 72
11
 73
7
 74
0
 42
0.0000001
 43
0.0000001
 44
0.0000000001
 40
0.0
 40
0.0
 40
0.0
 40
0.0
 40
0.2897762172
 40
0.5490701576
 40
0.7822260326
 40
1.0
 40
1.0
 40
1.0
 40
1.0
 10
111.9615989931
 20
259.796479913
 30
0.0
 10
111.9615989931
 20
260.201929949
 30
0.0
 10
112.0229044079
 20
260.9728170063
 30
0.0
 10
112.3353224239
 20
262.0319143103
 30
0.0
 10
112.86082543
 20
262.8913258424
 30
0.0
 10
113.3546408448
 20
263.306364347
 30
0.0
 10
113.6185241049
 20
263.4587165182
 30
0.0
  0
SPLINE
  5
4CC
100
AcDbEntity
  8
00_COMPONENTS
100
AcDbSpline
 62
7
  6
CONTINUOUS
 70
0
 71
3
 72
9
 73
5
 74
0
 42
0.0000001
 43
0.0000001
 44
0.0000000001
 40
0.0
 40
0.0
 40
0.0
 40
0.0
 40
0.2742054947
 40
1.0
 40
1.0
 40
1.0
 40
1.0
 10
121.4370247515
 20
232.7689868262
 30
0.0
 10
121.4370247515
 20
233.0054749774
 30
0.0
 10
121.4761677099
 20
233.8656224431
 30
0.0
 10
121.6887384355
 20
234.7313870213
 30
0.0
 10
121.9804586065
 20
235.2852153824
 30
0.0
  0
SPLINE
  5
4CD
100
AcDbEntity
  8
00_COMPONENTS
100
AcDbSpline
 62
7
  6
CONTINUOUS
 70
0
 71
3
 72
9
 73
5
 74
0
 42
0.0000001
 43
0.0000001
 44
0.0000000001
 40
0.0
 40
0.0
 40
0.0
 40
0.0
 40
0.5135169721
 40
1.0
 40
1.0
 40
1.0
 40
1.0
 10
121.9804586065
 20
235.2852153824
 30
0.0
 10
122.1088696877
 20
235.5290027707
 30
0.0
 10
122.4129139984
 20
235.9786165168
 30
0.0
 10
122.8275992849
 20
236.3316946328
 30
0.0
 10
123.0486674739
 20
236.4705010357
 30
0.0
  0
SPLINE
  5
4CE
100
AcDbEntity
  8
00_COMPONENTS
100
AcDbSpline
 62
7
  6
CONTINUOUS
 70
0
 71
3
 72
9
 73
5
 74
0
 42
0.0000001
 43
0.0000001
 44
0.0000000001
 40
0.0
 40
0.0
 40
0.0
 40
0.0
 40
0.2430108496
 40
1.0
 40
1.0
 40
1.0
 40
1.0
 10
130.5770908217
 20
227.2860825205
 30
0.0
 10
130.4896075577
 20
227.6206291024
 30
0.0
 10
130.0685706171
 20
228.9808600767
 30
0.0
 10
129.4255142604
 20
230.2703025961
 30
0.0
 10
128.8404812376
 20
231.1747519754
 30
0.0
  0
SPLINE
  5
4CF
100
AcDbEntity
  8
00_COMPONENTS
100
AcDbSpline
 62
7
  6
CONTINUOUS
 70
0
 71
3
 72
11
 73
7
 74
0
 42
0.0000001
 43
0.0000001
 44
0.0000000001
 40
0.0
 40
0.0
 40
0.0
 40
0.0
 40
0.2177833598
 40
0.4509104088
 40
0.7102966711
 40
1.0
 40
1.0
 40
1.0
 40
1.0
 10
79.2478513365
 20
79.1839875744
 30
0.0
 10
79.4127842982
 20
79.2792111254
 30
0.0
 10
79.7213670906
 20
79.5386360633
 30
0.0
 10
80.0498900461
 20
80.0757860543
 30
0.0
 10
80.245013362
 20
80.7377545397
 30
0.0
 10
80.2834236291
 20
81.2195549539
 30
0.0
 10
80.2834236291
 20
81.4728956757
 30
0.0
  0
SPLINE
  5
4D0
100
AcDbEntity
  8
00_COMPONENTS
100
AcDbSpline
 62
7
  6
CONTINUOUS
 70
0
 71
3
 72
16
 73
12
 74
0
 42
0.0000001
 43
0.0000001
 44
0.0000000001
 40
0.0
 40
0.0
 40
0.0
 40
0.0
 40
0.128744776
 40
0.2703971998
 40
0.4176131979
 40
0.5620174334
 40
0.6957476677
 40
0.8130627022
 40
0.912470568
 40
0.9571203641
 40
1.0
 40
1.0
 40
1.0
 40
1.0
 10
108.567812635
 20
214.5632078296
 30
0.0
 10
108.567812635
 20
214.9905823815
 30
0.0
 10
108.4482408347
 20
215.889203473
 30
0.0
 10
108.0020396544
 20
217.2086217407
 30
0.0
 10
107.314262918
 20
218.4796567231
 30
0.0
 10
106.4409768298
 20
219.5979692852
 30
0.0
 10
105.4509606987
 20
220.4736722486
 30
0.0
 10
104.420998486
 20
221.0386360659
 30
0.0
 10
103.546658785
 20
221.209367526
 30
0.0
 10
102.9273239481
 20
221.1185895393
 30
0.0
 10
102.655570749
 20
221.0056736606
 30
0.0
 10
102.5323278907
 20
220.9344544969
 30
0.0
  0
SPLINE
  5
4D1
100
AcDbEntity
  8
00_COMPONENTS
100
AcDbSpline
 62
7
  6
CONTINUOUS
 70
0
 71
3
 72
9
 73
5
 74
0
 42
0.0000001
 43
0.0000001
 44
0.0000000001
 40
0.0
 40
0.0
 40
0.0
 40
0.0
 40
0.2543909099
 40
1.0
 40
1.0
 40
1.0
 40
1.0
 10
148.9667312615
 20
251.8146330511
 30
0.0
 10
148.9898164743
 20
251.8551792765
 30
0.0
 10
149.0833670428
 20
252.0129452907
 30
0.0
 10
149.1883192251
 20
252.1640046666
 30
0.0
 10
149.2728352419
 20
252.2715125121
 30
0.0
  0
SPLINE
  5
4D2
100
AcDbEntity
  8
00_COMPONENTS
100
AcDbSpline
 62
7
  6
CONTINUOUS
 70
0
 71
3
 72
9
 73
5
 74
0
 42
0.0000001
 43
0.0000001
 44
0.0000000001
 40
0.0
 40
0.0
 40
0.0
 40
0.0
 40
0.2537112966
 40
1.0
 40
1.0
 40
1.0
 40
1.0
 10
149.2728352419
 20
252.2715125121
 30
0.0
 10
149.3050925074
 20
252.312545079
 30
0.0
 10
149.4358434141
 20
252.4713924705
 30
0.0
 10
149.5812929211
 20
252.6182340472
 30
0.0
 10
149.6971553084
 20
252.7189647042
 30
0.0
  0
SPLINE
  5
4D3
100
AcDbEntity
  8
00_COMPONENTS
100
AcDbSpline
 62
7
  6
CONTINUOUS
 70
0
 71
3
 72
9
 73
5
 74
0
 42
0.0000001
 43
0.0000001
 44
0.0000000001
 40
0.0
 40
0.0
 40
0.0
 40
0.0
 40
0.5137185127
 40
1.0
 40
1.0
 40
1.0
 40
1.0
 10
147.6066543993
 20
250.5196816645
 30
0.0
 10
147.749708139
 20
250.790373014
 30
0.0
 10
148.0922592361
 20
251.2876406094
 30
0.0
 10
148.5643569456
 20
251.6679364416
 30
0.0
 10
148.8153687954
 20
251.8128010448
 30
0.0
  0
SPLINE
  5
4D4
100
AcDbEntity
  8
00_COMPONENTS
100
AcDbSpline
 62
7
  6
CONTINUOUS
 70
0
 71
3
 72
11
 73
7
 74
0
 42
0.0000001
 43
0.0000001
 44
0.0000000001
 40
0.0
 40
0.0
 40
0.0
 40
0.0
 40
0.2544038672
 40
0.516635734
 40
0.7700836647
 40
1.0
 40
1.0
 40
1.0
 40
1.0
 10
144.0764774762
 20
235.0731680279
 30
0.0
 10
143.5025603245
 20
235.6306013211
 30
0.0
 10
142.454064474
 20
236.8868677164
 30
0.0
 10
141.2483184802
 20
239.0009177504
 30
0.0
 10
140.4596217133
 20
241.2220024836
 30
0.0
 10
140.245987999
 20
242.7437896826
 30
0.0
 10
140.245987999
 20
243.4668497322
 30
0.0
  0
SPLINE
  5
4D5
100
AcDbEntity
  8
00_COMPONENTS
100
AcDbSpline
 62
7
  6
CONTINUOUS
 70
0
 71
3
 72
11
 73
7
 74
0
 42
0.0000001
 43
0.0000001
 44
0.0000000001
 40
0.0
 40
0.0
 40
0.0
 40
0.0
 40
0.2897762172
 40
0.5490701576
 40
0.7822260326
 40
1.0
 40
1.0
 40
1.0
 40
1.0
 10
140.245987999
 20
243.4668497322
 30
0.0
 10
140.245987999
 20
243.8722997682
 30
0.0
 10
140.3072934138
 20
244.6431868254
 30
0.0
 10
140.6197114298
 20
245.7022841295
 30
0.0
 10
141.1452144358
 20
246.5616956616
 30
0.0
 10
141.6390298507
 20
246.9767341662
 30
0.0
 10
141.9029131107
 20
247.1290863374
 30
0.0
  0
SPLINE
  5
4D6
100
AcDbEntity
  8
00_COMPONENTS
100
AcDbSpline
 62
7
  6
CONTINUOUS
 70
0
 71
3
 72
11
 73
7
 74
0
 42
0.0000001
 43
0.0000001
 44
0.0000000001
 40
0.0
 40
0.0
 40
0.0
 40
0.0
 40
0.2177833598
 40
0.4509104088
 40
0.7102966711
 40
1.0
 40
1.0
 40
1.0
 40
1.0
 10
107.5322403424
 20
62.8543573936
 30
0.0
 10
107.6971733041
 20
62.9495809446
 30
0.0
 10
108.0057560965
 20
63.2090058825
 30
0.0
 10
108.334279052
 20
63.7461558735
 30
0.0
 10
108.5294023679
 20
64.4081243589
 30
0.0
 10
108.567812635
 20
64.889924773
 30
0.0
 10
108.567812635
 20
65.1432654949
 30
0.0
  0
SPLINE
  5
4D7
100
AcDbEntity
  8
00_COMPONENTS
100
AcDbSpline
 62
7
  6
CONTINUOUS
 70
0
 71
3
 72
9
 73
5
 74
0
 42
0.0000001
 43
0.0000001
 44
0.0000000001
 40
0.0
 40
0.0
 40
0.0
 40
0.0
 40
0.2742054947
 40
1.0
 40
1.0
 40
1.0
 40
1.0
 10
149.7214137574
 20
216.4393566453
 30
0.0
 10
149.7214137574
 20
216.6758447966
 30
0.0
 10
149.7605567158
 20
217.5359922622
 30
0.0
 10
149.9731274413
 20
218.4017568404
 30
0.0
 10
150.2648476124
 20
218.9555852016
 30
0.0
  0
SPLINE
  5
4D8
100
AcDbEntity
  8
00_COMPONENTS
100
AcDbSpline
 62
7
  6
CONTINUOUS
 70
0
 71
3
 72
9
 73
5
 74
0
 42
0.0000001
 43
0.0000001
 44
0.0000000001
 40
0.0
 40
0.0
 40
0.0
 40
0.0
 40
0.5135169721
 40
1.0
 40
1.0
 40
1.0
 40
1.0
 10
150.2648476124
 20
218.9555852016
 30
0.0
 10
150.3932586936
 20
219.1993725899
 30
0.0
 10
150.6973030042
 20
219.648986336
 30
0.0
 10
151.1119882908
 20
220.002064452
 30
0.0
 10
151.3330564798
 20
220.1408708549
 30
0.0
  0
SPLINE
  5
4D9
100
AcDbEntity
  8
00_COMPONENTS
100
AcDbSpline
 62
7
  6
CONTINUOUS
 70
0
 71
3
 72
9
 73
5
 74
0
 42
0.0000001
 43
0.0000001
 44
0.0000000001
 40
0.0
 40
0.0
 40
0.0
 40
0.0
 40
0.2430108496
 40
1.0
 40
1.0
 40
1.0
 40
1.0
 10
158.8614798275
 20
210.9564523397
 30
0.0
 10
158.7739965636
 20
211.2909989216
 30
0.0
 10
158.352959623
 20
212.6512298959
 30
0.0
 10
157.7099032662
 20
213.9406724153
 30
0.0
 10
157.1248702435
 20
214.8451217946
 30
0.0
  0
SPLINE
  5
4DA
100
AcDbEntity
  8
00_COMPONENTS
100
AcDbSpline
 62
7
  6
CONTINUOUS
 70
0
 71
3
 72
16
 73
12
 74
0
 42
0.0000001
 43
0.0000001
 44
0.0000000001
 40
0.0
 40
0.0
 40
0.0
 40
0.0
 40
0.128744776
 40
0.2703971998
 40
0.4176131979
 40
0.5620174334
 40
0.6957476677
 40
0.8130627022
 40
0.912470568
 40
0.9571203641
 40
1.0
 40
1.0
 40
1.0
 40
1.0
 10
136.8522016408
 20
198.2335776488
 30
0.0
 10
136.8522016408
 20
198.6609522007
 30
0.0
 10
136.7326298405
 20
199.5595732921
 30
0.0
 10
136.2864286603
 20
200.8789915599
 30
0.0
 10
135.5986519239
 20
202.1500265423
 30
0.0
 10
134.7253658357
 20
203.2683391044
 30
0.0
 10
133.7353497046
 20
204.1440420678
 30
0.0
 10
132.7053874919
 20
204.7090058851
 30
0.0
 10
131.8310477908
 20
204.8797373452
 30
0.0
 10
131.2117129539
 20
204.7889593585
 30
0.0
 10
130.9399597549
 20
204.6760434797
 30
0.0
 10
130.8167168966
 20
204.6048243161
 30
0.0
  0
SPLINE
  5
4DB
100
AcDbEntity
  8
00_COMPONENTS
100
AcDbSpline
 62
7
  6
CONTINUOUS
 70
0
 71
3
 72
9
 73
5
 74
0
 42
0.0000001
 43
0.0000001
 44
0.0000000001
 40
0.0
 40
0.0
 40
0.0
 40
0.0
 40
0.2543909099
 40
1.0
 40
1.0
 40
1.0
 40
1.0
 10
177.2511202673
 20
235.4850028703
 30
0.0
 10
177.2742054802
 20
235.5255490956
 30
0.0
 10
177.3677560487
 20
235.6833151099
 30
0.0
 10
177.4727082309
 20
235.8343744857
 30
0.0
 10
177.5572242478
 20
235.9418823313
 30
0.0
  0
SPLINE
  5
4DC
100
AcDbEntity
  8
00_COMPONENTS
100
AcDbSpline
 62
7
  6
CONTINUOUS
 70
0
 71
3
 72
9
 73
5
 74
0
 42
0.0000001
 43
0.0000001
 44
0.0000000001
 40
0.0
 40
0.0
 40
0.0
 40
0.0
 40
0.2537112966
 40
1.0
 40
1.0
 40
1.0
 40
1.0
 10
177.5572242478
 20
235.9418823313
 30
0.0
 10
177.5894815133
 20
235.9829148982
 30
0.0
 10
177.7202324199
 20
236.1417622897
 30
0.0
 10
177.865681927
 20
236.2886038663
 30
0.0
 10
177.9815443143
 20
236.3893345234
 30
0.0
  0
SPLINE
  5
4DD
100
AcDbEntity
  8
00_COMPONENTS
100
AcDbSpline
 62
7
  6
CONTINUOUS
 70
0
 71
3
 72
9
 73
5
 74
0
 42
0.0000001
 43
0.0000001
 44
0.0000000001
 40
0.0
 40
0.0
 40
0.0
 40
0.0
 40
0.5137185127
 40
1.0
 40
1.0
 40
1.0
 40
1.0
 10
175.8910434051
 20
234.1900514837
 30
0.0
 10
176.0340971449
 20
234.4607428332
 30
0.0
 10
176.3766482419
 20
234.9580104286
 30
0.0
 10
176.8487459515
 20
235.3383062608
 30
0.0
 10
177.0997578013
 20
235.483170864
 30
0.0
  0
SPLINE
  5
4DE
100
AcDbEntity
  8
00_COMPONENTS
100
AcDbSpline
 62
7
  6
CONTINUOUS
 70
0
 71
3
 72
11
 73
7
 74
0
 42
0.0000001
 43
0.0000001
 44
0.0000000001
 40
0.0
 40
0.0
 40
0.0
 40
0.0
 40
0.2544038672
 40
0.516635734
 40
0.7700836647
 40
1.0
 40
1.0
 40
1.0
 40
1.0
 10
172.3608664821
 20
218.7435378471
 30
0.0
 10
171.7869493303
 20
219.3009711403
 30
0.0
 10
170.7384534799
 20
220.5572375356
 30
0.0
 10
169.5327074861
 20
222.6712875696
 30
0.0
 10
168.7440107192
 20
224.8923723028
 30
0.0
 10
168.5303770049
 20
226.4141595018
 30
0.0
 10
168.5303770049
 20
227.1372195514
 30
0.0
  0
SPLINE
  5
4DF
100
AcDbEntity
  8
00_COMPONENTS
100
AcDbSpline
 62
7
  6
CONTINUOUS
 70
0
 71
3
 72
11
 73
7
 74
0
 42
0.0000001
 43
0.0000001
 44
0.0000000001
 40
0.0
 40
0.0
 40
0.0
 40
0.0
 40
0.2897762172
 40
0.5490701576
 40
0.7822260326
 40
1.0
 40
1.0
 40
1.0
 40
1.0
 10
168.5303770049
 20
227.1372195514
 30
0.0
 10
168.5303770049
 20
227.5426695874
 30
0.0
 10
168.5916824197
 20
228.3135566446
 30
0.0
 10
168.9041004357
 20
229.3726539487
 30
0.0
 10
169.4296034417
 20
230.2320654808
 30
0.0
 10
169.9234188566
 20
230.6471039854
 30
0.0
 10
170.1873021166
 20
230.7994561566
 30
0.0
  0
SPLINE
  5
4E0
100
AcDbEntity
  8
00_COMPONENTS
100
AcDbSpline
 62
7
  6
CONTINUOUS
 70
0
 71
3
 72
15
 73
11
 74
0
 42
0.0000001
 43
0.0000001
 44
0.0000000001
 40
0.0
 40
0.0
 40
0.0
 40
0.0
 40
0.0867634565
 40
0.1840980908
 40
0.2973466029
 40
0.4263898291
 40
0.5674456746
 40
0.7145844919
 40
0.861042305
 40
1.0
 40
1.0
 40
1.0
 40
1.0
 10
138.1229765543
 20
87.3562838476
 30
0.0
 10
137.9702441812
 20
87.2681027165
 30
0.0
 10
137.5962456024
 20
87.160675341
 30
0.0
 10
136.9855340986
 20
87.2447716418
 30
0.0
 10
136.3521975331
 20
87.5372606083
 30
0.0
 10
135.7296514238
 20
88.014115956
 30
0.0
 10
135.1555289262
 20
88.6435205702
 30
0.0
 10
134.6670804102
 20
89.3839151711
 30
0.0
 10
134.297540008
 20
90.1852225704
 30
0.0
 10
134.1403337249
 20
90.7472874565
 30
0.0
 10
134.0909905667
 20
91.0253979362
 30
0.0
  0
SPLINE
  5
4E1
100
AcDbEntity
  8
00_COMPONENTS
100
AcDbSpline
 62
7
  6
CONTINUOUS
 70
0
 71
3
 72
9
 73
5
 74
0
 42
0.0000001
 43
0.0000001
 44
0.0000000001
 40
0.0
 40
0.0
 40
0.0
 40
0.0
 40
0.4564628044
 40
1.0
 40
1.0
 40
1.0
 40
1.0
 10
138.5067792019
 20
87.2173866556
 30
0.0
 10
138.678645699
 20
87.3928344667
 30
0.0
 10
138.9462932705
 20
87.8845731207
 30
0.0
 10
139.0089392939
 20
88.4279283852
 30
0.0
 10
139.0089392939
 20
88.7203804148
 30
0.0
  0
SPLINE
  5
4E2
100
AcDbEntity
  8
00_COMPONENTS
100
AcDbSpline
 62
7
  6
CONTINUOUS
 70
0
 71
3
 72
15
 73
11
 74
0
 42
0.0000001
 43
0.0000001
 44
0.0000000001
 40
0.0
 40
0.0
 40
0.0
 40
0.0
 40
0.0867634565
 40
0.1840980908
 40
0.2973466029
 40
0.4263898291
 40
0.5674456746
 40
0.7145844919
 40
0.861042305
 40
1.0
 40
1.0
 40
1.0
 40
1.0
 10
138.1229765543
 20
169.741377736
 30
0.0
 10
137.9702441812
 20
169.6531966049
 30
0.0
 10
137.5962456024
 20
169.5457692293
 30
0.0
 10
136.9855340986
 20
169.6298655302
 30
0.0
 10
136.3521975331
 20
169.9223544966
 30
0.0
 10
135.7296514238
 20
170.3992098444
 30
0.0
 10
135.1555289262
 20
171.0286144586
 30
0.0
 10
134.6670804102
 20
171.7690090594
 30
0.0
 10
134.297540008
 20
172.5703164588
 30
0.0
 10
134.1403337249
 20
173.1323813448
 30
0.0
 10
134.0909905667
 20
173.4104918245
 30
0.0
  0
SPLINE
  5
4E3
100
AcDbEntity
  8
00_COMPONENTS
100
AcDbSpline
 62
7
  6
CONTINUOUS
 70
0
 71
3
 72
9
 73
5
 74
0
 42
0.0000001
 43
0.0000001
 44
0.0000000001
 40
0.0
 40
0.0
 40
0.0
 40
0.0
 40
0.4564628044
 40
1.0
 40
1.0
 40
1.0
 40
1.0
 10
138.5067792019
 20
169.602480544
 30
0.0
 10
138.678645699
 20
169.7779283551
 30
0.0
 10
138.9462932705
 20
170.2696670091
 30
0.0
 10
139.0089392939
 20
170.8130222736
 30
0.0
 10
139.0089392939
 20
171.1054743032
 30
0.0
  0
SPLINE
  5
4E4
100
AcDbEntity
  8
00_COMPONENTS
100
AcDbSpline
 62
7
  6
CONTINUOUS
 70
0
 71
3
 72
13
 73
9
 74
0
 42
0.0000001
 43
0.0000001
 44
0.0000000001
 40
0.0
 40
0.0
 40
0.0
 40
0.0
 40
0.3058435436
 40
0.5829407303
 40
0.7041379537
 40
0.8123651052
 40
0.9095005182
 40
1.0
 40
1.0
 40
1.0
 40
1.0
 10
118.7568983423
 20
63.098378465
 30
0.0
 10
118.4322148229
 20
63.6831793027
 30
0.0
 10
117.687247666
 20
64.7320059529
 30
0.0
 10
116.5049516762
 20
65.7548596036
 30
0.0
 10
115.5053430079
 20
66.2463377621
 30
0.0
 10
114.8065679893
 20
66.4233046567
 30
0.0
 10
114.1505229846
 20
66.4125529238
 30
0.0
 10
113.7553864232
 20
66.2705684583
 30
0.0
 10
113.5839333466
 20
66.1716842597
 30
0.0
  0
SPLINE
  5
4E5
100
AcDbEntity
  8
00_COMPONENTS
100
AcDbSpline
 62
7
  6
CONTINUOUS
 70
0
 71
3
 72
13
 73
9
 74
0
 42
0.0000001
 43
0.0000001
 44
0.0000000001
 40
0.0
 40
0.0
 40
0.0
 40
0.0
 40
0.3058435436
 40
0.5829407303
 40
0.7041379537
 40
0.8123651052
 40
0.9095005182
 40
1.0
 40
1.0
 40
1.0
 40
1.0
 10
90.4725093364
 20
79.4280086458
 30
0.0
 10
90.147825817
 20
80.0128094835
 30
0.0
 10
89.4028586602
 20
81.0616361337
 30
0.0
 10
88.2205626704
 20
82.0844897844
 30
0.0
 10
87.2209540021
 20
82.5759679429
 30
0.0
 10
86.5221789834
 20
82.7529348375
 30
0.0
 10
85.8661339787
 20
82.7421831046
 30
0.0
 10
85.4709974173
 20
82.6001986391
 30
0.0
 10
85.2995443407
 20
82.5013144406
 30
0.0
  0
SPLINE
  5
4E6
100
AcDbEntity
  8
00_COMPONENTS
100
AcDbSpline
 62
7
  6
CONTINUOUS
 70
0
 71
3
 72
13
 73
9
 74
0
 42
0.0000001
 43
0.0000001
 44
0.0000000001
 40
0.0
 40
0.0
 40
0.0
 40
0.0
 40
0.3058435436
 40
0.5829407303
 40
0.7041379537
 40
0.8123651052
 40
0.9095005182
 40
1.0
 40
1.0
 40
1.0
 40
1.0
 10
62.1881203306
 20
95.7576388266
 30
0.0
 10
61.8634368112
 20
96.3424396643
 30
0.0
 10
61.1184696543
 20
97.3912663145
 30
0.0
 10
59.9361736645
 20
98.4141199652
 30
0.0
 10
58.9365649962
 20
98.9055981237
 30
0.0
 10
58.2377899776
 20
99.0825650183
 30
0.0
 10
57.5817449728
 20
99.0718132854
 30
0.0
 10
57.1866084114
 20
98.9298288199
 30
0.0
 10
57.0151553348
 20
98.8309446214
 30
0.0
  0
SPLINE
  5
4E7
100
AcDbEntity
  8
00_COMPONENTS
100
AcDbSpline
 62
7
  6
CONTINUOUS
 70
0
 71
3
 72
15
 73
11
 74
0
 42
0.0000001
 43
0.0000001
 44
0.0000000001
 40
0.0
 40
0.0
 40
0.0
 40
0.0
 40
0.0867634565
 40
0.1840980908
 40
0.2973466029
 40
0.4263898291
 40
0.5674456746
 40
0.7145844919
 40
0.861042305
 40
1.0
 40
1.0
 40
1.0
 40
1.0
 10
63.4521895788
 20
212.8516014133
 30
0.0
 10
63.2994572057
 20
212.7634202822
 30
0.0
 10
62.9254586268
 20
212.6559929067
 30
0.0
 10
62.3147471231
 20
212.7400892076
 30
0.0
 10
61.6814105576
 20
213.032578174
 30
0.0
 10
61.0588644483
 20
213.5094335218
 30
0.0
 10
60.4847419507
 20
214.1388381359
 30
0.0
 10
59.9962934346
 20
214.8792327368
 30
0.0
 10
59.6267530325
 20
215.6805401361
 30
0.0
 10
59.4695467494
 20
216.2426050222
 30
0.0
 10
59.4202035912
 20
216.5207155019
 30
0.0
  0
SPLINE
  5
4E8
100
AcDbEntity
  8
00_COMPONENTS
100
AcDbSpline
 62
7
  6
CONTINUOUS
 70
0
 71
3
 72
9
 73
5
 74
0
 42
0.0000001
 43
0.0000001
 44
0.0000000001
 40
0.0
 40
0.0
 40
0.0
 40
0.0
 40
0.4564628044
 40
1.0
 40
1.0
 40
1.0
 40
1.0
 10
63.8359922264
 20
212.7127042213
 30
0.0
 10
64.0078587235
 20
212.8881520324
 30
0.0
 10
64.275506295
 20
213.3798906864
 30
0.0
 10
64.3381523184
 20
213.923245951
 30
0.0
 10
64.3381523184
 20
214.2156979805
 30
0.0
  0
SPLINE
  5
4E9
100
AcDbEntity
  8
00_COMPONENTS
100
AcDbSpline
 62
7
  6
CONTINUOUS
 70
0
 71
3
 72
11
 73
7
 74
0
 42
0.0000001
 43
0.0000001
 44
0.0000000001
 40
0.0
 40
0.0
 40
0.0
 40
0.0
 40
0.2177844739
 40
0.4518213888
 40
0.7113787883
 40
1.0
 40
1.0
 40
1.0
 40
1.0
 10
121.0818913541
 20
94.1944391831
 30
0.0
 10
120.8196429468
 20
94.062440754
 30
0.0
 10
120.2257605333
 20
93.8799260447
 30
0.0
 10
119.2553172558
 20
93.8839875183
 30
0.0
 10
118.2255788984
 20
94.1474285547
 30
0.0
 10
117.5553583478
 20
94.4691333356
 30
0.0
 10
117.218395096
 20
94.6636747586
 30
0.0
  0
SPLINE
  5
4EA
100
AcDbEntity
  8
00_COMPONENTS
100
AcDbSpline
 62
7
  6
CONTINUOUS
 70
0
 71
3
 72
9
 73
5
 74
0
 42
0.0000001
 43
0.0000001
 44
0.0000000001
 40
0.0
 40
0.0
 40
0.0
 40
0.0
 40
0.2391931945
 40
1.0
 40
1.0
 40
1.0
 40
1.0
 10
64.3381523184
 20
214.2156979805
 30
0.0
 10
64.3381523184
 20
214.2809610508
 30
0.0
 10
64.3304612118
 20
214.5537903826
 30
0.0
 10
64.2942123995
 20
214.8255045086
 30
0.0
 10
64.2539907412
 20
215.0291541476
 30
0.0
  0
SPLINE
  5
4EB
100
AcDbEntity
  8
00_COMPONENTS
100
AcDbSpline
 62
7
  6
CONTINUOUS
 70
0
 71
3
 72
14
 73
10
 74
0
 42
0.0000001
 43
0.0000001
 44
0.0000000001
 40
0.0
 40
0.0
 40
0.0
 40
0.0
 40
0.2818258856
 40
0.4271936292
 40
0.5672775372
 40
0.6967707556
 40
0.8119634586
 40
0.9119382695
 40
1.0
 40
1.0
 40
1.0
 40
1.0
 10
64.2539907412
 20
215.0291541476
 30
0.0
 10
64.136656621
 20
215.6232383363
 30
0.0
 10
63.7961572986
 20
216.4963970174
 30
0.0
 10
63.1298005656
 20
217.5193696753
 30
0.0
 10
62.5360377287
 20
218.1898062236
 30
0.0
 10
61.8905669456
 20
218.7132958688
 30
0.0
 10
61.228491845
 20
219.0590396418
 30
0.0
 10
60.5838352238
 20
219.2047327268
 30
0.0
 10
60.1708393571
 20
219.1480221432
 30
0.0
 10
59.9940035965
 20
219.0806962126
 30
0.0
  0
SPLINE
  5
4EC
100
AcDbEntity
  8
00_COMPONENTS
100
AcDbSpline
 62
7
  6
CONTINUOUS
 70
0
 71
3
 72
9
 73
5
 74
0
 42
0.0000001
 43
0.0000001
 44
0.0000000001
 40
0.0
 40
0.0
 40
0.0
 40
0.0
 40
0.2391931945
 40
1.0
 40
1.0
 40
1.0
 40
1.0
 10
139.0089392939
 20
171.1054743032
 30
0.0
 10
139.0089392939
 20
171.1707373735
 30
0.0
 10
139.0012481873
 20
171.4435667053
 30
0.0
 10
138.9649993751
 20
171.7152808312
 30
0.0
 10
138.9247777168
 20
171.9189304703
 30
0.0
  0
SPLINE
  5
4ED
100
AcDbEntity
  8
00_COMPONENTS
100
AcDbSpline
 62
7
  6
CONTINUOUS
 70
0
 71
3
 72
14
 73
10
 74
0
 42
0.0000001
 43
0.0000001
 44
0.0000000001
 40
0.0
 40
0.0
 40
0.0
 40
0.0
 40
0.2818258856
 40
0.4271936292
 40
0.5672775372
 40
0.6967707556
 40
0.8119634586
 40
0.9119382695
 40
1.0
 40
1.0
 40
1.0
 40
1.0
 10
138.9247777168
 20
171.9189304703
 30
0.0
 10
138.8074435965
 20
172.513014659
 30
0.0
 10
138.4669442741
 20
173.38617334
 30
0.0
 10
137.8005875411
 20
174.4091459979
 30
0.0
 10
137.2068247043
 20
175.0795825463
 30
0.0
 10
136.5613539212
 20
175.6030721915
 30
0.0
 10
135.8992788205
 20
175.9488159645
 30
0.0
 10
135.2546221993
 20
176.0945090495
 30
0.0
 10
134.8416263326
 20
176.0377984659
 30
0.0
 10
134.664790572
 20
175.9704725352
 30
0.0
  0
SPLINE
  5
4EE
100
AcDbEntity
  8
00_COMPONENTS
100
AcDbSpline
 62
7
  6
CONTINUOUS
 70
0
 71
3
 72
9
 73
5
 74
0
 42
0.0000001
 43
0.0000001
 44
0.0000000001
 40
0.0
 40
0.0
 40
0.0
 40
0.0
 40
0.2391931945
 40
1.0
 40
1.0
 40
1.0
 40
1.0
 10
139.0089392939
 20
88.7203804148
 30
0.0
 10
139.0089392939
 20
88.7856434851
 30
0.0
 10
139.0012481873
 20
89.0584728169
 30
0.0
 10
138.9649993751
 20
89.3301869428
 30
0.0
 10
138.9247777168
 20
89.5338365819
 30
0.0
  0
SPLINE
  5
4EF
100
AcDbEntity
  8
00_COMPONENTS
100
AcDbSpline
 62
7
  6
CONTINUOUS
 70
0
 71
3
 72
14
 73
10
 74
0
 42
0.0000001
 43
0.0000001
 44
0.0000000001
 40
0.0
 40
0.0
 40
0.0
 40
0.0
 40
0.2818258856
 40
0.4271936292
 40
0.5672775372
 40
0.6967707556
 40
0.8119634586
 40
0.9119382695
 40
1.0
 40
1.0
 40
1.0
 40
1.0
 10
138.9247777168
 20
89.5338365819
 30
0.0
 10
138.8074435965
 20
90.1279207706
 30
0.0
 10
138.4669442741
 20
91.0010794516
 30
0.0
 10
137.8005875412
 20
92.0240521095
 30
0.0
 10
137.2068247043
 20
92.6944886579
 30
0.0
 10
136.5613539212
 20
93.2179783031
 30
0.0
 10
135.8992788205
 20
93.5637220761
 30
0.0
 10
135.2546221993
 20
93.7094151611
 30
0.0
 10
134.8416263326
 20
93.6527045775
 30
0.0
 10
134.664790572
 20
93.5853786469
 30
0.0
  0
SPLINE
  5
4F0
100
AcDbEntity
  8
00_COMPONENTS
100
AcDbSpline
 62
7
  6
CONTINUOUS
 70
0
 71
3
 72
11
 73
7
 74
0
 42
0.0000001
 43
0.0000001
 44
0.0000000001
 40
0.0
 40
0.0
 40
0.0
 40
0.0
 40
0.2886221834
 40
0.5481799331
 40
0.7822164678
 40
1.0
 40
1.0
 40
1.0
 40
1.0
 10
51.8370943584
 20
199.3335054825
 30
0.0
 10
51.8370943584
 20
199.7226070239
 30
0.0
 10
51.8935948079
 20
200.4639103592
 30
0.0
 10
52.1803175178
 20
201.4874424873
 30
0.0
 10
52.6620304731
 20
202.3299266913
 30
0.0
 10
53.1170461966
 20
202.7529969374
 30
0.0
 10
53.3624909544
 20
202.914114025
 30
0.0
  0
SPLINE
  5
4F1
100
AcDbEntity
  8
00_COMPONENTS
100
AcDbSpline
 62
7
  6
CONTINUOUS
 70
0
 71
3
 72
11
 73
7
 74
0
 42
0.0000001
 43
0.0000001
 44
0.0000000001
 40
0.0
 40
0.0
 40
0.0
 40
0.0
 40
0.2372196401
 40
0.4999989078
 40
0.76277877
 40
1.0
 40
1.0
 40
1.0
 40
1.0
 10
57.4911480162
 20
129.1464368338
 30
0.0
 10
56.6884784928
 20
129.6098478154
 30
0.0
 10
55.1690417229
 20
130.8878764684
 30
0.0
 10
53.3960812406
 20
133.3108436108
 30
0.0
 10
52.1841954319
 20
136.0577562242
 30
0.0
 10
51.8370943584
 20
138.0126467734
 30
0.0
 10
51.8370943584
 20
138.9394906744
 30
0.0
  0
SPLINE
  5
4F2
100
AcDbEntity
  8
00_COMPONENTS
100
AcDbSpline
 62
7
  6
CONTINUOUS
 70
0
 71
3
 72
11
 73
7
 74
0
 42
0.0000001
 43
0.0000001
 44
0.0000000001
 40
0.0
 40
0.0
 40
0.0
 40
0.0
 40
0.2177660095
 40
0.4508968553
 40
0.7103699668
 40
1.0
 40
1.0
 40
1.0
 40
1.0
 10
135.8165891336
 20
195.9447385268
 30
0.0
 10
135.981470582
 20
196.0400196572
 30
0.0
 10
136.2902197714
 20
196.299190229
 30
0.0
 10
136.618698431
 20
196.8365112766
 30
0.0
 10
136.8137020006
 20
197.4984988067
 30
0.0
 10
136.8522016408
 20
197.9803018671
 30
0.0
 10
136.8522016408
 20
198.2335776488
 30
0.0
  0
SPLINE
  5
4F3
100
AcDbEntity
  8
00_COMPONENTS
100
AcDbSpline
 62
7
  6
CONTINUOUS
 70
0
 71
3
 72
9
 73
5
 74
0
 42
0.0000001
 43
0.0000001
 44
0.0000000001
 40
0.0
 40
0.0
 40
0.0
 40
0.0
 40
0.5239335415
 40
1.0
 40
1.0
 40
1.0
 40
1.0
 10
150.7148215512
 20
212.1184171366
 30
0.0
 10
150.4029919571
 20
212.8315003994
 30
0.0
 10
149.9207691562
 20
214.2453712728
 30
0.0
 10
149.7214137574
 20
215.7321777566
 30
0.0
 10
149.7214137574
 20
216.4393566453
 30
0.0
  0
SPLINE
  5
4F4
100
AcDbEntity
  8
00_COMPONENTS
100
AcDbSpline
 62
7
  6
CONTINUOUS
 70
0
 71
3
 72
9
 73
5
 74
0
 42
0.0000001
 43
0.0000001
 44
0.0000000001
 40
0.0
 40
0.0
 40
0.0
 40
0.0
 40
0.2558913949
 40
1.0
 40
1.0
 40
1.0
 40
1.0
 10
60.1273074284
 20
216.9289596558
 30
0.0
 10
60.120604644
 20
216.9667382387
 30
0.0
 10
60.0963948292
 20
217.1147139105
 30
0.0
 10
60.080263867
 20
217.2640479884
 30
0.0
 10
60.0735036195
 20
217.3754153196
 30
0.0
  0
SPLINE
  5
4F5
100
AcDbEntity
  8
00_COMPONENTS
100
AcDbSpline
 62
7
  6
CONTINUOUS
 70
0
 71
3
 72
9
 73
5
 74
0
 42
0.0000001
 43
0.0000001
 44
0.0000000001
 40
0.0
 40
0.0
 40
0.0
 40
0.0
 40
0.2558913949
 40
1.0
 40
1.0
 40
1.0
 40
1.0
 10
134.798094404
 20
173.8187359784
 30
0.0
 10
134.7913916195
 20
173.8565145614
 30
0.0
 10
134.7671818047
 20
174.0044902332
 30
0.0
 10
134.7510508425
 20
174.1538243111
 30
0.0
 10
134.744290595
 20
174.2651916422
 30
0.0
  0
SPLINE
  5
4F6
100
AcDbEntity
  8
00_COMPONENTS
100
AcDbSpline
 62
7
  6
CONTINUOUS
 70
0
 71
3
 72
11
 73
7
 74
0
 42
0.0000001
 43
0.0000001
 44
0.0000000001
 40
0.0
 40
0.0
 40
0.0
 40
0.0
 40
0.2177660095
 40
0.4508968553
 40
0.7103699668
 40
1.0
 40
1.0
 40
1.0
 40
1.0
 10
107.5322001278
 20
212.2743687076
 30
0.0
 10
107.6970815761
 20
212.369649838
 30
0.0
 10
108.0058307655
 20
212.6288204099
 30
0.0
 10
108.3343094251
 20
213.1661414574
 30
0.0
 10
108.5293129947
 20
213.8281289875
 30
0.0
 10
108.567812635
 20
214.3099320479
 30
0.0
 10
108.567812635
 20
214.5632078296
 30
0.0
  0
SPLINE
  5
4F7
100
AcDbEntity
  8
00_COMPONENTS
100
AcDbSpline
 62
7
  6
CONTINUOUS
 70
0
 71
3
 72
9
 73
5
 74
0
 42
0.0000001
 43
0.0000001
 44
0.0000000001
 40
0.0
 40
0.0
 40
0.0
 40
0.0
 40
0.5239335415
 40
1.0
 40
1.0
 40
1.0
 40
1.0
 10
122.4304325453
 20
228.4480473174
 30
0.0
 10
122.1186029512
 20
229.1611305802
 30
0.0
 10
121.6363801504
 20
230.5750014536
 30
0.0
 10
121.4370247515
 20
232.0618079374
 30
0.0
 10
121.4370247515
 20
232.7689868262
 30
0.0
  0
SPLINE
  5
4F8
100
AcDbEntity
  8
00_COMPONENTS
100
AcDbSpline
 62
7
  6
CONTINUOUS
 70
0
 71
3
 72
9
 73
5
 74
0
 42
0.0000001
 43
0.0000001
 44
0.0000000001
 40
0.0
 40
0.0
 40
0.0
 40
0.0
 40
0.2558913949
 40
1.0
 40
1.0
 40
1.0
 40
1.0
 10
134.798094404
 20
91.4336420901
 30
0.0
 10
134.7913916195
 20
91.471420673
 30
0.0
 10
134.7671818047
 20
91.6193963448
 30
0.0
 10
134.7510508425
 20
91.7687304227
 30
0.0
 10
134.744290595
 20
91.8800977539
 30
0.0
  0
SPLINE
  5
4F9
100
AcDbEntity
  8
00_COMPONENTS
100
AcDbSpline
 62
7
  6
CONTINUOUS
 70
0
 71
3
 72
11
 73
7
 74
0
 42
0.0000001
 43
0.0000001
 44
0.0000000001
 40
0.0
 40
0.0
 40
0.0
 40
0.0
 40
0.2177660095
 40
0.4508968553
 40
0.7103699668
 40
1.0
 40
1.0
 40
1.0
 40
1.0
 10
79.2478111219
 20
228.6039988884
 30
0.0
 10
79.4126925703
 20
228.6992800188
 30
0.0
 10
79.7214417596
 20
228.9584505907
 30
0.0
 10
80.0499204193
 20
229.4957716382
 30
0.0
 10
80.2449239888
 20
230.1577591683
 30
0.0
 10
80.2834236291
 20
230.6395622288
 30
0.0
 10
80.2834236291
 20
230.8928380105
 30
0.0
  0
SPLINE
  5
4FA
100
AcDbEntity
  8
00_COMPONENTS
100
AcDbSpline
 62
7
  6
CONTINUOUS
 70
0
 71
3
 72
9
 73
5
 74
0
 42
0.0000001
 43
0.0000001
 44
0.0000000001
 40
0.0
 40
0.0
 40
0.0
 40
0.0
 40
0.5239335415
 40
1.0
 40
1.0
 40
1.0
 40
1.0
 10
94.1460435394
 20
244.7776774982
 30
0.0
 10
93.8342139454
 20
245.490760761
 30
0.0
 10
93.3519911445
 20
246.9046316344
 30
0.0
 10
93.1526357456
 20
248.3914381182
 30
0.0
 10
93.1526357456
 20
249.098617007
 30
0.0
  0
SPLINE
  5
4FB
100
AcDbEntity
  8
00_COMPONENTS
100
AcDbSpline
 62
7
  6
CONTINUOUS
 70
0
 71
3
 72
9
 73
5
 74
0
 42
0.0000001
 43
0.0000001
 44
0.0000000001
 40
0.0
 40
0.0
 40
0.0
 40
0.0
 40
0.2652934575
 40
1.0
 40
1.0
 40
1.0
 40
1.0
 10
97.1865001443
 20
106.1994086917
 30
0.0
 10
97.1631589696
 20
106.1309945555
 30
0.0
 10
97.0842814208
 20
105.8702993151
 30
0.0
 10
97.0419788728
 20
105.5970174532
 30
0.0
 10
97.0419788728
 20
105.3968270898
 30
0.0
  0
SPLINE
  5
4FC
100
AcDbEntity
  8
00_COMPONENTS
100
AcDbSpline
 62
7
  6
CONTINUOUS
 70
0
 71
3
 72
11
 73
7
 74
0
 42
0.0000001
 43
0.0000001
 44
0.0000000001
 40
0.0
 40
0.0
 40
0.0
 40
0.0
 40
0.2895411595
 40
0.5491183966
 40
0.7822559144
 40
1.0
 40
1.0
 40
1.0
 40
1.0
 10
97.0419788728
 20
105.3968270898
 30
0.0
 10
97.0419788728
 20
105.2955493859
 30
0.0
 10
97.0574429558
 20
105.1028356813
 30
0.0
 10
97.135349172
 20
104.8380133548
 30
0.0
 10
97.2667623012
 20
104.623051081
 30
0.0
 10
97.3902991045
 20
104.5194330676
 30
0.0
 10
97.4562594657
 20
104.4813517084
 30
0.0
  0
SPLINE
  5
4FD
100
AcDbEntity
  8
00_COMPONENTS
100
AcDbSpline
 62
7
  6
CONTINUOUS
 70
0
 71
3
 72
11
 73
7
 74
0
 42
0.0000001
 43
0.0000001
 44
0.0000000001
 40
0.0
 40
0.0
 40
0.0
 40
0.0
 40
0.2895396729
 40
0.5491163863
 40
0.7822545095
 40
1.0
 40
1.0
 40
1.0
 40
1.0
 10
101.2846254478
 20
102.9473475452
 30
0.0
 10
101.1969201774
 20
102.8967111859
 30
0.0
 10
101.0223005622
 20
102.8137506106
 30
0.0
 10
100.7540157461
 20
102.7488109549
 30
0.0
 10
100.5021559777
 20
102.7551356405
 30
0.0
 10
100.3506565212
 20
102.810308558
 30
0.0
 10
100.2846983676
 20
102.8483886895
 30
0.0
  0
SPLINE
  5
4FE
100
AcDbEntity
  8
00_COMPONENTS
100
AcDbSpline
 62
7
  6
CONTINUOUS
 70
0
 71
3
 72
11
 73
7
 74
0
 42
0.0000001
 43
0.0000001
 44
0.0000000001
 40
0.0
 40
0.0
 40
0.0
 40
0.0
 40
0.2897762172
 40
0.5490701576
 40
0.7822260326
 40
1.0
 40
1.0
 40
1.0
 40
1.0
 10
83.6772099872
 20
276.1261100938
 30
0.0
 10
83.6772099872
 20
276.5315601298
 30
0.0
 10
83.7385154021
 20
277.3024471871
 30
0.0
 10
84.0509334181
 20
278.3615444911
 30
0.0
 10
84.5764364241
 20
279.2209560232
 30
0.0
 10
85.0702518389
 20
279.6359945278
 30
0.0
 10
85.334135099
 20
279.788346699
 30
0.0
  0
SPLINE
  5
4FF
100
AcDbEntity
  8
00_COMPONENTS
100
AcDbSpline
 62
7
  6
CONTINUOUS
 70
0
 71
3
 72
11
 73
7
 74
0
 42
0.0000001
 43
0.0000001
 44
0.0000000001
 40
0.0
 40
0.0
 40
0.0
 40
0.0
 40
0.2544038672
 40
0.516635734
 40
0.7700836647
 40
1.0
 40
1.0
 40
1.0
 40
1.0
 10
87.5076994644
 20
267.7324283896
 30
0.0
 10
86.9337823127
 20
268.2898616827
 30
0.0
 10
85.8852864623
 20
269.5461280781
 30
0.0
 10
84.6795404685
 20
271.660178112
 30
0.0
 10
83.8908437016
 20
273.8812628452
 30
0.0
 10
83.6772099872
 20
275.4030500442
 30
0.0
 10
83.6772099872
 20
276.1261100938
 30
0.0
  0
SPLINE
  5
500
100
AcDbEntity
  8
00_COMPONENTS
100
AcDbSpline
 62
7
  6
CONTINUOUS
 70
0
 71
3
 72
9
 73
5
 74
0
 42
0.0000001
 43
0.0000001
 44
0.0000000001
 40
0.0
 40
0.0
 40
0.0
 40
0.0
 40
0.5137185127
 40
1.0
 40
1.0
 40
1.0
 40
1.0
 10
91.0378763875
 20
283.1789420262
 30
0.0
 10
91.1809301272
 20
283.4496333756
 30
0.0
 10
91.5234812243
 20
283.946900971
 30
0.0
 10
91.9955789338
 20
284.3271968032
 30
0.0
 10
92.2465907837
 20
284.4720614064
 30
0.0
  0
SPLINE
  5
501
100
AcDbEntity
  8
00_COMPONENTS
100
AcDbSpline
 62
7
  6
CONTINUOUS
 70
0
 71
3
 72
9
 73
5
 74
0
 42
0.0000001
 43
0.0000001
 44
0.0000000001
 40
0.0
 40
0.0
 40
0.0
 40
0.0
 40
0.2543914958
 40
1.0
 40
1.0
 40
1.0
 40
1.0
 10
92.3979208063
 20
284.4738364289
 30
0.0
 10
92.4210081485
 20
284.5143879564
 30
0.0
 10
92.5145675315
 20
284.6721741275
 30
0.0
 10
92.6195312195
 20
284.8232523157
 30
0.0
 10
92.7040572301
 20
284.9307728737
 30
0.0
  0
SPLINE
  5
502
100
AcDbEntity
  8
00_COMPONENTS
100
AcDbSpline
 62
7
  6
CONTINUOUS
 70
0
 71
3
 72
9
 73
5
 74
0
 42
0.0000001
 43
0.0000001
 44
0.0000000001
 40
0.0
 40
0.0
 40
0.0
 40
0.0
 40
0.2537112966
 40
1.0
 40
1.0
 40
1.0
 40
1.0
 10
92.7040572301
 20
284.9307728737
 30
0.0
 10
92.7363144957
 20
284.9718054407
 30
0.0
 10
92.8670654023
 20
285.1306528322
 30
0.0
 10
93.0125149094
 20
285.2774944088
 30
0.0
 10
93.1283772966
 20
285.3782250659
 30
0.0
  0
SPLINE
  5
503
100
AcDbEntity
  8
00_COMPONENTS
100
AcDbSpline
 62
7
  6
CONTINUOUS
 70
0
 71
3
 72
9
 73
5
 74
0
 42
0.0000001
 43
0.0000001
 44
0.0000000001
 40
0.0
 40
0.0
 40
0.0
 40
0.0
 40
0.513872508
 40
1.0
 40
1.0
 40
1.0
 40
1.0
 10
103.5431256564
 20
71.7469114309
 30
0.0
 10
103.36379762
 20
71.7542857058
 30
0.0
 10
103.0109024689
 20
71.7272820221
 30
0.0
 10
102.6793295818
 20
71.5994753449
 30
0.0
 10
102.5322876761
 20
71.5145811415
 30
0.0
  0
SPLINE
  5
504
100
AcDbEntity
  8
00_COMPONENTS
100
AcDbSpline
 62
7
  6
CONTINUOUS
 70
0
 71
3
 72
16
 73
12
 74
0
 42
0.0000001
 43
0.0000001
 44
0.0000000001
 40
0.0
 40
0.0
 40
0.0
 40
0.0
 40
0.128744776
 40
0.2703971998
 40
0.4176131979
 40
0.5620174334
 40
0.6957476677
 40
0.8130627022
 40
0.912470568
 40
0.9571203641
 40
1.0
 40
1.0
 40
1.0
 40
1.0
 10
51.9990346232
 20
247.2224681913
 30
0.0
 10
51.9990346232
 20
247.6498427431
 30
0.0
 10
51.8794628229
 20
248.5484638346
 30
0.0
 10
51.4332616426
 20
249.8678821024
 30
0.0
 10
50.7454849063
 20
251.1389170847
 30
0.0
 10
49.8721988181
 20
252.2572296468
 30
0.0
 10
48.8821826869
 20
253.1329326102
 30
0.0
 10
47.8522204743
 20
253.6978964275
 30
0.0
 10
46.9778807732
 20
253.8686278876
 30
0.0
 10
46.3585459363
 20
253.777849901
 30
0.0
 10
46.0867927373
 20
253.6649340222
 30
0.0
 10
45.9635498789
 20
253.5937148585
 30
0.0
  0
SPLINE
  5
505
100
AcDbEntity
  8
00_COMPONENTS
100
AcDbSpline
 62
7
  6
CONTINUOUS
 70
0
 71
3
 72
9
 73
5
 74
0
 42
0.0000001
 43
0.0000001
 44
0.0000000001
 40
0.0
 40
0.0
 40
0.0
 40
0.0
 40
0.2430108496
 40
1.0
 40
1.0
 40
1.0
 40
1.0
 10
74.0083128099
 20
259.9453428821
 30
0.0
 10
73.9208295459
 20
260.2798894641
 30
0.0
 10
73.4997926054
 20
261.6401204384
 30
0.0
 10
72.8567362486
 20
262.9295629577
 30
0.0
 10
72.2717032259
 20
263.8340123371
 30
0.0
  0
SPLINE
  5
506
100
AcDbEntity
  8
00_COMPONENTS
100
AcDbSpline
 62
7
  6
CONTINUOUS
 70
0
 71
3
 72
9
 73
5
 74
0
 42
0.0000001
 43
0.0000001
 44
0.0000000001
 40
0.0
 40
0.0
 40
0.0
 40
0.0
 40
0.2742054947
 40
1.0
 40
1.0
 40
1.0
 40
1.0
 10
64.8682467398
 20
265.4282471878
 30
0.0
 10
64.8682467398
 20
265.6647353391
 30
0.0
 10
64.9073896981
 20
266.5248828047
 30
0.0
 10
65.1199604237
 20
267.3906473829
 30
0.0
 10
65.4116805948
 20
267.944475744
 30
0.0
  0
SPLINE
  5
507
100
AcDbEntity
  8
00_COMPONENTS
100
AcDbSpline
 62
7
  6
CONTINUOUS
 70
0
 71
3
 72
9
 73
5
 74
0
 42
0.0000001
 43
0.0000001
 44
0.0000000001
 40
0.0
 40
0.0
 40
0.0
 40
0.0
 40
0.5135169721
 40
1.0
 40
1.0
 40
1.0
 40
1.0
 10
65.4116805948
 20
267.944475744
 30
0.0
 10
65.540091676
 20
268.1882631324
 30
0.0
 10
65.8441359866
 20
268.6378768784
 30
0.0
 10
66.2588212732
 20
268.9909549944
 30
0.0
 10
66.4798894622
 20
269.1297613973
 30
0.0
  0
SPLINE
  5
508
100
AcDbEntity
  8
00_COMPONENTS
100
AcDbSpline
 62
7
  6
CONTINUOUS
 70
0
 71
3
 72
9
 73
5
 74
0
 42
0.0000001
 43
0.0000001
 44
0.0000000001
 40
0.0
 40
0.0
 40
0.0
 40
0.0
 40
0.513872508
 40
1.0
 40
1.0
 40
1.0
 40
1.0
 10
75.2587366505
 20
88.0765416117
 30
0.0
 10
75.0794086141
 20
88.0839158866
 30
0.0
 10
74.7265134631
 20
88.056912203
 30
0.0
 10
74.3949405759
 20
87.9291055257
 30
0.0
 10
74.2478986702
 20
87.8442113223
 30
0.0
  0
SPLINE
  5
509
100
AcDbEntity
  8
00_COMPONENTS
100
AcDbSpline
 62
7
  6
CONTINUOUS
 70
0
 71
3
 72
9
 73
5
 74
0
 42
0.0000001
 43
0.0000001
 44
0.0000000001
 40
0.0
 40
0.0
 40
0.0
 40
0.0
 40
0.513872508
 40
1.0
 40
1.0
 40
1.0
 40
1.0
 10
131.8275146623
 20
55.41728125
 30
0.0
 10
131.6481866258
 20
55.424655525
 30
0.0
 10
131.2952914748
 20
55.3976518413
 30
0.0
 10
130.9637185877
 20
55.2698451641
 30
0.0
 10
130.8166766819
 20
55.1849509607
 30
0.0
  0
SPLINE
  5
50A
100
AcDbEntity
  8
00_COMPONENTS
100
AcDbSpline
 62
7
  6
CONTINUOUS
 70
0
 71
3
 72
9
 73
5
 74
0
 42
0.0000001
 43
0.0000001
 44
0.0000000001
 40
0.0
 40
0.0
 40
0.0
 40
0.0
 40
0.513872508
 40
1.0
 40
1.0
 40
1.0
 40
1.0
 10
46.9743476447
 20
104.4061717925
 30
0.0
 10
46.7950196082
 20
104.4135460674
 30
0.0
 10
46.4421244572
 20
104.3865423838
 30
0.0
 10
46.11055157
 20
104.2587357066
 30
0.0
 10
45.9635096643
 20
104.1738415031
 30
0.0
  0
SPLINE
  5
50B
100
AcDbEntity
  8
00_COMPONENTS
100
AcDbSpline
 62
7
  6
CONTINUOUS
 70
0
 71
3
 72
15
 73
11
 74
0
 42
0.0000001
 43
0.0000001
 44
0.0000000001
 40
0.0
 40
0.0
 40
0.0
 40
0.0
 40
0.0867634565
 40
0.1840980908
 40
0.2973466029
 40
0.4263898291
 40
0.5674456746
 40
0.7145844919
 40
0.861042305
 40
1.0
 40
1.0
 40
1.0
 40
1.0
 10
134.7329998624
 20
175.6130253601
 30
0.0
 10
134.8857322355
 20
175.7012064912
 30
0.0
 10
135.2597308143
 20
175.8086338667
 30
0.0
 10
135.8704423181
 20
175.7245375658
 30
0.0
 10
136.5037788836
 20
175.4320485994
 30
0.0
 10
137.1263249928
 20
174.9551932516
 30
0.0
 10
137.7004474905
 20
174.3257886375
 30
0.0
 10
138.1888960065
 20
173.5853940366
 30
0.0
 10
138.5584364087
 20
172.7840866372
 30
0.0
 10
138.7156426918
 20
172.2220217512
 30
0.0
 10
138.76498585
 20
171.9439112715
 30
0.0
  0
SPLINE
  5
50C
100
AcDbEntity
  8
00_COMPONENTS
100
AcDbSpline
 62
7
  6
CONTINUOUS
 70
0
 71
3
 72
11
 73
7
 74
0
 42
0.0000001
 43
0.0000001
 44
0.0000000001
 40
0.0
 40
0.0
 40
0.0
 40
0.0
 40
0.2292259228
 40
0.481515342
 40
0.7435216175
 40
1.0
 40
1.0
 40
1.0
 40
1.0
 10
126.3865643757
 20
268.941303139
 30
0.0
 10
127.0600676376
 20
268.5524646462
 30
0.0
 10
128.3664846477
 20
267.5443283011
 30
0.0
 10
130.0343706937
 20
265.6355548047
 30
0.0
 10
131.4008001783
 20
263.391981328
 30
0.0
 10
132.0539803959
 20
261.7467560483
 30
0.0
 10
132.2953214265
 20
260.9107453538
 30
0.0
  0
SPLINE
  5
50D
100
AcDbEntity
  8
00_COMPONENTS
100
AcDbSpline
 62
7
  6
CONTINUOUS
 70
0
 71
3
 72
16
 73
12
 74
0
 42
0.0000001
 43
0.0000001
 44
0.0000000001
 40
0.0
 40
0.0
 40
0.0
 40
0.0
 40
0.1441592221
 40
0.2925952178
 40
0.4392078715
 40
0.5781566429
 40
0.7046358177
 40
0.8158773833
 40
0.9124316931
 40
0.9568628404
 40
1.0
 40
1.0
 40
1.0
 40
1.0
 10
132.0764997128
 20
260.7856496853
 30
0.0
 10
131.8931055104
 20
261.4529920144
 30
0.0
 10
131.4083741357
 20
262.7783234375
 30
0.0
 10
130.4036912572
 20
264.6396508688
 30
0.0
 10
129.1598947557
 20
266.3205394359
 30
0.0
 10
127.750988599
 20
267.7211187676
 30
0.0
 10
126.2564355601
 20
268.7593536969
 30
0.0
 10
124.7578371017
 20
269.3752584547
 30
0.0
 10
123.5258157586
 20
269.493699102
 30
0.0
 10
122.6543519077
 20
269.3148653273
 30
0.0
 10
122.2659760543
 20
269.1440821366
 30
0.0
 10
122.0866090397
 20
269.040566989
 30
0.0
  0
SPLINE
  5
50E
100
AcDbEntity
  8
00_COMPONENTS
100
AcDbSpline
 62
7
  6
CONTINUOUS
 70
0
 71
3
 72
11
 73
7
 74
0
 42
0.0000001
 43
0.0000001
 44
0.0000000001
 40
0.0
 40
0.0
 40
0.0
 40
0.0
 40
0.2544045056
 40
0.5166368613
 40
0.7700846735
 40
1.0
 40
1.0
 40
1.0
 40
1.0
 10
130.1848899169
 20
259.7124444617
 30
0.0
 10
129.9890979353
 20
260.4881993961
 30
0.0
 10
129.4253846341
 20
262.024379142
 30
0.0
 10
128.1974237156
 20
264.1256386901
 30
0.0
 10
126.668238018
 20
265.9192291481
 30
0.0
 10
125.4571320603
 20
266.86513726
 30
0.0
 10
124.8309359339
 20
267.2266635834
 30
0.0
  0
SPLINE
  5
50F
100
AcDbEntity
  8
00_COMPONENTS
100
AcDbSpline
 62
7
  6
CONTINUOUS
 70
0
 71
3
 72
11
 73
7
 74
0
 42
0.0000001
 43
0.0000001
 44
0.0000000001
 40
0.0
 40
0.0
 40
0.0
 40
0.0
 40
0.289775222
 40
0.5490688033
 40
0.782225076
 40
1.0
 40
1.0
 40
1.0
 40
1.0
 10
124.8309359339
 20
267.2266635834
 30
0.0
 10
124.4798145097
 20
267.4293790461
 30
0.0
 10
123.7815712971
 20
267.7617141499
 30
0.0
 10
122.7081851536
 20
268.0206847893
 30
0.0
 10
121.7011875056
 20
267.9952869763
 30
0.0
 10
121.0948606092
 20
267.7751556552
 30
0.0
 10
120.8309832444
 20
267.6228068877
 30
0.0
  0
SPLINE
  5
510
100
AcDbEntity
  8
00_COMPONENTS
100
AcDbSpline
 62
7
  6
CONTINUOUS
 70
0
 71
3
 72
8
 73
4
 74
0
 42
0.0000001
 43
0.0000001
 44
0.0000000001
 40
0.0
 40
0.0
 40
0.0
 40
0.0
 40
1.0
 40
1.0
 40
1.0
 40
1.0
 10
134.4823679091
 20
175.8838352082
 30
0.0
 10
134.3886689095
 20
175.829743198
 30
0.0
 10
134.3014215138
 20
175.7628470976
 30
0.0
 10
134.2243596232
 20
175.6869069033
 30
0.0
  0
SPLINE
  5
511
100
AcDbEntity
  8
00_COMPONENTS
100
AcDbSpline
 62
7
  6
CONTINUOUS
 70
0
 71
3
 72
9
 73
5
 74
0
 42
0.0000001
 43
0.0000001
 44
0.0000000001
 40
0.0
 40
0.0
 40
0.0
 40
0.0
 40
0.4731286598
 40
1.0
 40
1.0
 40
1.0
 40
1.0
 10
134.2243596232
 20
175.6869069033
 30
0.0
 10
134.1124333513
 20
175.5766098061
 30
0.0
 10
133.9173102024
 20
175.2997784074
 30
0.0
 10
133.8103570446
 20
174.9812682835
 30
0.0
 10
133.7723040354
 20
174.810466482
 30
0.0
  0
SPLINE
  5
512
100
AcDbEntity
  8
00_COMPONENTS
100
AcDbSpline
 62
7
  6
CONTINUOUS
 70
0
 71
3
 72
9
 73
5
 74
0
 42
0.0000001
 43
0.0000001
 44
0.0000000001
 40
0.0
 40
0.0
 40
0.0
 40
0.0
 40
0.2391581243
 40
1.0
 40
1.0
 40
1.0
 40
1.0
 10
133.7723040354
 20
174.810466482
 30
0.0
 10
133.7610812905
 20
174.7600929356
 30
0.0
 10
133.7207742505
 20
174.5480050998
 30
0.0
 10
133.7056163553
 20
174.3314640517
 30
0.0
 10
133.7056163553
 20
174.1672799621
 30
0.0
  0
SPLINE
  5
513
100
AcDbEntity
  8
00_COMPONENTS
100
AcDbSpline
 62
7
  6
CONTINUOUS
 70
0
 71
3
 72
15
 73
11
 74
0
 42
0.0000001
 43
0.0000001
 44
0.0000000001
 40
0.0
 40
0.0
 40
0.0
 40
0.0
 40
0.0867634565
 40
0.1840980908
 40
0.2973466029
 40
0.4263898291
 40
0.5674456746
 40
0.7145844919
 40
0.861042305
 40
1.0
 40
1.0
 40
1.0
 40
1.0
 10
60.0622128868
 20
218.7232490374
 30
0.0
 10
60.2149452599
 20
218.8114301685
 30
0.0
 10
60.5889438388
 20
218.918857544
 30
0.0
 10
61.1996553425
 20
218.8347612432
 30
0.0
 10
61.832991908
 20
218.5422722768
 30
0.0
 10
62.4555380173
 20
218.065416929
 30
0.0
 10
63.029660515
 20
217.4360123148
 30
0.0
 10
63.518109031
 20
216.695617714
 30
0.0
 10
63.8876494332
 20
215.8943103146
 30
0.0
 10
64.0448557163
 20
215.3322454286
 30
0.0
 10
64.0941988744
 20
215.0541349488
 30
0.0
  0
SPLINE
  5
514
100
AcDbEntity
  8
00_COMPONENTS
100
AcDbSpline
 62
7
  6
CONTINUOUS
 70
0
 71
3
 72
11
 73
7
 74
0
 42
0.0000001
 43
0.0000001
 44
0.0000000001
 40
0.0
 40
0.0
 40
0.0
 40
0.0
 40
0.2299153265
 40
0.4833631387
 40
0.7455954944
 40
1.0
 40
1.0
 40
1.0
 40
1.0
 10
117.6184767943
 20
263.0625732139
 30
0.0
 10
118.2446729208
 20
262.7010468905
 30
0.0
 10
119.4557788784
 20
261.7551387786
 30
0.0
 10
120.984964576
 20
259.9615483206
 30
0.0
 10
122.2129254945
 20
257.8602887725
 30
0.0
 10
122.7766387957
 20
256.3241090266
 30
0.0
 10
122.9724307773
 20
255.5483540922
 30
0.0
  0
SPLINE
  5
515
100
AcDbEntity
  8
00_COMPONENTS
100
AcDbSpline
 62
7
  6
CONTINUOUS
 70
0
 71
3
 72
8
 73
4
 74
0
 42
0.0000001
 43
0.0000001
 44
0.0000000001
 40
0.0
 40
0.0
 40
0.0
 40
0.0
 40
1.0
 40
1.0
 40
1.0
 40
1.0
 10
59.8115809336
 20
218.9940588855
 30
0.0
 10
59.717881934
 20
218.9399668754
 30
0.0
 10
59.6306345383
 20
218.873070775
 30
0.0
 10
59.5535726476
 20
218.7971305806
 30
0.0
  0
SPLINE
  5
516
100
AcDbEntity
  8
00_COMPONENTS
100
AcDbSpline
 62
7
  6
CONTINUOUS
 70
0
 71
3
 72
9
 73
5
 74
0
 42
0.0000001
 43
0.0000001
 44
0.0000000001
 40
0.0
 40
0.0
 40
0.0
 40
0.0
 40
0.4731286598
 40
1.0
 40
1.0
 40
1.0
 40
1.0
 10
59.5535726476
 20
218.7971305806
 30
0.0
 10
59.4416463758
 20
218.6868334835
 30
0.0
 10
59.2465232269
 20
218.4100020847
 30
0.0
 10
59.1395700691
 20
218.0914919608
 30
0.0
 10
59.1015170598
 20
217.9206901594
 30
0.0
  0
SPLINE
  5
517
100
AcDbEntity
  8
00_COMPONENTS
100
AcDbSpline
 62
7
  6
CONTINUOUS
 70
0
 71
3
 72
9
 73
5
 74
0
 42
0.0000001
 43
0.0000001
 44
0.0000000001
 40
0.0
 40
0.0
 40
0.0
 40
0.0
 40
0.2391581243
 40
1.0
 40
1.0
 40
1.0
 40
1.0
 10
59.1015170598
 20
217.9206901594
 30
0.0
 10
59.090294315
 20
217.8703166129
 30
0.0
 10
59.049987275
 20
217.6582287772
 30
0.0
 10
59.0348293798
 20
217.441687729
 30
0.0
 10
59.0348293798
 20
217.2775036394
 30
0.0
  0
SPLINE
  5
518
100
AcDbEntity
  8
00_COMPONENTS
100
AcDbSpline
 62
7
  6
CONTINUOUS
 70
0
 71
3
 72
11
 73
7
 74
0
 42
0.0000001
 43
0.0000001
 44
0.0000000001
 40
0.0
 40
0.0
 40
0.0
 40
0.0
 40
0.2177660095
 40
0.4508968553
 40
0.7103699668
 40
1.0
 40
1.0
 40
1.0
 40
1.0
 10
45.9635498789
 20
253.5937148585
 30
0.0
 10
45.7986684305
 20
253.4984337281
 30
0.0
 10
45.4899192412
 20
253.2392631563
 30
0.0
 10
45.1614405815
 20
252.7019421087
 30
0.0
 10
44.966437012
 20
252.0399545787
 30
0.0
 10
44.9279373717
 20
251.5581515182
 30
0.0
 10
44.9279373717
 20
251.3048757365
 30
0.0
  0
SPLINE
  5
519
100
AcDbEntity
  8
00_COMPONENTS
100
AcDbSpline
 62
7
  6
CONTINUOUS
 70
0
 71
3
 72
11
 73
7
 74
0
 42
0.0000001
 43
0.0000001
 44
0.0000000001
 40
0.0
 40
0.0
 40
0.0
 40
0.0
 40
0.2179828925
 40
0.4502453281
 40
0.7091775558
 40
1.0
 40
1.0
 40
1.0
 40
1.0
 10
132.7708686774
 20
100.0762829977
 30
0.0
 10
133.0530035901
 20
100.2182909727
 30
0.0
 10
133.5860728037
 20
100.6218904373
 30
0.0
 10
134.1568857297
 20
101.4956454185
 30
0.0
 10
134.4954476163
 20
102.5888243639
 30
0.0
 10
134.5612191228
 20
103.3884588381
 30
0.0
 10
134.5612191228
 20
103.8098618184
 30
0.0
  0
SPLINE
  5
51A
100
AcDbEntity
  8
00_COMPONENTS
100
AcDbSpline
 62
7
  6
CONTINUOUS
 70
0
 71
3
 72
11
 73
7
 74
0
 42
0.0000001
 43
0.0000001
 44
0.0000000001
 40
0.0
 40
0.0
 40
0.0
 40
0.0
 40
0.2179838645
 40
0.4502467154
 40
0.7091785748
 40
1.0
 40
1.0
 40
1.0
 40
1.0
 10
53.3624909544
 20
202.914114025
 30
0.0
 10
53.6265361835
 20
203.0874410036
 30
0.0
 10
54.242583879
 20
203.3472859294
 30
0.0
 10
55.2846582036
 20
203.4047512569
 30
0.0
 10
56.4006317372
 20
203.1513812493
 30
0.0
 10
57.1260039899
 20
202.8085404786
 30
0.0
 10
57.490941062
 20
202.5978487283
 30
0.0
  0
SPLINE
  5
51B
100
AcDbEntity
  8
00_COMPONENTS
100
AcDbSpline
 62
7
  6
CONTINUOUS
 70
0
 71
3
 72
11
 73
7
 74
0
 42
0.0000001
 43
0.0000001
 44
0.0000000001
 40
0.0
 40
0.0
 40
0.0
 40
0.0
 40
0.2372223142
 40
0.5000010921
 40
0.7627792757
 40
1.0
 40
1.0
 40
1.0
 40
1.0
 10
134.5612191228
 20
165.070873194
 30
0.0
 10
134.5612191228
 20
165.9976834701
 30
0.0
 10
134.2140499827
 20
167.9524831952
 30
0.0
 10
133.0022138916
 20
170.6992706921
 30
0.0
 10
131.2293369046
 20
173.12213222
 30
0.0
 10
129.7100128238
 20
174.4001744101
 30
0.0
 10
128.90737242
 20
174.8635685799
 30
0.0
  0
SPLINE
  5
51C
100
AcDbEntity
  8
00_COMPONENTS
100
AcDbSpline
 62
7
  6
CONTINUOUS
 70
0
 71
3
 72
11
 73
7
 74
0
 42
0.0000001
 43
0.0000001
 44
0.0000000001
 40
0.0
 40
0.0
 40
0.0
 40
0.0
 40
0.2908214252
 40
0.5497532846
 40
0.7820161355
 40
1.0
 40
1.0
 40
1.0
 40
1.0
 10
68.4292865273
 20
209.779817839
 30
0.0
 10
68.0643494555
 20
209.9905095892
 30
0.0
 10
67.3389772031
 20
210.3333503594
 30
0.0
 10
66.22300367
 20
210.5867203663
 30
0.0
 10
65.180929346
 20
210.5292550386
 30
0.0
 10
64.5648816509
 20
210.2694101128
 30
0.0
 10
64.300836422
 20
210.0960831342
 30
0.0
  0
SPLINE
  5
51D
100
AcDbEntity
  8
00_COMPONENTS
100
AcDbSpline
 62
7
  6
CONTINUOUS
 70
0
 71
3
 72
9
 73
5
 74
0
 42
0.0000001
 43
0.0000001
 44
0.0000000001
 40
0.0
 40
0.0
 40
0.0
 40
0.0
 40
0.2396698797
 40
1.0
 40
1.0
 40
1.0
 40
1.0
 10
59.0348293798
 20
217.2775036394
 30
0.0
 10
59.0348293798
 20
217.2158533195
 30
0.0
 10
59.0416786102
 20
216.958638283
 30
0.0
 10
59.0740738116
 20
216.702359378
 30
0.0
 10
59.1101194108
 20
216.510129864
 30
0.0
  0
SPLINE
  5
51E
100
AcDbEntity
  8
00_COMPONENTS
100
AcDbSpline
 62
7
  6
CONTINUOUS
 70
0
 71
3
 72
15
 73
11
 74
0
 42
0.0000001
 43
0.0000001
 44
0.0000000001
 40
0.0
 40
0.0
 40
0.0
 40
0.0
 40
0.1396331021
 40
0.2862652923
 40
0.4333705911
 40
0.5741966862
 40
0.7029680131
 40
0.8159886603
 40
0.9132171173
 40
1.0
 40
1.0
 40
1.0
 40
1.0
 10
59.1101194108
 20
216.510129864
 30
0.0
 10
59.1675706679
 20
216.2037449665
 30
0.0
 10
59.345886203
 20
215.5861412459
 30
0.0
 10
59.7585711692
 20
214.7073088464
 30
0.0
 10
60.2992812733
 20
213.8972506788
 30
0.0
 10
60.9325454964
 20
213.2101205048
 30
0.0
 10
61.6173930478
 20
212.6905646839
 30
0.0
 10
62.3131974046
 20
212.3731403838
 30
0.0
 10
62.9835177447
 20
212.283459483
 30
0.0
 10
63.393613893
 20
212.4022801298
 30
0.0
 10
63.5614007646
 20
212.4991427344
 30
0.0
  0
SPLINE
  5
51F
100
AcDbEntity
  8
00_COMPONENTS
100
AcDbSpline
 62
7
  6
CONTINUOUS
 70
0
 71
3
 72
9
 73
5
 74
0
 42
0.0000001
 43
0.0000001
 44
0.0000000001
 40
0.0
 40
0.0
 40
0.0
 40
0.0
 40
0.2396698797
 40
1.0
 40
1.0
 40
1.0
 40
1.0
 10
133.7056163553
 20
174.1672799621
 30
0.0
 10
133.7056163553
 20
174.1056296421
 30
0.0
 10
133.7124655857
 20
173.8484146056
 30
0.0
 10
133.7448607871
 20
173.5921357007
 30
0.0
 10
133.7809063863
 20
173.3999061866
 30
0.0
  0
SPLINE
  5
520
100
AcDbEntity
  8
00_COMPONENTS
100
AcDbSpline
 62
7
  6
CONTINUOUS
 70
0
 71
3
 72
15
 73
11
 74
0
 42
0.0000001
 43
0.0000001
 44
0.0000000001
 40
0.0
 40
0.0
 40
0.0
 40
0.0
 40
0.1396331021
 40
0.2862652923
 40
0.4333705911
 40
0.5741966862
 40
0.7029680131
 40
0.8159886603
 40
0.9132171173
 40
1.0
 40
1.0
 40
1.0
 40
1.0
 10
133.7809063863
 20
173.3999061866
 30
0.0
 10
133.8383576434
 20
173.0935212892
 30
0.0
 10
134.0166731785
 20
172.4759175686
 30
0.0
 10
134.4293581448
 20
171.5970851691
 30
0.0
 10
134.9700682488
 20
170.7870270015
 30
0.0
 10
135.6033324719
 20
170.0998968275
 30
0.0
 10
136.2881800233
 20
169.5803410066
 30
0.0
 10
136.9839843801
 20
169.2629167065
 30
0.0
 10
137.6543047202
 20
169.1732358057
 30
0.0
 10
138.0644008686
 20
169.2920564524
 30
0.0
 10
138.2321877401
 20
169.3889190571
 30
0.0
  0
SPLINE
  5
521
100
AcDbEntity
  8
00_COMPONENTS
100
AcDbSpline
 62
7
  6
CONTINUOUS
 70
0
 71
3
 72
9
 73
5
 74
0
 42
0.0000001
 43
0.0000001
 44
0.0000000001
 40
0.0
 40
0.0
 40
0.0
 40
0.0
 40
0.2396698797
 40
1.0
 40
1.0
 40
1.0
 40
1.0
 10
133.7056163553
 20
91.7821860737
 30
0.0
 10
133.7056163553
 20
91.7205357538
 30
0.0
 10
133.7124655857
 20
91.4633207172
 30
0.0
 10
133.7448607871
 20
91.2070418123
 30
0.0
 10
133.7809063863
 20
91.0148122983
 30
0.0
  0
SPLINE
  5
522
100
AcDbEntity
  8
00_COMPONENTS
100
AcDbSpline
 62
7
  6
CONTINUOUS
 70
0
 71
3
 72
15
 73
11
 74
0
 42
0.0000001
 43
0.0000001
 44
0.0000000001
 40
0.0
 40
0.0
 40
0.0
 40
0.0
 40
0.1396331021
 40
0.2862652923
 40
0.4333705911
 40
0.5741966862
 40
0.7029680131
 40
0.8159886603
 40
0.9132171173
 40
1.0
 40
1.0
 40
1.0
 40
1.0
 10
133.7809063863
 20
91.0148122983
 30
0.0
 10
133.8383576434
 20
90.7084274008
 30
0.0
 10
134.0166731785
 20
90.0908236802
 30
0.0
 10
134.4293581448
 20
89.2119912807
 30
0.0
 10
134.9700682488
 20
88.4019331131
 30
0.0
 10
135.6033324719
 20
87.7148029391
 30
0.0
 10
136.2881800233
 20
87.1952471182
 30
0.0
 10
136.9839843801
 20
86.8778228181
 30
0.0
 10
137.6543047202
 20
86.7881419173
 30
0.0
 10
138.0644008686
 20
86.9069625641
 30
0.0
 10
138.2321877401
 20
87.0038251687
 30
0.0
  0
SPLINE
  5
523
100
AcDbEntity
  8
00_COMPONENTS
100
AcDbSpline
 62
7
  6
CONTINUOUS
 70
0
 71
3
 72
11
 73
7
 74
0
 42
0.0000001
 43
0.0000001
 44
0.0000000001
 40
0.0
 40
0.0
 40
0.0
 40
0.0
 40
0.2372207243
 40
0.4999989079
 40
0.7627776858
 40
1.0
 40
1.0
 40
1.0
 40
1.0
 10
117.2183950966
 20
168.1149671705
 30
0.0
 10
118.0210355003
 20
167.6515730006
 30
0.0
 10
119.5403595811
 20
166.3735308105
 30
0.0
 10
121.3132365681
 20
163.9506692826
 30
0.0
 10
122.5250726592
 20
161.2038817857
 30
0.0
 10
122.8722417994
 20
159.2490820607
 30
0.0
 10
122.8722417994
 20
158.3222717845
 30
0.0
  0
SPLINE
  5
524
100
AcDbEntity
  8
00_COMPONENTS
100
AcDbSpline
 62
7
  6
CONTINUOUS
 70
0
 71
3
 72
11
 73
7
 74
0
 42
0.0000001
 43
0.0000001
 44
0.0000000001
 40
0.0
 40
0.0
 40
0.0
 40
0.0
 40
0.2908224442
 40
0.5497546719
 40
0.7820171075
 40
1.0
 40
1.0
 40
1.0
 40
1.0
 10
122.8722417994
 20
97.9280180043
 30
0.0
 10
122.8722417994
 20
97.5066150239
 30
0.0
 10
122.806470293
 20
96.7069805496
 30
0.0
 10
122.4679084064
 20
95.6138016041
 30
0.0
 10
121.8970954805
 20
94.7400466228
 30
0.0
 10
121.3640262668
 20
94.3364471581
 30
0.0
 10
121.0818913541
 20
94.1944391831
 30
0.0
  0
SPLINE
  5
525
100
AcDbEntity
  8
00_COMPONENTS
100
AcDbSpline
 62
7
  6
CONTINUOUS
 70
0
 71
3
 72
11
 73
7
 74
0
 42
0.0000001
 43
0.0000001
 44
0.0000000001
 40
0.0
 40
0.0
 40
0.0
 40
0.0
 40
0.217774924
 40
0.4509311967
 40
0.710224778
 40
1.0
 40
1.0
 40
1.0
 40
1.0
 10
170.1873021166
 20
230.7994561566
 30
0.0
 10
170.4511794814
 20
230.9518049241
 30
0.0
 10
171.0575063778
 20
231.1719362452
 30
0.0
 10
172.0645040258
 20
231.1973340582
 30
0.0
 10
173.1378901693
 20
230.9383634188
 30
0.0
 10
173.8361333819
 20
230.606028315
 30
0.0
 10
174.1872548061
 20
230.4033128522
 30
0.0
  0
SPLINE
  5
526
100
AcDbEntity
  8
00_COMPONENTS
100
AcDbSpline
 62
7
  6
CONTINUOUS
 70
0
 71
3
 72
11
 73
7
 74
0
 42
0.0000001
 43
0.0000001
 44
0.0000000001
 40
0.0
 40
0.0
 40
0.0
 40
0.0
 40
0.2177833598
 40
0.4509104088
 40
0.7102966711
 40
1.0
 40
1.0
 40
1.0
 40
1.0
 10
45.9635096643
 20
104.1738415031
 30
0.0
 10
45.7985767026
 20
104.0786179521
 30
0.0
 10
45.4899939102
 20
103.8191930142
 30
0.0
 10
45.1614709547
 20
103.2820430232
 30
0.0
 10
44.9663476388
 20
102.6200745378
 30
0.0
 10
44.9279373717
 20
102.1382741237
 30
0.0
 10
44.9279373717
 20
101.8849334018
 30
0.0
  0
SPLINE
  5
527
100
AcDbEntity
  8
00_COMPONENTS
100
AcDbSpline
 62
7
  6
CONTINUOUS
 70
0
 71
3
 72
9
 73
5
 74
0
 42
0.0000001
 43
0.0000001
 44
0.0000000001
 40
0.0
 40
0.0
 40
0.0
 40
0.0
 40
0.2416921775
 40
1.0
 40
1.0
 40
1.0
 40
1.0
 10
119.3157132399
 20
231.5442543645
 30
0.0
 10
119.3157132399
 20
231.4377485129
 30
0.0
 10
119.3249165791
 20
230.9971010448
 30
0.0
 10
119.3691094506
 20
230.5574184304
 30
0.0
 10
119.4189981085
 20
230.227001982
 30
0.0
  0
SPLINE
  5
528
100
AcDbEntity
  8
00_COMPONENTS
100
AcDbSpline
 62
7
  6
CONTINUOUS
 70
0
 71
3
 72
16
 73
12
 74
0
 42
0.0000001
 43
0.0000001
 44
0.0000000001
 40
0.0
 40
0.0
 40
0.0
 40
0.0
 40
0.0431343341
 40
0.0875638962
 40
0.1841174694
 40
0.2953610313
 40
0.4218421429
 40
0.560792218
 40
0.707407042
 40
0.8558449962
 40
1.0
 40
1.0
 40
1.0
 40
1.0
 10
177.0997578013
 20
235.483170864
 30
0.0
 10
177.2791389363
 20
235.5866957651
 30
0.0
 10
177.6675483124
 20
235.7575101651
 30
0.0
 10
178.5391324662
 20
235.9363036212
 30
0.0
 10
179.7713269925
 20
235.8177930152
 30
0.0
 10
181.2701188893
 20
235.2016722894
 30
0.0
 10
182.764831239
 20
234.1631520868
 30
0.0
 10
184.1738447155
 20
232.7622244642
 30
0.0
 10
185.417682054
 20
231.0809467417
 30
0.0
 10
186.4223021785
 20
229.2192274394
 30
0.0
 10
186.9069128656
 20
227.8936373673
 30
0.0
 10
187.0902151744
 20
227.2261844991
 30
0.0
  0
SPLINE
  5
529
100
AcDbEntity
  8
00_COMPONENTS
100
AcDbSpline
 62
7
  6
CONTINUOUS
 70
0
 71
3
 72
11
 73
7
 74
0
 42
0.0000001
 43
0.0000001
 44
0.0000000001
 40
0.0
 40
0.0
 40
0.0
 40
0.0
 40
0.217774924
 40
0.4509311967
 40
0.710224778
 40
1.0
 40
1.0
 40
1.0
 40
1.0
 10
178.4553956119
 20
236.7277039947
 30
0.0
 10
178.7522576473
 20
236.8990963582
 30
0.0
 10
179.4343754057
 20
237.1467440944
 30
0.0
 10
180.5672477597
 20
237.1753166341
 30
0.0
 10
181.7748071712
 20
236.8839746647
 30
0.0
 10
182.5603307853
 20
236.510097673
 30
0.0
 10
182.9553423875
 20
236.2820427774
 30
0.0
  0
SPLINE
  5
52A
100
AcDbEntity
  8
00_COMPONENTS
100
AcDbSpline
 62
7
  6
CONTINUOUS
 70
0
 71
3
 72
12
 73
8
 74
0
 42
0.0000001
 43
0.0000001
 44
0.0000000001
 40
0.0
 40
0.0
 40
0.0
 40
0.0
 40
0.2572911739
 40
0.5392702131
 40
0.6747043282
 40
0.7987559922
 40
1.0
 40
1.0
 40
1.0
 40
1.0
 10
89.5819106268
 20
221.8501937027
 30
0.0
 10
89.5819106268
 20
221.4053544358
 30
0.0
 10
89.8005786853
 20
220.474248058
 30
0.0
 10
90.3867945705
 20
219.4493809608
 30
0.0
 10
91.0269418101
 20
218.7580383917
 30
0.0
 10
91.6576087485
 20
218.2759951259
 30
0.0
 10
92.2257224352
 20
218.0660159867
 30
0.0
 10
92.5730038472
 20
218.0873723726
 30
0.0
  0
SPLINE
  5
52B
100
AcDbEntity
  8
00_COMPONENTS
100
AcDbSpline
 62
7
  6
CONTINUOUS
 70
0
 71
3
 72
11
 73
7
 74
0
 42
0.0000001
 43
0.0000001
 44
0.0000000001
 40
0.0
 40
0.0
 40
0.0
 40
0.0
 40
0.2177660095
 40
0.4508968553
 40
0.7103699668
 40
1.0
 40
1.0
 40
1.0
 40
1.0
 10
130.8167168966
 20
204.6048243161
 30
0.0
 10
130.6518354482
 20
204.5095431857
 30
0.0
 10
130.3430862588
 20
204.2503726138
 30
0.0
 10
130.0146075992
 20
203.7130515663
 30
0.0
 10
129.8196040296
 20
203.0510640362
 30
0.0
 10
129.7811043894
 20
202.5692609757
 30
0.0
 10
129.7811043894
 20
202.315985194
 30
0.0
  0
SPLINE
  5
52C
100
AcDbEntity
  8
00_COMPONENTS
100
AcDbSpline
 62
7
  6
CONTINUOUS
 70
0
 71
3
 72
15
 73
11
 74
0
 42
0.0000001
 43
0.0000001
 44
0.0000000001
 40
0.0
 40
0.0
 40
0.0
 40
0.0
 40
0.0919021921
 40
0.1987577122
 40
0.3212149801
 40
0.4560685489
 40
0.597840869
 40
0.7400005625
 40
0.8759306266
 40
1.0
 40
1.0
 40
1.0
 40
1.0
 10
136.7527427545
 20
192.008933107
 30
0.0
 10
136.2394670444
 20
191.9310379953
 30
0.0
 10
135.08867299
 20
192.0150811909
 30
0.0
 10
133.3937498453
 20
192.7150753895
 30
0.0
 10
131.7084806253
 20
193.9199252105
 30
0.0
 10
130.1376339645
 20
195.5517465022
 30
0.0
 10
128.7815725464
 20
197.5014687449
 30
0.0
 10
127.7318493086
 20
199.6389491525
 30
0.0
 10
127.0588537098
 20
201.8184982594
 30
0.0
 10
126.8819545163
 20
203.2889080541
 30
0.0
 10
126.8819545163
 20
203.9897722876
 30
0.0
  0
SPLINE
  5
52D
100
AcDbEntity
  8
00_COMPONENTS
100
AcDbSpline
 62
7
  6
CONTINUOUS
 70
0
 71
3
 72
11
 73
7
 74
0
 42
0.0000001
 43
0.0000001
 44
0.0000000001
 40
0.0
 40
0.0
 40
0.0
 40
0.0
 40
0.2177833598
 40
0.4509104088
 40
0.7102966711
 40
1.0
 40
1.0
 40
1.0
 40
1.0
 10
74.2478986702
 20
87.8442113223
 30
0.0
 10
74.0829657084
 20
87.7489877713
 30
0.0
 10
73.7743829161
 20
87.4895628334
 30
0.0
 10
73.4458599605
 20
86.9524128424
 30
0.0
 10
73.2507366446
 20
86.290444357
 30
0.0
 10
73.2123263776
 20
85.8086439428
 30
0.0
 10
73.2123263776
 20
85.555303221
 30
0.0
  0
SPLINE
  5
52E
100
AcDbEntity
  8
00_COMPONENTS
100
AcDbSpline
 62
7
  6
CONTINUOUS
 70
0
 71
3
 72
11
 73
7
 74
0
 42
0.0000001
 43
0.0000001
 44
0.0000000001
 40
0.0
 40
0.0
 40
0.0
 40
0.0
 40
0.217855615
 40
0.4509836771
 40
0.7102468026
 40
1.0
 40
1.0
 40
1.0
 40
1.0
 10
149.2984678484
 20
218.9683863206
 30
0.0
 10
149.0279140377
 20
218.8121165214
 30
0.0
 10
148.5215417248
 20
218.3868191659
 30
0.0
 10
147.9831620057
 20
217.5056848244
 30
0.0
 10
147.6628854044
 20
216.4202808074
 30
0.0
 10
147.6001022458
 20
215.6301787163
 30
0.0
 10
147.6001022458
 20
215.2146241837
 30
0.0
  0
SPLINE
  5
52F
100
AcDbEntity
  8
00_COMPONENTS
100
AcDbSpline
 62
7
  6
CONTINUOUS
 70
0
 71
3
 72
11
 73
7
 74
0
 42
0.0000001
 43
0.0000001
 44
0.0000000001
 40
0.0
 40
0.0
 40
0.0
 40
0.0
 40
0.2848872461
 40
0.5446765397
 40
0.7810580879
 40
1.0
 40
1.0
 40
1.0
 40
1.0
 10
98.5975655104
 20
220.3194024684
 30
0.0
 10
98.5975655104
 20
220.712157486
 30
0.0
 10
98.648932853
 20
221.4647629878
 30
0.0
 10
98.9038007407
 20
222.5173174702
 30
0.0
 10
99.3305659735
 20
223.4149266643
 30
0.0
 10
99.7375899238
 20
223.9043471019
 30
0.0
 10
99.9618402288
 20
224.1063855701
 30
0.0
  0
SPLINE
  5
530
100
AcDbEntity
  8
00_COMPONENTS
100
AcDbSpline
 62
7
  6
CONTINUOUS
 70
0
 71
3
 72
16
 73
12
 74
0
 42
0.0000001
 43
0.0000001
 44
0.0000000001
 40
0.0
 40
0.0
 40
0.0
 40
0.0
 40
0.128744776
 40
0.2703971998
 40
0.4176131979
 40
0.5620174334
 40
0.6957476677
 40
0.8130627022
 40
0.912470568
 40
0.9571203641
 40
1.0
 40
1.0
 40
1.0
 40
1.0
 10
101.4967153835
 20
218.6456153749
 30
0.0
 10
101.4967153835
 20
218.218240823
 30
0.0
 10
101.6162871838
 20
217.3196197315
 30
0.0
 10
102.0624883641
 20
216.0002014638
 30
0.0
 10
102.7502651004
 20
214.7291664814
 30
0.0
 10
103.6235511886
 20
213.6108539193
 30
0.0
 10
104.6135673197
 20
212.7351509559
 30
0.0
 10
105.6435295324
 20
212.1701871386
 30
0.0
 10
106.5178692335
 20
211.9994556785
 30
0.0
 10
107.1372040704
 20
212.0902336652
 30
0.0
 10
107.4089572694
 20
212.203149544
 30
0.0
 10
107.5322001278
 20
212.2743687076
 30
0.0
  0
SPLINE
  5
531
100
AcDbEntity
  8
00_COMPONENTS
100
AcDbSpline
 62
7
  6
CONTINUOUS
 70
0
 71
3
 72
11
 73
7
 74
0
 42
0.0000001
 43
0.0000001
 44
0.0000000001
 40
0.0
 40
0.0
 40
0.0
 40
0.0
 40
0.2177239861
 40
0.4508730345
 40
0.7104683317
 40
1.0
 40
1.0
 40
1.0
 40
1.0
 10
118.4566308136
 20
206.8251455089
 30
0.0
 10
118.3626440602
 20
206.7708873798
 30
0.0
 10
118.1866429968
 20
206.623191311
 30
0.0
 10
117.9993509072
 20
206.3168899052
 30
0.0
 10
117.888338672
 20
205.9394997651
 30
0.0
 10
117.8662996327
 20
205.6648798636
 30
0.0
 10
117.8662996327
 20
205.5205635219
 30
0.0
  0
SPLINE
  5
532
100
AcDbEntity
  8
00_COMPONENTS
100
AcDbSpline
 62
7
  6
CONTINUOUS
 70
0
 71
3
 72
11
 73
7
 74
0
 42
0.0000001
 43
0.0000001
 44
0.0000000001
 40
0.0
 40
0.0
 40
0.0
 40
0.0
 40
0.217774924
 40
0.4509311967
 40
0.710224778
 40
1.0
 40
1.0
 40
1.0
 40
1.0
 10
141.9029131107
 20
247.1290863374
 30
0.0
 10
142.1667904755
 20
247.2814351049
 30
0.0
 10
142.7731173719
 20
247.501566426
 30
0.0
 10
143.7801150199
 20
247.526964239
 30
0.0
 10
144.8535011634
 20
247.2679935996
 30
0.0
 10
145.551744376
 20
246.9356584958
 30
0.0
 10
145.9028658002
 20
246.7329430331
 30
0.0
  0
SPLINE
  5
533
100
AcDbEntity
  8
00_COMPONENTS
100
AcDbSpline
 62
7
  6
CONTINUOUS
 70
0
 71
3
 72
11
 73
7
 74
0
 42
0.0000001
 43
0.0000001
 44
0.0000000001
 40
0.0
 40
0.0
 40
0.0
 40
0.0
 40
0.2201189527
 40
0.457697894
 40
0.7172795409
 40
1.0
 40
1.0
 40
1.0
 40
1.0
 10
80.4273164226
 20
75.3940972
 30
0.0
 10
80.153104709
 20
75.3280939672
 30
0.0
 10
79.5632984201
 20
75.2653413619
 30
0.0
 10
78.644618375
 20
75.3739371104
 30
0.0
 10
77.6866951069
 20
75.6747815641
 30
0.0
 10
77.0615998092
 20
75.9844526906
 30
0.0
 10
76.7478750033
 20
76.1655776942
 30
0.0
  0
SPLINE
  5
534
100
AcDbEntity
  8
00_COMPONENTS
100
AcDbSpline
 62
7
  6
CONTINUOUS
 70
0
 71
3
 72
16
 73
12
 74
0
 42
0.0000001
 43
0.0000001
 44
0.0000000001
 40
0.0
 40
0.0
 40
0.0
 40
0.0
 40
0.0431343341
 40
0.0875638962
 40
0.1841174694
 40
0.2953610313
 40
0.4218421429
 40
0.560792218
 40
0.707407042
 40
0.8558449962
 40
1.0
 40
1.0
 40
1.0
 40
1.0
 10
148.8153687954
 20
251.8128010448
 30
0.0
 10
148.9947499304
 20
251.9163259459
 30
0.0
 10
149.3831593066
 20
252.0871403459
 30
0.0
 10
150.2547434603
 20
252.2659338021
 30
0.0
 10
151.4869379866
 20
252.147423196
 30
0.0
 10
152.9857298834
 20
251.5313024702
 30
0.0
 10
154.4804422331
 20
250.4927822676
 30
0.0
 10
155.8894557096
 20
249.091854645
 30
0.0
 10
157.1332930481
 20
247.4105769225
 30
0.0
 10
158.1379131727
 20
245.5488576202
 30
0.0
 10
158.6225238597
 20
244.2232675481
 30
0.0
 10
158.8058261685
 20
243.5558146799
 30
0.0
  0
SPLINE
  5
535
100
AcDbEntity
  8
00_COMPONENTS
100
AcDbSpline
 62
7
  6
CONTINUOUS
 70
0
 71
3
 72
11
 73
7
 74
0
 42
0.0000001
 43
0.0000001
 44
0.0000000001
 40
0.0
 40
0.0
 40
0.0
 40
0.0
 40
0.217774924
 40
0.4509311967
 40
0.710224778
 40
1.0
 40
1.0
 40
1.0
 40
1.0
 10
150.171006606
 20
253.0573341756
 30
0.0
 10
150.4678686414
 20
253.228726539
 30
0.0
 10
151.1499863998
 20
253.4763742752
 30
0.0
 10
152.2828587538
 20
253.5049468149
 30
0.0
 10
153.4904181653
 20
253.2136048455
 30
0.0
 10
154.2759417794
 20
252.8397278538
 30
0.0
 10
154.6709533816
 20
252.6116729582
 30
0.0
  0
SPLINE
  5
536
100
AcDbEntity
  8
00_COMPONENTS
100
AcDbSpline
 62
7
  6
CONTINUOUS
 70
0
 71
3
 72
11
 73
7
 74
0
 42
0.0000001
 43
0.0000001
 44
0.0000000001
 40
0.0
 40
0.0
 40
0.0
 40
0.0
 40
0.2564783825
 40
0.518484658
 40
0.7707740772
 40
1.0
 40
1.0
 40
1.0
 40
1.0
 10
161.6403661882
 20
245.1934814038
 30
0.0
 10
161.3990251576
 20
246.0294920983
 30
0.0
 10
160.74584494
 20
247.674717378
 30
0.0
 10
159.3794154554
 20
249.9182908547
 30
0.0
 10
157.7115294094
 20
251.8270643511
 30
0.0
 10
156.4051123993
 20
252.8352006962
 30
0.0
 10
155.7316091374
 20
253.224039189
 30
0.0
  0
SPLINE
  5
537
100
AcDbEntity
  8
00_COMPONENTS
100
AcDbSpline
 62
7
  6
CONTINUOUS
 70
0
 71
3
 72
11
 73
7
 74
0
 42
0.0000001
 43
0.0000001
 44
0.0000000001
 40
0.0
 40
0.0
 40
0.0
 40
0.0
 40
0.289775222
 40
0.5490688033
 40
0.782225076
 40
1.0
 40
1.0
 40
1.0
 40
1.0
 10
155.7316091374
 20
253.224039189
 30
0.0
 10
155.3365975352
 20
253.4520940846
 30
0.0
 10
154.5510739211
 20
253.8259710763
 30
0.0
 10
153.3435145097
 20
254.1173130457
 30
0.0
 10
152.2106421556
 20
254.088740506
 30
0.0
 10
151.5285243972
 20
253.8410927698
 30
0.0
 10
151.2316623618
 20
253.6697004064
 30
0.0
  0
SPLINE
  5
538
100
AcDbEntity
  8
00_COMPONENTS
100
AcDbSpline
 62
7
  6
CONTINUOUS
 70
0
 71
3
 72
11
 73
7
 74
0
 42
0.0000001
 43
0.0000001
 44
0.0000000001
 40
0.0
 40
0.0
 40
0.0
 40
0.0
 40
0.2177660095
 40
0.4508968553
 40
0.7103699668
 40
1.0
 40
1.0
 40
1.0
 40
1.0
 10
102.5323278907
 20
220.9344544969
 30
0.0
 10
102.3674464423
 20
220.8391733665
 30
0.0
 10
102.0586972529
 20
220.5800027946
 30
0.0
 10
101.7302185933
 20
220.0426817471
 30
0.0
 10
101.5352150238
 20
219.380694217
 30
0.0
 10
101.4967153835
 20
218.8988911566
 30
0.0
 10
101.4967153835
 20
218.6456153749
 30
0.0
  0
SPLINE
  5
539
100
AcDbEntity
  8
00_COMPONENTS
100
AcDbSpline
 62
7
  6
CONTINUOUS
 70
0
 71
3
 72
15
 73
11
 74
0
 42
0.0000001
 43
0.0000001
 44
0.0000000001
 40
0.0
 40
0.0
 40
0.0
 40
0.0
 40
0.0919021921
 40
0.1987577122
 40
0.3212149801
 40
0.4560685489
 40
0.597840869
 40
0.7400005625
 40
0.8759306266
 40
1.0
 40
1.0
 40
1.0
 40
1.0
 10
108.4683537487
 20
208.3385632878
 30
0.0
 10
107.9550780385
 20
208.2606681761
 30
0.0
 10
106.8042839842
 20
208.3447113717
 30
0.0
 10
105.1093608395
 20
209.0447055703
 30
0.0
 10
103.4240916194
 20
210.2495553914
 30
0.0
 10
101.8532449586
 20
211.881376683
 30
0.0
 10
100.4971835405
 20
213.8310989257
 30
0.0
 10
99.4474603027
 20
215.9685793333
 30
0.0
 10
98.7744647039
 20
218.1481284402
 30
0.0
 10
98.5975655104
 20
219.618538235
 30
0.0
 10
98.5975655104
 20
220.3194024684
 30
0.0
  0
SPLINE
  5
53A
100
AcDbEntity
  8
00_COMPONENTS
100
AcDbSpline
 62
7
  6
CONTINUOUS
 70
0
 71
3
 72
11
 73
7
 74
0
 42
0.0000001
 43
0.0000001
 44
0.0000000001
 40
0.0
 40
0.0
 40
0.0
 40
0.0
 40
0.2292259228
 40
0.481515342
 40
0.7435216175
 40
1.0
 40
1.0
 40
1.0
 40
1.0
 10
154.6709533816
 20
252.6116729582
 30
0.0
 10
155.3444566435
 20
252.2228344654
 30
0.0
 10
156.6508736536
 20
251.2146981202
 30
0.0
 10
158.3187596996
 20
249.3059246239
 30
0.0
 10
159.6851891842
 20
247.0623511472
 30
0.0
 10
160.3383694018
 20
245.4171258675
 30
0.0
 10
160.5797104324
 20
244.581115173
 30
0.0
  0
SPLINE
  5
53B
100
AcDbEntity
  8
00_COMPONENTS
100
AcDbSpline
 62
7
  6
CONTINUOUS
 70
0
 71
3
 72
11
 73
7
 74
0
 42
0.0000001
 43
0.0000001
 44
0.0000000001
 40
0.0
 40
0.0
 40
0.0
 40
0.0
 40
0.217855615
 40
0.4509836771
 40
0.7102468026
 40
1.0
 40
1.0
 40
1.0
 40
1.0
 10
121.0140788425
 20
235.2980165014
 30
0.0
 10
120.7435250318
 20
235.1417467022
 30
0.0
 10
120.2371527189
 20
234.7164493467
 30
0.0
 10
119.6987729998
 20
233.8353150053
 30
0.0
 10
119.3784963986
 20
232.7499109882
 30
0.0
 10
119.3157132399
 20
231.9598088971
 30
0.0
 10
119.3157132399
 20
231.5442543645
 30
0.0
  0
SPLINE
  5
53C
100
AcDbEntity
  8
00_COMPONENTS
100
AcDbSpline
 62
7
  6
CONTINUOUS
 70
0
 71
3
 72
11
 73
7
 74
0
 42
0.0000001
 43
0.0000001
 44
0.0000000001
 40
0.0
 40
0.0
 40
0.0
 40
0.0
 40
0.2201189527
 40
0.457697894
 40
0.7172795409
 40
1.0
 40
1.0
 40
1.0
 40
1.0
 10
52.1429274167
 20
91.7237273809
 30
0.0
 10
51.8687157031
 20
91.657724148
 30
0.0
 10
51.2789094142
 20
91.5949715427
 30
0.0
 10
50.3602293691
 20
91.7035672912
 30
0.0
 10
49.402306101
 20
92.0044117449
 30
0.0
 10
48.7772108034
 20
92.3140828715
 30
0.0
 10
48.4634859975
 20
92.495207875
 30
0.0
  0
SPLINE
  5
53D
100
AcDbEntity
  8
00_COMPONENTS
100
AcDbSpline
 62
7
  6
CONTINUOUS
 70
0
 71
3
 72
16
 73
12
 74
0
 42
0.0000001
 43
0.0000001
 44
0.0000000001
 40
0.0
 40
0.0
 40
0.0
 40
0.0
 40
0.1441592221
 40
0.2925952178
 40
0.4392078715
 40
0.5781566429
 40
0.7046358177
 40
0.8158773833
 40
0.9124316931
 40
0.9568628404
 40
1.0
 40
1.0
 40
1.0
 40
1.0
 10
160.3608887187
 20
244.4560195044
 30
0.0
 10
160.1774945163
 20
245.1233618335
 30
0.0
 10
159.6927631415
 20
246.4486932567
 30
0.0
 10
158.6880802631
 20
248.3100206879
 30
0.0
 10
157.4442837615
 20
249.9909092551
 30
0.0
 10
156.0353776049
 20
251.3914885868
 30
0.0
 10
154.540824566
 20
252.4297235161
 30
0.0
 10
153.0422261076
 20
253.0456282739
 30
0.0
 10
151.8102047645
 20
253.1640689211
 30
0.0
 10
150.9387409136
 20
252.9852351465
 30
0.0
 10
150.5503650602
 20
252.8144519558
 30
0.0
 10
150.3709980456
 20
252.7109368082
 30
0.0
  0
SPLINE
  5
53E
100
AcDbEntity
  8
00_COMPONENTS
100
AcDbSpline
 62
7
  6
CONTINUOUS
 70
0
 71
3
 72
15
 73
11
 74
0
 42
0.0000001
 43
0.0000001
 44
0.0000000001
 40
0.0
 40
0.0
 40
0.0
 40
0.0
 40
0.0919021921
 40
0.1987577122
 40
0.3212149801
 40
0.4560685489
 40
0.597840869
 40
0.7400005625
 40
0.8759306266
 40
1.0
 40
1.0
 40
1.0
 40
1.0
 10
51.8995757369
 20
240.9978236494
 30
0.0
 10
51.3863000268
 20
240.9199285377
 30
0.0
 10
50.2355059724
 20
241.0039717333
 30
0.0
 10
48.5405828277
 20
241.7039659319
 30
0.0
 10
46.8553136076
 20
242.908815753
 30
0.0
 10
45.2844669468
 20
244.5406370446
 30
0.0
 10
43.9284055287
 20
246.4903592873
 30
0.0
 10
42.878682291
 20
248.6278396949
 30
0.0
 10
42.2056866922
 20
250.8073888018
 30
0.0
 10
42.0287874986
 20
252.2777985966
 30
0.0
 10
42.0287874986
 20
252.97866283
 30
0.0
  0
SPLINE
  5
53F
100
AcDbEntity
  8
00_COMPONENTS
100
AcDbSpline
 62
7
  6
CONTINUOUS
 70
0
 71
3
 72
11
 73
7
 74
0
 42
0.0000001
 43
0.0000001
 44
0.0000000001
 40
0.0
 40
0.0
 40
0.0
 40
0.0
 40
0.2544045056
 40
0.5166368613
 40
0.7700846735
 40
1.0
 40
1.0
 40
1.0
 40
1.0
 10
158.4692789228
 20
243.3828142809
 30
0.0
 10
158.2734869412
 20
244.1585692153
 30
0.0
 10
157.70977364
 20
245.6947489612
 30
0.0
 10
156.4818127214
 20
247.7960085093
 30
0.0
 10
154.9526270239
 20
249.5895989673
 30
0.0
 10
153.7415210662
 20
250.5355070792
 30
0.0
 10
153.1153249398
 20
250.8970334025
 30
0.0
  0
SPLINE
  5
540
100
AcDbEntity
  8
00_COMPONENTS
100
AcDbSpline
 62
7
  6
CONTINUOUS
 70
0
 71
3
 72
11
 73
7
 74
0
 42
0.0000001
 43
0.0000001
 44
0.0000000001
 40
0.0
 40
0.0
 40
0.0
 40
0.0
 40
0.289775222
 40
0.5490688033
 40
0.782225076
 40
1.0
 40
1.0
 40
1.0
 40
1.0
 10
153.1153249398
 20
250.8970334025
 30
0.0
 10
152.7642035156
 20
251.0997488653
 30
0.0
 10
152.065960303
 20
251.4320839691
 30
0.0
 10
150.9925741595
 20
251.6910546085
 30
0.0
 10
149.9855765115
 20
251.6656567955
 30
0.0
 10
149.3792496151
 20
251.4455254744
 30
0.0
 10
149.1153722503
 20
251.2931767069
 30
0.0
  0
SPLINE
  5
541
100
AcDbEntity
  8
00_COMPONENTS
100
AcDbSpline
 62
7
  6
CONTINUOUS
 70
0
 71
3
 72
11
 73
7
 74
0
 42
0.0000001
 43
0.0000001
 44
0.0000000001
 40
0.0
 40
0.0
 40
0.0
 40
0.0
 40
0.2177239861
 40
0.4508730345
 40
0.7104683317
 40
1.0
 40
1.0
 40
1.0
 40
1.0
 10
90.1722418077
 20
223.1547756897
 30
0.0
 10
90.0782550544
 20
223.1005175607
 30
0.0
 10
89.9022539909
 20
222.9528214918
 30
0.0
 10
89.7149619014
 20
222.646520086
 30
0.0
 10
89.6039496661
 20
222.2691299459
 30
0.0
 10
89.5819106268
 20
221.9945100444
 30
0.0
 10
89.5819106268
 20
221.8501937027
 30
0.0
  0
SPLINE
  5
542
100
AcDbEntity
  8
00_COMPONENTS
100
AcDbSpline
 62
7
  6
CONTINUOUS
 70
0
 71
3
 72
11
 73
7
 74
0
 42
0.0000001
 43
0.0000001
 44
0.0000000001
 40
0.0
 40
0.0
 40
0.0
 40
0.0
 40
0.217774924
 40
0.4509311967
 40
0.710224778
 40
1.0
 40
1.0
 40
1.0
 40
1.0
 10
113.6185241049
 20
263.4587165182
 30
0.0
 10
113.8824014696
 20
263.6110652857
 30
0.0
 10
114.488728366
 20
263.8311966068
 30
0.0
 10
115.495726014
 20
263.8565944198
 30
0.0
 10
116.5691121575
 20
263.5976237804
 30
0.0
 10
117.2673553701
 20
263.2652886766
 30
0.0
 10
117.6184767943
 20
263.0625732139
 30
0.0
  0
SPLINE
  5
543
100
AcDbEntity
  8
00_COMPONENTS
100
AcDbSpline
 62
7
  6
CONTINUOUS
 70
0
 71
3
 72
11
 73
7
 74
0
 42
0.0000001
 43
0.0000001
 44
0.0000000001
 40
0.0
 40
0.0
 40
0.0
 40
0.0
 40
0.2299153265
 40
0.4833631387
 40
0.7455954944
 40
1.0
 40
1.0
 40
1.0
 40
1.0
 10
145.9028658002
 20
246.7329430331
 30
0.0
 10
146.5290619266
 20
246.3714167097
 30
0.0
 10
147.7401678843
 20
245.4255085978
 30
0.0
 10
149.2693535819
 20
243.6319181398
 30
0.0
 10
150.4973145004
 20
241.5306585917
 30
0.0
 10
151.0610278016
 20
239.9944788458
 30
0.0
 10
151.2568197832
 20
239.2187239114
 30
0.0
  0
SPLINE
  5
544
100
AcDbEntity
  8
00_COMPONENTS
100
AcDbSpline
 62
7
  6
CONTINUOUS
 70
0
 71
3
 72
16
 73
12
 74
0
 42
0.0000001
 43
0.0000001
 44
0.0000000001
 40
0.0
 40
0.0
 40
0.0
 40
0.0
 40
0.0431343341
 40
0.0875638962
 40
0.1841174694
 40
0.2953610313
 40
0.4218421429
 40
0.560792218
 40
0.707407042
 40
0.8558449962
 40
1.0
 40
1.0
 40
1.0
 40
1.0
 10
120.5309797895
 20
268.1424312256
 30
0.0
 10
120.7103609245
 20
268.2459561267
 30
0.0
 10
121.0987703007
 20
268.4167705267
 30
0.0
 10
121.9703544544
 20
268.5955639829
 30
0.0
 10
123.2025489807
 20
268.4770533768
 30
0.0
 10
124.7013408775
 20
267.860932651
 30
0.0
 10
126.1960532273
 20
266.8224124484
 30
0.0
 10
127.6050667037
 20
265.4214848258
 30
0.0
 10
128.8489040422
 20
263.7402071033
 30
0.0
 10
129.8535241668
 20
261.878487801
 30
0.0
 10
130.3381348539
 20
260.5528977289
 30
0.0
 10
130.5214371627
 20
259.8854448607
 30
0.0
  0
SPLINE
  5
545
100
AcDbEntity
  8
00_COMPONENTS
100
AcDbSpline
 62
7
  6
CONTINUOUS
 70
0
 71
3
 72
11
 73
7
 74
0
 42
0.0000001
 43
0.0000001
 44
0.0000000001
 40
0.0
 40
0.0
 40
0.0
 40
0.0
 40
0.217774924
 40
0.4509311967
 40
0.710224778
 40
1.0
 40
1.0
 40
1.0
 40
1.0
 10
121.8866176001
 20
269.3869643564
 30
0.0
 10
122.1834796355
 20
269.5583567198
 30
0.0
 10
122.8655973939
 20
269.806004456
 30
0.0
 10
123.998469748
 20
269.8345769957
 30
0.0
 10
125.2060291594
 20
269.5432350263
 30
0.0
 10
125.9915527735
 20
269.1693580346
 30
0.0
 10
126.3865643757
 20
268.941303139
 30
0.0
  0
SPLINE
  5
546
100
AcDbEntity
  8
00_COMPONENTS
100
AcDbSpline
 62
7
  6
CONTINUOUS
 70
0
 71
3
 72
11
 73
7
 74
0
 42
0.0000001
 43
0.0000001
 44
0.0000000001
 40
0.0
 40
0.0
 40
0.0
 40
0.0
 40
0.2177660095
 40
0.4508968553
 40
0.7103699668
 40
1.0
 40
1.0
 40
1.0
 40
1.0
 10
74.2479388848
 20
237.2640846777
 30
0.0
 10
74.0830574364
 20
237.1688035473
 30
0.0
 10
73.774308247
 20
236.9096329755
 30
0.0
 10
73.4458295874
 20
236.3723119279
 30
0.0
 10
73.2508260179
 20
235.7103243978
 30
0.0
 10
73.2123263776
 20
235.2285213374
 30
0.0
 10
73.2123263776
 20
234.9752455557
 30
0.0
  0
SPLINE
  5
547
100
AcDbEntity
  8
00_COMPONENTS
100
AcDbSpline
 62
7
  6
CONTINUOUS
 70
0
 71
3
 72
15
 73
11
 74
0
 42
0.0000001
 43
0.0000001
 44
0.0000000001
 40
0.0
 40
0.0
 40
0.0
 40
0.0
 40
0.0919021921
 40
0.1987577122
 40
0.3212149801
 40
0.4560685489
 40
0.597840869
 40
0.7400005625
 40
0.8759306266
 40
1.0
 40
1.0
 40
1.0
 40
1.0
 10
80.1839647428
 20
224.6681934686
 30
0.0
 10
79.6706890326
 20
224.5902983569
 30
0.0
 10
78.5198949783
 20
224.6743415525
 30
0.0
 10
76.8249718336
 20
225.3743357511
 30
0.0
 10
75.1397026135
 20
226.5791855722
 30
0.0
 10
73.5688559527
 20
228.2110068638
 30
0.0
 10
72.2127945346
 20
230.1607291065
 30
0.0
 10
71.1630712969
 20
232.2982095141
 30
0.0
 10
70.4900756981
 20
234.477758621
 30
0.0
 10
70.3131765045
 20
235.9481684158
 30
0.0
 10
70.3131765045
 20
236.6490326492
 30
0.0
  0
SPLINE
  5
548
100
AcDbEntity
  8
00_COMPONENTS
100
AcDbSpline
 62
7
  6
CONTINUOUS
 70
0
 71
3
 72
11
 73
7
 74
0
 42
0.0000001
 43
0.0000001
 44
0.0000000001
 40
0.0
 40
0.0
 40
0.0
 40
0.0
 40
0.217855615
 40
0.4509836771
 40
0.7102468026
 40
1.0
 40
1.0
 40
1.0
 40
1.0
 10
92.7296898366
 20
251.6276466822
 30
0.0
 10
92.4591360259
 20
251.4713768831
 30
0.0
 10
91.952763713
 20
251.0460795275
 30
0.0
 10
91.4143839939
 20
250.1649451861
 30
0.0
 10
91.0941073927
 20
249.079541169
 30
0.0
 10
91.031324234
 20
248.289439078
 30
0.0
 10
91.031324234
 20
247.8738845453
 30
0.0
  0
SPLINE
  5
549
100
AcDbEntity
  8
00_COMPONENTS
100
AcDbSpline
 62
7
  6
CONTINUOUS
 70
0
 71
3
 72
11
 73
7
 74
0
 42
0.0000001
 43
0.0000001
 44
0.0000000001
 40
0.0
 40
0.0
 40
0.0
 40
0.0
 40
0.2177833598
 40
0.4509104088
 40
0.7102966711
 40
1.0
 40
1.0
 40
1.0
 40
1.0
 10
102.5322876761
 20
71.5145811415
 30
0.0
 10
102.3673547143
 20
71.4193575905
 30
0.0
 10
102.0587719219
 20
71.1599326526
 30
0.0
 10
101.7302489664
 20
70.6227826616
 30
0.0
 10
101.5351256505
 20
69.9608141762
 30
0.0
 10
101.4967153835
 20
69.479013762
 30
0.0
 10
101.4967153835
 20
69.2256730401
 30
0.0
  0
SPLINE
  5
54A
100
AcDbEntity
  8
00_COMPONENTS
100
AcDbSpline
 62
7
  6
CONTINUOUS
 70
0
 71
3
 72
11
 73
7
 74
0
 42
0.0000001
 43
0.0000001
 44
0.0000000001
 40
0.0
 40
0.0
 40
0.0
 40
0.0
 40
0.2201189527
 40
0.457697894
 40
0.7172795409
 40
1.0
 40
1.0
 40
1.0
 40
1.0
 10
108.7117054284
 20
59.0644670192
 30
0.0
 10
108.4374937149
 20
58.9984637864
 30
0.0
 10
107.847687426
 20
58.9357111811
 30
0.0
 10
106.9290073808
 20
59.0443069295
 30
0.0
 10
105.9710841128
 20
59.3451513833
 30
0.0
 10
105.3459888151
 20
59.6548225098
 30
0.0
 10
105.0322640092
 20
59.8359475134
 30
0.0
  0
SPLINE
  5
54B
100
AcDbEntity
  8
00_COMPONENTS
100
AcDbSpline
 62
7
  6
CONTINUOUS
 70
0
 71
3
 72
12
 73
8
 74
0
 42
0.0000001
 43
0.0000001
 44
0.0000000001
 40
0.0
 40
0.0
 40
0.0
 40
0.0
 40
0.2573080926
 40
0.5392998951
 40
0.674734599
 40
0.7987805702
 40
1.0
 40
1.0
 40
1.0
 40
1.0
 10
61.2975216209
 20
238.1798238835
 30
0.0
 10
61.2975216209
 20
237.7348917516
 30
0.0
 10
61.5162731213
 20
236.8036028709
 30
0.0
 10
62.1026827714
 20
235.7785843694
 30
0.0
 10
62.7430337435
 20
235.0872227381
 30
0.0
 10
63.3738372702
 20
234.6052626505
 30
0.0
 10
63.942109056
 20
234.3954702564
 30
0.0
 10
64.2893839742
 20
234.4170492503
 30
0.0
  0
SPLINE
  5
54C
100
AcDbEntity
  8
00_COMPONENTS
100
AcDbSpline
 62
7
  6
CONTINUOUS
 70
0
 71
3
 72
9
 73
5
 74
0
 42
0.0000001
 43
0.0000001
 44
0.0000000001
 40
0.0
 40
0.0
 40
0.0
 40
0.0
 40
0.2416921775
 40
1.0
 40
1.0
 40
1.0
 40
1.0
 10
147.6001022458
 20
215.2146241837
 30
0.0
 10
147.6001022458
 20
215.1081183321
 30
0.0
 10
147.609305585
 20
214.667470864
 30
0.0
 10
147.6534984565
 20
214.2277882496
 30
0.0
 10
147.7033871144
 20
213.8973718011
 30
0.0
  0
SPLINE
  5
54D
100
AcDbEntity
  8
00_COMPONENTS
100
AcDbSpline
 62
7
  6
CONTINUOUS
 70
0
 71
3
 72
16
 73
12
 74
0
 42
0.0000001
 43
0.0000001
 44
0.0000000001
 40
0.0
 40
0.0
 40
0.0
 40
0.0
 40
0.0431343341
 40
0.0875638962
 40
0.1841174694
 40
0.2953610313
 40
0.4218421429
 40
0.560792218
 40
0.707407042
 40
0.8558449962
 40
1.0
 40
1.0
 40
1.0
 40
1.0
 10
92.2465907837
 20
284.4720614064
 30
0.0
 10
92.4259719186
 20
284.5755863076
 30
0.0
 10
92.8143812948
 20
284.7464007075
 30
0.0
 10
93.6859654485
 20
284.9251941637
 30
0.0
 10
94.9181599748
 20
284.8066835576
 30
0.0
 10
96.4169518717
 20
284.1905628318
 30
0.0
 10
97.9116642214
 20
283.1520426292
 30
0.0
 10
99.3206776979
 20
281.7511150066
 30
0.0
 10
100.5645150364
 20
280.0698372841
 30
0.0
 10
101.5691351609
 20
278.2081179818
 30
0.0
 10
102.053745848
 20
276.8825279097
 30
0.0
 10
102.2370481568
 20
276.2150750415
 30
0.0
  0
SPLINE
  5
54E
100
AcDbEntity
  8
00_COMPONENTS
100
AcDbSpline
 62
7
  6
CONTINUOUS
 70
0
 71
3
 72
9
 73
5
 74
0
 42
0.0000001
 43
0.0000001
 44
0.0000000001
 40
0.0
 40
0.0
 40
0.0
 40
0.0
 40
0.2335272279
 40
1.0
 40
1.0
 40
1.0
 40
1.0
 10
99.8704177734
 20
103.7638640717
 30
0.0
 10
99.8704177734
 20
103.8275062376
 30
0.0
 10
99.884409694
 20
104.0999919999
 30
0.0
 10
99.9474882771
 20
104.3687422113
 30
0.0
 10
100.0149359982
 20
104.5664367389
 30
0.0
  0
SPLINE
  5
54F
100
AcDbEntity
  8
00_COMPONENTS
100
AcDbSpline
 62
7
  6
CONTINUOUS
 70
0
 71
3
 72
9
 73
5
 74
0
 42
0.0000001
 43
0.0000001
 44
0.0000000001
 40
0.0
 40
0.0
 40
0.0
 40
0.0
 40
0.4999983279
 40
1.0
 40
1.0
 40
1.0
 40
1.0
 10
142.1555687389
 20
53.4270836918
 30
0.0
 10
142.3234717993
 20
53.5240219902
 30
0.0
 10
142.5887563191
 20
53.8301799879
 30
0.0
 10
142.7212518087
 20
54.213002187
 30
0.0
 10
142.7212518087
 20
54.4068809486
 30
0.0
  0
SPLINE
  5
550
100
AcDbEntity
  8
00_COMPONENTS
100
AcDbSpline
 62
7
  6
CONTINUOUS
 70
0
 71
3
 72
11
 73
7
 74
0
 42
0.0000001
 43
0.0000001
 44
0.0000000001
 40
0.0
 40
0.0
 40
0.0
 40
0.0
 40
0.229767626
 40
0.4922686692
 40
0.7590244933
 40
1.0
 40
1.0
 40
1.0
 40
1.0
 10
92.0096949874
 20
216.3199233587
 30
0.0
 10
91.4544787321
 20
216.5667412874
 30
0.0
 10
90.3809152613
 20
217.3534692413
 30
0.0
 10
89.1226062646
 20
218.9386250588
 30
0.0
 10
88.2471805048
 20
220.7965046853
 30
0.0
 10
87.9909137452
 20
222.1396566424
 30
0.0
 10
87.9909137452
 20
222.7769004245
 30
0.0
  0
SPLINE
  5
551
100
AcDbEntity
  8
00_COMPONENTS
100
AcDbSpline
 62
7
  6
CONTINUOUS
 70
0
 71
3
 72
11
 73
7
 74
0
 42
0.0000001
 43
0.0000001
 44
0.0000000001
 40
0.0
 40
0.0
 40
0.0
 40
0.0
 40
0.217751412
 40
0.4509002246
 40
0.710473164
 40
1.0
 40
1.0
 40
1.0
 40
1.0
 10
61.8878578726
 20
239.4843967329
 30
0.0
 10
61.793859675
 20
239.4301308449
 30
0.0
 10
61.6178328218
 20
239.2824411385
 30
0.0
 10
61.4305651393
 20
238.9761186148
 30
0.0
 10
61.3195476781
 20
238.5987469231
 30
0.0
 10
61.2975216209
 20
238.3241379762
 30
0.0
 10
61.2975216209
 20
238.1798238835
 30
0.0
  0
SPLINE
  5
552
100
AcDbEntity
  8
00_COMPONENTS
100
AcDbSpline
 62
7
  6
CONTINUOUS
 70
0
 71
3
 72
11
 73
7
 74
0
 42
0.0000001
 43
0.0000001
 44
0.0000000001
 40
0.0
 40
0.0
 40
0.0
 40
0.0
 40
0.229767626
 40
0.4922686692
 40
0.7590244933
 40
1.0
 40
1.0
 40
1.0
 40
1.0
 10
63.7253059815
 20
232.6495535396
 30
0.0
 10
63.1700897262
 20
232.8963714682
 30
0.0
 10
62.0965262554
 20
233.6830994221
 30
0.0
 10
60.8382172587
 20
235.2682552397
 30
0.0
 10
59.9627914989
 20
237.1261348661
 30
0.0
 10
59.7065247394
 20
238.4692868232
 30
0.0
 10
59.7065247394
 20
239.1065306054
 30
0.0
  0
SPLINE
  5
553
100
AcDbEntity
  8
00_COMPONENTS
100
AcDbSpline
 62
7
  6
CONTINUOUS
 70
0
 71
3
 72
11
 73
7
 74
0
 42
0.0000001
 43
0.0000001
 44
0.0000000001
 40
0.0
 40
0.0
 40
0.0
 40
0.0
 40
0.229767626
 40
0.4922686692
 40
0.7590244933
 40
1.0
 40
1.0
 40
1.0
 40
1.0
 10
120.2940839933
 20
199.9902931779
 30
0.0
 10
119.738867738
 20
200.2371111066
 30
0.0
 10
118.6653042671
 20
201.0238390604
 30
0.0
 10
117.4069952705
 20
202.608994878
 30
0.0
 10
116.5315695106
 20
204.4668745045
 30
0.0
 10
116.2753027511
 20
205.8100264616
 30
0.0
 10
116.2753027511
 20
206.4472702437
 30
0.0
  0
SPLINE
  5
554
100
AcDbEntity
  8
00_COMPONENTS
100
AcDbSpline
 62
7
  6
CONTINUOUS
 70
0
 71
3
 72
11
 73
7
 74
0
 42
0.0000001
 43
0.0000001
 44
0.0000000001
 40
0.0
 40
0.0
 40
0.0
 40
0.0
 40
0.2848872461
 40
0.5446765397
 40
0.7810580879
 40
1.0
 40
1.0
 40
1.0
 40
1.0
 10
126.8819545163
 20
203.9897722876
 30
0.0
 10
126.8819545163
 20
204.3825273052
 30
0.0
 10
126.9333218589
 20
205.135132807
 30
0.0
 10
127.1881897466
 20
206.1876872893
 30
0.0
 10
127.6149549794
 20
207.0852964834
 30
0.0
 10
128.0219789297
 20
207.5747169211
 30
0.0
 10
128.2462292346
 20
207.7767553893
 30
0.0
  0
SPLINE
  5
555
100
AcDbEntity
  8
00_COMPONENTS
100
AcDbSpline
 62
7
  6
CONTINUOUS
 70
0
 71
3
 72
16
 73
12
 74
0
 42
0.0000001
 43
0.0000001
 44
0.0000000001
 40
0.0
 40
0.0
 40
0.0
 40
0.0
 40
0.128744776
 40
0.2703971998
 40
0.4176131979
 40
0.5620174334
 40
0.6957476677
 40
0.8130627022
 40
0.912470568
 40
0.9571203641
 40
1.0
 40
1.0
 40
1.0
 40
1.0
 10
129.7811043894
 20
202.315985194
 30
0.0
 10
129.7811043894
 20
201.8886106422
 30
0.0
 10
129.9006761897
 20
200.9899895507
 30
0.0
 10
130.3468773699
 20
199.6705712829
 30
0.0
 10
131.0346541063
 20
198.3995363006
 30
0.0
 10
131.9079401945
 20
197.2812237385
 30
0.0
 10
132.8979563256
 20
196.4055207751
 30
0.0
 10
133.9279185383
 20
195.8405569578
 30
0.0
 10
134.8022582393
 20
195.6698254977
 30
0.0
 10
135.4215930763
 20
195.7606034844
 30
0.0
 10
135.6933462753
 20
195.8735193631
 30
0.0
 10
135.8165891336
 20
195.9447385268
 30
0.0
  0
SPLINE
  5
556
100
AcDbEntity
  8
00_COMPONENTS
100
AcDbSpline
 62
7
  6
CONTINUOUS
 70
0
 71
3
 72
11
 73
7
 74
0
 42
0.0000001
 43
0.0000001
 44
0.0000000001
 40
0.0
 40
0.0
 40
0.0
 40
0.0
 40
0.2299153265
 40
0.4833631387
 40
0.7455954944
 40
1.0
 40
1.0
 40
1.0
 40
1.0
 10
89.3340877884
 20
279.3922033947
 30
0.0
 10
89.9602839149
 20
279.0306770713
 30
0.0
 10
91.1713898725
 20
278.0847689594
 30
0.0
 10
92.7005755701
 20
276.2911785014
 30
0.0
 10
93.9285364886
 20
274.1899189533
 30
0.0
 10
94.4922497898
 20
272.6537392075
 30
0.0
 10
94.6880417714
 20
271.877984273
 30
0.0
  0
SPLINE
  5
557
100
AcDbEntity
  8
00_COMPONENTS
100
AcDbSpline
 62
7
  6
CONTINUOUS
 70
0
 71
3
 72
11
 73
7
 74
0
 42
0.0000001
 43
0.0000001
 44
0.0000000001
 40
0.0
 40
0.0
 40
0.0
 40
0.0
 40
0.289775222
 40
0.5490688033
 40
0.782225076
 40
1.0
 40
1.0
 40
1.0
 40
1.0
 10
96.546546928
 20
283.5562937642
 30
0.0
 10
96.1954255038
 20
283.7590092269
 30
0.0
 10
95.4971822912
 20
284.0913443307
 30
0.0
 10
94.4237961477
 20
284.3503149701
 30
0.0
 10
93.4167984997
 20
284.3249171571
 30
0.0
 10
92.8104716033
 20
284.104785836
 30
0.0
 10
92.5465942386
 20
283.9524370685
 30
0.0
  0
SPLINE
  5
558
100
AcDbEntity
  8
00_COMPONENTS
100
AcDbSpline
 62
7
  6
CONTINUOUS
 70
0
 71
3
 72
11
 73
7
 74
0
 42
0.0000001
 43
0.0000001
 44
0.0000000001
 40
0.0
 40
0.0
 40
0.0
 40
0.0
 40
0.2544045056
 40
0.5166368613
 40
0.7700846735
 40
1.0
 40
1.0
 40
1.0
 40
1.0
 10
101.900500911
 20
276.0420746425
 30
0.0
 10
101.7047089294
 20
276.8178295769
 30
0.0
 10
101.1409956282
 20
278.3540093228
 30
0.0
 10
99.9130347097
 20
280.4552688709
 30
0.0
 10
98.3838490121
 20
282.2488593289
 30
0.0
 10
97.1727430545
 20
283.1947674408
 30
0.0
 10
96.546546928
 20
283.5562937642
 30
0.0
  0
SPLINE
  5
559
100
AcDbEntity
  8
00_COMPONENTS
100
AcDbSpline
 62
7
  6
CONTINUOUS
 70
0
 71
3
 72
11
 73
7
 74
0
 42
0.0000001
 43
0.0000001
 44
0.0000000001
 40
0.0
 40
0.0
 40
0.0
 40
0.0
 40
0.2564783825
 40
0.518484658
 40
0.7707740772
 40
1.0
 40
1.0
 40
1.0
 40
1.0
 10
189.9247551941
 20
228.863851223
 30
0.0
 10
189.6834141635
 20
229.6998619175
 30
0.0
 10
189.0302339459
 20
231.3450871972
 30
0.0
 10
187.6638044613
 20
233.5886606739
 30
0.0
 10
185.9959184153
 20
235.4974341702
 30
0.0
 10
184.6895014052
 20
236.5055705154
 30
0.0
 10
184.0159981433
 20
236.8944090082
 30
0.0
  0
SPLINE
  5
55A
100
AcDbEntity
  8
00_COMPONENTS
100
AcDbSpline
 62
7
  6
CONTINUOUS
 70
0
 71
3
 72
11
 73
7
 74
0
 42
0.0000001
 43
0.0000001
 44
0.0000000001
 40
0.0
 40
0.0
 40
0.0
 40
0.0
 40
0.289775222
 40
0.5490688033
 40
0.782225076
 40
1.0
 40
1.0
 40
1.0
 40
1.0
 10
184.0159981433
 20
236.8944090082
 30
0.0
 10
183.6209865411
 20
237.1224639038
 30
0.0
 10
182.835462927
 20
237.4963408955
 30
0.0
 10
181.6279035155
 20
237.7876828649
 30
0.0
 10
180.4950311615
 20
237.7591103252
 30
0.0
 10
179.8129134031
 20
237.511462589
 30
0.0
 10
179.5160513677
 20
237.3400702255
 30
0.0
  0
SPLINE
  5
55B
100
AcDbEntity
  8
00_COMPONENTS
100
AcDbSpline
 62
7
  6
CONTINUOUS
 70
0
 71
3
 72
16
 73
12
 74
0
 42
0.0000001
 43
0.0000001
 44
0.0000000001
 40
0.0
 40
0.0
 40
0.0
 40
0.0
 40
0.1441592221
 40
0.2925952178
 40
0.4392078715
 40
0.5781566429
 40
0.7046358177
 40
0.8158773833
 40
0.9124316931
 40
0.9568628404
 40
1.0
 40
1.0
 40
1.0
 40
1.0
 10
103.7921107069
 20
277.1152798661
 30
0.0
 10
103.6087165045
 20
277.7826221952
 30
0.0
 10
103.1239851298
 20
279.1079536184
 30
0.0
 10
102.1193022514
 20
280.9692810496
 30
0.0
 10
100.8755057498
 20
282.6501696167
 30
0.0
 10
99.4665995931
 20
284.0507489484
 30
0.0
 10
97.9720465542
 20
285.0889838777
 30
0.0
 10
96.4734480958
 20
285.7048886355
 30
0.0
 10
95.2414267527
 20
285.8233292828
 30
0.0
 10
94.3699629018
 20
285.6444955081
 30
0.0
 10
93.9815870485
 20
285.4737123174
 30
0.0
 10
93.8022200339
 20
285.3701971699
 30
0.0
  0
SPLINE
  5
55C
100
AcDbEntity
  8
00_COMPONENTS
100
AcDbSpline
 62
7
  6
CONTINUOUS
 70
0
 71
3
 72
11
 73
7
 74
0
 42
0.0000001
 43
0.0000001
 44
0.0000000001
 40
0.0
 40
0.0
 40
0.0
 40
0.0
 40
0.2292259228
 40
0.481515342
 40
0.7435216175
 40
1.0
 40
1.0
 40
1.0
 40
1.0
 10
182.9553423875
 20
236.2820427774
 30
0.0
 10
183.6288456494
 20
235.8932042845
 30
0.0
 10
184.9352626595
 20
234.8850679394
 30
0.0
 10
186.6031487055
 20
232.9762944431
 30
0.0
 10
187.96957819
 20
230.7327209664
 30
0.0
 10
188.6227584077
 20
229.0874956867
 30
0.0
 10
188.8640994383
 20
228.2514849922
 30
0.0
  0
SPLINE
  5
55D
100
AcDbEntity
  8
00_COMPONENTS
100
AcDbSpline
 62
7
  6
CONTINUOUS
 70
0
 71
3
 72
11
 73
7
 74
0
 42
0.0000001
 43
0.0000001
 44
0.0000000001
 40
0.0
 40
0.0
 40
0.0
 40
0.0
 40
0.2292259228
 40
0.481515342
 40
0.7435216175
 40
1.0
 40
1.0
 40
1.0
 40
1.0
 10
98.1021753699
 20
285.2709333198
 30
0.0
 10
98.7756786317
 20
284.882094827
 30
0.0
 10
100.0820956419
 20
283.8739584819
 30
0.0
 10
101.7499816879
 20
281.9651849855
 30
0.0
 10
103.1164111724
 20
279.7216115088
 30
0.0
 10
103.76959139
 20
278.0763862291
 30
0.0
 10
104.0109324206
 20
277.2403755346
 30
0.0
  0
SPLINE
  5
55E
100
AcDbEntity
  8
00_COMPONENTS
100
AcDbSpline
 62
7
  6
CONTINUOUS
 70
0
 71
3
 72
16
 73
12
 74
0
 42
0.0000001
 43
0.0000001
 44
0.0000000001
 40
0.0
 40
0.0
 40
0.0
 40
0.0
 40
0.1441592221
 40
0.2925952178
 40
0.4392078715
 40
0.5781566429
 40
0.7046358177
 40
0.8158773833
 40
0.9124316931
 40
0.9568628404
 40
1.0
 40
1.0
 40
1.0
 40
1.0
 10
188.6452777245
 20
228.1263893236
 30
0.0
 10
188.4618835222
 20
228.7937316527
 30
0.0
 10
187.9771521474
 20
230.1190630759
 30
0.0
 10
186.972469269
 20
231.9803905071
 30
0.0
 10
185.7286727674
 20
233.6612790742
 30
0.0
 10
184.3197666108
 20
235.0618584059
 30
0.0
 10
182.8252135718
 20
236.1000933353
 30
0.0
 10
181.3266151134
 20
236.7159980931
 30
0.0
 10
180.0945937703
 20
236.8344387403
 30
0.0
 10
179.2231299195
 20
236.6556049657
 30
0.0
 10
178.8347540661
 20
236.484821775
 30
0.0
 10
178.6553870515
 20
236.3813066274
 30
0.0
  0
SPLINE
  5
55F
100
AcDbEntity
  8
00_COMPONENTS
100
AcDbSpline
 62
7
  6
CONTINUOUS
 70
0
 71
3
 72
11
 73
7
 74
0
 42
0.0000001
 43
0.0000001
 44
0.0000000001
 40
0.0
 40
0.0
 40
0.0
 40
0.0
 40
0.289775222
 40
0.5490688033
 40
0.782225076
 40
1.0
 40
1.0
 40
1.0
 40
1.0
 10
99.1628311257
 20
285.8832995506
 30
0.0
 10
98.7678195235
 20
286.1113544462
 30
0.0
 10
97.9822959093
 20
286.485231438
 30
0.0
 10
96.7747364979
 20
286.7765734073
 30
0.0
 10
95.6418641439
 20
286.7480008677
 30
0.0
 10
94.9597463854
 20
286.5003531315
 30
0.0
 10
94.6628843501
 20
286.328960768
 30
0.0
  0
SPLINE
  5
560
100
AcDbEntity
  8
00_COMPONENTS
100
AcDbSpline
 62
7
  6
CONTINUOUS
 70
0
 71
3
 72
11
 73
7
 74
0
 42
0.0000001
 43
0.0000001
 44
0.0000000001
 40
0.0
 40
0.0
 40
0.0
 40
0.0
 40
0.2564783825
 40
0.518484658
 40
0.7707740772
 40
1.0
 40
1.0
 40
1.0
 40
1.0
 10
105.0715881765
 20
277.8527417655
 30
0.0
 10
104.8302471459
 20
278.68875246
 30
0.0
 10
104.1770669282
 20
280.3339777396
 30
0.0
 10
102.8106374437
 20
282.5775512163
 30
0.0
 10
101.1427513977
 20
284.4863247127
 30
0.0
 10
99.8363343876
 20
285.4944610578
 30
0.0
 10
99.1628311257
 20
285.8832995506
 30
0.0
  0
SPLINE
  5
561
100
AcDbEntity
  8
00_COMPONENTS
100
AcDbSpline
 62
7
  6
CONTINUOUS
 70
0
 71
3
 72
11
 73
7
 74
0
 42
0.0000001
 43
0.0000001
 44
0.0000000001
 40
0.0
 40
0.0
 40
0.0
 40
0.0
 40
0.2544045056
 40
0.5166368613
 40
0.7700846735
 40
1.0
 40
1.0
 40
1.0
 40
1.0
 10
186.7536679287
 20
227.0531841001
 30
0.0
 10
186.5578759471
 20
227.8289390345
 30
0.0
 10
185.9941626458
 20
229.3651187804
 30
0.0
 10
184.7662017273
 20
231.4663783285
 30
0.0
 10
183.2370160298
 20
233.2599687865
 30
0.0
 10
182.0259100721
 20
234.2058768984
 30
0.0
 10
181.3997139456
 20
234.5674032217
 30
0.0
  0
SPLINE
  5
562
100
AcDbEntity
  8
00_COMPONENTS
100
AcDbSpline
 62
7
  6
CONTINUOUS
 70
0
 71
3
 72
11
 73
7
 74
0
 42
0.0000001
 43
0.0000001
 44
0.0000000001
 40
0.0
 40
0.0
 40
0.0
 40
0.0
 40
0.289775222
 40
0.5490688033
 40
0.782225076
 40
1.0
 40
1.0
 40
1.0
 40
1.0
 10
181.3997139456
 20
234.5674032217
 30
0.0
 10
181.0485925214
 20
234.7701186845
 30
0.0
 10
180.3503493089
 20
235.1024537883
 30
0.0
 10
179.2769631654
 20
235.3614244277
 30
0.0
 10
178.2699655174
 20
235.3360266146
 30
0.0
 10
177.663638621
 20
235.1158952936
 30
0.0
 10
177.3997612562
 20
234.9635465261
 30
0.0
  0
SPLINE
  5
563
100
AcDbEntity
  8
00_COMPONENTS
100
AcDbSpline
 62
7
  6
CONTINUOUS
 70
0
 71
3
 72
11
 73
7
 74
0
 42
0.0000001
 43
0.0000001
 44
0.0000000001
 40
0.0
 40
0.0
 40
0.0
 40
0.0
 40
0.2299153265
 40
0.4833631387
 40
0.7455954944
 40
1.0
 40
1.0
 40
1.0
 40
1.0
 10
174.1872548061
 20
230.4033128522
 30
0.0
 10
174.8134509325
 20
230.0417865289
 30
0.0
 10
176.0245568902
 20
229.095878417
 30
0.0
 10
177.5537425877
 20
227.302287959
 30
0.0
 10
178.7817035063
 20
225.2010284109
 30
0.0
 10
179.3454168075
 20
223.664848665
 30
0.0
 10
179.5412087891
 20
222.8890937306
 30
0.0
  0
SPLINE
  5
564
100
AcDbEntity
  8
00_COMPONENTS
100
AcDbSpline
 62
7
  6
CONTINUOUS
 70
0
 71
3
 72
9
 73
5
 74
0
 42
0.0000001
 43
0.0000001
 44
0.0000000001
 40
0.0
 40
0.0
 40
0.0
 40
0.0
 40
0.2595264955
 40
1.0
 40
1.0
 40
1.0
 40
1.0
 10
118.5418129478
 20
62.9457460366
 30
0.0
 10
118.607217443
 20
62.8407362496
 30
0.0
 10
118.874325448
 20
62.4459930545
 30
0.0
 10
119.2010677232
 20
62.089424473
 30
0.0
 10
119.474654173
 20
61.8663986569
 30
0.0
  0
SPLINE
  5
565
100
AcDbEntity
  8
00_COMPONENTS
100
AcDbSpline
 62
7
  6
CONTINUOUS
 70
0
 71
3
 72
11
 73
7
 74
0
 42
0.0000001
 43
0.0000001
 44
0.0000000001
 40
0.0
 40
0.0
 40
0.0
 40
0.0
 40
0.2372278993
 40
0.4999989081
 40
0.7627705112
 40
1.0
 40
1.0
 40
1.0
 40
1.0
 10
105.0322640092
 20
59.8359475134
 30
0.0
 10
104.1288019635
 20
60.3575497685
 30
0.0
 10
102.4190056009
 20
61.7964949842
 30
0.0
 10
100.4234864709
 20
64.5235187298
 30
0.0
 10
99.0595573646
 20
67.6152011154
 30
0.0
 10
98.6682764829
 20
69.8154068578
 30
0.0
 10
98.6682764829
 20
70.8586360582
 30
0.0
  0
SPLINE
  5
566
100
AcDbEntity
  8
00_COMPONENTS
100
AcDbSpline
 62
7
  6
CONTINUOUS
 70
0
 71
3
 72
9
 73
5
 74
0
 42
0.0000001
 43
0.0000001
 44
0.0000000001
 40
0.0
 40
0.0
 40
0.0
 40
0.0
 40
0.2749979211
 40
1.0
 40
1.0
 40
1.0
 40
1.0
 10
98.6682764829
 20
70.8586360582
 30
0.0
 10
98.6682764829
 20
71.1255973372
 30
0.0
 10
98.7135351121
 20
72.0935281993
 30
0.0
 10
98.9604555672
 20
73.0688370136
 30
0.0
 10
99.2997755335
 20
73.685454071
 30
0.0
  0
SPLINE
  5
567
100
AcDbEntity
  8
00_COMPONENTS
100
AcDbSpline
 62
7
  6
CONTINUOUS
 70
0
 71
3
 72
11
 73
7
 74
0
 42
0.0000001
 43
0.0000001
 44
0.0000000001
 40
0.0
 40
0.0
 40
0.0
 40
0.0
 40
0.2372413576
 40
0.5000010231
 40
0.762760128
 40
1.0
 40
1.0
 40
1.0
 40
1.0
 10
101.4967153835
 20
69.2256730401
 30
0.0
 10
101.4967153835
 20
68.6460724614
 30
0.0
 10
101.7141205833
 20
67.4237411733
 30
0.0
 10
102.4718203505
 20
65.7061571577
 30
0.0
 10
103.580446408
 20
64.1911857568
 30
0.0
 10
104.5303154882
 20
63.3917507396
 30
0.0
 10
105.0322640092
 20
63.1019571819
 30
0.0
  0
SPLINE
  5
568
100
AcDbEntity
  8
00_COMPONENTS
100
AcDbSpline
 62
7
  6
CONTINUOUS
 70
0
 71
3
 72
11
 73
7
 74
0
 42
0.0000001
 43
0.0000001
 44
0.0000000001
 40
0.0
 40
0.0
 40
0.0
 40
0.0
 40
0.289702329
 40
0.5490881649
 40
0.7822156415
 40
1.0
 40
1.0
 40
1.0
 40
1.0
 10
105.0322640092
 20
63.1019571819
 30
0.0
 10
105.2516581296
 20
62.975292793
 30
0.0
 10
105.6881037798
 20
62.7676670407
 30
0.0
 10
106.3589294287
 20
62.6056746656
 30
0.0
 10
106.9883601381
 20
62.6216117369
 30
0.0
 10
107.3673110327
 20
62.7591359511
 30
0.0
 10
107.5322403424
 20
62.8543573936
 30
0.0
  0
SPLINE
  5
569
100
AcDbEntity
  8
00_COMPONENTS
100
AcDbSpline
 62
7
  6
CONTINUOUS
 70
0
 71
3
 72
16
 73
12
 74
0
 42
0.0000001
 43
0.0000001
 44
0.0000000001
 40
0.0
 40
0.0
 40
0.0
 40
0.0
 40
0.128744776
 40
0.2703971998
 40
0.4176131979
 40
0.5620174334
 40
0.6957476677
 40
0.8130627022
 40
0.912470568
 40
0.9571203641
 40
1.0
 40
1.0
 40
1.0
 40
1.0
 10
44.9279373717
 20
251.3048757365
 30
0.0
 10
44.9279373717
 20
250.8775011846
 30
0.0
 10
45.047509172
 20
249.9788800932
 30
0.0
 10
45.4937103523
 20
248.6594618254
 30
0.0
 10
46.1814870887
 20
247.3884268431
 30
0.0
 10
47.0547731768
 20
246.2701142809
 30
0.0
 10
48.044789308
 20
245.3944113176
 30
0.0
 10
49.0747515206
 20
244.8294475002
 30
0.0
 10
49.9490912217
 20
244.6587160401
 30
0.0
 10
50.5684260586
 20
244.7494940268
 30
0.0
 10
50.8401792577
 20
244.8624099056
 30
0.0
 10
50.963422116
 20
244.9336290692
 30
0.0
  0
SPLINE
  5
56A
100
AcDbEntity
  8
00_COMPONENTS
100
AcDbSpline
 62
7
  6
CONTINUOUS
 70
0
 71
3
 72
11
 73
7
 74
0
 42
0.0000001
 43
0.0000001
 44
0.0000000001
 40
0.0
 40
0.0
 40
0.0
 40
0.0
 40
0.2848872461
 40
0.5446765397
 40
0.7810580879
 40
1.0
 40
1.0
 40
1.0
 40
1.0
 10
42.0287874986
 20
252.97866283
 30
0.0
 10
42.0287874986
 20
253.3714178476
 30
0.0
 10
42.0801548413
 20
254.1240233495
 30
0.0
 10
42.3350227289
 20
255.1765778318
 30
0.0
 10
42.7617879618
 20
256.0741870259
 30
0.0
 10
43.168811912
 20
256.5636074636
 30
0.0
 10
43.393062217
 20
256.7656459318
 30
0.0
  0
SPLINE
  5
56B
100
AcDbEntity
  8
00_COMPONENTS
100
AcDbSpline
 62
7
  6
CONTINUOUS
 70
0
 71
3
 72
11
 73
7
 74
0
 42
0.0000001
 43
0.0000001
 44
0.0000000001
 40
0.0
 40
0.0
 40
0.0
 40
0.0
 40
0.217774924
 40
0.4509311967
 40
0.710224778
 40
1.0
 40
1.0
 40
1.0
 40
1.0
 10
93.6022285942
 20
285.7165945372
 30
0.0
 10
93.8990906296
 20
285.8879869007
 30
0.0
 10
94.5812083881
 20
286.1356346368
 30
0.0
 10
95.7140807421
 20
286.1642071765
 30
0.0
 10
96.9216401535
 20
285.8728652071
 30
0.0
 10
97.7071637677
 20
285.4989882154
 30
0.0
 10
98.1021753699
 20
285.2709333198
 30
0.0
  0
SPLINE
  5
56C
100
AcDbEntity
  8
00_COMPONENTS
100
AcDbSpline
 62
7
  6
CONTINUOUS
 70
0
 71
3
 72
9
 73
5
 74
0
 42
0.0000001
 43
0.0000001
 44
0.0000000001
 40
0.0
 40
0.0
 40
0.0
 40
0.0
 40
0.2416921775
 40
1.0
 40
1.0
 40
1.0
 40
1.0
 10
62.7469352281
 20
264.2035147262
 30
0.0
 10
62.7469352281
 20
264.0970088746
 30
0.0
 10
62.7561385674
 20
263.6563614064
 30
0.0
 10
62.8003314389
 20
263.216678792
 30
0.0
 10
62.8502200967
 20
262.8862623436
 30
0.0
  0
SPLINE
  5
56D
100
AcDbEntity
  8
00_COMPONENTS
100
AcDbSpline
 62
7
  6
CONTINUOUS
 70
0
 71
3
 72
9
 73
5
 74
0
 42
0.0000001
 43
0.0000001
 44
0.0000000001
 40
0.0
 40
0.0
 40
0.0
 40
0.0
 40
0.2416921775
 40
1.0
 40
1.0
 40
1.0
 40
1.0
 10
91.031324234
 20
247.8738845453
 30
0.0
 10
91.031324234
 20
247.7673786938
 30
0.0
 10
91.0405275733
 20
247.3267312256
 30
0.0
 10
91.0847204447
 20
246.8870486112
 30
0.0
 10
91.1346091026
 20
246.5566321628
 30
0.0
  0
SPLINE
  5
56E
100
AcDbEntity
  8
00_COMPONENTS
100
AcDbSpline
 62
7
  6
CONTINUOUS
 70
0
 71
3
 72
11
 73
7
 74
0
 42
0.0000001
 43
0.0000001
 44
0.0000000001
 40
0.0
 40
0.0
 40
0.0
 40
0.0
 40
0.217855615
 40
0.4509836771
 40
0.7102468026
 40
1.0
 40
1.0
 40
1.0
 40
1.0
 10
64.4453008307
 20
267.9572768631
 30
0.0
 10
64.17474702
 20
267.8010070639
 30
0.0
 10
63.6683747071
 20
267.3757097083
 30
0.0
 10
63.129994988
 20
266.4945753669
 30
0.0
 10
62.8097183868
 20
265.4091713498
 30
0.0
 10
62.7469352281
 20
264.6190692588
 30
0.0
 10
62.7469352281
 20
264.2035147262
 30
0.0
  0
SPLINE
  5
56F
100
AcDbEntity
  8
00_COMPONENTS
100
AcDbSpline
 62
7
  6
CONTINUOUS
 70
0
 71
3
 72
9
 73
5
 74
0
 42
0.0000001
 43
0.0000001
 44
0.0000000001
 40
0.0
 40
0.0
 40
0.0
 40
0.0
 40
0.2595264955
 40
1.0
 40
1.0
 40
1.0
 40
1.0
 10
90.2574239419
 20
79.2753762174
 30
0.0
 10
90.3228284371
 20
79.1703664304
 30
0.0
 10
90.5899364421
 20
78.7756232353
 30
0.0
 10
90.9166787173
 20
78.4190546538
 30
0.0
 10
91.1902651672
 20
78.1960288377
 30
0.0
  0
SPLINE
  5
570
100
AcDbEntity
  8
00_COMPONENTS
100
AcDbSpline
 62
7
  6
CONTINUOUS
 70
0
 71
3
 72
11
 73
7
 74
0
 42
0.0000001
 43
0.0000001
 44
0.0000000001
 40
0.0
 40
0.0
 40
0.0
 40
0.0
 40
0.2372278993
 40
0.4999989081
 40
0.7627705112
 40
1.0
 40
1.0
 40
1.0
 40
1.0
 10
76.7478750033
 20
76.1655776942
 30
0.0
 10
75.8444129576
 20
76.6871799493
 30
0.0
 10
74.134616595
 20
78.126125165
 30
0.0
 10
72.139097465
 20
80.8531489106
 30
0.0
 10
70.7751683587
 20
83.9448312962
 30
0.0
 10
70.383887477
 20
86.1450370386
 30
0.0
 10
70.383887477
 20
87.188266239
 30
0.0
  0
SPLINE
  5
571
100
AcDbEntity
  8
00_COMPONENTS
100
AcDbSpline
 62
7
  6
CONTINUOUS
 70
0
 71
3
 72
9
 73
5
 74
0
 42
0.0000001
 43
0.0000001
 44
0.0000000001
 40
0.0
 40
0.0
 40
0.0
 40
0.0
 40
0.2749979211
 40
1.0
 40
1.0
 40
1.0
 40
1.0
 10
70.383887477
 20
87.188266239
 30
0.0
 10
70.383887477
 20
87.455227518
 30
0.0
 10
70.4291461062
 20
88.4231583802
 30
0.0
 10
70.6760665613
 20
89.3984671944
 30
0.0
 10
71.0153865276
 20
90.0150842518
 30
0.0
  0
SPLINE
  5
572
100
AcDbEntity
  8
00_COMPONENTS
100
AcDbSpline
 62
7
  6
CONTINUOUS
 70
0
 71
3
 72
11
 73
7
 74
0
 42
0.0000001
 43
0.0000001
 44
0.0000000001
 40
0.0
 40
0.0
 40
0.0
 40
0.0
 40
0.289702329
 40
0.5490881649
 40
0.7822156415
 40
1.0
 40
1.0
 40
1.0
 40
1.0
 10
76.7478750033
 20
79.4315873627
 30
0.0
 10
76.9672691237
 20
79.3049229738
 30
0.0
 10
77.4037147739
 20
79.0972972216
 30
0.0
 10
78.0745404228
 20
78.9353048464
 30
0.0
 10
78.7039711322
 20
78.9512419177
 30
0.0
 10
79.0829220268
 20
79.0887661319
 30
0.0
 10
79.2478513365
 20
79.1839875744
 30
0.0
  0
SPLINE
  5
573
100
AcDbEntity
  8
00_COMPONENTS
100
AcDbSpline
 62
7
  6
CONTINUOUS
 70
0
 71
3
 72
11
 73
7
 74
0
 42
0.0000001
 43
0.0000001
 44
0.0000000001
 40
0.0
 40
0.0
 40
0.0
 40
0.0
 40
0.217774924
 40
0.4509311967
 40
0.710224778
 40
1.0
 40
1.0
 40
1.0
 40
1.0
 10
85.334135099
 20
279.788346699
 30
0.0
 10
85.5980124637
 20
279.9406954665
 30
0.0
 10
86.2043393601
 20
280.1608267876
 30
0.0
 10
87.2113370082
 20
280.1862246006
 30
0.0
 10
88.2847231517
 20
279.9272539612
 30
0.0
 10
88.9829663642
 20
279.5949188574
 30
0.0
 10
89.3340877884
 20
279.3922033947
 30
0.0
  0
SPLINE
  5
574
100
AcDbEntity
  8
00_COMPONENTS
100
AcDbSpline
 62
7
  6
CONTINUOUS
 70
0
 71
3
 72
11
 73
7
 74
0
 42
0.0000001
 43
0.0000001
 44
0.0000000001
 40
0.0
 40
0.0
 40
0.0
 40
0.0
 40
0.2372413576
 40
0.5000010231
 40
0.762760128
 40
1.0
 40
1.0
 40
1.0
 40
1.0
 10
73.2123263776
 20
85.555303221
 30
0.0
 10
73.2123263776
 20
84.9757026422
 30
0.0
 10
73.4297315774
 20
83.7533713541
 30
0.0
 10
74.1874313446
 20
82.0357873385
 30
0.0
 10
75.2960574021
 20
80.5208159377
 30
0.0
 10
76.2459264824
 20
79.7213809204
 30
0.0
 10
76.7478750033
 20
79.4315873627
 30
0.0
  0
SPLINE
  5
575
100
AcDbEntity
  8
00_COMPONENTS
100
AcDbSpline
 62
7
  6
CONTINUOUS
 70
0
 71
3
 72
11
 73
7
 74
0
 42
0.0000001
 43
0.0000001
 44
0.0000000001
 40
0.0
 40
0.0
 40
0.0
 40
0.0
 40
0.2177833598
 40
0.4509104088
 40
0.7102966711
 40
1.0
 40
1.0
 40
1.0
 40
1.0
 10
130.8166766819
 20
55.1849509607
 30
0.0
 10
130.6517437202
 20
55.0897274097
 30
0.0
 10
130.3431609278
 20
54.8303024718
 30
0.0
 10
130.0146379723
 20
54.2931524807
 30
0.0
 10
129.8195146564
 20
53.6311839954
 30
0.0
 10
129.7811043894
 20
53.1493835812
 30
0.0
 10
129.7811043894
 20
52.8960428593
 30
0.0
  0
SPLINE
  5
576
100
AcDbEntity
  8
00_COMPONENTS
100
AcDbSpline
 62
7
  6
CONTINUOUS
 70
0
 71
3
 72
11
 73
7
 74
0
 42
0.0000001
 43
0.0000001
 44
0.0000000001
 40
0.0
 40
0.0
 40
0.0
 40
0.0
 40
0.2201189527
 40
0.457697894
 40
0.7172795409
 40
1.0
 40
1.0
 40
1.0
 40
1.0
 10
136.9960944343
 20
42.7348368384
 30
0.0
 10
136.7218827207
 20
42.6688336056
 30
0.0
 10
136.1320764319
 20
42.6060810003
 30
0.0
 10
135.2133963867
 20
42.7146767487
 30
0.0
 10
134.2554731187
 20
43.0155212025
 30
0.0
 10
133.630377821
 20
43.325192329
 30
0.0
 10
133.3166530151
 20
43.5063173326
 30
0.0
  0
SPLINE
  5
577
100
AcDbEntity
  8
00_COMPONENTS
100
AcDbSpline
 62
7
  6
CONTINUOUS
 70
0
 71
3
 72
11
 73
7
 74
0
 42
0.0000001
 43
0.0000001
 44
0.0000000001
 40
0.0
 40
0.0
 40
0.0
 40
0.0
 40
0.2848872461
 40
0.5446765397
 40
0.7810580879
 40
1.0
 40
1.0
 40
1.0
 40
1.0
 10
70.3131765045
 20
236.6490326492
 30
0.0
 10
70.3131765045
 20
237.0417876668
 30
0.0
 10
70.3645438471
 20
237.7943931687
 30
0.0
 10
70.6194117348
 20
238.846947651
 30
0.0
 10
71.0461769676
 20
239.7445568451
 30
0.0
 10
71.4532009179
 20
240.2339772828
 30
0.0
 10
71.6774512229
 20
240.436015751
 30
0.0
  0
SPLINE
  5
578
100
AcDbEntity
  8
00_COMPONENTS
100
AcDbSpline
 62
7
  6
CONTINUOUS
 70
0
 71
3
 72
16
 73
12
 74
0
 42
0.0000001
 43
0.0000001
 44
0.0000000001
 40
0.0
 40
0.0
 40
0.0
 40
0.0
 40
0.128744776
 40
0.2703971998
 40
0.4176131979
 40
0.5620174334
 40
0.6957476677
 40
0.8130627022
 40
0.912470568
 40
0.9571203641
 40
1.0
 40
1.0
 40
1.0
 40
1.0
 10
73.2123263776
 20
234.9752455557
 30
0.0
 10
73.2123263776
 20
234.5478710038
 30
0.0
 10
73.3318981779
 20
233.6492499124
 30
0.0
 10
73.7780993582
 20
232.3298316446
 30
0.0
 10
74.4658760945
 20
231.0587966622
 30
0.0
 10
75.3391621827
 20
229.9404841001
 30
0.0
 10
76.3291783139
 20
229.0647811368
 30
0.0
 10
77.3591405265
 20
228.4998173194
 30
0.0
 10
78.2334802276
 20
228.3290858593
 30
0.0
 10
78.8528150645
 20
228.419863846
 30
0.0
 10
79.1245682635
 20
228.5327797248
 30
0.0
 10
79.2478111219
 20
228.6039988884
 30
0.0
  0
SPLINE
  5
579
100
AcDbEntity
  8
00_COMPONENTS
100
AcDbSpline
 62
7
  6
CONTINUOUS
 70
0
 71
3
 72
12
 73
8
 74
0
 42
0.0000001
 43
0.0000001
 44
0.0000000001
 40
0.0
 40
0.0
 40
0.0
 40
0.0
 40
0.2572911739
 40
0.5392702131
 40
0.6747043282
 40
0.7987559922
 40
1.0
 40
1.0
 40
1.0
 40
1.0
 10
117.8662996327
 20
205.5205635219
 30
0.0
 10
117.8662996327
 20
205.0757242549
 30
0.0
 10
118.0849676912
 20
204.1446178771
 30
0.0
 10
118.6711835764
 20
203.11975078
 30
0.0
 10
119.311330816
 20
202.4284082109
 30
0.0
 10
119.9419977544
 20
201.946364945
 30
0.0
 10
120.5101114411
 20
201.7363858059
 30
0.0
 10
120.857392853
 20
201.7577421918
 30
0.0
  0
SPLINE
  5
57A
100
AcDbEntity
  8
00_COMPONENTS
100
AcDbSpline
 62
7
  6
CONTINUOUS
 70
0
 71
3
 72
9
 73
5
 74
0
 42
0.0000001
 43
0.0000001
 44
0.0000000001
 40
0.0
 40
0.0
 40
0.0
 40
0.0
 40
0.2595825359
 40
1.0
 40
1.0
 40
1.0
 40
1.0
 10
61.9732764631
 20
95.6046293474
 30
0.0
 10
62.0388331505
 20
95.4993965856
 30
0.0
 10
62.3065240359
 20
95.1039195619
 30
0.0
 10
62.6341033004
 20
94.7467781628
 30
0.0
 10
62.9084152171
 20
94.523587773
 30
0.0
  0
SPLINE
  5
57B
100
AcDbEntity
  8
00_COMPONENTS
100
AcDbSpline
 62
7
  6
CONTINUOUS
 70
0
 71
3
 72
11
 73
7
 74
0
 42
0.0000001
 43
0.0000001
 44
0.0000000001
 40
0.0
 40
0.0
 40
0.0
 40
0.0
 40
0.2177442246
 40
0.4508817658
 40
0.7104588047
 40
1.0
 40
1.0
 40
1.0
 40
1.0
 10
100.2846983676
 20
102.8483886895
 30
0.0
 10
100.2187379835
 20
102.8864701089
 30
0.0
 10
100.0952010951
 20
102.9900881131
 30
0.0
 10
99.9637880754
 20
103.2050504481
 30
0.0
 10
99.8858817356
 20
103.4698726829
 30
0.0
 10
99.8704177734
 20
103.6625863537
 30
0.0
 10
99.8704177734
 20
103.7638640717
 30
0.0
  0
SPLINE
  5
57C
100
AcDbEntity
  8
00_COMPONENTS
100
AcDbSpline
 62
7
  6
CONTINUOUS
 70
0
 71
3
 72
11
 73
7
 74
0
 42
0.0000001
 43
0.0000001
 44
0.0000000001
 40
0.0
 40
0.0
 40
0.0
 40
0.0
 40
0.2372278993
 40
0.4999989081
 40
0.7627705112
 40
1.0
 40
1.0
 40
1.0
 40
1.0
 10
133.3166530151
 20
43.5063173326
 30
0.0
 10
132.4131909693
 20
44.0279195877
 30
0.0
 10
130.7033946068
 20
45.4668648034
 30
0.0
 10
128.7078754768
 20
48.193888549
 30
0.0
 10
127.3439463705
 20
51.2855709346
 30
0.0
 10
126.9526654888
 20
53.485776677
 30
0.0
 10
126.9526654888
 20
54.5290058774
 30
0.0
  0
SPLINE
  5
57D
100
AcDbEntity
  8
00_COMPONENTS
100
AcDbSpline
 62
7
  6
CONTINUOUS
 70
0
 71
3
 72
9
 73
5
 74
0
 42
0.0000001
 43
0.0000001
 44
0.0000000001
 40
0.0
 40
0.0
 40
0.0
 40
0.0
 40
0.2749979211
 40
1.0
 40
1.0
 40
1.0
 40
1.0
 10
126.9526654888
 20
54.5290058774
 30
0.0
 10
126.9526654888
 20
54.7959671564
 30
0.0
 10
126.9979241179
 20
55.7638980185
 30
0.0
 10
127.2448445731
 20
56.7392068328
 30
0.0
 10
127.5841645394
 20
57.3558238901
 30
0.0
  0
SPLINE
  5
57E
100
AcDbEntity
  8
00_COMPONENTS
100
AcDbSpline
 62
7
  6
CONTINUOUS
 70
0
 71
3
 72
11
 73
7
 74
0
 42
0.0000001
 43
0.0000001
 44
0.0000000001
 40
0.0
 40
0.0
 40
0.0
 40
0.0
 40
0.2372413576
 40
0.5000010231
 40
0.762760128
 40
1.0
 40
1.0
 40
1.0
 40
1.0
 10
129.7811043894
 20
52.8960428593
 30
0.0
 10
129.7811043894
 20
52.3164422806
 30
0.0
 10
129.9985095891
 20
51.0941109925
 30
0.0
 10
130.7562093563
 20
49.3765269768
 30
0.0
 10
131.8648354139
 20
47.861555576
 30
0.0
 10
132.8147044941
 20
47.0621205588
 30
0.0
 10
133.3166530151
 20
46.7723270011
 30
0.0
  0
SPLINE
  5
57F
100
AcDbEntity
  8
00_COMPONENTS
100
AcDbSpline
 62
7
  6
CONTINUOUS
 70
0
 71
3
 72
11
 73
7
 74
0
 42
0.0000001
 43
0.0000001
 44
0.0000000001
 40
0.0
 40
0.0
 40
0.0
 40
0.0
 40
0.289702329
 40
0.5490881649
 40
0.7822156415
 40
1.0
 40
1.0
 40
1.0
 40
1.0
 10
133.3166530151
 20
46.7723270011
 30
0.0
 10
133.5360471355
 20
46.6456626122
 30
0.0
 10
133.9724927857
 20
46.4380368599
 30
0.0
 10
134.6433184346
 20
46.2760444848
 30
0.0
 10
135.272749144
 20
46.2919815561
 30
0.0
 10
135.6517000386
 20
46.4295057703
 30
0.0
 10
135.8166293483
 20
46.5247272128
 30
0.0
  0
SPLINE
  5
580
100
AcDbEntity
  8
00_COMPONENTS
100
AcDbSpline
 62
7
  6
CONTINUOUS
 70
0
 71
3
 72
15
 73
11
 74
0
 42
0.0000001
 43
0.0000001
 44
0.0000000001
 40
0.0
 40
0.0
 40
0.0
 40
0.0
 40
0.0867634565
 40
0.1840980908
 40
0.2973466029
 40
0.4263898291
 40
0.5674456746
 40
0.7145844919
 40
0.861042305
 40
1.0
 40
1.0
 40
1.0
 40
1.0
 10
134.7329998624
 20
93.2279314717
 30
0.0
 10
134.8857322355
 20
93.3161126028
 30
0.0
 10
135.2597308143
 20
93.4235399783
 30
0.0
 10
135.8704423181
 20
93.3394436774
 30
0.0
 10
136.5037788836
 20
93.046954711
 30
0.0
 10
137.1263249929
 20
92.5700993632
 30
0.0
 10
137.7004474905
 20
91.9406947491
 30
0.0
 10
138.1888960065
 20
91.2003001482
 30
0.0
 10
138.5584364087
 20
90.3989927489
 30
0.0
 10
138.7156426918
 20
89.8369278628
 30
0.0
 10
138.76498585
 20
89.5588173831
 30
0.0
  0
SPLINE
  5
581
100
AcDbEntity
  8
00_COMPONENTS
100
AcDbSpline
 62
7
  6
CONTINUOUS
 70
0
 71
3
 72
11
 73
7
 74
0
 42
0.0000001
 43
0.0000001
 44
0.0000000001
 40
0.0
 40
0.0
 40
0.0
 40
0.0
 40
0.2372413576
 40
0.5000010231
 40
0.762760128
 40
1.0
 40
1.0
 40
1.0
 40
1.0
 10
44.9279373717
 20
101.8849334018
 30
0.0
 10
44.9279373717
 20
101.3053328231
 30
0.0
 10
45.1453425715
 20
100.0830015349
 30
0.0
 10
45.9030423387
 20
98.3654175193
 30
0.0
 10
47.0116683962
 20
96.8504461185
 30
0.0
 10
47.9615374765
 20
96.0510111012
 30
0.0
 10
48.4634859975
 20
95.7612175435
 30
0.0
  0
SPLINE
  5
582
100
AcDbEntity
  8
00_COMPONENTS
100
AcDbSpline
 62
7
  6
CONTINUOUS
 70
0
 71
3
 72
11
 73
7
 74
0
 42
0.0000001
 43
0.0000001
 44
0.0000000001
 40
0.0
 40
0.0
 40
0.0
 40
0.0
 40
0.289702329
 40
0.5490881649
 40
0.7822156415
 40
1.0
 40
1.0
 40
1.0
 40
1.0
 10
48.4634859975
 20
95.7612175435
 30
0.0
 10
48.6828801178
 20
95.6345531546
 30
0.0
 10
49.1193257681
 20
95.4269274024
 30
0.0
 10
49.7901514169
 20
95.2649350272
 30
0.0
 10
50.4195821263
 20
95.2808720985
 30
0.0
 10
50.7985330209
 20
95.4183963127
 30
0.0
 10
50.9634623306
 20
95.5136177552
 30
0.0
  0
SPLINE
  5
583
100
AcDbEntity
  8
00_COMPONENTS
100
AcDbSpline
 62
7
  6
CONTINUOUS
 70
0
 71
3
 72
9
 73
5
 74
0
 42
0.0000001
 43
0.0000001
 44
0.0000000001
 40
0.0
 40
0.0
 40
0.0
 40
0.0
 40
0.2749979211
 40
1.0
 40
1.0
 40
1.0
 40
1.0
 10
42.0994984711
 20
103.5178964198
 30
0.0
 10
42.0994984711
 20
103.7848576988
 30
0.0
 10
42.1447571003
 20
104.752788561
 30
0.0
 10
42.3916775555
 20
105.7280973752
 30
0.0
 10
42.7309975217
 20
106.3447144326
 30
0.0
  0
SPLINE
  5
584
100
AcDbEntity
  8
00_COMPONENTS
100
AcDbSpline
 62
7
  6
CONTINUOUS
 70
0
 71
3
 72
11
 73
7
 74
0
 42
0.0000001
 43
0.0000001
 44
0.0000000001
 40
0.0
 40
0.0
 40
0.0
 40
0.0
 40
0.2372278993
 40
0.4999989081
 40
0.7627705112
 40
1.0
 40
1.0
 40
1.0
 40
1.0
 10
48.4634859975
 20
92.495207875
 30
0.0
 10
47.5600239517
 20
93.0168101301
 30
0.0
 10
45.8502275891
 20
94.4557553458
 30
0.0
 10
43.8547084591
 20
97.1827790914
 30
0.0
 10
42.4907793529
 20
100.274461477
 30
0.0
 10
42.0994984711
 20
102.4746672194
 30
0.0
 10
42.0994984711
 20
103.5178964198
 30
0.0
  0
SPLINE
  5
585
100
AcDbEntity
  8
00_COMPONENTS
100
AcDbSpline
 62
7
  6
CONTINUOUS
 70
0
 71
3
 72
11
 73
7
 74
0
 42
0.0000001
 43
0.0000001
 44
0.0000000001
 40
0.0
 40
0.0
 40
0.0
 40
0.0
 40
0.2564783825
 40
0.518484658
 40
0.7707740772
 40
1.0
 40
1.0
 40
1.0
 40
1.0
 10
133.3559771823
 20
261.5231115846
 30
0.0
 10
133.1146361517
 20
262.3591222791
 30
0.0
 10
132.4614559341
 20
264.0043475588
 30
0.0
 10
131.0950264496
 20
266.2479210355
 30
0.0
 10
129.4271404036
 20
268.1566945319
 30
0.0
 10
128.1207233934
 20
269.164830877
 30
0.0
 10
127.4472201316
 20
269.5536693698
 30
0.0
  0
SPLINE
  5
586
100
AcDbEntity
  8
00_COMPONENTS
100
AcDbSpline
 62
7
  6
CONTINUOUS
 70
0
 71
3
 72
11
 73
7
 74
0
 42
0.0000001
 43
0.0000001
 44
0.0000000001
 40
0.0
 40
0.0
 40
0.0
 40
0.0
 40
0.289775222
 40
0.5490688033
 40
0.782225076
 40
1.0
 40
1.0
 40
1.0
 40
1.0
 10
127.4472201316
 20
269.5536693698
 30
0.0
 10
127.0522085294
 20
269.7817242654
 30
0.0
 10
126.2666849152
 20
270.1556012571
 30
0.0
 10
125.0591255038
 20
270.4469432265
 30
0.0
 10
123.9262531498
 20
270.4183706868
 30
0.0
 10
123.2441353913
 20
270.1707229507
 30
0.0
 10
122.9472733559
 20
269.9993305872
 30
0.0
  0
SPLINE
  5
587
100
AcDbEntity
  8
00_COMPONENTS
100
AcDbSpline
 62
7
  6
CONTINUOUS
 70
0
 71
3
 72
8
 73
4
 74
0
 42
0.0000001
 43
0.0000001
 44
0.0000000001
 40
0.0
 40
0.0
 40
0.0
 40
0.0
 40
1.0
 40
1.0
 40
1.0
 40
1.0
 10
134.4823679091
 20
93.4987413198
 30
0.0
 10
134.3886689095
 20
93.4446493096
 30
0.0
 10
134.3014215138
 20
93.3777532092
 30
0.0
 10
134.2243596232
 20
93.3018130149
 30
0.0
  0
SPLINE
  5
588
100
AcDbEntity
  8
00_COMPONENTS
100
AcDbSpline
 62
7
  6
CONTINUOUS
 70
0
 71
3
 72
9
 73
5
 74
0
 42
0.0000001
 43
0.0000001
 44
0.0000000001
 40
0.0
 40
0.0
 40
0.0
 40
0.0
 40
0.4731286598
 40
1.0
 40
1.0
 40
1.0
 40
1.0
 10
134.2243596232
 20
93.3018130149
 30
0.0
 10
134.1124333513
 20
93.1915159177
 30
0.0
 10
133.9173102024
 20
92.914684519
 30
0.0
 10
133.8103570446
 20
92.5961743951
 30
0.0
 10
133.7723040353
 20
92.4253725936
 30
0.0
  0
SPLINE
  5
589
100
AcDbEntity
  8
00_COMPONENTS
100
AcDbSpline
 62
7
  6
CONTINUOUS
 70
0
 71
3
 72
9
 73
5
 74
0
 42
0.0000001
 43
0.0000001
 44
0.0000000001
 40
0.0
 40
0.0
 40
0.0
 40
0.0
 40
0.2391581243
 40
1.0
 40
1.0
 40
1.0
 40
1.0
 10
133.7723040353
 20
92.4253725936
 30
0.0
 10
133.7610812905
 20
92.3749990472
 30
0.0
 10
133.7207742505
 20
92.1629112114
 30
0.0
 10
133.7056163553
 20
91.9463701633
 30
0.0
 10
133.7056163553
 20
91.7821860737
 30
0.0
  0
ELLIPSE
  5
58A
100
AcDbEntity
  8
00_COMPONENTS
100
AcDbEllipse
 62
7
  6
CONTINUOUS
 10
123.1600058588
 20
197.2684767115
 30
0.0
 11
-0.412556678
 21
1.1933004748
 31
0.0
 40
0.6687732567
 41
-2.2277698218
 42
0.1284160005
  0
ELLIPSE
  5
58B
100
AcDbEntity
  8
00_COMPONENTS
100
AcDbEllipse
 62
7
  6
CONTINUOUS
 10
82.1476418002
 20
220.9464404737
 30
0.0
 11
-0.4290589451
 21
1.2410324938
 31
0.0
 40
0.6687732567
 41
-2.2277698218
 42
0.1284160005
  0
ELLIPSE
  5
58C
100
AcDbEntity
  8
00_COMPONENTS
100
AcDbEllipse
 62
7
  6
CONTINUOUS
 10
53.8632527944
 20
237.2760706545
 30
0.0
 11
-0.412556678
 21
1.1933004748
 31
0.0
 40
0.6687732567
 41
-2.2277698218
 42
0.1284160005
  0
ELLIPSE
  5
58D
100
AcDbEntity
  8
00_COMPONENTS
100
AcDbEllipse
 62
7
  6
CONTINUOUS
 10
53.4132776252
 20
99.8438728424
 30
0.0
 11
-0.7189490321
 21
0.9099051991
 31
0.0
 40
0.4542240545
 41
-2.4224635842
 42
-0.0662777716
  0
ELLIPSE
  5
58E
100
AcDbEntity
  8
00_COMPONENTS
100
AcDbEllipse
 62
7
  6
CONTINUOUS
 10
122.7100306896
 20
59.8362788994
 30
0.0
 11
-0.7189490321
 21
0.9099051991
 31
0.0
 40
0.4542240545
 41
-2.4224635842
 42
-0.0662777716
  0
ELLIPSE
  5
58F
100
AcDbEntity
  8
00_COMPONENTS
100
AcDbEllipse
 62
7
  6
CONTINUOUS
 10
94.4256416837
 20
76.1659090802
 30
0.0
 11
-0.7189490321
 21
0.9099051991
 31
0.0
 40
0.4542240545
 41
-2.4224635842
 42
-0.0662777716
  0
ELLIPSE
  5
590
100
AcDbEntity
  8
00_COMPONENTS
100
AcDbEllipse
 62
7
  6
CONTINUOUS
 10
30.467564689
 20
111.7848744557
 30
0.0
 11
-1.7817432535
 21
2.2549824499
 31
0.0
 40
0.4542240545
 41
3.0753097502
 42
4.7250873453
  0
ELLIPSE
  5
591
100
AcDbEntity
  8
00_COMPONENTS
100
AcDbEllipse
 62
7
  6
CONTINUOUS
 10
116.6288846982
 20
62.0407385174
 30
0.0
 11
-3.1883826642
 21
4.0352317524
 31
0.0
 40
0.4542240545
 41
-2.4224635842
 42
-1.666109048
  0
ELLIPSE
  5
592
100
AcDbEntity
  8
00_COMPONENTS
100
AcDbEllipse
 62
7
  6
CONTINUOUS
 10
88.3444956923
 20
78.3703686982
 30
0.0
 11
-3.1883826642
 21
4.0352317524
 31
0.0
 40
0.4542240545
 41
-2.4224635842
 42
-1.666109048
  0
ELLIPSE
  5
593
100
AcDbEntity
  8
00_COMPONENTS
100
AcDbEllipse
 62
7
  6
CONTINUOUS
 10
60.0601066864
 20
94.699998879
 30
0.0
 11
-3.1883826642
 21
4.0352317524
 31
0.0
 40
0.4542240545
 41
-2.4224635842
 42
-1.666109048
  0
ELLIPSE
  5
594
100
AcDbEntity
  8
00_COMPONENTS
100
AcDbEllipse
 62
7
  6
CONTINUOUS
 10
32.1999799829
 20
251.7129912985
 30
0.0
 11
-0.9406292258
 21
2.7207250825
 31
0.0
 40
0.6687732567
 41
-3.7985661486
 42
-0.656973495
  0
ELLIPSE
  5
595
100
AcDbEntity
  8
00_COMPONENTS
100
AcDbEllipse
 62
7
  6
CONTINUOUS
 10
60.4856546321
 20
235.3922684039
 30
0.0
 11
-1.6832312462
 21
4.8686659371
 31
0.0
 40
0.6687732567
 41
0.9138228318
 42
4.0554154854
  0
ELLIPSE
  5
596
100
AcDbEntity
  8
00_COMPONENTS
100
AcDbEllipse
 62
7
  6
CONTINUOUS
 10
88.770043638
 20
219.0626382231
 30
0.0
 11
-1.6832312462
 21
4.8686659371
 31
0.0
 40
0.6687732567
 41
0.9138228318
 42
4.0554154854
  0
ELLIPSE
  5
597
100
AcDbEntity
  8
00_COMPONENTS
100
AcDbEllipse
 62
7
  6
CONTINUOUS
 10
117.0544326439
 20
202.7330080423
 30
0.0
 11
-1.6832312462
 21
4.8686659371
 31
0.0
 40
0.6687732567
 41
0.9138228318
 42
4.0554154854
  0
ELLIPSE
  5
598
100
AcDbEntity
  8
00_COMPONENTS
100
AcDbEllipse
 62
7
  6
CONTINUOUS
 10
82.1476418002
 20
220.9464404737
 30
0.0
 11
-0.4290589451
 21
1.2410324938
 31
0.0
 40
0.6687732567
 41
0.9138228318
 42
3.2700086541
  0
ELLIPSE
  5
599
100
AcDbEntity
  8
00_COMPONENTS
100
AcDbEllipse
 62
7
  6
CONTINUOUS
 10
123.1600058588
 20
197.2684767115
 30
0.0
 11
-0.412556678
 21
1.1933004748
 31
0.0
 40
0.6687732567
 41
0.9138228318
 42
3.2700086541
  0
ELLIPSE
  5
59A
100
AcDbEntity
  8
00_COMPONENTS
100
AcDbEllipse
 62
7
  6
CONTINUOUS
 10
103.6180563348
 20
215.7879232945
 30
0.0
 11
-3.0034126158
 21
8.6872274564
 31
0.0
 40
0.6687732567
 41
0.0
 42
6.2831853072
  0
ELLIPSE
  5
59B
100
AcDbEntity
  8
00_COMPONENTS
100
AcDbEllipse
 62
7
  6
CONTINUOUS
 10
122.7100306896
 20
59.8362788994
 30
0.0
 11
-0.7189490321
 21
0.9099051991
 31
0.0
 40
0.4542240545
 41
0.7191290694
 42
3.075314882
  0
ELLIPSE
  5
59C
100
AcDbEntity
  8
00_COMPONENTS
100
AcDbEllipse
 62
7
  6
CONTINUOUS
 10
131.9024453407
 20
199.4582931137
 30
0.0
 11
-3.0034126158
 21
8.6872274564
 31
0.0
 40
0.6687732567
 41
0.0
 42
6.2831853072
  0
ELLIPSE
  5
59D
100
AcDbEntity
  8
00_COMPONENTS
100
AcDbEllipse
 62
7
  6
CONTINUOUS
 10
146.2214266956
 20
44.9558629407
 30
0.0
 11
-1.7817432535
 21
2.2549824499
 31
0.0
 40
0.4542240545
 41
6.2169024038
 42
7.8666799989
  0
ELLIPSE
  5
59E
100
AcDbEntity
  8
00_COMPONENTS
100
AcDbEllipse
 62
7
  6
CONTINUOUS
 10
103.2645044162
 20
66.1638588829
 30
0.0
 11
-5.6265576428
 21
7.1209972101
 31
0.0
 40
0.4542240545
 41
0.0
 42
6.2831853072
  0
ELLIPSE
  5
59F
100
AcDbEntity
  8
00_COMPONENTS
100
AcDbEllipse
 62
7
  6
CONTINUOUS
 10
47.049278323
 20
248.4471836561
 30
0.0
 11
-3.0034126158
 21
8.6872274564
 31
0.0
 40
0.6687732567
 41
0.0
 42
6.2831853072
  0
ELLIPSE
  5
5A0
100
AcDbEntity
  8
00_COMPONENTS
100
AcDbEllipse
 62
7
  6
CONTINUOUS
 10
53.8632527944
 20
237.2760706545
 30
0.0
 11
-0.412556678
 21
1.1933004748
 31
0.0
 40
0.6687732567
 41
0.9138228318
 42
3.2700086541
  0
ELLIPSE
  5
5A1
100
AcDbEntity
  8
00_COMPONENTS
100
AcDbEllipse
 62
7
  6
CONTINUOUS
 10
116.6288846982
 20
62.0407385174
 30
0.0
 11
-3.1883826642
 21
4.0352317524
 31
0.0
 40
0.4542240545
 41
-0.0372254667
 42
0.7191290694
  0
ELLIPSE
  5
5A2
100
AcDbEntity
  8
00_COMPONENTS
100
AcDbEllipse
 62
7
  6
CONTINUOUS
 10
145.3375360064
 20
186.3944705752
 30
0.0
 11
-0.9406292258
 21
2.7207250825
 31
0.0
 40
0.6687732567
 41
5.6262118122
 42
8.7678044658
  0
ELLIPSE
  5
5A3
100
AcDbEntity
  8
00_COMPONENTS
100
AcDbEllipse
 62
7
  6
CONTINUOUS
 10
74.9801154103
 20
82.4934890637
 30
0.0
 11
-5.6265576428
 21
7.1209972101
 31
0.0
 40
0.4542240545
 41
0.0
 42
6.2831853072
  0
ELLIPSE
  5
5A4
100
AcDbEntity
  8
00_COMPONENTS
100
AcDbEllipse
 62
7
  6
CONTINUOUS
 10
53.4132776252
 20
99.8438728424
 30
0.0
 11
-0.7189490321
 21
0.9099051991
 31
0.0
 40
0.4542240545
 41
0.7191290694
 42
3.075314882
  0
ELLIPSE
  5
5A5
100
AcDbEntity
  8
00_COMPONENTS
100
AcDbEllipse
 62
7
  6
CONTINUOUS
 10
75.3336673289
 20
232.1175534753
 30
0.0
 11
-3.0034126158
 21
8.6872274564
 31
0.0
 40
0.6687732567
 41
0.0
 42
6.2831853072
  0
ELLIPSE
  5
5A6
100
AcDbEntity
  8
00_COMPONENTS
100
AcDbEllipse
 62
7
  6
CONTINUOUS
 10
88.3444956923
 20
78.3703686982
 30
0.0
 11
-3.1883826642
 21
4.0352317524
 31
0.0
 40
0.4542240545
 41
-0.0372254667
 42
0.7191290694
  0
ELLIPSE
  5
5A7
100
AcDbEntity
  8
00_COMPONENTS
100
AcDbEllipse
 62
7
  6
CONTINUOUS
 10
60.0601066864
 20
94.699998879
 30
0.0
 11
-3.1883826642
 21
4.0352317524
 31
0.0
 40
0.4542240545
 41
-0.0372254667
 42
0.7191290694
  0
ELLIPSE
  5
5A8
100
AcDbEntity
  8
00_COMPONENTS
100
AcDbEllipse
 62
7
  6
CONTINUOUS
 10
131.5488934221
 20
49.834228702
 30
0.0
 11
-5.6265576428
 21
7.1209972101
 31
0.0
 40
0.4542240545
 41
0.0
 42
6.2831853072
  0
ELLIPSE
  5
5A9
100
AcDbEntity
  8
00_COMPONENTS
100
AcDbEllipse
 62
7
  6
CONTINUOUS
 10
94.4256416837
 20
76.1659090802
 30
0.0
 11
-0.7189490321
 21
0.9099051991
 31
0.0
 40
0.4542240545
 41
0.7191290694
 42
3.075314882
  0
ELLIPSE
  5
5AA
100
AcDbEntity
  8
00_COMPONENTS
100
AcDbEllipse
 62
7
  6
CONTINUOUS
 10
46.6957264044
 20
98.8231192445
 30
0.0
 11
-5.6265576428
 21
7.1209972101
 31
0.0
 40
0.4542240545
 41
0.0
 42
6.2831853072
  0
ENDSEC
  0
SECTION
  2
OBJECTS
  0
DICTIONARY
  5
C
100
AcDbDictionary
280
0
281
1
  3
ACAD_GROUP
350
D
  3
ACAD_MLINESTYLE
350
17
  3
ACAD_LAYOUT
350
1A
  3
ACAD_PLOTSETTINGS
350
19
  3
ACAD_PLOTSTYLENAME
350
E
  0
DICTIONARY
  5
D
102
{ACAD_REACTORS
330
C
102
}
100
AcDbDictionary
280
0
281
1
  0
ACDBDICTIONARYWDFLT
  5
E
102
{ACAD_REACTORS
330
C
102
}
100
AcDbDictionary
281
1
  3
Normal
350
F
100
AcDbDictionaryWithDefault
340
F
  0
DICTIONARY
  5
17
102
{ACAD_REACTORS
330
C
102
}
100
AcDbDictionary
280
0
281
1
  3
Standard
350
18
  0
DICTIONARY
  5
19
102
{ACAD_REACTORS
330
C
102
}
100
AcDbDictionary
281
1
  0
DICTIONARY
  5
1A
102
{ACAD_REACTORS
330
C
102
}
100
AcDbDictionary
281
1
  3
Model
350
5AB
  3
Layout1
350
5AC
  0
ACDBPLACEHOLDER
  5
F
102
{ACAD_REACTORS
330
E
102
}
  0
MLINESTYLE
  5
18
102
{ACAD_REACTORS
330
17
102
}
100
AcDbMlineStyle
  2
STANDARD
 70
0
  3

 62
256
 51
90.0
 52
90.0
 71
2
 49
0.5
 62
256
  6
BYLAYER
 49
-0.5
 62
256
  6
BYLAYER
  0
LAYOUT
  5
5AB
102
{ACAD_REACTORS
330
1A
102
}
100
AcDbPlotSettings
  1

  2
none_device
  4

  6

 40
0.0
 41
0.0
 42
0.0
 43
0.0
 44
210.0
 45
297.0
 46
0.0
 47
0.0
 48
0.0
 49
0.0
140
0.0
141
0.0
142
1.0
143
1.0
 70
1024
 72
1
 73
0
 74
0
  7

 75
0
147
1.0
148
0.0
149
0.0
100
AcDbLayout
  1
Model
 70
0
 71
0
 10
0.0
 20
0.0
 11
210.0
 21
297.0
 12
0.0
 22
0.0
 32
0.0
 14
0.0
 24
0.0
 34
0.0
 15
0.0
 25
0.0
 35
0.0
146
0.0
 13
0.0
 23
0.0
 33
0.0
 16
1.0
 26
0.0
 36
0.0
 17
0.0
 27
1.0
 37
0.0
 76
0
330
213
345
0
346
0
  0
LAYOUT
  5
5AC
102
{ACAD_REACTORS
330
1A
102
}
100
AcDbPlotSettings
  1

  2
none_device
  4

  6

 40
0.0
 41
0.0
 42
0.0
 43
0.0
 44
210.0
 45
297.0
 46
0.0
 47
0.0
 48
0.0
 49
0.0
140
0.0
141
0.0
142
1.0
143
1.0
 70
0
 72
1
 73
0
 74
0
  7

 75
0
147
1.0
148
0.0
149
0.0
100
AcDbLayout
  1
Layout1
 70
0
 71
1
 10
0.0
 20
0.0
 11
210.0
 21
297.0
 12
0.0
 22
0.0
 32
0.0
 14
0.0
 24
0.0
 34
0.0
 15
0.0
 25
0.0
 35
0.0
146
0.0
 13
0.0
 23
0.0
 33
0.0
 16
1.0
 26
0.0
 36
0.0
 17
0.0
 27
1.0
 37
0.0
 76
0
330
214
345
0
346
0
  0
ENDSEC
  0
EOF
