999
DXF file: C:\Users\SESA621925\Desktop\Projects\Drawing_creation_tool\Gen2D (3) (1)\CAD\G80N3TM500_3D-CAD\drw0001_1.dxf
999
Pro/ENGINEER 2019471 by Parametric Technology Corporation
  0
SECTION
  2
HEADER
  9
$ACADVER
  1
AC1024
  9
$DWGCODEPAGE
  3
ANSI_1252
  9
$EXTMAX
 10
266.775301675
 20
377.2964980832
 30
0.0
  9
$EXTMIN
 10
0.0
 20
0.0
 30
0.0
  9
$LIMMIN
 10
0.0
 20
0.0
  9
$LIMMAX
 10
266.775301675
 20
377.2964980832
  9
$VIEWCTR
 10
133.3876508375
 20
188.6482490416
  9
$VIEWSIZE
 40
377.2964980832
  9
$CLAYER
  8
0
  9
$LTSCALE
 40
24.5941420973
  9
$CELTYPE
  6
BYLAYER
  9
$DIMSCALE
 40
1.0
  9
$DIMASZ
 40
3.1758964485
  9
$DIMEXO
 40
1.0
  9
$DIMDLI
 40
16.9923163581
  9
$DIMEXE
 40
1.0
  9
$DIMCEN
 40
4.0244959796
  9
$DIMLFAC
 40
1.0
  9
$DIMBLK
  1
_FILLED
  9
$DIMALT
 70
0
  9
$DIMALTF
 40
0.0393700787
  9
$DIMTXT
 40
4.4462550279
  9
$DIMTOL
 70
1
  9
$DIMLIM
 70
0
  9
$DIMTFAC
 40
1.0
  9
$DIMTP
 40
0.01
  9
$DIMTM
 40
0.01
  9
$DIMGAP
 40
0.625
  9
$DIMDSEP
 70
46
  9
$AUNITS
 70
0
  9
$PDMODE
 70
3
  9
$PDSIZE
 40
0.3125
  9
$HANDSEED
  5
574
  9
$TILEMODE
 70
1
  9
$MEASUREMENT
 70
1
  9
$INSUNITS
 70
4
  0
ENDSEC
  0
SECTION
  2
CLASSES
  0
CLASS
  1
ACDBDICTIONARYWDFLT
  2
AcDbDictionaryWithDefault
  3
AutoCAD 2000
 90
0
 91
1
280
0
281
0
  0
CLASS
  1
ACDBPLACEHOLDER
  2
AcDbPlaceHolder
  3
AutoCAD 2000
 90
0
 91
1
280
0
281
0
  0
CLASS
  1
LAYOUT
  2
AcDbLayout
  3
AutoCAD 2000
 90
0
 91
0
280
0
281
0
  0
ENDSEC
  0
SECTION
  2
TABLES
  0
TABLE
  2
VPORT
  5
8
100
AcDbSymbolTable
 70
2
  0
VPORT
  5
1F4
100
AcDbSymbolTableRecord
100
AcDbViewportTableRecord
  2
*ACTIVE
 70
0
 10
0.0
 20
0.0
 11
1.0
 21
1.0
 12
133.3876508375
 22
188.6482490416
 13
0.0
 23
0.0
 14
1.0
 24
1.0
 15
0.0
 25
0.0
 16
0.0
 26
0.0
 36
1.0
 17
0.0
 27
0.0
 37
0.0
 40
377.2964980832
 41
0.7070707071
 42
50.0
 43
0.0
 44
0.0
 50
0.0
 51
0.0
 71
0
 72
100
 73
1
 74
1
 75
0
 76
0
 77
0
 78
0
  0
ENDTAB
  0
TABLE
  2
LTYPE
  5
5
100
AcDbSymbolTable
 70
6
  0
LTYPE
  5
14
100
AcDbSymbolTableRecord
100
AcDbLinetypeTableRecord
  2
BYBLOCK
 70
0
  3

 72
65
 73
0
 40
0.0
  0
LTYPE
  5
15
100
AcDbSymbolTableRecord
100
AcDbLinetypeTableRecord
  2
BYLAYER
 70
0
  3

 72
65
 73
0
 40
0.0
  0
LTYPE
  5
16
100
AcDbSymbolTableRecord
100
AcDbLinetypeTableRecord
  2
CONTINUOUS
 70
64
  3
Solid line
 72
65
 73
0
 40
0.0
  0
LTYPE
  5
1F5
100
AcDbSymbolTableRecord
100
AcDbLinetypeTableRecord
  2
CENTER
 70
64
  3
____ _ ____ _ ____ _ ____ _ ____ _ ____ _ ____
 72
65
 73
4
 40
0.6
 49
0.375
 74
0
 49
-0.075
 74
0
 49
0.075
 74
0
 49
-0.075
 74
0
  0
LTYPE
  5
1F6
100
AcDbSymbolTableRecord
100
AcDbLinetypeTableRecord
  2
HIDDEN
 70
64
  3
- - - - - - - - - - - - - - - - - - - -
 72
65
 73
2
 40
0.2
 49
0.1
 74
0
 49
-0.1
 74
0
  0
LTYPE
  5
1F7
100
AcDbSymbolTableRecord
100
AcDbLinetypeTableRecord
  2
PHANTOM
 70
64
  3
_____ _ _ _____ _ _ _____ _ _ _____
 72
65
 73
6
 40
0.8
 49
0.45
 74
0
 49
-0.05
 74
0
 49
0.1
 74
0
 49
-0.05
 74
0
 49
0.1
 74
0
 49
-0.05
 74
0
  0
LTYPE
  5
1F8
100
AcDbSymbolTableRecord
100
AcDbLinetypeTableRecord
  2
DOT
 70
64
  3
. . . . . . . . . . . . . . . . . . . .
 72
65
 73
2
 40
0.2
 49
0.1
 74
0
 49
-0.1
 74
0
  0
LTYPE
  5
1F9
100
AcDbSymbolTableRecord
100
AcDbLinetypeTableRecord
  2
DASHED
 70
64
  3
- - - - - - - - - - - - - - - - - - - -
 72
65
 73
2
 40
0.2
 49
0.1
 74
0
 49
-0.1
 74
0
  0
ENDTAB
  0
TABLE
  2
LAYER
  5
2
100
AcDbSymbolTable
 70
36
  0
LAYER
  5
10
100
AcDbSymbolTableRecord
100
AcDbLayerTableRecord
  2
0
 70
0
 62
7
  6
CONTINUOUS
370
-3
390
F
  0
LAYER
  5
1FA
100
AcDbSymbolTableRecord
100
AcDbLayerTableRecord
  2
DEFAULT_1
 70
0
 62
7
  6
CENTER
370
-3
390
F
  0
LAYER
  5
1FB
100
AcDbSymbolTableRecord
100
AcDbLayerTableRecord
  2
DEFAULT_2
 70
0
 62
8
  6
HIDDEN
370
-3
390
F
  0
LAYER
  5
1FC
100
AcDbSymbolTableRecord
100
AcDbLayerTableRecord
  2
DEFAULT_3
 70
0
 62
7
  6
PHANTOM
370
-3
390
F
  0
LAYER
  5
1FD
100
AcDbSymbolTableRecord
100
AcDbLayerTableRecord
  2
00_COMPONENTS
 70
0
 62
7
  6
CONTINUOUS
370
-3
390
F
  0
LAYER
  5
1FE
100
AcDbSymbolTableRecord
100
AcDbLayerTableRecord
  2
00_COMPONENTS_1
 70
0
 62
7
  6
CONTINUOUS
370
-3
390
F
  0
LAYER
  5
1FF
100
AcDbSymbolTableRecord
100
AcDbLayerTableRecord
  2
00_COMPONENTS_2
 70
0
 62
7
  6
CONTINUOUS
370
-3
390
F
  0
LAYER
  5
200
100
AcDbSymbolTableRecord
100
AcDbLayerTableRecord
  2
00_COMPONENTS_4
 70
0
 62
7
  6
CONTINUOUS
370
-3
390
F
  0
LAYER
  5
201
100
AcDbSymbolTableRecord
100
AcDbLayerTableRecord
  2
01_1_DEFAULT_DATUMS
 70
0
 62
7
  6
CONTINUOUS
370
-3
390
F
  0
LAYER
  5
202
100
AcDbSymbolTableRecord
100
AcDbLayerTableRecord
  2
01_PLANES
 70
0
 62
7
  6
CONTINUOUS
370
-3
390
F
  0
LAYER
  5
203
100
AcDbSymbolTableRecord
100
AcDbLayerTableRecord
  2
02_COORD_SYS
 70
0
 62
7
  6
CONTINUOUS
370
-3
390
F
  0
LAYER
  5
204
100
AcDbSymbolTableRecord
100
AcDbLayerTableRecord
  2
03_AXES
 70
0
 62
7
  6
CONTINUOUS
370
-3
390
F
  0
LAYER
  5
205
100
AcDbSymbolTableRecord
100
AcDbLayerTableRecord
  2
04_POINTS
 70
0
 62
7
  6
CONTINUOUS
370
-3
390
F
  0
LAYER
  5
206
100
AcDbSymbolTableRecord
100
AcDbLayerTableRecord
  2
05_CURVES
 70
0
 62
7
  6
CONTINUOUS
370
-3
390
F
  0
LAYER
  5
207
100
AcDbSymbolTableRecord
100
AcDbLayerTableRecord
  2
06_SURFS
 70
0
 62
7
  6
CONTINUOUS
370
-3
390
F
  0
LAYER
  5
208
100
AcDbSymbolTableRecord
100
AcDbLayerTableRecord
  2
07_COSMETICS
 70
0
 62
7
  6
CONTINUOUS
370
-3
390
F
  0
LAYER
  5
209
100
AcDbSymbolTableRecord
100
AcDbLayerTableRecord
  2
10_NOTES
 70
0
 62
7
  6
CONTINUOUS
370
-3
390
F
  0
LAYER
  5
20A
100
AcDbSymbolTableRecord
100
AcDbLayerTableRecord
  2
11_NOTES_PUB
 70
0
 62
7
  6
CONTINUOUS
370
-3
390
F
  0
LAYER
  5
20B
100
AcDbSymbolTableRecord
100
AcDbLayerTableRecord
  2
13_REF_GTOL
 70
0
 62
7
  6
CONTINUOUS
370
-3
390
F
  0
LAYER
  5
20C
100
AcDbSymbolTableRecord
100
AcDbLayerTableRecord
  2
16_MISC
 70
0
 62
7
  6
CONTINUOUS
370
-3
390
F
  0
LAYER
  5
20D
100
AcDbSymbolTableRecord
100
AcDbLayerTableRecord
  2
17_NO_PRINT
 70
0
 62
7
  6
CONTINUOUS
370
-3
390
F
  0
LAYER
  5
20E
100
AcDbSymbolTableRecord
100
AcDbLayerTableRecord
  2
18_DATUM_CAMS_JOINTS
 70
0
 62
7
  6
CONTINUOUS
370
-3
390
F
  0
LAYER
  5
20F
100
AcDbSymbolTableRecord
100
AcDbLayerTableRecord
  2
19_DATUM_FUNCTIONAL
 70
0
 62
7
  6
CONTINUOUS
370
-3
390
F
  0
LAYER
  5
210
100
AcDbSymbolTableRecord
100
AcDbLayerTableRecord
  2
20_DATUM_KINEMATIC_SCHEME
 70
0
 62
7
  6
CONTINUOUS
370
-3
390
F
  0
ENDTAB
  0
TABLE
  2
STYLE
  5
3
100
AcDbSymbolTable
 70
1
  0
STYLE
  5
11
100
AcDbSymbolTableRecord
100
AcDbTextStyleTableRecord
  2
STANDARD
 70
0
 40
0.0
 41
0.8
 50
0.0
 71
0
 42
0.2
  3
txt
  4

  0
STYLE
  5
211
100
AcDbSymbolTableRecord
100
AcDbTextStyleTableRecord
  2
TEXTSTYLE_1
 70
0
 40
0.0
 41
0.8
 50
0.0
 71
0
 42
0.2
  3
gdt
  4

  0
ENDTAB
  0
TABLE
  2
VIEW
  5
6
100
AcDbSymbolTable
 70
0
  0
ENDTAB
  0
TABLE
  2
UCS
  5
7
100
AcDbSymbolTable
 70
0
  0
ENDTAB
  0
TABLE
  2
APPID
  5
9
100
AcDbSymbolTable
 70
1
  0
APPID
  5
212
100
AcDbSymbolTableRecord
100
AcDbRegAppTableRecord
  2
ACAD
 70
0
  0
ENDTAB
  0
TABLE
  2
BLOCK_RECORD
  5
1
100
AcDbSymbolTable
 70
0
  0
BLOCK_RECORD
  5
213
100
AcDbSymbolTableRecord
100
AcDbBlockTableRecord
  2
*Model_Space
  0
BLOCK_RECORD
  5
214
100
AcDbSymbolTableRecord
100
AcDbBlockTableRecord
  2
*Paper_Space
  0
BLOCK_RECORD
  5
215
100
AcDbSymbolTableRecord
100
AcDbBlockTableRecord
  2
_FILLED
  0
ENDTAB
  0
TABLE
  2
DIMSTYLE
  5
A
100
AcDbSymbolTable
 70
1
100
AcDbDimStyleTable
 71
0
  0
DIMSTYLE
105
216
100
AcDbSymbolTableRecord
100
AcDbDimStyleTableRecord
  2
STANDARD
 70
0
  3

  4

 40
1.0
 41
3.1758964485
 42
1.0
 43
0.38
 44
1.0
 45
0.0
 46
0.0
 47
0.01
 48
0.01
140
4.4462550279
141
0.09
142
0.0
143
25.4
144
1.0
145
0.0
146
1.0
147
0.625
 71
1
 72
0
 73
0
 74
0
 75
0
 76
0
 77
1
 78
8
 79
2
170
0
171
1
172
0
173
0
174
0
175
0
176
0
177
0
178
0
270
2
179
2
271
2
272
2
273
2
274
2
275
0
280
0
281
0
282
0
283
1
284
8
285
0
286
0
287
3
288
0
340
11
278
46
341
215
342
215
343
215
344
215
  0
ENDTAB
  0
ENDSEC
  0
SECTION
  2
BLOCKS
  0
BLOCK
  5
20
100
AcDbEntity
  8
0
100
AcDbBlockBegin
  2
*Model_Space
 70
0
 10
0.0
 20
0.0
 30
0.0
  3
*Model_Space
  1

  0
ENDBLK
  5
21
100
AcDbEntity
  8
0
100
AcDbBlockEnd
  0
BLOCK
  5
1C
100
AcDbEntity
  8
0
100
AcDbBlockBegin
  2
*Paper_Space
 70
0
 10
0.0
 20
0.0
 30
0.0
  3
*Paper_Space
  1

  0
ENDBLK
  5
1D
100
AcDbEntity
  8
0
100
AcDbBlockEnd
  0
BLOCK
  5
217
100
AcDbEntity
  8
0
100
AcDbBlockBegin
  2
_FILLED
 70
64
 10
0.0
 20
0.0
  3
_FILLED
  1

  0
SOLID
  5
218
100
AcDbEntity
  8
0
  6
BYBLOCK
 62
0
100
AcDbTrace
 10
0.0
 20
0.0
 11
-1.0
 21
0.25
 12
-1.0
 22
-0.25
 13
-1.0
 23
-0.25
  0
ENDBLK
  5
219
100
AcDbEntity
  8
0
  6
BYBLOCK
 62
0
100
AcDbBlockEnd
  0
ENDSEC
  0
SECTION
  2
ENTITIES
  0
LINE
  5
21A
100
AcDbEntity
  8
00_COMPONENTS
100
AcDbLine
 62
7
  6
CONTINUOUS
 10
46.7929849046
 20
307.7023888846
 11
113.7486472503
 21
346.3590278147
  0
LINE
  5
21B
100
AcDbEntity
  8
00_COMPONENTS
100
AcDbLine
 62
7
  6
CONTINUOUS
 10
79.1734371452
 20
323.9451927648
 11
102.1543118546
 21
337.2131277657
  0
LINE
  5
21C
100
AcDbEntity
  8
00_COMPONENTS
100
AcDbLine
 62
7
  6
CONTINUOUS
 10
58.2431659188
 20
311.5345718469
 11
66.3748600468
 21
316.2293796164
  0
LINE
  5
21D
100
AcDbEntity
  8
00_COMPONENTS
100
AcDbLine
 62
7
  6
CONTINUOUS
 10
73.8701760299
 20
318.4339068856
 11
81.2947663206
 21
322.7204705013
  0
LINE
  5
21E
100
AcDbEntity
  8
00_COMPONENTS
100
AcDbLine
 62
7
  6
CONTINUOUS
 10
46.8100171905
 20
300.2004001832
 11
44.399825837
 21
298.8063802772
  0
LINE
  5
21F
100
AcDbEntity
  8
00_COMPONENTS
100
AcDbLine
 62
7
  6
CONTINUOUS
 10
105.228516133
 20
329.1758606124
 11
110.6025052958
 21
332.2785161818
  0
LINE
  5
220
100
AcDbEntity
  8
00_COMPONENTS
100
AcDbLine
 62
7
  6
CONTINUOUS
 10
78.2521300067
 20
312.6381157744
 11
81.0805453556
 21
314.2710923899
  0
LINE
  5
221
100
AcDbEntity
  8
00_COMPONENTS
100
AcDbLine
 62
7
  6
CONTINUOUS
 10
66.0921074197
 20
303.7371598381
 11
64.5364789778
 21
302.8390226996
  0
LINE
  5
222
100
AcDbEntity
  8
00_COMPONENTS
100
AcDbLine
 62
7
  6
CONTINUOUS
 10
42.9778684905
 20
288.6772913829
 11
45.4254986934
 21
290.0904229042
  0
LINE
  5
223
100
AcDbEntity
  8
00_COMPONENTS
100
AcDbLine
 62
7
  6
CONTINUOUS
 10
99.3264059746
 20
320.1479449494
 11
100.7406136491
 21
320.9644332572
  0
LINE
  5
224
100
AcDbEntity
  8
00_COMPONENTS
100
AcDbLine
 62
7
  6
CONTINUOUS
 10
99.5564875571
 20
315.6644689806
 11
101.3242471501
 21
316.6850793652
  0
LINE
  5
225
100
AcDbEntity
  8
00_COMPONENTS
100
AcDbLine
 62
7
  6
CONTINUOUS
 10
38.444229626
 20
279.6094390757
 11
42.7575666544
 21
282.0997305052
  0
LINE
  5
226
100
AcDbEntity
  8
00_COMPONENTS
100
AcDbLine
 62
7
  6
CONTINUOUS
 10
100.0586351894
 20
314.797201084
 11
91.5733891428
 21
309.8982712376
  0
LINE
  5
227
100
AcDbEntity
  8
00_COMPONENTS
100
AcDbLine
 62
7
  6
CONTINUOUS
 10
78.2521300067
 20
301.8602838683
 11
81.0805453556
 21
303.4932604838
  0
LINE
  5
228
100
AcDbEntity
  8
00_COMPONENTS
100
AcDbLine
 62
7
  6
CONTINUOUS
 10
98.9016518672
 20
323.0877209271
 11
105.228516133
 21
329.1758606124
  0
LINE
  5
229
100
AcDbEntity
  8
00_COMPONENTS
100
AcDbLine
 62
7
  6
CONTINUOUS
 10
94.7731037972
 20
307.3273085953
 11
92.0700927902
 21
305.3550412068
  0
LINE
  5
22A
100
AcDbEntity
  8
00_COMPONENTS
100
AcDbLine
 62
7
  6
CONTINUOUS
 10
81.6483639505
 20
300.9606616206
 11
89.7395284023
 21
305.6320697104
  0
LINE
  5
22B
100
AcDbEntity
  8
00_COMPONENTS
100
AcDbLine
 62
7
  6
CONTINUOUS
 10
111.8116341137
 20
318.1186612267
 11
110.9116400399
 21
317.5990525076
  0
LINE
  5
22C
100
AcDbEntity
  8
00_COMPONENTS
100
AcDbLine
 62
7
  6
CONTINUOUS
 10
95.0695474341
 20
307.0867668159
 11
92.0700927902
 21
305.3550412068
  0
LINE
  5
22D
100
AcDbEntity
  8
00_COMPONENTS
100
AcDbLine
 62
7
  6
CONTINUOUS
 10
80.2343019226
 20
295.5723447477
 11
78.6786734808
 21
294.6742076092
  0
LINE
  5
22E
100
AcDbEntity
  8
00_COMPONENTS
100
AcDbLine
 62
7
  6
CONTINUOUS
 10
95.6470292453
 20
302.5953932132
 11
98.4754445942
 21
304.2283698287
  0
LINE
  5
22F
100
AcDbEntity
  8
00_COMPONENTS
100
AcDbLine
 62
7
  6
CONTINUOUS
 10
129.7687143959
 20
321.2131505306
 11
124.3947252331
 21
318.1104949611
  0
LINE
  5
230
100
AcDbEntity
  8
00_COMPONENTS
100
AcDbLine
 62
7
  6
CONTINUOUS
 10
95.6470292453
 20
301.4518530238
 11
93.3681915416
 21
300.1361733157
  0
LINE
  5
231
100
AcDbEntity
  8
00_COMPONENTS
100
AcDbLine
 62
7
  6
CONTINUOUS
 10
47.0467255343
 20
104.1990797851
 11
84.1699861045
 21
82.7664401728
  0
LINE
  5
232
100
AcDbEntity
  8
00_COMPONENTS
100
AcDbLine
 62
7
  6
CONTINUOUS
 10
92.6553028062
 20
77.8675511185
 11
126.5965696133
 21
58.2719949015
  0
LINE
  5
233
100
AcDbEntity
  8
00_COMPONENTS
100
AcDbLine
 62
7
  6
CONTINUOUS
 10
135.0818863151
 20
53.3731058473
 11
172.2051468853
 21
31.940466235
  0
LINE
  5
234
100
AcDbEntity
  8
00_COMPONENTS
100
AcDbLine
 62
7
  6
CONTINUOUS
 10
46.6539209102
 20
104.8438763774
 11
83.7771814804
 21
83.4112367651
  0
LINE
  5
235
100
AcDbEntity
  8
00_COMPONENTS
100
AcDbLine
 62
7
  6
CONTINUOUS
 10
92.2624981821
 20
78.5123477108
 11
126.2037649892
 21
58.9167914939
  0
LINE
  5
236
100
AcDbEntity
  8
00_COMPONENTS
100
AcDbLine
 62
7
  6
CONTINUOUS
 10
134.689081691
 20
54.0179024396
 11
171.8123422612
 21
32.5852628273
  0
LINE
  5
237
100
AcDbEntity
  8
00_COMPONENTS
100
AcDbLine
 62
7
  6
CONTINUOUS
 10
134.3663010661
 20
55.9486193651
 11
134.1160935961
 21
56.0930734473
  0
LINE
  5
238
100
AcDbEntity
  8
00_COMPONENTS
100
AcDbLine
 62
7
  6
CONTINUOUS
 10
132.1361863657
 20
57.2361475599
 11
128.88348163
 21
59.1140550307
  0
LINE
  5
239
100
AcDbEntity
  8
00_COMPONENTS
100
AcDbLine
 62
7
  6
CONTINUOUS
 10
91.9397175572
 20
80.4430646363
 11
91.6895100873
 21
80.5875187185
  0
LINE
  5
23A
100
AcDbEntity
  8
00_COMPONENTS
100
AcDbLine
 62
7
  6
CONTINUOUS
 10
89.7096028568
 20
81.7305928311
 11
86.4568981212
 21
83.6085003019
  0
LINE
  5
23B
100
AcDbEntity
  8
00_COMPONENTS
100
AcDbLine
 62
7
  6
CONTINUOUS
 10
171.171628271
 20
36.4177027252
 11
170.1816746558
 21
36.9892397815
  0
LINE
  5
23C
100
AcDbEntity
  8
00_COMPONENTS
100
AcDbLine
 62
7
  6
CONTINUOUS
 10
47.0031605352
 20
108.104779219
 11
46.01320692
 21
108.6763162753
  0
LINE
  5
23D
100
AcDbEntity
  8
00_COMPONENTS
100
AcDbLine
 62
7
  6
CONTINUOUS
 10
45.7144346541
 20
110.4634268579
 11
46.7043882693
 21
109.8918898016
  0
LINE
  5
23E
100
AcDbEntity
  8
00_COMPONENTS
100
AcDbLine
 62
7
  6
CONTINUOUS
 10
169.8829023899
 20
38.7763503642
 11
170.8728560051
 21
38.2048133078
  0
LINE
  5
23F
100
AcDbEntity
  8
00_COMPONENTS
100
AcDbLine
 62
7
  6
CONTINUOUS
 10
45.5277019879
 20
111.5803709721
 11
44.4670374002
 21
112.1927321039
  0
LINE
  5
240
100
AcDbEntity
  8
00_COMPONENTS
100
AcDbLine
 62
7
  6
CONTINUOUS
 10
170.686123339
 20
39.321757422
 11
171.7467879267
 21
38.7093962902
  0
LINE
  5
241
100
AcDbEntity
  8
00_COMPONENTS
100
AcDbLine
 62
7
  6
CONTINUOUS
 10
46.6539209102
 20
104.8438763774
 11
47.0468684898
 21
104.1993268044
  0
LINE
  5
242
100
AcDbEntity
  8
00_COMPONENTS
100
AcDbLine
 62
7
  6
CONTINUOUS
 10
30.949004317
 20
172.1580198731
 11
30.949004317
 21
243.1937301633
  0
LINE
  5
243
100
AcDbEntity
  8
00_COMPONENTS
100
AcDbLine
 62
7
  6
CONTINUOUS
 10
44.399825837
 20
298.8063802772
 11
43.7512134432
 21
294.186092186
  0
LINE
  5
244
100
AcDbEntity
  8
00_COMPONENTS
100
AcDbLine
 62
7
  6
CONTINUOUS
 10
42.9778684905
 20
288.6772913829
 11
42.6161422655
 21
286.1005916692
  0
LINE
  5
245
100
AcDbEntity
  8
00_COMPONENTS
100
AcDbLine
 62
7
  6
CONTINUOUS
 10
46.7929849046
 20
307.7023888846
 11
45.9447997097
 21
301.6604754207
  0
LINE
  5
246
100
AcDbEntity
  8
00_COMPONENTS
100
AcDbLine
 62
7
  6
CONTINUOUS
 10
45.6454402292
 20
299.5280353746
 11
45.4583405539
 21
298.1952603458
  0
LINE
  5
247
100
AcDbEntity
  8
00_COMPONENTS
100
AcDbLine
 62
7
  6
CONTINUOUS
 10
46.934753325
 20
301.0889383644
 11
46.6353938444
 21
298.9564983183
  0
LINE
  5
248
100
AcDbEntity
  8
00_COMPONENTS
100
AcDbLine
 62
7
  6
CONTINUOUS
 10
49.4666029484
 20
257.3668782002
 11
33.0070105273
 21
247.7639460225
  0
LINE
  5
249
100
AcDbEntity
  8
00_COMPONENTS
100
AcDbLine
 62
7
  6
CONTINUOUS
 10
38.0201984987
 20
247.276290828
 11
54.4797909198
 21
256.8792230058
  0
LINE
  5
24A
100
AcDbEntity
  8
00_COMPONENTS
100
AcDbLine
 62
7
  6
CONTINUOUS
 10
117.8116072524
 20
307.726340873
 11
116.9193234537
 21
307.2111836567
  0
LINE
  5
24B
100
AcDbEntity
  8
00_COMPONENTS
100
AcDbLine
 62
7
  6
CONTINUOUS
 10
113.1147039522
 20
304.3496365479
 11
105.6901136615
 21
300.0630729322
  0
LINE
  5
24C
100
AcDbEntity
  8
00_COMPONENTS
100
AcDbLine
 62
7
  6
CONTINUOUS
 10
86.4568981212
 20
287.7341045843
 11
83.9183953456
 21
286.2685080719
  0
LINE
  5
24D
100
AcDbEntity
  8
00_COMPONENTS
100
AcDbLine
 62
7
  6
CONTINUOUS
 10
101.8717682492
 20
295.7356937395
 11
93.7400741212
 21
291.04088597
  0
LINE
  5
24E
100
AcDbEntity
  8
00_COMPONENTS
100
AcDbLine
 62
7
  6
CONTINUOUS
 10
138.2169078371
 20
316.3928492851
 11
115.2360331277
 21
303.1249142843
  0
LINE
  5
24F
100
AcDbEntity
  8
00_COMPONENTS
100
AcDbLine
 62
7
  6
CONTINUOUS
 10
89.6367420135
 20
285.8982623894
 11
154.0539015837
 21
323.0893048071
  0
LINE
  5
250
100
AcDbEntity
  8
00_COMPONENTS
100
AcDbLine
 62
7
  6
CONTINUOUS
 10
42.5252042956
 20
257.4386582
 11
42.0431141308
 21
257.1603249749
  0
LINE
  5
251
100
AcDbEntity
  8
00_COMPONENTS
100
AcDbLine
 62
7
  6
CONTINUOUS
 10
43.7962233452
 20
257.2959663224
 11
43.6291981713
 21
257.1995348689
  0
LINE
  5
252
100
AcDbEntity
  8
00_COMPONENTS
100
AcDbLine
 62
7
  6
CONTINUOUS
 10
91.758071189
 20
284.6735401258
 11
156.1752307592
 21
321.8645825435
  0
LINE
  5
253
100
AcDbEntity
  8
00_COMPONENTS
100
AcDbLine
 62
7
  6
CONTINUOUS
 10
44.6720112202
 20
256.5974800947
 11
44.750710365
 21
256.6429167959
  0
LINE
  5
254
100
AcDbEntity
  8
00_COMPONENTS
100
AcDbLine
 62
7
  6
CONTINUOUS
 10
121.600020654
 20
299.4507474936
 11
144.5808953634
 21
312.7186824944
  0
LINE
  5
255
100
AcDbEntity
  8
00_COMPONENTS
100
AcDbLine
 62
7
  6
CONTINUOUS
 10
43.6115280651
 20
254.3315569925
 11
42.7453110149
 21
253.8314493307
  0
LINE
  5
256
100
AcDbEntity
  8
00_COMPONENTS
100
AcDbLine
 62
7
  6
CONTINUOUS
 10
44.6720112202
 20
254.9030160887
 11
43.6291981713
 21
254.3009512881
  0
LINE
  5
257
100
AcDbEntity
  8
00_COMPONENTS
100
AcDbLine
 62
7
  6
CONTINUOUS
 10
100.6697494276
 20
287.0401265757
 11
108.8014435556
 21
291.7349343452
  0
LINE
  5
258
100
AcDbEntity
  8
00_COMPONENTS
100
AcDbLine
 62
7
  6
CONTINUOUS
 10
91.758071189
 20
281.5707886127
 11
89.6367420135
 21
280.3460459529
  0
LINE
  5
259
100
AcDbEntity
  8
00_COMPONENTS
100
AcDbLine
 62
7
  6
CONTINUOUS
 10
94.9422148229
 20
282.8352155301
 11
92.4037120473
 21
281.3696190177
  0
LINE
  5
25A
100
AcDbEntity
  8
00_COMPONENTS
100
AcDbLine
 62
7
  6
CONTINUOUS
 10
91.758071189
 20
280.7542664424
 11
88.6467883983
 21
278.9579772081
  0
LINE
  5
25B
100
AcDbEntity
  8
00_COMPONENTS
100
AcDbLine
 62
7
  6
CONTINUOUS
 10
116.2967595387
 20
293.9394616144
 11
123.7213498294
 21
298.2260252301
  0
LINE
  5
25C
100
AcDbEntity
  8
00_COMPONENTS
100
AcDbLine
 62
7
  6
CONTINUOUS
 10
91.758071189
 20
279.6111828115
 11
89.6367420135
 21
278.3864401518
  0
LINE
  5
25D
100
AcDbEntity
  8
00_COMPONENTS
100
AcDbLine
 62
7
  6
CONTINUOUS
 10
92.0049291352
 20
278.5289518368
 11
89.6367420135
 21
277.1616865261
  0
LINE
  5
25E
100
AcDbEntity
  8
00_COMPONENTS
100
AcDbLine
 62
7
  6
CONTINUOUS
 10
112.8671689259
 20
82.2974956557
 11
112.522525323
 21
82.3791530699
  0
LINE
  5
25F
100
AcDbEntity
  8
00_COMPONENTS
100
AcDbLine
 62
7
  6
CONTINUOUS
 10
132.1361863657
 20
62.7883639964
 11
131.0755217779
 21
63.4007251282
  0
LINE
  5
260
100
AcDbEntity
  8
00_COMPONENTS
100
AcDbLine
 62
7
  6
CONTINUOUS
 10
89.7096028568
 20
87.2828092676
 11
88.6489382691
 21
87.8951703994
  0
LINE
  5
261
100
AcDbEntity
  8
00_COMPONENTS
100
AcDbLine
 62
7
  6
CONTINUOUS
 10
88.6489382691
 20
89.8547762005
 11
89.6388918843
 21
89.2832391442
  0
LINE
  5
262
100
AcDbEntity
  8
00_COMPONENTS
100
AcDbLine
 62
7
  6
CONTINUOUS
 10
131.0755217779
 20
65.3603309293
 11
132.0654753932
 21
64.788793873
  0
LINE
  5
263
100
AcDbEntity
  8
00_COMPONENTS
100
AcDbLine
 62
7
  6
CONTINUOUS
 10
89.6388918843
 20
90.5079927699
 11
90.3230836636
 21
90.1129833982
  0
LINE
  5
264
100
AcDbEntity
  8
00_COMPONENTS
100
AcDbLine
 62
7
  6
CONTINUOUS
 10
132.0654753932
 20
66.0135474987
 11
132.7496671724
 21
65.618538127
  0
LINE
  5
265
100
AcDbEntity
  8
00_COMPONENTS
100
AcDbLine
 62
7
  6
CONTINUOUS
 10
165.7239801524
 20
50.827343524
 11
164.1153055277
 21
51.7560912405
  0
LINE
  5
266
100
AcDbEntity
  8
00_COMPONENTS
100
AcDbLine
 62
7
  6
CONTINUOUS
 10
40.0529042507
 20
123.3819316211
 11
38.444229626
 21
124.3106793377
  0
LINE
  5
267
100
AcDbEntity
  8
00_COMPONENTS
100
AcDbLine
 62
7
  6
CONTINUOUS
 10
39.1513393511
 20
124.6372907586
 11
38.444229626
 21
125.0455315131
  0
LINE
  5
268
100
AcDbEntity
  8
00_COMPONENTS
100
AcDbLine
 62
7
  6
CONTINUOUS
 10
165.0168704273
 20
51.970436454
 11
165.7239801524
 21
51.5621956994
  0
LINE
  5
269
100
AcDbEntity
  8
00_COMPONENTS
100
AcDbLine
 62
7
  6
CONTINUOUS
 10
40.7508745476
 20
123.8155660036
 11
44.922821926
 21
121.4069455519
  0
LINE
  5
26A
100
AcDbEntity
  8
00_COMPONENTS
100
AcDbLine
 62
7
  6
CONTINUOUS
 10
47.4684169365
 20
119.9372788356
 11
112.52251165
 21
82.3791294197
  0
LINE
  5
26B
100
AcDbEntity
  8
00_COMPONENTS
100
AcDbLine
 62
7
  6
CONTINUOUS
 10
120.7249844617
 20
77.6435366673
 11
164.1153055277
 21
52.5926898455
  0
LINE
  5
26C
100
AcDbEntity
  8
00_COMPONENTS
100
AcDbLine
 62
7
  6
CONTINUOUS
 10
169.9666031757
 20
49.357596845
 11
166.5724178427
 21
51.3171863289
  0
LINE
  5
26D
100
AcDbEntity
  8
00_COMPONENTS
100
AcDbLine
 62
7
  6
CONTINUOUS
 10
120.5210547257
 20
77.904351739
 11
112.8783098451
 21
82.3167927304
  0
LINE
  5
26E
100
AcDbEntity
  8
00_COMPONENTS
100
AcDbLine
 62
7
  6
CONTINUOUS
 10
47.2644872004
 20
120.1980939073
 11
45.2786201211
 21
121.3446088625
  0
LINE
  5
26F
100
AcDbEntity
  8
00_COMPONENTS
100
AcDbLine
 62
7
  6
CONTINUOUS
 10
40.3884279863
 20
124.6166917622
 11
44.5603753647
 21
122.2080713106
  0
LINE
  5
270
100
AcDbEntity
  8
00_COMPONENTS
100
AcDbLine
 62
7
  6
CONTINUOUS
 10
47.1059703752
 20
120.7384045943
 11
112.1600650887
 21
83.1802551784
  0
LINE
  5
271
100
AcDbEntity
  8
00_COMPONENTS
100
AcDbLine
 62
7
  6
CONTINUOUS
 10
120.3625379004
 20
78.444662426
 11
163.849785997
 21
53.337856023
  0
LINE
  5
272
100
AcDbEntity
  8
00_COMPONENTS
100
AcDbLine
 62
7
  6
CONTINUOUS
 10
165.9586998794
 20
52.9236062045
 11
166.2311580459
 21
52.7663059674
  0
LINE
  5
273
100
AcDbEntity
  8
00_COMPONENTS
100
AcDbLine
 62
7
  6
CONTINUOUS
 10
39.1513393511
 20
126.7601970431
 11
38.444229626
 21
127.1684377976
  0
LINE
  5
274
100
AcDbEntity
  8
00_COMPONENTS
100
AcDbLine
 62
7
  6
CONTINUOUS
 10
165.0168704273
 20
54.0933427385
 11
165.7239801524
 21
53.685101984
  0
LINE
  5
275
100
AcDbEntity
  8
00_COMPONENTS_2
100
AcDbLine
 62
7
  6
CONTINUOUS
 10
70.7441755497
 20
109.0098611356
 11
49.9654241593
 21
121.0062074507
  0
LINE
  5
276
100
AcDbEntity
  8
00_COMPONENTS
100
AcDbLine
 62
7
  6
CONTINUOUS
 10
120.3625379004
 20
81.1394235689
 11
114.6032347258
 21
84.4644835842
  0
LINE
  5
277
100
AcDbEntity
  8
00_COMPONENTS
100
AcDbLine
 62
7
  6
CONTINUOUS
 10
47.1059703752
 20
123.4331657372
 11
47.0035450018
 21
123.4922997163
  0
LINE
  5
278
100
AcDbEntity
  8
00_COMPONENTS
100
AcDbLine
 62
7
  6
CONTINUOUS
 10
169.9666031757
 20
53.0318577221
 11
169.7544665924
 21
53.1543320648
  0
LINE
  5
279
100
AcDbEntity
  8
00_COMPONENTS
100
AcDbLine
 62
7
  6
CONTINUOUS
 10
46.8588353552
 20
124.2699786199
 11
44.7375061798
 21
125.4947008835
  0
LINE
  5
27A
100
AcDbEntity
  8
00_COMPONENTS
100
AcDbLine
 62
7
  6
CONTINUOUS
 10
112.1600650887
 20
86.6258953787
 11
120.3625379004
 21
81.8903026263
  0
LINE
  5
27B
100
AcDbEntity
  8
00_COMPONENTS
100
AcDbLine
 62
7
  6
CONTINUOUS
 10
166.7807472169
 20
52.8303669242
 11
167.350318978
 21
52.5011572533
  0
LINE
  5
27C
100
AcDbEntity
  8
00_COMPONENTS_2
100
AcDbLine
 62
7
  6
CONTINUOUS
 10
49.9654241593
 20
121.0062074507
 11
46.5397456987
 21
126.1646340009
  0
LINE
  5
27D
100
AcDbEntity
  8
00_COMPONENTS
100
AcDbLine
 62
7
  6
CONTINUOUS
 10
84.17012906
 20
82.7666871921
 11
83.7771814804
 21
83.4112367651
  0
LINE
  5
27E
100
AcDbEntity
  8
00_COMPONENTS
100
AcDbLine
 62
7
  6
CONTINUOUS
 10
42.7133282522
 20
122.6825684607
 11
43.0603179816
 21
120.6070444304
  0
LINE
  5
27F
100
AcDbEntity
  8
00_COMPONENTS
100
AcDbLine
 62
7
  6
CONTINUOUS
 10
43.8072486464
 20
116.1392679738
 11
44.4670374002
 21
112.1927321039
  0
LINE
  5
280
100
AcDbEntity
  8
00_COMPONENTS
100
AcDbLine
 62
7
  6
CONTINUOUS
 10
45.5277019879
 20
111.5803709721
 11
45.7144346541
 21
110.4634268579
  0
LINE
  5
281
100
AcDbEntity
  8
00_COMPONENTS
100
AcDbLine
 62
7
  6
CONTINUOUS
 10
46.01320692
 20
108.6763162753
 11
46.6539209102
 21
104.8438763774
  0
LINE
  5
282
100
AcDbEntity
  8
00_COMPONENTS
100
AcDbLine
 62
7
  6
CONTINUOUS
 10
46.7043882693
 20
109.8918898016
 11
47.0031605352
 21
108.104779219
  0
LINE
  5
283
100
AcDbEntity
  8
00_COMPONENTS
100
AcDbLine
 62
7
  6
CONTINUOUS
 10
38.444229626
 20
279.6094390757
 11
38.444229626
 21
250.9361537482
  0
LINE
  5
284
100
AcDbEntity
  8
00_COMPONENTS
100
AcDbLine
 62
7
  6
CONTINUOUS
 10
38.444229626
 20
159.665723248
 11
38.444229626
 21
127.1684377976
  0
LINE
  5
285
100
AcDbEntity
  8
00_COMPONENTS
100
AcDbLine
 62
7
  6
CONTINUOUS
 10
38.444229626
 20
125.0455315131
 11
38.444229626
 21
124.3106793377
  0
LINE
  5
286
100
AcDbEntity
  8
00_COMPONENTS
100
AcDbLine
 62
7
  6
CONTINUOUS
 10
39.1513393511
 20
126.7601970431
 11
39.1513393511
 21
124.6372907586
  0
LINE
  5
287
100
AcDbEntity
  8
00_COMPONENTS
100
AcDbLine
 62
7
  6
CONTINUOUS
 10
40.0529042507
 20
158.7369755315
 11
40.0529042507
 21
123.3819316211
  0
LINE
  5
288
100
AcDbEntity
  8
00_COMPONENTS
100
AcDbLine
 62
7
  6
CONTINUOUS
 10
40.3884279863
 20
124.6166917622
 11
40.3884279863
 21
152.5410744281
  0
LINE
  5
289
100
AcDbEntity
  8
00_COMPONENTS
100
AcDbLine
 62
7
  6
CONTINUOUS
 10
41.449092574
 20
157.9309040629
 11
41.449092574
 21
151.9287132963
  0
LINE
  5
28A
100
AcDbEntity
  8
00_COMPONENTS
100
AcDbLine
 62
7
  6
CONTINUOUS
 10
42.6161422655
 20
282.181380067
 11
42.6161422655
 21
286.1005916692
  0
LINE
  5
28B
100
AcDbEntity
  8
00_COMPONENTS
100
AcDbLine
 62
7
  6
CONTINUOUS
 10
42.7453110149
 20
253.8314493307
 11
42.7453110149
 21
254.8112522312
  0
LINE
  5
28C
100
AcDbEntity
  8
00_COMPONENTS
100
AcDbLine
 62
7
  6
CONTINUOUS
 10
43.6291981713
 20
254.3009512881
 11
43.6291981713
 21
257.1995348689
  0
LINE
  5
28D
100
AcDbEntity
  8
00_COMPONENTS
100
AcDbLine
 62
7
  6
CONTINUOUS
 10
44.5603753647
 20
129.0830216628
 11
44.5603753647
 21
122.2080713106
  0
LINE
  5
28E
100
AcDbEntity
  8
00_COMPONENTS
100
AcDbLine
 62
7
  6
CONTINUOUS
 10
44.6720112202
 20
256.5974800947
 11
44.6720112202
 21
254.5695951322
  0
LINE
  5
28F
100
AcDbEntity
  8
00_COMPONENTS
100
AcDbLine
 62
7
  6
CONTINUOUS
 10
44.7375061798
 20
125.4947008835
 11
44.7375061798
 21
128.760710552
  0
LINE
  5
290
100
AcDbEntity
  8
00_COMPONENTS
100
AcDbLine
 62
7
  6
CONTINUOUS
 10
46.8588353552
 20
127.5359882885
 11
46.8588353552
 21
126.6153307396
  0
LINE
  5
291
100
AcDbEntity
  8
00_COMPONENTS
100
AcDbLine
 62
7
  6
CONTINUOUS
 10
46.8588353552
 20
125.6841450773
 11
46.8588353552
 21
124.2699786199
  0
LINE
  5
292
100
AcDbEntity
  8
00_COMPONENTS
100
AcDbLine
 62
7
  6
CONTINUOUS
 10
47.0352387949
 20
124.3718245854
 11
47.0352387949
 21
123.6369258491
  0
LINE
  5
293
100
AcDbEntity
  8
00_COMPONENTS
100
AcDbLine
 62
7
  6
CONTINUOUS
 10
47.1059703752
 20
127.6133549465
 11
47.1059703752
 21
126.9643954781
  0
LINE
  5
294
100
AcDbEntity
  8
00_COMPONENTS
100
AcDbLine
 62
7
  6
CONTINUOUS
 10
47.1059703752
 20
125.312006284
 11
47.1059703752
 21
120.7384045943
  0
LINE
  5
295
100
AcDbEntity
  8
00_COMPONENTS
100
AcDbLine
 62
7
  6
CONTINUOUS
 10
91.8178359261
 20
277.1962228693
 11
91.758071189
 21
277.1617178882
  0
LINE
  5
296
100
AcDbEntity
  8
00_COMPONENTS
100
AcDbLine
 62
7
  6
CONTINUOUS
 10
81.5484661248
 20
269.3866910403
 11
86.4568981212
 21
272.2205586589
  0
LINE
  5
297
100
AcDbEntity
  8
00_COMPONENTS
100
AcDbLine
 62
7
  6
CONTINUOUS
 10
147.6550996418
 20
304.6814153412
 11
153.0290888046
 21
307.7840709106
  0
LINE
  5
298
100
AcDbEntity
  8
00_COMPONENTS
100
AcDbLine
 62
7
  6
CONTINUOUS
 10
120.6787135155
 20
288.1436705032
 11
123.5071288644
 21
289.7766471187
  0
LINE
  5
299
100
AcDbEntity
  8
00_COMPONENTS
100
AcDbLine
 62
7
  6
CONTINUOUS
 10
108.5186909285
 20
279.2427145669
 11
106.9630624866
 21
278.3445774284
  0
LINE
  5
29A
100
AcDbEntity
  8
00_COMPONENTS
100
AcDbLine
 62
7
  6
CONTINUOUS
 10
141.7529894835
 20
295.6534996782
 11
143.1671971579
 21
296.4699879859
  0
LINE
  5
29B
100
AcDbEntity
  8
00_COMPONENTS
100
AcDbLine
 62
7
  6
CONTINUOUS
 10
45.2674792019
 20
121.3253117879
 11
44.9228355989
 21
121.406969202
  0
LINE
  5
29C
100
AcDbEntity
  8
00_COMPONENTS_2
100
AcDbLine
 62
7
  6
CONTINUOUS
 10
67.3184970891
 20
114.1682876858
 11
46.5397456987
 21
126.1646340009
  0
LINE
  5
29D
100
AcDbEntity
  8
00_COMPONENTS
100
AcDbLine
 62
7
  6
CONTINUOUS
 10
171.663652385
 20
54.0116436914
 11
171.4515158017
 21
54.1341180341
  0
LINE
  5
29E
100
AcDbEntity
  8
00_COMPONENTS
100
AcDbLine
 62
7
  6
CONTINUOUS
 10
44.7375061798
 20
128.760710552
 11
46.8588353552
 21
127.5359882885
  0
LINE
  5
29F
100
AcDbEntity
  8
00_COMPONENTS_2
100
AcDbLine
 62
7
  6
CONTINUOUS
 10
70.7441755497
 20
109.0098611356
 11
67.3184970891
 21
114.1682876858
  0
LINE
  5
2A0
100
AcDbEntity
  8
00_COMPONENTS
100
AcDbLine
 62
7
  6
CONTINUOUS
 10
92.2624981821
 20
78.5123477108
 11
92.6554457618
 21
77.8677981379
  0
LINE
  5
2A1
100
AcDbEntity
  8
00_COMPONENTS
100
AcDbLine
 62
7
  6
CONTINUOUS
 10
58.2431659188
 20
311.5345718469
 11
58.2431659188
 21
308.2686322133
  0
LINE
  5
2A2
100
AcDbEntity
  8
00_COMPONENTS
100
AcDbLine
 62
7
  6
CONTINUOUS
 10
76.6874097272
 20
265.545004207
 11
76.9463194214
 21
266.1172025538
  0
LINE
  5
2A3
100
AcDbEntity
  8
00_COMPONENTS
100
AcDbLine
 62
7
  6
CONTINUOUS
 10
141.3282353761
 20
298.5932756559
 11
147.6550996418
 21
304.6814153412
  0
LINE
  5
2A4
100
AcDbEntity
  8
00_COMPONENTS
100
AcDbLine
 62
7
  6
CONTINUOUS
 10
141.9830710659
 20
291.1700237094
 11
143.7508306589
 21
292.190634094
  0
LINE
  5
2A5
100
AcDbEntity
  8
00_COMPONENTS
100
AcDbLine
 62
7
  6
CONTINUOUS
 10
142.4852186982
 20
290.3027558128
 11
133.9999726517
 21
285.4038259663
  0
LINE
  5
2A6
100
AcDbEntity
  8
00_COMPONENTS
100
AcDbLine
 62
7
  6
CONTINUOUS
 10
120.6787135155
 20
277.3658385971
 11
123.5071288644
 21
278.9988152126
  0
LINE
  5
2A7
100
AcDbEntity
  8
00_COMPONENTS
100
AcDbLine
 62
7
  6
CONTINUOUS
 10
124.0749474593
 20
276.4662163494
 11
132.1661119111
 21
281.1376244391
  0
LINE
  5
2A8
100
AcDbEntity
  8
00_COMPONENTS
100
AcDbLine
 62
7
  6
CONTINUOUS
 10
154.2382176225
 20
293.6242159555
 11
153.3382235487
 21
293.1046072364
  0
LINE
  5
2A9
100
AcDbEntity
  8
00_COMPONENTS
100
AcDbLine
 62
7
  6
CONTINUOUS
 10
137.7042982199
 20
282.2404823454
 11
134.4330364238
 21
280.3518297405
  0
LINE
  5
2AA
100
AcDbEntity
  8
00_COMPONENTS
100
AcDbLine
 62
7
  6
CONTINUOUS
 10
122.6608854314
 20
271.0778994765
 11
121.1052569896
 21
270.179762338
  0
LINE
  5
2AB
100
AcDbEntity
  8
00_COMPONENTS
100
AcDbLine
 62
7
  6
CONTINUOUS
 10
138.0736127541
 20
278.100947942
 11
140.902028103
 21
279.7339245575
  0
LINE
  5
2AC
100
AcDbEntity
  8
00_COMPONENTS
100
AcDbLine
 62
7
  6
CONTINUOUS
 10
172.1952979048
 20
296.7187052593
 11
166.8213087419
 21
293.6160496899
  0
LINE
  5
2AD
100
AcDbEntity
  8
00_COMPONENTS
100
AcDbLine
 62
7
  6
CONTINUOUS
 10
138.0736127541
 20
276.1827343538
 11
136.1687010483
 21
275.0829396325
  0
LINE
  5
2AE
100
AcDbEntity
  8
00_COMPONENTS
100
AcDbLine
 62
7
  6
CONTINUOUS
 10
41.449092574
 20
151.9287132963
 11
40.3884279863
 21
152.5410744281
  0
LINE
  5
2AF
100
AcDbEntity
  8
00_COMPONENTS
100
AcDbLine
 62
7
  6
CONTINUOUS
 10
162.7891214093
 20
81.8745998206
 11
163.849785997
 21
81.2622386888
  0
LINE
  5
2B0
100
AcDbEntity
  8
00_COMPONENTS_2
100
AcDbLine
 62
7
  6
CONTINUOUS
 10
80.3282954683
 20
130.4767371832
 11
58.5106460782
 21
143.0728779689
  0
LINE
  5
2B1
100
AcDbEntity
  8
00_COMPONENTS
100
AcDbLine
 62
7
  6
CONTINUOUS
 10
93.2795803372
 20
125.2710538663
 11
110.9573234659
 21
115.0650350033
  0
LINE
  5
2B2
100
AcDbEntity
  8
00_COMPONENTS
100
AcDbLine
 62
7
  6
CONTINUOUS
 10
101.2912224011
 20
122.4483393999
 11
104.1196613017
 21
120.8153763818
  0
LINE
  5
2B3
100
AcDbEntity
  8
00_COMPONENTS
100
AcDbLine
 62
7
  6
CONTINUOUS
 10
133.0555516981
 20
105.0430867104
 11
90.2377488667
 21
129.7633974531
  0
LINE
  5
2B4
100
AcDbEntity
  8
00_COMPONENTS
100
AcDbLine
 62
7
  6
CONTINUOUS
 10
61.1095452746
 20
146.5801931912
 11
38.0201984987
 21
159.9105321952
  0
LINE
  5
2B5
100
AcDbEntity
  8
00_COMPONENTS
100
AcDbLine
 62
7
  6
CONTINUOUS
 10
126.5967125688
 20
58.2722419209
 11
126.2037649892
 21
58.9167914938
  0
LINE
  5
2B6
100
AcDbEntity
  8
00_COMPONENTS
100
AcDbLine
 62
7
  6
CONTINUOUS
 10
66.0921074197
 20
301.9409005182
 11
66.0921074197
 21
303.7371598381
  0
LINE
  5
2B7
100
AcDbEntity
  8
00_COMPONENTS
100
AcDbLine
 62
7
  6
CONTINUOUS
 10
66.3748600468
 20
301.7776569059
 11
66.3748600468
 21
316.2293796164
  0
LINE
  5
2B8
100
AcDbEntity
  8
00_COMPONENTS
100
AcDbLine
 62
7
  6
CONTINUOUS
 10
69.6279062826
 20
216.8586679168
 11
69.6279062826
 21
158.0760516197
  0
LINE
  5
2B9
100
AcDbEntity
  8
00_COMPONENTS
100
AcDbLine
 62
7
  6
CONTINUOUS
 10
69.9814582012
 20
211.2690539624
 11
69.9814582012
 21
202.0425766489
  0
LINE
  5
2BA
100
AcDbEntity
  8
00_COMPONENTS
100
AcDbLine
 62
7
  6
CONTINUOUS
 10
72.0317142962
 20
316.2293932138
 11
72.0317142962
 21
298.511744467
  0
LINE
  5
2BB
100
AcDbEntity
  8
00_COMPONENTS
100
AcDbLine
 62
7
  6
CONTINUOUS
 10
73.5170068269
 20
209.2278501898
 11
73.5170068269
 21
200.0013728763
  0
LINE
  5
2BC
100
AcDbEntity
  8
00_COMPONENTS
100
AcDbLine
 62
7
  6
CONTINUOUS
 10
81.5484661248
 20
269.3866910403
 11
83.9183953456
 21
286.2685080719
  0
LINE
  5
2BD
100
AcDbEntity
  8
00_COMPONENTS
100
AcDbLine
 62
7
  6
CONTINUOUS
 10
136.7653143156
 20
282.8744019083
 11
134.4330364238
 21
280.3518297405
  0
LINE
  5
2BE
100
AcDbEntity
  8
00_COMPONENTS
100
AcDbLine
 62
7
  6
CONTINUOUS
 10
160.2381907612
 20
283.2318956018
 11
159.3459069625
 21
282.7167383855
  0
LINE
  5
2BF
100
AcDbEntity
  8
00_COMPONENTS
100
AcDbLine
 62
7
  6
CONTINUOUS
 10
155.5412874611
 20
279.8551912766
 11
148.1166971703
 21
275.568627661
  0
LINE
  5
2C0
100
AcDbEntity
  8
00_COMPONENTS
100
AcDbLine
 62
7
  6
CONTINUOUS
 10
128.88348163
 20
263.2396593131
 11
126.3449788544
 21
261.7740628007
  0
LINE
  5
2C1
100
AcDbEntity
  8
00_COMPONENTS
100
AcDbLine
 62
7
  6
CONTINUOUS
 10
144.298351758
 20
271.2412484683
 11
136.16665763
 21
266.5464406987
  0
LINE
  5
2C2
100
AcDbEntity
  8
00_COMPONENTS
100
AcDbLine
 62
7
  6
CONTINUOUS
 10
180.6434913459
 20
291.8984040139
 11
157.6626166365
 21
278.6304690131
  0
LINE
  5
2C3
100
AcDbEntity
  8
00_COMPONENTS
100
AcDbLine
 62
7
  6
CONTINUOUS
 10
132.0633255223
 20
261.4038171182
 11
196.4804850925
 21
298.5948595359
  0
LINE
  5
2C4
100
AcDbEntity
  8
00_COMPONENTS
100
AcDbLine
 62
7
  6
CONTINUOUS
 10
134.1846546978
 20
260.1790948546
 11
198.601814268
 21
297.3701372723
  0
LINE
  5
2C5
100
AcDbEntity
  8
00_COMPONENTS
100
AcDbLine
 62
7
  6
CONTINUOUS
 10
93.2795803372
 20
125.2710538663
 11
100.8749711488
 21
123.211949958
  0
LINE
  5
2C6
100
AcDbEntity
  8
00_COMPONENTS
100
AcDbLine
 62
7
  6
CONTINUOUS
 10
162.7891214093
 20
90.0396239919
 11
163.849785997
 21
89.4272628601
  0
LINE
  5
2C7
100
AcDbEntity
  8
00_COMPONENTS
100
AcDbLine
 62
7
  6
CONTINUOUS
 10
163.849785997
 20
92.6932725286
 11
140.6999196418
 21
106.0585517375
  0
LINE
  5
2C8
100
AcDbEntity
  8
00_COMPONENTS
100
AcDbLine
 62
7
  6
CONTINUOUS
 10
164.1153055277
 20
92.7445125805
 11
140.8779816129
 21
106.1602842926
  0
LINE
  5
2C9
100
AcDbEntity
  8
00_COMPONENTS
100
AcDbLine
 62
7
  6
CONTINUOUS
 10
93.8862515082
 20
133.7763451168
 11
101.4478439142
 21
129.4107564685
  0
LINE
  5
2CA
100
AcDbEntity
  8
00_COMPONENTS
100
AcDbLine
 62
7
  6
CONTINUOUS
 10
106.7629655912
 20
120.2227749665
 11
110.9573234659
 21
115.0650350033
  0
LINE
  5
2CB
100
AcDbEntity
  8
00_COMPONENTS
100
AcDbLine
 62
7
  6
CONTINUOUS
 10
134.689081691
 20
54.0179024396
 11
135.0820292706
 21
53.3733528666
  0
LINE
  5
2CC
100
AcDbEntity
  8
00_COMPONENTS
100
AcDbLine
 62
7
  6
CONTINUOUS
 10
83.7771814804
 20
83.4112367651
 11
81.6177084719
 21
96.328155458
  0
LWPOLYLINE
  5
2CD
100
AcDbEntity
  8
00_COMPONENTS
100
AcDbPolyline
 62
7
  6
CONTINUOUS
 90
4
 70
0
 10
69.7645688129
 20
187.3753285195
 10
71.5244970503
 20
174.8868156154
 10
73.6877670761
 20
169.7599462438
 10
76.1596779349
 20
166.9919445707
  0
LINE
  5
2CE
100
AcDbEntity
  8
00_COMPONENTS
100
AcDbLine
 62
7
  6
CONTINUOUS
 10
74.7897937339
 20
203.1857196046
 11
74.7897937339
 21
207.5131824154
  0
LINE
  5
2CF
100
AcDbEntity
  8
00_COMPONENTS
100
AcDbLine
 62
7
  6
CONTINUOUS
 10
78.2521300067
 20
301.8602838683
 11
78.2521300067
 21
312.6381157744
  0
LINE
  5
2D0
100
AcDbEntity
  8
00_COMPONENTS
100
AcDbLine
 62
7
  6
CONTINUOUS
 10
81.0805453556
 20
303.4932604838
 11
81.0805453556
 21
314.2710923899
  0
LINE
  5
2D1
100
AcDbEntity
  8
00_COMPONENTS
100
AcDbLine
 62
7
  6
CONTINUOUS
 10
81.2947663206
 20
302.3735891831
 11
81.2947663206
 21
322.7204705013
  0
LINE
  5
2D2
100
AcDbEntity
  8
00_COMPONENTS
100
AcDbLine
 62
7
  6
CONTINUOUS
 10
86.4568981212
 20
83.6085003019
 11
86.4568981212
 21
97.2489293767
  0
LINE
  5
2D3
100
AcDbEntity
  8
00_COMPONENTS
100
AcDbLine
 62
7
  6
CONTINUOUS
 10
86.4568981212
 20
272.2205586589
 11
86.4568981212
 21
287.7341045843
  0
LINE
  5
2D4
100
AcDbEntity
  8
00_COMPONENTS
100
AcDbLine
 62
7
  6
CONTINUOUS
 10
92.4037120473
 20
281.3696190177
 11
90.0337828265
 21
264.4878019861
  0
LINE
  5
2D5
100
AcDbEntity
  8
00_COMPONENTS
100
AcDbLine
 62
7
  6
CONTINUOUS
 10
160.2381831779
 20
283.2319087234
 11
160.9124541033
 21
283.8572673416
  0
LINE
  5
2D6
100
AcDbEntity
  8
00_COMPONENTS
100
AcDbLine
 62
7
  6
CONTINUOUS
 10
164.0266041628
 20
274.9563022224
 11
187.0074788723
 21
288.2242372232
  0
LINE
  5
2D7
100
AcDbEntity
  8
00_COMPONENTS
100
AcDbLine
 62
7
  6
CONTINUOUS
 10
143.0963329365
 20
262.5456813044
 11
151.2280270644
 21
267.240489074
  0
LINE
  5
2D8
100
AcDbEntity
  8
00_COMPONENTS
100
AcDbLine
 62
7
  6
CONTINUOUS
 10
134.1846546978
 20
257.0763433414
 11
132.0633255223
 21
255.8516006817
  0
LINE
  5
2D9
100
AcDbEntity
  8
00_COMPONENTS
100
AcDbLine
 62
7
  6
CONTINUOUS
 10
137.3687983318
 20
258.3407702589
 11
134.8302955562
 21
256.8751737465
  0
LINE
  5
2DA
100
AcDbEntity
  8
00_COMPONENTS
100
AcDbLine
 62
7
  6
CONTINUOUS
 10
134.1846546978
 20
256.2598211712
 11
131.0733719071
 21
254.4635319369
  0
LINE
  5
2DB
100
AcDbEntity
  8
00_COMPONENTS
100
AcDbLine
 62
7
  6
CONTINUOUS
 10
158.7233430475
 20
269.4450163432
 11
166.1479333383
 21
273.7315799588
  0
LINE
  5
2DC
100
AcDbEntity
  8
00_COMPONENTS
100
AcDbLine
 62
7
  6
CONTINUOUS
 10
134.1846546978
 20
255.1167375403
 11
132.0633255223
 21
253.8919948806
  0
LINE
  5
2DD
100
AcDbEntity
  8
00_COMPONENTS
100
AcDbLine
 62
7
  6
CONTINUOUS
 10
134.431512644
 20
254.0345065656
 11
132.0633255223
 21
252.6672412549
  0
LINE
  5
2DE
100
AcDbEntity
  8
00_COMPONENTS
100
AcDbLine
 62
7
  6
CONTINUOUS
 10
134.2444194349
 20
252.7017775981
 11
134.1846546978
 21
252.667272617
  0
LINE
  5
2DF
100
AcDbEntity
  8
00_COMPONENTS
100
AcDbLine
 62
7
  6
CONTINUOUS
 10
123.9750496336
 20
244.8922457691
 11
128.88348163
 21
247.7261133876
  0
LINE
  5
2E0
100
AcDbEntity
  8
00_COMPONENTS
100
AcDbLine
 62
7
  6
CONTINUOUS
 10
74.6455005992
 20
213.9618240228
 11
69.9814582012
 21
211.2690539624
  0
LINE
  5
2E1
100
AcDbEntity
  8
00_COMPONENTS
100
AcDbLine
 62
7
  6
CONTINUOUS
 10
190.0816831506
 20
280.18697007
 11
195.4556723135
 21
283.2896256394
  0
LINE
  5
2E2
100
AcDbEntity
  8
00_COMPONENTS
100
AcDbLine
 62
7
  6
CONTINUOUS
 10
163.1052970243
 20
263.649225232
 11
165.9337123732
 21
265.2822018475
  0
LINE
  5
2E3
100
AcDbEntity
  8
00_COMPONENTS
100
AcDbLine
 62
7
  6
CONTINUOUS
 10
150.9452744373
 20
254.7482692957
 11
149.3896459955
 21
253.8501321572
  0
LINE
  5
2E4
100
AcDbEntity
  8
00_COMPONENTS
100
AcDbLine
 62
7
  6
CONTINUOUS
 10
161.5649436248
 20
113.3802416675
 11
160.6810564684
 21
113.8905426107
  0
LINE
  5
2E5
100
AcDbEntity
  8
00_COMPONENTS
100
AcDbLine
 62
7
  6
CONTINUOUS
 10
159.5985548483
 20
114.5155110737
 11
158.7146676919
 21
115.0258120169
  0
LINE
  5
2E6
100
AcDbEntity
  8
00_COMPONENTS
100
AcDbLine
 62
7
  6
CONTINUOUS
 10
158.7146676919
 20
116.0056149174
 11
159.5985548483
 21
115.4953139743
  0
LINE
  5
2E7
100
AcDbEntity
  8
00_COMPONENTS
100
AcDbLine
 62
7
  6
CONTINUOUS
 10
160.6810564684
 20
114.8703455112
 11
161.5649436248
 21
114.3600445681
  0
LINE
  5
2E8
100
AcDbEntity
  8
00_COMPONENTS
100
AcDbLine
 62
7
  6
CONTINUOUS
 10
160.6810564684
 20
115.4663519232
 11
160.1147189209
 21
115.7933196617
  0
LINE
  5
2E9
100
AcDbEntity
  8
00_COMPONENTS
100
AcDbLine
 62
7
  6
CONTINUOUS
 10
83.3520303676
 20
162.3023521889
 11
78.9951819446
 21
167.456882599
  0
LINE
  5
2EA
100
AcDbEntity
  8
00_COMPONENTS_2
100
AcDbLine
 62
7
  6
CONTINUOUS
 10
101.447565951
 20
151.0770773666
 11
99.7038799523
 21
153.702740065
  0
LINE
  5
2EB
100
AcDbEntity
  8
00_COMPONENTS
100
AcDbLine
 62
7
  6
CONTINUOUS
 10
172.2052898408
 20
31.9407132543
 11
171.8123422612
 21
32.5852628273
  0
LINE
  5
2EC
100
AcDbEntity
  8
00_COMPONENTS
100
AcDbLine
 62
7
  6
CONTINUOUS
 10
78.9951819446
 20
167.456882599
 11
75.7663313622
 21
180.315947691
  0
LINE
  5
2ED
100
AcDbEntity
  8
00_COMPONENTS
100
AcDbLine
 62
7
  6
CONTINUOUS
 10
90.1030251737
 20
91.4292664038
 11
92.2624981821
 21
78.5123477108
  0
LINE
  5
2EE
100
AcDbEntity
  8
00_COMPONENTS
100
AcDbLine
 62
7
  6
CONTINUOUS
 10
88.6467883983
 20
278.9579772081
 11
88.6467883983
 21
280.9175830092
  0
LINE
  5
2EF
100
AcDbEntity
  8
00_COMPONENTS
100
AcDbLine
 62
7
  6
CONTINUOUS
 10
88.6489382691
 20
87.8951703994
 11
88.6489382691
 21
89.8547762005
  0
LINE
  5
2F0
100
AcDbEntity
  8
00_COMPONENTS
100
AcDbLine
 62
7
  6
CONTINUOUS
 10
89.6367420135
 20
277.1616865261
 11
89.6367420135
 21
278.3864401518
  0
LINE
  5
2F1
100
AcDbEntity
  8
00_COMPONENTS
100
AcDbLine
 62
7
  6
CONTINUOUS
 10
89.6367420135
 20
280.3460459529
 11
89.6367420135
 21
285.8982623894
  0
LINE
  5
2F2
100
AcDbEntity
  8
00_COMPONENTS
100
AcDbLine
 62
7
  6
CONTINUOUS
 10
89.6388918843
 20
89.2832391442
 11
89.6388918843
 21
90.5079927699
  0
LINE
  5
2F3
100
AcDbEntity
  8
00_COMPONENTS
100
AcDbLine
 62
7
  6
CONTINUOUS
 10
89.7096028568
 20
81.7305928311
 11
89.7096028568
 21
87.2828092676
  0
LINE
  5
2F4
100
AcDbEntity
  8
00_COMPONENTS
100
AcDbLine
 62
7
  6
CONTINUOUS
 10
91.6895100873
 20
81.9396841974
 11
91.6895100873
 21
80.5875187185
  0
LINE
  5
2F5
100
AcDbEntity
  8
00_COMPONENTS
100
AcDbLine
 62
7
  6
CONTINUOUS
 10
91.758071189
 20
284.6735401258
 11
91.758071189
 21
279.1213236893
  0
LINE
  5
2F6
100
AcDbEntity
  8
00_COMPONENTS
100
AcDbLine
 62
7
  6
CONTINUOUS
 10
91.758071189
 20
277.1617178882
 11
91.758071189
 21
276.7704981902
  0
LINE
  5
2F7
100
AcDbEntity
  8
00_COMPONENTS
100
AcDbLine
 62
7
  6
CONTINUOUS
 10
93.2795803372
 20
125.2710538663
 11
93.2795803372
 21
128.0072349644
  0
LINE
  5
2F8
100
AcDbEntity
  8
00_COMPONENTS
100
AcDbLine
 62
7
  6
CONTINUOUS
 10
95.6470292453
 20
292.1418604523
 11
95.6470292453
 21
302.5953932132
  0
LINE
  5
2F9
100
AcDbEntity
  8
00_COMPONENTS
100
AcDbLine
 62
7
  6
CONTINUOUS
 10
98.2658472071
 20
194.9394237816
 11
98.2658472071
 21
185.7129464681
  0
LINE
  5
2FA
100
AcDbEntity
  8
00_COMPONENTS
100
AcDbLine
 62
7
  6
CONTINUOUS
 10
98.9016518672
 20
319.8425380928
 11
98.9016518672
 21
323.0877209271
  0
LINE
  5
2FB
100
AcDbEntity
  8
00_COMPONENTS_2
100
AcDbLine
 62
7
  6
CONTINUOUS
 10
46.5397456987
 20
126.1646340009
 11
58.5106460782
 21
143.0728779689
  0
LINE
  5
2FC
100
AcDbEntity
  8
00_COMPONENTS
100
AcDbLine
 62
7
  6
CONTINUOUS
 10
78.1810492249
 20
211.9206202502
 11
73.5170068269
 21
209.2278501898
  0
LINE
  5
2FD
100
AcDbEntity
  8
00_COMPONENTS
100
AcDbLine
 62
7
  6
CONTINUOUS
 10
184.1795729923
 20
271.159054407
 11
185.5937806667
 21
271.9755427147
  0
LINE
  5
2FE
100
AcDbEntity
  8
00_COMPONENTS
100
AcDbLine
 62
7
  6
CONTINUOUS
 10
74.7897937339
 20
207.5131824154
 11
77.849300357
 21
209.2795788439
  0
LINE
  5
2FF
100
AcDbEntity
  8
00_COMPONENTS
100
AcDbLine
 62
7
  6
CONTINUOUS
 10
80.18276245
 20
207.932384354
 11
81.30551253
 21
208.5806005456
  0
LINE
  5
300
100
AcDbEntity
  8
00_COMPONENTS
100
AcDbLine
 62
7
  6
CONTINUOUS
 10
184.4096545747
 20
266.6755784381
 11
186.1774141677
 21
267.6961888228
  0
LINE
  5
301
100
AcDbEntity
  8
00_COMPONENTS
100
AcDbLine
 62
7
  6
CONTINUOUS
 10
77.1945743929
 20
204.5741120778
 11
74.7897937339
 21
203.1857196046
  0
LINE
  5
302
100
AcDbEntity
  8
00_COMPONENTS
100
AcDbLine
 62
7
  6
CONTINUOUS
 10
184.911802207
 20
265.8083105416
 11
176.4265561605
 21
260.9093806951
  0
LINE
  5
303
100
AcDbEntity
  8
00_COMPONENTS
100
AcDbLine
 62
7
  6
CONTINUOUS
 10
163.1052970243
 20
252.8713933259
 11
165.9337123732
 21
254.5043699414
  0
LINE
  5
304
100
AcDbEntity
  8
00_COMPONENTS
100
AcDbLine
 62
7
  6
CONTINUOUS
 10
73.5170068269
 20
200.0013728763
 11
75.3484057653
 21
201.0587252348
  0
LINE
  5
305
100
AcDbEntity
  8
00_COMPONENTS
100
AcDbLine
 62
7
  6
CONTINUOUS
 10
166.5015309682
 20
251.9717710782
 11
174.5926954199
 21
256.6431791679
  0
LINE
  5
306
100
AcDbEntity
  8
00_COMPONENTS
100
AcDbLine
 62
7
  6
CONTINUOUS
 10
196.6648011313
 20
269.1297706843
 11
195.7648070575
 21
268.6101619652
  0
LINE
  5
307
100
AcDbEntity
  8
00_COMPONENTS
100
AcDbLine
 62
7
  6
CONTINUOUS
 10
238.9092184722
 20
75.5257852183
 11
237.9192648569
 21
76.0973222746
  0
LINE
  5
308
100
AcDbEntity
  8
00_COMPONENTS_2
100
AcDbLine
 62
7
  6
CONTINUOUS
 10
98.2679402794
 20
159.0852203622
 11
78.8325775056
 21
170.305978444
  0
LINE
  5
309
100
AcDbEntity
  8
00_COMPONENTS
100
AcDbLine
 62
7
  6
CONTINUOUS
 10
73.4328692692
 20
181.663142181
 11
75.7663313622
 21
180.315947691
  0
LINE
  5
30A
100
AcDbEntity
  8
00_COMPONENTS
100
AcDbLine
 62
7
  6
CONTINUOUS
 10
95.8482475564
 20
168.7219102627
 11
98.1817096494
 21
167.3747157727
  0
LWPOLYLINE
  5
30B
100
AcDbEntity
  8
00_COMPONENTS
100
AcDbPolyline
 62
7
  6
CONTINUOUS
 90
3
 70
0
 10
95.8482475564
 20
168.7219102626
 10
99.077002923
 20
155.8630402348
 10
101.447563895
 20
153.058406215
  0
LINE
  5
30C
100
AcDbEntity
  8
00_COMPONENTS
100
AcDbLine
 62
7
  6
CONTINUOUS
 10
100.6697494276
 20
287.0401265757
 11
100.6697494276
 21
283.7741869421
  0
LINE
  5
30D
100
AcDbEntity
  8
00_COMPONENTS
100
AcDbLine
 62
7
  6
CONTINUOUS
 10
101.4475167538
 20
198.4876450783
 11
101.447588434
 21
129.4106089678
  0
LINE
  5
30E
100
AcDbEntity
  8
00_COMPONENTS
100
AcDbLine
 62
7
  6
CONTINUOUS
 10
101.8717446974
 20
295.7356937395
 11
101.8717446974
 21
299.0016333731
  0
LINE
  5
30F
100
AcDbEntity
  8
00_COMPONENTS
100
AcDbLine
 62
7
  6
CONTINUOUS
 10
102.1543118546
 20
326.2176518882
 11
102.1543118546
 21
337.2131277657
  0
LINE
  5
310
100
AcDbEntity
  8
00_COMPONENTS
100
AcDbLine
 62
7
  6
CONTINUOUS
 10
108.5186909285
 20
277.446455247
 11
108.5186909285
 21
279.2427145669
  0
LINE
  5
311
100
AcDbEntity
  8
00_COMPONENTS
100
AcDbLine
 62
7
  6
CONTINUOUS
 10
108.8014435556
 20
277.2832116347
 11
108.8014435556
 21
291.7349343452
  0
LINE
  5
312
100
AcDbEntity
  8
00_COMPONENTS
100
AcDbLine
 62
7
  6
CONTINUOUS
 10
110.9573234659
 20
115.0650350033
 11
110.9573234659
 21
117.8012161014
  0
LINE
  5
313
100
AcDbEntity
  8
00_COMPONENTS
100
AcDbLine
 62
7
  6
CONTINUOUS
 10
101.1385588177
 20
198.6645017924
 11
101.1200943555
 21
198.6172929164
  0
LINE
  5
314
100
AcDbEntity
  8
00_COMPONENTS
100
AcDbLine
 62
7
  6
CONTINUOUS
 10
101.1425017135
 20
198.664119377
 11
101.1236684513
 21
198.6169513713
  0
LINE
  5
315
100
AcDbEntity
  8
00_COMPONENTS
100
AcDbLine
 62
7
  6
CONTINUOUS
 10
183.7548188849
 20
274.0988303847
 11
190.0816831506
 21
280.18697007
  0
LINE
  5
316
100
AcDbEntity
  8
00_COMPONENTS
100
AcDbLine
 62
7
  6
CONTINUOUS
 10
181.9869232413
 20
257.0402526833
 11
176.9868996832
 21
254.1535049676
  0
LINE
  5
317
100
AcDbEntity
  8
00_COMPONENTS
100
AcDbLine
 62
7
  6
CONTINUOUS
 10
165.0874689403
 20
246.5834542053
 11
163.5318404984
 21
245.6853170668
  0
LINE
  5
318
100
AcDbEntity
  8
00_COMPONENTS
100
AcDbLine
 62
7
  6
CONTINUOUS
 10
180.500196263
 20
253.6065026708
 11
183.3286116118
 21
255.2394792863
  0
LINE
  5
319
100
AcDbEntity
  8
00_COMPONENTS
100
AcDbLine
 62
7
  6
CONTINUOUS
 10
214.6218814136
 20
272.2242599881
 11
209.2478922507
 21
269.1216044187
  0
LINE
  5
31A
100
AcDbEntity
  8
00_COMPONENTS
100
AcDbLine
 62
7
  6
CONTINUOUS
 10
180.500196263
 20
249.5152928133
 11
179.8852279685
 21
249.1602428223
  0
LINE
  5
31B
100
AcDbEntity
  8
00_COMPONENTS
100
AcDbLine
 62
7
  6
CONTINUOUS
 10
202.6647742701
 20
258.7374503306
 11
201.7724904713
 21
258.2222931142
  0
LINE
  5
31C
100
AcDbEntity
  8
00_COMPONENTS
100
AcDbLine
 62
7
  6
CONTINUOUS
 10
197.9678709699
 20
255.3607460054
 11
190.5432806791
 21
251.0741823898
  0
LINE
  5
31D
100
AcDbEntity
  8
00_COMPONENTS
100
AcDbLine
 62
7
  6
CONTINUOUS
 10
74.4315798736
 20
182.2397445754
 11
73.4328692692
 21
181.6631421809
  0
LINE
  5
31E
100
AcDbEntity
  8
00_COMPONENTS
100
AcDbLine
 62
7
  6
CONTINUOUS
 10
186.7249352668
 20
246.7468031971
 11
178.5932411388
 21
242.0519954275
  0
LINE
  5
31F
100
AcDbEntity
  8
00_COMPONENTS
100
AcDbLine
 62
7
  6
CONTINUOUS
 10
223.0700748548
 20
267.4039587427
 11
200.0892001453
 21
254.1360237419
  0
LINE
  5
320
100
AcDbEntity
  8
00_COMPONENTS
100
AcDbLine
 62
7
  6
CONTINUOUS
 10
101.4475185296
 20
196.7763516112
 11
98.2658472071
 21
194.9394237816
  0
LINE
  5
321
100
AcDbEntity
  8
00_COMPONENTS
100
AcDbLine
 62
7
  6
CONTINUOUS
 10
168.2695539664
 20
54.0933277956
 11
168.0002938493
 21
54.688425365
  0
LINE
  5
322
100
AcDbEntity
  8
00_COMPONENTS
100
AcDbLine
 62
7
  6
CONTINUOUS
 10
126.2037649892
 20
58.9167914938
 11
124.0442919807
 21
71.8337101868
  0
LINE
  5
323
100
AcDbEntity
  8
00_COMPONENTS
100
AcDbLine
 62
7
  6
CONTINUOUS
 10
112.1600650887
 20
86.6258953787
 11
112.1600650887
 21
83.1802551784
  0
LINE
  5
324
100
AcDbEntity
  8
00_COMPONENTS
100
AcDbLine
 62
7
  6
CONTINUOUS
 10
114.458297805
 20
291.7349479426
 11
114.458297805
 21
274.0172991958
  0
LINE
  5
325
100
AcDbEntity
  8
00_COMPONENTS
100
AcDbLine
 62
7
  6
CONTINUOUS
 10
114.634928519
 20
85.1970646355
 11
114.634928519
 21
84.609109717
  0
LINE
  5
326
100
AcDbEntity
  8
00_COMPONENTS
100
AcDbLine
 62
7
  6
CONTINUOUS
 10
120.3625379004
 20
81.8903026263
 11
120.3625379004
 21
78.444662426
  0
LINE
  5
327
100
AcDbEntity
  8
00_COMPONENTS
100
AcDbLine
 62
7
  6
CONTINUOUS
 10
120.6787135155
 20
277.3658385971
 11
120.6787135155
 21
288.1436705032
  0
LINE
  5
328
100
AcDbEntity
  8
00_COMPONENTS
100
AcDbLine
 62
7
  6
CONTINUOUS
 10
123.5071288644
 20
278.9988152126
 11
123.5071288644
 21
289.7766471187
  0
LINE
  5
329
100
AcDbEntity
  8
00_COMPONENTS
100
AcDbLine
 62
7
  6
CONTINUOUS
 10
123.7213498294
 20
277.8791439119
 11
123.7213498294
 21
298.2260252301
  0
LINE
  5
32A
100
AcDbEntity
  8
00_COMPONENTS
100
AcDbLine
 62
7
  6
CONTINUOUS
 10
123.9750496336
 20
244.8922457691
 11
126.3449788544
 21
261.7740628007
  0
LINE
  5
32B
100
AcDbEntity
  8
00_COMPONENTS
100
AcDbLine
 62
7
  6
CONTINUOUS
 10
137.0745802548
 20
230.681243771
 11
137.333489949
 21
231.2534421178
  0
LINE
  5
32C
100
AcDbEntity
  8
00_COMPONENTS
100
AcDbLine
 62
7
  6
CONTINUOUS
 10
171.9514062556
 20
235.4437753346
 11
238.9070686013
 21
274.1004142646
  0
LINE
  5
32D
100
AcDbEntity
  8
00_COMPONENTS
100
AcDbLine
 62
7
  6
CONTINUOUS
 10
238.9070686013
 20
268.5481978282
 11
171.1032210607
 21
229.4018618706
  0
LINE
  5
32E
100
AcDbEntity
  8
00_COMPONENTS
100
AcDbLine
 62
7
  6
CONTINUOUS
 10
237.9171149861
 20
267.1601290834
 11
169.813907965
 21
227.8409588809
  0
LINE
  5
32F
100
AcDbEntity
  8
00_COMPONENTS
100
AcDbLine
 62
7
  6
CONTINUOUS
 10
41.449092574
 20
153.1534457579
 11
40.3884279863
 21
152.5410744281
  0
LINE
  5
330
100
AcDbEntity
  8
00_COMPONENTS
100
AcDbLine
 62
7
  6
CONTINUOUS
 10
238.9070686013
 20
266.5885920271
 11
170.8038615802
 21
227.2694218245
  0
LINE
  5
331
100
AcDbEntity
  8
00_COMPONENTS
100
AcDbLine
 62
7
  6
CONTINUOUS
 10
238.9070686013
 20
265.3638384014
 11
170.6167619049
 21
225.9366467957
  0
LINE
  5
332
100
AcDbEntity
  8
00_COMPONENTS
100
AcDbLine
 62
7
  6
CONTINUOUS
 10
239.9698830599
 20
264.7502360692
 11
171.6795763634
 21
225.3230444635
  0
LINE
  5
333
100
AcDbEntity
  8
00_COMPONENTS
100
AcDbLine
 62
7
  6
CONTINUOUS
 10
101.4475319161
 20
183.8760415012
 11
98.2658472071
 21
185.7129464681
  0
LINE
  5
334
100
AcDbEntity
  8
00_COMPONENTS
100
AcDbLine
 62
7
  6
CONTINUOUS
 10
73.5170068269
 20
200.0013728763
 11
69.9814582012
 21
202.0425766489
  0
LINE
  5
335
100
AcDbEntity
  8
00_COMPONENTS
100
AcDbLine
 62
7
  6
CONTINUOUS
 10
77.1945743929
 20
204.5741120778
 11
74.7897937339
 21
205.9624814295
  0
LINE
  5
336
100
AcDbEntity
  8
00_COMPONENTS
100
AcDbLine
 62
7
  6
CONTINUOUS
 10
101.4475223419
 20
193.1025243423
 11
98.2658472071
 21
194.9394237816
  0
LINE
  5
337
100
AcDbEntity
  8
00_COMPONENTS
100
AcDbLine
 62
7
  6
CONTINUOUS
 10
73.5170068269
 20
209.2278501898
 11
69.9814582012
 21
211.2690539624
  0
LINE
  5
338
100
AcDbEntity
  8
00_COMPONENTS
100
AcDbLine
 62
7
  6
CONTINUOUS
 10
100.476774904
 20
196.2158958631
 11
100.2646786441
 21
196.3383469256
  0
LINE
  5
339
100
AcDbEntity
  8
00_COMPONENTS
100
AcDbLine
 62
7
  6
CONTINUOUS
 10
80.18276245
 20
207.932384354
 11
77.849300357
 21
209.2795788439
  0
LINE
  5
33A
100
AcDbEntity
  8
00_COMPONENTS
100
AcDbLine
 62
7
  6
CONTINUOUS
 10
92.0700927902
 20
305.3550412068
 11
93.3681915416
 21
300.1361733157
  0
LINE
  5
33B
100
AcDbEntity
  8
00_COMPONENTS
100
AcDbLine
 62
7
  6
CONTINUOUS
 10
132.5296086825
 20
66.9348211326
 11
134.689081691
 21
54.0179024396
  0
LINE
  5
33C
100
AcDbEntity
  8
00_COMPONENTS
100
AcDbLine
 62
7
  6
CONTINUOUS
 10
128.88348163
 20
59.1140550307
 11
128.88348163
 21
72.7544841055
  0
LINE
  5
33D
100
AcDbEntity
  8
00_COMPONENTS
100
AcDbLine
 62
7
  6
CONTINUOUS
 10
128.88348163
 20
247.7261133876
 11
128.88348163
 21
263.2396593131
  0
LINE
  5
33E
100
AcDbEntity
  8
00_COMPONENTS
100
AcDbLine
 62
7
  6
CONTINUOUS
 10
131.0733719071
 20
254.4635319369
 11
131.0733719071
 21
256.423137738
  0
LINE
  5
33F
100
AcDbEntity
  8
00_COMPONENTS
100
AcDbLine
 62
7
  6
CONTINUOUS
 10
131.0755217779
 20
63.4007251282
 11
131.0755217779
 21
65.3603309293
  0
LINE
  5
340
100
AcDbEntity
  8
00_COMPONENTS
100
AcDbLine
 62
7
  6
CONTINUOUS
 10
132.0633255223
 20
252.6672412549
 11
132.0633255223
 21
253.8919948806
  0
LINE
  5
341
100
AcDbEntity
  8
00_COMPONENTS
100
AcDbLine
 62
7
  6
CONTINUOUS
 10
132.0633255223
 20
255.8516006817
 11
132.0633255223
 21
261.4038171182
  0
LINE
  5
342
100
AcDbEntity
  8
00_COMPONENTS
100
AcDbLine
 62
7
  6
CONTINUOUS
 10
132.0654753932
 20
64.788793873
 11
132.0654753932
 21
66.0135474987
  0
LINE
  5
343
100
AcDbEntity
  8
00_COMPONENTS
100
AcDbLine
 62
7
  6
CONTINUOUS
 10
132.1361863657
 20
57.2361475599
 11
132.1361863657
 21
62.7883639964
  0
LINE
  5
344
100
AcDbEntity
  8
00_COMPONENTS
100
AcDbLine
 62
7
  6
CONTINUOUS
 10
134.1160935961
 20
57.4452389262
 11
134.1160935961
 21
56.0930734473
  0
LINE
  5
345
100
AcDbEntity
  8
00_COMPONENTS
100
AcDbLine
 62
7
  6
CONTINUOUS
 10
134.1846546978
 20
260.1790948546
 11
134.1846546978
 21
254.6268784181
  0
LINE
  5
346
100
AcDbEntity
  8
00_COMPONENTS
100
AcDbLine
 62
7
  6
CONTINUOUS
 10
134.1846546978
 20
252.667272617
 11
134.1846546978
 21
252.2760529189
  0
LINE
  5
347
100
AcDbEntity
  8
00_COMPONENTS
100
AcDbLine
 62
7
  6
CONTINUOUS
 10
134.8302955562
 20
256.8751737465
 11
132.4603663354
 21
239.9933567149
  0
LINE
  5
348
100
AcDbEntity
  8
00_COMPONENTS_2
100
AcDbLine
 62
7
  6
CONTINUOUS
 10
99.7038799523
 20
153.702740065
 11
101.4475609264
 21
155.9192528311
  0
LINE
  5
349
100
AcDbEntity
  8
00_COMPONENTS_2
100
AcDbLine
 62
7
  6
CONTINUOUS
 10
67.3184970891
 20
114.1682876858
 11
80.3282954683
 21
130.4767371832
  0
LINE
  5
34A
100
AcDbEntity
  8
00_COMPONENTS_2
100
AcDbLine
 62
7
  6
CONTINUOUS
 10
99.7038799523
 20
153.702740065
 11
80.3282954683
 21
130.4767371832
  0
LINE
  5
34B
100
AcDbEntity
  8
00_COMPONENTS
100
AcDbLine
 62
7
  6
CONTINUOUS
 10
171.0184903514
 20
220.6139025198
 11
239.9698830599
 21
260.4227700342
  0
LINE
  5
34C
100
AcDbEntity
  8
00_COMPONENTS
100
AcDbLine
 62
7
  6
CONTINUOUS
 10
239.9698830599
 20
255.5237619798
 11
170.2700926352
 21
215.2828094217
  0
LINE
  5
34D
100
AcDbEntity
  8
00_COMPONENTS
100
AcDbLine
 62
7
  6
CONTINUOUS
 10
98.061387642
 20
169.9996596597
 11
95.8482475564
 21
168.7219102626
  0
LINE
  5
34E
100
AcDbEntity
  8
00_COMPONENTS
100
AcDbLine
 62
7
  6
CONTINUOUS
 10
171.0272589315
 20
209.3512348995
 11
169.895892792
 21
208.6980442533
  0
LINE
  5
34F
100
AcDbEntity
  8
00_COMPONENTS
100
AcDbLine
 62
7
  6
CONTINUOUS
 10
165.7239801524
 20
206.1261032621
 11
170.8858381641
 21
209.1062855853
  0
LINE
  5
350
100
AcDbEntity
  8
00_COMPONENTS
100
AcDbLine
 62
7
  6
CONTINUOUS
 10
149.6884188586
 20
201.9117395667
 11
133.0555516981
 21
192.4088453433
  0
LINE
  5
351
100
AcDbEntity
  8
00_COMPONENTS
100
AcDbLine
 62
7
  6
CONTINUOUS
 10
101.4478439142
 20
198.4878339633
 11
69.6279062826
 21
216.8586679168
  0
LINE
  5
352
100
AcDbEntity
  8
00_COMPONENTS
100
AcDbLine
 62
7
  6
CONTINUOUS
 10
133.0555516981
 20
192.4088453433
 11
38.0201984987
 21
247.276290828
  0
LINE
  5
353
100
AcDbEntity
  8
00_COMPONENTS
100
AcDbLine
 62
7
  6
CONTINUOUS
 10
138.0736127541
 20
267.6474151811
 11
138.0736127541
 21
278.100947942
  0
LINE
  5
354
100
AcDbEntity
  8
00_COMPONENTS
100
AcDbLine
 62
7
  6
CONTINUOUS
 10
140.1267458797
 20
109.1256473751
 11
140.1267458797
 21
180.1613576654
  0
LINE
  5
355
100
AcDbEntity
  8
00_COMPONENTS
100
AcDbLine
 62
7
  6
CONTINUOUS
 10
141.3282353761
 20
295.3480928216
 11
141.3282353761
 21
298.5932756559
  0
LINE
  5
356
100
AcDbEntity
  8
00_COMPONENTS
100
AcDbLine
 62
7
  6
CONTINUOUS
 10
143.0963329365
 20
262.5456813044
 11
143.0963329365
 21
259.2797416709
  0
LINE
  5
357
100
AcDbEntity
  8
00_COMPONENTS
100
AcDbLine
 62
7
  6
CONTINUOUS
 10
144.2983282062
 20
271.2412484683
 11
144.2983282062
 21
274.5071881018
  0
LINE
  5
358
100
AcDbEntity
  8
00_COMPONENTS
100
AcDbLine
 62
7
  6
CONTINUOUS
 10
144.5808953634
 20
301.723206617
 11
144.5808953634
 21
312.7186824944
  0
LINE
  5
359
100
AcDbEntity
  8
00_COMPONENTS_2
100
AcDbLine
 62
7
  6
CONTINUOUS
 10
101.4475752737
 20
142.0929614168
 11
84.7853289271
 21
123.7663411239
  0
LINE
  5
35A
100
AcDbEntity
  8
00_COMPONENTS_2
100
AcDbLine
 62
7
  6
CONTINUOUS
 10
84.7853289271
 20
123.7663411239
 11
70.7441755497
 21
109.0098611356
  0
LINE
  5
35B
100
AcDbEntity
  8
00_COMPONENTS
100
AcDbLine
 62
7
  6
CONTINUOUS
 10
170.8858381641
 20
207.4732807511
 11
171.0272589315
 21
207.5549295818
  0
LINE
  5
35C
100
AcDbEntity
  8
00_COMPONENTS
100
AcDbLine
 62
7
  6
CONTINUOUS
 10
45.7714052484
 20
129.7822059186
 11
44.5603753647
 21
129.0830216628
  0
LINE
  5
35D
100
AcDbEntity
  8
00_COMPONENTS
100
AcDbLine
 62
7
  6
CONTINUOUS
 10
44.7375061798
 20
128.760710552
 11
46.1376261509
 21
129.569065369
  0
LINE
  5
35E
100
AcDbEntity
  8
00_COMPONENTS
100
AcDbLine
 62
7
  6
CONTINUOUS
 10
39.1513393511
 20
125.4537790663
 11
38.444229626
 21
125.0455315131
  0
LINE
  5
35F
100
AcDbEntity
  8
00_COMPONENTS
100
AcDbLine
 62
7
  6
CONTINUOUS
 10
46.8588353552
 20
127.5359882885
 11
47.0776878191
 21
127.6623420631
  0
LINE
  5
360
100
AcDbEntity
  8
00_COMPONENTS
100
AcDbLine
 62
7
  6
CONTINUOUS
 10
40.7641521709
 20
123.7925683482
 11
40.0529042507
 21
123.3819316211
  0
LINE
  5
361
100
AcDbEntity
  8
00_COMPONENTS
100
AcDbLine
 62
7
  6
CONTINUOUS
 10
158.4911992197
 20
190.4871744586
 11
158.0091090549
 21
190.2088412336
  0
LINE
  5
362
100
AcDbEntity
  8
00_COMPONENTS
100
AcDbLine
 62
7
  6
CONTINUOUS
 10
159.7649735744
 20
190.3428790203
 11
159.5985548483
 21
190.2467976975
  0
LINE
  5
363
100
AcDbEntity
  8
00_COMPONENTS
100
AcDbLine
 62
7
  6
CONTINUOUS
 10
46.8588353552
 20
124.2699786199
 11
47.1059703752
 21
124.4126612386
  0
LINE
  5
364
100
AcDbEntity
  8
00_COMPONENTS
100
AcDbLine
 62
7
  6
CONTINUOUS
 10
160.6810564684
 20
189.6119320467
 11
160.7516615206
 21
189.6526956493
  0
LINE
  5
365
100
AcDbEntity
  8
00_COMPONENTS
100
AcDbLine
 62
7
  6
CONTINUOUS
 10
159.5808847421
 20
187.3781323862
 11
158.7146676919
 21
186.8780247243
  0
LINE
  5
366
100
AcDbEntity
  8
00_COMPONENTS
100
AcDbLine
 62
7
  6
CONTINUOUS
 10
160.6810564684
 20
187.9725055528
 11
159.5985548483
 21
187.3475266817
  0
LINE
  5
367
100
AcDbEntity
  8
00_COMPONENTS
100
AcDbLine
 62
7
  6
CONTINUOUS
 10
46.3281349577
 20
121.9376780187
 11
45.2674792019
 21
121.3253117879
  0
LINE
  5
368
100
AcDbEntity
  8
00_COMPONENTS
100
AcDbLine
 62
7
  6
CONTINUOUS
 10
156.7596130403
 20
189.6642518888
 11
140.1267458797
 21
180.1613576654
  0
LINE
  5
369
100
AcDbEntity
  8
00_COMPONENTS
100
AcDbLine
 62
7
  6
CONTINUOUS
 10
161.5649436248
 20
185.2324543749
 11
160.6810564684
 21
185.7427553181
  0
LINE
  5
36A
100
AcDbEntity
  8
00_COMPONENTS
100
AcDbLine
 62
7
  6
CONTINUOUS
 10
159.5985548483
 20
186.3677237811
 11
158.7146676919
 21
186.8780247243
  0
LINE
  5
36B
100
AcDbEntity
  8
00_COMPONENTS
100
AcDbLine
 62
7
  6
CONTINUOUS
 10
43.0777983472
 20
253.6394920225
 11
42.7453110149
 21
253.8314493307
  0
LINE
  5
36C
100
AcDbEntity
  8
00_COMPONENTS
100
AcDbLine
 62
7
  6
CONTINUOUS
 10
42.7453110149
 20
254.8112522312
 11
43.6291981713
 21
254.3009512881
  0
LINE
  5
36D
100
AcDbEntity
  8
00_COMPONENTS
100
AcDbLine
 62
7
  6
CONTINUOUS
 10
158.7146676919
 20
187.8578276248
 11
159.5985548483
 21
187.3475266817
  0
LINE
  5
36E
100
AcDbEntity
  8
00_COMPONENTS
100
AcDbLine
 62
7
  6
CONTINUOUS
 10
160.6810564684
 20
186.7225582186
 11
161.5649436248
 21
186.2122572755
  0
LINE
  5
36F
100
AcDbEntity
  8
00_COMPONENTS
100
AcDbLine
 62
7
  6
CONTINUOUS
 10
160.6810564684
 20
187.3185646306
 11
160.1147189209
 21
187.6455323691
  0
LINE
  5
370
100
AcDbEntity
  8
00_COMPONENTS
100
AcDbLine
 62
7
  6
CONTINUOUS
 10
44.4353630213
 20
254.4315287363
 11
44.1453622438
 21
254.5989569755
  0
LINE
  5
371
100
AcDbEntity
  8
00_COMPONENTS
100
AcDbLine
 62
7
  6
CONTINUOUS
 10
170.1816746558
 20
36.9892397815
 11
169.8829023899
 21
38.7763503642
  0
LINE
  5
372
100
AcDbEntity
  8
00_COMPONENTS
100
AcDbLine
 62
7
  6
CONTINUOUS
 10
171.8123422612
 20
32.5852628273
 11
171.171628271
 21
36.4177027252
  0
LINE
  5
373
100
AcDbEntity
  8
00_COMPONENTS
100
AcDbLine
 62
7
  6
CONTINUOUS
 10
170.8728560051
 20
38.2048133078
 11
170.686123339
 21
39.321757422
  0
LINE
  5
374
100
AcDbEntity
  8
00_COMPONENTS
100
AcDbLine
 62
7
  6
CONTINUOUS
 10
171.7467879267
 20
38.7093962902
 11
171.0869991728
 21
42.6559321602
  0
LINE
  5
375
100
AcDbEntity
  8
00_COMPONENTS
100
AcDbLine
 62
7
  6
CONTINUOUS
 10
170.3400685081
 20
47.1237086167
 11
169.9666031757
 21
49.357596845
  0
LINE
  5
376
100
AcDbEntity
  8
00_COMPONENTS
100
AcDbLine
 62
7
  6
CONTINUOUS
 10
150.9452744373
 20
252.9520099758
 11
150.9452744373
 21
254.7482692957
  0
LINE
  5
377
100
AcDbEntity
  8
00_COMPONENTS
100
AcDbLine
 62
7
  6
CONTINUOUS
 10
151.2280270644
 20
252.7887663635
 11
151.2280270644
 21
267.240489074
  0
LINE
  5
378
100
AcDbEntity
  8
00_COMPONENTS
100
AcDbLine
 62
7
  6
CONTINUOUS
 10
154.0539015837
 20
320.6398398838
 11
154.0539015837
 21
323.0893048071
  0
LINE
  5
379
100
AcDbEntity
  8
00_COMPONENTS
100
AcDbLine
 62
7
  6
CONTINUOUS
 10
156.7596130403
 20
189.6642518888
 11
156.7596130403
 21
118.6285415986
  0
LINE
  5
37A
100
AcDbEntity
  8
00_COMPONENTS
100
AcDbLine
 62
7
  6
CONTINUOUS
 10
156.8848813139
 20
267.2405026714
 11
156.8848813139
 21
249.5228539246
  0
LINE
  5
37B
100
AcDbEntity
  8
00_COMPONENTS
100
AcDbLine
 62
7
  6
CONTINUOUS
 10
158.7146676919
 20
115.0258120169
 11
158.7146676919
 21
116.0056149174
  0
LINE
  5
37C
100
AcDbEntity
  8
00_COMPONENTS
100
AcDbLine
 62
7
  6
CONTINUOUS
 10
158.7146676919
 20
186.8780247243
 11
158.7146676919
 21
187.8578276248
  0
LINE
  5
37D
100
AcDbEntity
  8
00_COMPONENTS
100
AcDbLine
 62
7
  6
CONTINUOUS
 10
159.5985548483
 20
111.6162400579
 11
159.5985548483
 21
114.5155110737
  0
LINE
  5
37E
100
AcDbEntity
  8
00_COMPONENTS
100
AcDbLine
 62
7
  6
CONTINUOUS
 10
159.5985548483
 20
115.4953139743
 11
159.5985548483
 21
118.3945849901
  0
LINE
  5
37F
100
AcDbEntity
  8
00_COMPONENTS
100
AcDbLine
 62
7
  6
CONTINUOUS
 10
159.5985548483
 20
183.4684527653
 11
159.5985548483
 21
186.3677237811
  0
LINE
  5
380
100
AcDbEntity
  8
00_COMPONENTS
100
AcDbLine
 62
7
  6
CONTINUOUS
 10
159.5985548483
 20
187.3475266817
 11
159.5985548483
 21
190.2467976975
  0
LINE
  5
381
100
AcDbEntity
  8
00_COMPONENTS
100
AcDbLine
 62
7
  6
CONTINUOUS
 10
160.6810564684
 20
189.6119320467
 11
160.6810564684
 21
186.7225582186
  0
LINE
  5
382
100
AcDbEntity
  8
00_COMPONENTS
100
AcDbLine
 62
7
  6
CONTINUOUS
 10
160.6810564684
 20
185.7427553181
 11
160.6810564684
 21
182.85338149
  0
LINE
  5
383
100
AcDbEntity
  8
00_COMPONENTS
100
AcDbLine
 62
7
  6
CONTINUOUS
 10
160.6810564684
 20
117.7597193393
 11
160.6810564684
 21
114.8703455112
  0
LINE
  5
384
100
AcDbEntity
  8
00_COMPONENTS
100
AcDbLine
 62
7
  6
CONTINUOUS
 10
160.6810564684
 20
113.8905426107
 11
160.6810564684
 21
111.0011687826
  0
LINE
  5
385
100
AcDbEntity
  8
00_COMPONENTS
100
AcDbLine
 62
7
  6
CONTINUOUS
 10
160.9632652542
 20
114.0534749565
 11
160.9632652542
 21
114.7074158788
  0
LINE
  5
386
100
AcDbEntity
  8
00_COMPONENTS
100
AcDbLine
 62
7
  6
CONTINUOUS
 10
160.9632652542
 20
185.9056876639
 11
160.9632652542
 21
186.5596285862
  0
LINE
  5
387
100
AcDbEntity
  8
00_COMPONENTS
100
AcDbLine
 62
7
  6
CONTINUOUS
 10
161.5649436248
 20
186.2122572755
 11
161.5649436248
 21
185.2324543749
  0
LINE
  5
388
100
AcDbEntity
  8
00_COMPONENTS
100
AcDbLine
 62
7
  6
CONTINUOUS
 10
161.5649436248
 20
114.3600445681
 11
161.5649436248
 21
113.3802416675
  0
LINE
  5
389
100
AcDbEntity
  8
00_COMPONENTS
100
AcDbLine
 62
7
  6
CONTINUOUS
 10
178.0276901481
 20
258.1109295342
 11
176.9868996832
 21
254.1535049676
  0
LINE
  5
38A
100
AcDbEntity
  8
00_COMPONENTS
100
AcDbLine
 62
7
  6
CONTINUOUS
 10
160.6810564684
 20
186.9927026522
 11
159.5985548483
 21
186.3677237811
  0
LINE
  5
38B
100
AcDbEntity
  8
00_COMPONENTS
100
AcDbLine
 62
7
  6
CONTINUOUS
 10
161.5472735186
 20
186.2428629799
 11
160.6810564684
 21
185.7427553181
  0
LINE
  5
38C
100
AcDbEntity
  8
00_COMPONENTS
100
AcDbLine
 62
7
  6
CONTINUOUS
 10
159.5985548483
 20
183.4684527653
 11
160.6810564684
 21
184.0934316364
  0
LINE
  5
38D
100
AcDbEntity
  8
00_COMPONENTS
100
AcDbLine
 62
7
  6
CONTINUOUS
 10
43.8072486464
 20
116.1392679738
 11
45.555130818
 21
117.1484021924
  0
LINE
  5
38E
100
AcDbEntity
  8
00_COMPONENTS
100
AcDbLine
 62
7
  6
CONTINUOUS
 10
162.7350543413
 20
183.2032397174
 11
162.2240901848
 21
182.9082361851
  0
LINE
  5
38F
100
AcDbEntity
  8
00_COMPONENTS
100
AcDbLine
 62
7
  6
CONTINUOUS
 10
46.8288797251
 20
109.1472423779
 11
46.01320692
 21
108.6763162753
  0
LINE
  5
390
100
AcDbEntity
  8
00_COMPONENTS
100
AcDbLine
 62
7
  6
CONTINUOUS
 10
149.6884188586
 20
201.9117395667
 11
54.4797909198
 21
256.8792230058
  0
LINE
  5
391
100
AcDbEntity
  8
00_COMPONENTS
100
AcDbLine
 62
7
  6
CONTINUOUS
 10
162.7891214093
 20
81.8745998206
 11
162.7891214093
 21
90.0396239919
  0
LINE
  5
392
100
AcDbEntity
  8
00_COMPONENTS
100
AcDbLine
 62
7
  6
CONTINUOUS
 10
163.1052970243
 20
252.8713933259
 11
163.1052970243
 21
263.649225232
  0
LINE
  5
393
100
AcDbEntity
  8
00_COMPONENTS
100
AcDbLine
 62
7
  6
CONTINUOUS
 10
163.849785997
 20
53.337856023
 11
163.849785997
 21
81.2622386888
  0
LINE
  5
394
100
AcDbEntity
  8
00_COMPONENTS
100
AcDbLine
 62
7
  6
CONTINUOUS
 10
163.849785997
 20
89.4272628601
 11
163.849785997
 21
92.6932725286
  0
LINE
  5
395
100
AcDbEntity
  8
00_COMPONENTS
100
AcDbLine
 62
7
  6
CONTINUOUS
 10
164.1153055277
 20
92.7445125805
 11
164.1153055277
 21
51.7560912405
  0
LINE
  5
396
100
AcDbEntity
  8
00_COMPONENTS
100
AcDbLine
 62
7
  6
CONTINUOUS
 10
165.0168704273
 20
54.0933427385
 11
165.0168704273
 21
51.970436454
  0
LINE
  5
397
100
AcDbEntity
  8
00_COMPONENTS
100
AcDbLine
 62
7
  6
CONTINUOUS
 10
165.7239801524
 20
50.827343524
 11
165.7239801524
 21
51.5621956994
  0
LINE
  5
398
100
AcDbEntity
  8
00_COMPONENTS
100
AcDbLine
 62
7
  6
CONTINUOUS
 10
165.7239801524
 20
53.685101984
 11
165.7239801524
 21
206.1261032621
  0
LINE
  5
399
100
AcDbEntity
  8
00_COMPONENTS
100
AcDbLine
 62
7
  6
CONTINUOUS
 10
165.9337123732
 20
254.5043699414
 11
165.9337123732
 21
265.2822018475
  0
LINE
  5
39A
100
AcDbEntity
  8
00_COMPONENTS
100
AcDbLine
 62
7
  6
CONTINUOUS
 10
166.1479333383
 20
253.3846986406
 11
166.1479333383
 21
273.7315799588
  0
LINE
  5
39B
100
AcDbEntity
  8
00_COMPONENTS
100
AcDbLine
 62
7
  6
CONTINUOUS
 10
167.5903770717
 20
54.6646368618
 11
167.5903770717
 21
53.8759521099
  0
LINE
  5
39C
100
AcDbEntity
  8
00_COMPONENTS
100
AcDbLine
 62
7
  6
CONTINUOUS
 10
169.895892792
 20
208.6980442533
 11
169.895892792
 21
212.6172558555
  0
LINE
  5
39D
100
AcDbEntity
  8
00_COMPONENTS
100
AcDbLine
 62
7
  6
CONTINUOUS
 10
169.9666031757
 20
49.357596845
 11
169.9666031757
 21
53.0318577221
  0
LINE
  5
39E
100
AcDbEntity
  8
00_COMPONENTS
100
AcDbLine
 62
7
  6
CONTINUOUS
 10
170.8858381641
 20
209.1062855853
 11
170.8858381641
 21
207.4732807511
  0
LINE
  5
39F
100
AcDbEntity
  8
00_COMPONENTS
100
AcDbLine
 62
7
  6
CONTINUOUS
 10
171.0272589315
 20
207.5549295818
 11
171.0272589315
 21
209.3512348995
  0
LINE
  5
3A0
100
AcDbEntity
  8
00_COMPONENTS
100
AcDbLine
 62
7
  6
CONTINUOUS
 10
171.663652385
 20
54.0116436914
 11
171.663652385
 21
54.2565944165
  0
LINE
  5
3A1
100
AcDbEntity
  8
00_COMPONENTS
100
AcDbLine
 62
7
  6
CONTINUOUS
 10
169.813907965
 20
227.8409588809
 11
170.1132674455
 21
229.973398927
  0
LINE
  5
3A2
100
AcDbEntity
  8
00_COMPONENTS
100
AcDbLine
 62
7
  6
CONTINUOUS
 10
170.6167619049
 20
225.9366467957
 11
170.8038615802
 21
227.2694218245
  0
LINE
  5
3A3
100
AcDbEntity
  8
00_COMPONENTS
100
AcDbLine
 62
7
  6
CONTINUOUS
 10
171.1032210607
 20
229.4018618706
 11
171.9514062556
 21
235.4437753346
  0
LINE
  5
3A4
100
AcDbEntity
  8
00_COMPONENTS
100
AcDbLine
 62
7
  6
CONTINUOUS
 10
169.895892792
 20
212.6172558555
 11
170.2700926352
 21
215.2828094217
  0
LINE
  5
3A5
100
AcDbEntity
  8
00_COMPONENTS
100
AcDbLine
 62
7
  6
CONTINUOUS
 10
171.0184903514
 20
220.6139025198
 11
171.6795763634
 21
225.3230444635
  0
LINE
  5
3A6
100
AcDbEntity
  8
00_COMPONENTS
100
AcDbLine
 62
7
  6
CONTINUOUS
 10
165.7239801524
 20
206.1261032621
 11
38.444229626
 21
279.6094390757
  0
LINE
  5
3A7
100
AcDbEntity
  8
00_COMPONENTS
100
AcDbLine
 62
7
  6
CONTINUOUS
 10
171.0272589315
 20
207.5549295818
 11
170.8858381641
 21
207.6365770529
  0
LINE
  5
3A8
100
AcDbEntity
  8
00_COMPONENTS
100
AcDbLine
 62
7
  6
CONTINUOUS
 10
169.895892792
 20
208.6980442533
 11
42.6161422655
 21
282.181380067
  0
LINE
  5
3A9
100
AcDbEntity
  8
00_COMPONENTS
100
AcDbLine
 62
7
  6
CONTINUOUS
 10
170.8858381641
 20
209.1062855853
 11
170.7444137752
 21
209.1879351472
  0
LINE
  5
3AA
100
AcDbEntity
  8
00_COMPONENTS
100
AcDbLine
 62
7
  6
CONTINUOUS
 10
169.895892792
 20
212.6172558555
 11
137.3221028434
 21
231.423316801
  0
LINE
  5
3AB
100
AcDbEntity
  8
00_COMPONENTS
100
AcDbLine
 62
7
  6
CONTINUOUS
 10
135.5771027417
 20
232.4307702878
 11
76.9349323159
 21
266.287077237
  0
LINE
  5
3AC
100
AcDbEntity
  8
00_COMPONENTS
100
AcDbLine
 62
7
  6
CONTINUOUS
 10
75.1899322141
 20
267.2945307238
 11
42.6161422655
 21
286.1005916692
  0
LINE
  5
3AD
100
AcDbEntity
  8
00_COMPONENTS
100
AcDbLine
 62
7
  6
CONTINUOUS
 10
134.4330364238
 20
280.3518297405
 11
136.1687010483
 21
275.0829396325
  0
LINE
  5
3AE
100
AcDbEntity
  8
00_COMPONENTS
100
AcDbLine
 62
7
  6
CONTINUOUS
 10
140.9774425328
 20
279.6903850011
 11
140.833256832
 21
280.128083968
  0
LINE
  5
3AF
100
AcDbEntity
  8
00_COMPONENTS
100
AcDbLine
 62
7
  6
CONTINUOUS
 10
180.500196263
 20
243.1529699098
 11
180.500196263
 21
253.6065026708
  0
LINE
  5
3B0
100
AcDbEntity
  8
00_COMPONENTS
100
AcDbLine
 62
7
  6
CONTINUOUS
 10
183.7548188849
 20
270.8536475504
 11
183.7548188849
 21
274.0988303847
  0
LINE
  5
3B1
100
AcDbEntity
  8
00_COMPONENTS
100
AcDbLine
 62
7
  6
CONTINUOUS
 10
186.7249117151
 20
246.7468031971
 11
186.7249117151
 21
250.0127428306
  0
LINE
  5
3B2
100
AcDbEntity
  8
00_COMPONENTS
100
AcDbLine
 62
7
  6
CONTINUOUS
 10
187.0074788723
 20
277.2287613458
 11
187.0074788723
 21
288.2242372232
  0
LINE
  5
3B3
100
AcDbEntity
  8
00_COMPONENTS
100
AcDbLine
 62
7
  6
CONTINUOUS
 10
70.3471707618
 20
102.0682028576
 11
67.6980255881
 21
100.5387273081
  0
LINE
  5
3B4
100
AcDbEntity
  8
00_COMPONENTS
100
AcDbLine
 62
7
  6
CONTINUOUS
 10
45.4583405539
 20
298.1952603458
 11
44.399825837
 21
298.8063802772
  0
LINE
  5
3B5
100
AcDbEntity
  8
00_COMPONENTS
100
AcDbLine
 62
7
  6
CONTINUOUS
 10
170.6167619049
 20
225.9366467957
 11
171.6795763634
 21
225.3230444635
  0
LINE
  5
3B6
100
AcDbEntity
  8
00_COMPONENTS
100
AcDbLine
 62
7
  6
CONTINUOUS
 10
170.8038615802
 20
227.2694218245
 11
169.813907965
 21
227.8409588809
  0
LINE
  5
3B7
100
AcDbEntity
  8
00_COMPONENTS
100
AcDbLine
 62
7
  6
CONTINUOUS
 10
46.6353938444
 20
298.9564983183
 11
45.6454402292
 21
299.5280353746
  0
LINE
  5
3B8
100
AcDbEntity
  8
00_COMPONENTS
100
AcDbLine
 62
7
  6
CONTINUOUS
 10
124.3947252331
 20
318.1104949611
 11
127.9941303641
 21
310.4907611899
  0
LINE
  5
3B9
100
AcDbEntity
  8
00_COMPONENTS
100
AcDbLine
 62
7
  6
CONTINUOUS
 10
133.3681195269
 20
313.5934167593
 11
129.7687143959
 21
321.2131505306
  0
LINE
  5
3BA
100
AcDbEntity
  8
00_COMPONENTS
100
AcDbLine
 62
7
  6
CONTINUOUS
 10
192.5939259665
 20
59.9719025175
 11
192.5939259665
 21
55.0728880147
  0
LINE
  5
3BB
100
AcDbEntity
  8
00_COMPONENTS
100
AcDbLine
 62
7
  6
CONTINUOUS
 10
196.4804850925
 20
296.1453946126
 11
196.4804850925
 21
298.5948595359
  0
LINE
  5
3BC
100
AcDbEntity
  8
00_COMPONENTS
100
AcDbLine
 62
7
  6
CONTINUOUS
 10
84.9895977856
 20
98.2749050404
 11
81.6177084719
 21
96.328155458
  0
LINE
  5
3BD
100
AcDbEntity
  8
00_COMPONENTS
100
AcDbLine
 62
7
  6
CONTINUOUS
 10
90.3893647291
 20
89.7165222568
 11
89.6388918843
 21
89.2832391442
  0
LINE
  5
3BE
100
AcDbEntity
  8
00_COMPONENTS
100
AcDbLine
 62
7
  6
CONTINUOUS
 10
90.5138561849
 20
88.971874833
 11
88.6489382691
 21
87.8951703994
  0
LINE
  5
3BF
100
AcDbEntity
  8
00_COMPONENTS
100
AcDbLine
 62
7
  6
CONTINUOUS
 10
45.9447997097
 20
301.6604754207
 11
46.934753325
 21
301.0889383644
  0
LINE
  5
3C0
100
AcDbEntity
  8
00_COMPONENTS
100
AcDbLine
 62
7
  6
CONTINUOUS
 10
170.1132674455
 20
229.973398927
 11
171.1032210607
 21
229.4018618706
  0
LINE
  5
3C1
100
AcDbEntity
  8
00_COMPONENTS
100
AcDbLine
 62
7
  6
CONTINUOUS
 10
134.0764130902
 20
251.5050108988
 11
132.0633255223
 21
252.6672412549
  0
LINE
  5
3C2
100
AcDbEntity
  8
00_COMPONENTS
100
AcDbLine
 62
7
  6
CONTINUOUS
 10
91.6498295814
 20
275.99945617
 11
89.6367420135
 21
277.1616865261
  0
LINE
  5
3C3
100
AcDbEntity
  8
00_COMPONENTS
100
AcDbLine
 62
7
  6
CONTINUOUS
 10
134.2354579676
 20
252.6379419991
 11
134.1846546978
 21
252.667272617
  0
LINE
  5
3C4
100
AcDbEntity
  8
00_COMPONENTS
100
AcDbLine
 62
7
  6
CONTINUOUS
 10
132.0633255223
 20
253.8919948806
 11
131.0733719071
 21
254.4635319369
  0
LINE
  5
3C5
100
AcDbEntity
  8
00_COMPONENTS
100
AcDbLine
 62
7
  6
CONTINUOUS
 10
91.8088744588
 20
277.1323872703
 11
91.758071189
 21
277.1617178882
  0
LINE
  5
3C6
100
AcDbEntity
  8
00_COMPONENTS
100
AcDbLine
 62
7
  6
CONTINUOUS
 10
89.6367420135
 20
278.3864401518
 11
88.6467883983
 21
278.9579772081
  0
LINE
  5
3C7
100
AcDbEntity
  8
00_COMPONENTS
100
AcDbLine
 62
7
  6
CONTINUOUS
 10
88.6467883983
 20
280.9175830092
 11
89.6367420135
 21
280.3460459529
  0
LINE
  5
3C8
100
AcDbEntity
  8
00_COMPONENTS
100
AcDbLine
 62
7
  6
CONTINUOUS
 10
91.758071189
 20
279.1213236893
 11
92.0633462626
 21
278.9450770307
  0
LINE
  5
3C9
100
AcDbEntity
  8
00_COMPONENTS
100
AcDbLine
 62
7
  6
CONTINUOUS
 10
131.0733719071
 20
256.423137738
 11
132.0633255223
 21
255.8516006817
  0
LINE
  5
3CA
100
AcDbEntity
  8
00_COMPONENTS
100
AcDbLine
 62
7
  6
CONTINUOUS
 10
134.1846546978
 20
254.6268784181
 11
134.4899297714
 21
254.4506317594
  0
LINE
  5
3CB
100
AcDbEntity
  8
00_COMPONENTS
100
AcDbLine
 62
7
  6
CONTINUOUS
 10
171.9514062556
 20
235.4437753346
 11
134.8302955562
 21
256.8751737465
  0
LINE
  5
3CC
100
AcDbEntity
  8
00_COMPONENTS
100
AcDbLine
 62
7
  6
CONTINUOUS
 10
126.3449788544
 20
261.7740628007
 11
92.4037120473
 21
281.3696190177
  0
LINE
  5
3CD
100
AcDbEntity
  8
00_COMPONENTS
100
AcDbLine
 62
7
  6
CONTINUOUS
 10
83.9183953456
 20
286.2685080719
 11
46.7929849046
 21
307.7023888846
  0
LINE
  5
3CE
100
AcDbEntity
  8
00_COMPONENTS
100
AcDbLine
 62
7
  6
CONTINUOUS
 10
137.3687983318
 20
258.3407702589
 11
134.1846546978
 21
260.1790948546
  0
LINE
  5
3CF
100
AcDbEntity
  8
00_COMPONENTS
100
AcDbLine
 62
7
  6
CONTINUOUS
 10
132.0633255223
 20
261.4038171182
 11
128.88348163
 21
263.2396593131
  0
LINE
  5
3D0
100
AcDbEntity
  8
00_COMPONENTS
100
AcDbLine
 62
7
  6
CONTINUOUS
 10
94.9422148229
 20
282.8352155301
 11
91.758071189
 21
284.6735401258
  0
LINE
  5
3D1
100
AcDbEntity
  8
00_COMPONENTS
100
AcDbLine
 62
7
  6
CONTINUOUS
 10
89.6367420135
 20
285.8982623894
 11
86.4568981212
 21
287.7341045843
  0
LINE
  5
3D2
100
AcDbEntity
  8
00_COMPONENTS
100
AcDbLine
 62
7
  6
CONTINUOUS
 10
64.5364789778
 20
302.8390226996
 11
78.6786734808
 21
294.6742076092
  0
LINE
  5
3D3
100
AcDbEntity
  8
00_COMPONENTS
100
AcDbLine
 62
7
  6
CONTINUOUS
 10
106.9630624866
 20
278.3445774284
 11
121.1052569896
 21
270.179762338
  0
LINE
  5
3D4
100
AcDbEntity
  8
00_COMPONENTS
100
AcDbLine
 62
7
  6
CONTINUOUS
 10
149.3896459955
 20
253.8501321572
 11
163.5318404984
 21
245.6853170668
  0
LINE
  5
3D5
100
AcDbEntity
  8
00_COMPONENTS
100
AcDbLine
 62
7
  6
CONTINUOUS
 10
172.9363868894
 20
242.0519818301
 11
165.0874689403
 21
246.5834542053
  0
LINE
  5
3D6
100
AcDbEntity
  8
00_COMPONENTS
100
AcDbLine
 62
7
  6
CONTINUOUS
 10
150.9452744373
 20
254.7482692957
 11
143.0963564882
 21
259.2797416709
  0
LINE
  5
3D7
100
AcDbEntity
  8
00_COMPONENTS
100
AcDbLine
 62
7
  6
CONTINUOUS
 10
130.5098033806
 20
266.5464271013
 11
122.6608854314
 21
271.0778994765
  0
LINE
  5
3D8
100
AcDbEntity
  8
00_COMPONENTS
100
AcDbLine
 62
7
  6
CONTINUOUS
 10
108.5186909285
 20
279.2427145669
 11
100.6697729794
 21
283.7741869421
  0
LINE
  5
3D9
100
AcDbEntity
  8
00_COMPONENTS
100
AcDbLine
 62
7
  6
CONTINUOUS
 10
88.0832198718
 20
291.0408723726
 11
80.2343019226
 21
295.5723447477
  0
LINE
  5
3DA
100
AcDbEntity
  8
00_COMPONENTS
100
AcDbLine
 62
7
  6
CONTINUOUS
 10
66.0921074197
 20
303.7371598381
 11
58.2431894706
 21
308.2686322133
  0
LINE
  5
3DB
100
AcDbEntity
  8
00_COMPONENTS
100
AcDbLine
 62
7
  6
CONTINUOUS
 10
93.3681915416
 20
300.1361733157
 11
95.6470292453
 21
298.2870674221
  0
LINE
  5
3DC
100
AcDbEntity
  8
00_COMPONENTS
100
AcDbLine
 62
7
  6
CONTINUOUS
 10
90.7005856243
 20
87.8549500199
 11
89.7096028568
 21
87.2828092676
  0
LINE
  5
3DD
100
AcDbEntity
  8
00_COMPONENTS
100
AcDbLine
 62
7
  6
CONTINUOUS
 10
86.4568981212
 20
83.6085003019
 11
85.1699691374
 21
82.8654959419
  0
LINE
  5
3DE
100
AcDbEntity
  8
00_COMPONENTS
100
AcDbLine
 62
7
  6
CONTINUOUS
 10
91.5471070443
 20
82.7914700358
 11
89.7096028568
 21
81.7305928311
  0
LINE
  5
3DF
100
AcDbEntity
  8
00_COMPONENTS
100
AcDbLine
 62
7
  6
CONTINUOUS
 10
158.4911992197
 20
118.6349617512
 11
158.0091090549
 21
118.3566285262
  0
LINE
  5
3E0
100
AcDbEntity
  8
00_COMPONENTS
100
AcDbLine
 62
7
  6
CONTINUOUS
 10
159.7649735744
 20
118.4906663129
 11
159.5985548483
 21
118.3945849901
  0
LINE
  5
3E1
100
AcDbEntity
  8
00_COMPONENTS
100
AcDbLine
 62
7
  6
CONTINUOUS
 10
160.6810564684
 20
117.7597193393
 11
160.7516615206
 21
117.8004829419
  0
LINE
  5
3E2
100
AcDbEntity
  8
00_COMPONENTS
100
AcDbLine
 62
7
  6
CONTINUOUS
 10
159.5808847421
 20
115.5259196787
 11
158.7146676919
 21
115.0258120169
  0
LINE
  5
3E3
100
AcDbEntity
  8
00_COMPONENTS
100
AcDbLine
 62
7
  6
CONTINUOUS
 10
160.6810564684
 20
116.1202928454
 11
159.5985548483
 21
115.4953139743
  0
LINE
  5
3E4
100
AcDbEntity
  8
00_COMPONENTS
100
AcDbLine
 62
7
  6
CONTINUOUS
 10
160.6810564684
 20
115.1404899448
 11
159.5985548483
 21
114.5155110737
  0
LINE
  5
3E5
100
AcDbEntity
  8
00_COMPONENTS
100
AcDbLine
 62
7
  6
CONTINUOUS
 10
140.1267458797
 20
109.1256473751
 11
156.7596130403
 21
118.6285415986
  0
LINE
  5
3E6
100
AcDbEntity
  8
00_COMPONENTS
100
AcDbLine
 62
7
  6
CONTINUOUS
 10
154.675426009
 20
114.0432099112
 11
138.0425588485
 21
104.5403156878
  0
LINE
  5
3E7
100
AcDbEntity
  8
00_COMPONENTS
100
AcDbLine
 62
7
  6
CONTINUOUS
 10
179.8852279685
 20
249.1602428223
 11
180.500196263
 21
248.9985296805
  0
LINE
  5
3E8
100
AcDbEntity
  8
00_COMPONENTS
100
AcDbLine
 62
7
  6
CONTINUOUS
 10
180.500196263
 20
243.8898207401
 11
166.4079215159
 21
252.025815298
  0
LINE
  5
3E9
100
AcDbEntity
  8
00_COMPONENTS
100
AcDbLine
 62
7
  6
CONTINUOUS
 10
138.0736127541
 20
268.3842660113
 11
123.9813380071
 21
276.5202605692
  0
LINE
  5
3EA
100
AcDbEntity
  8
00_COMPONENTS
100
AcDbLine
 62
7
  6
CONTINUOUS
 10
81.5547544983
 20
301.0147058404
 11
95.6470292453
 21
292.8787112825
  0
LINE
  5
3EB
100
AcDbEntity
  8
00_COMPONENTS
100
AcDbLine
 62
7
  6
CONTINUOUS
 10
136.1687010483
 20
275.0829396325
 11
138.0736127541
 21
273.7969103507
  0
LINE
  5
3EC
100
AcDbEntity
  8
00_COMPONENTS
100
AcDbLine
 62
7
  6
CONTINUOUS
 10
98.7742135555
 20
304.0807080925
 11
94.7731037972
 21
307.3273085953
  0
LINE
  5
3ED
100
AcDbEntity
  8
00_COMPONENTS
100
AcDbLine
 62
7
  6
CONTINUOUS
 10
176.9868996832
 20
254.1535049676
 11
179.8852279685
 21
249.1602428223
  0
LINE
  5
3EE
100
AcDbEntity
  8
00_COMPONENTS
100
AcDbLine
 62
7
  6
CONTINUOUS
 10
183.1069638335
 20
255.1108243095
 11
181.9668088982
 21
257.0750919554
  0
LINE
  5
3EF
100
AcDbEntity
  8
00_COMPONENTS
100
AcDbLine
 62
7
  6
CONTINUOUS
 10
166.8213087419
 20
293.6160496899
 11
170.4207138729
 21
285.9963159187
  0
LINE
  5
3F0
100
AcDbEntity
  8
00_COMPONENTS
100
AcDbLine
 62
7
  6
CONTINUOUS
 10
161.5472735186
 20
114.3906502725
 11
160.6810564684
 21
113.8905426107
  0
LINE
  5
3F1
100
AcDbEntity
  8
00_COMPONENTS
100
AcDbLine
 62
7
  6
CONTINUOUS
 10
159.5985548483
 20
111.6162400579
 11
160.6810564684
 21
112.241218929
  0
LINE
  5
3F2
100
AcDbEntity
  8
00_COMPONENTS
100
AcDbLine
 62
7
  6
CONTINUOUS
 10
162.7350543413
 20
111.35102701
 11
162.2240901848
 21
111.0560234777
  0
LINE
  5
3F3
100
AcDbEntity
  8
00_COMPONENTS
100
AcDbLine
 62
7
  6
CONTINUOUS
 10
113.9278246818
 20
82.9098618865
 11
112.8671689259
 21
82.2974956557
  0
LINE
  5
3F4
100
AcDbEntity
  8
00_COMPONENTS
100
AcDbLine
 62
7
  6
CONTINUOUS
 10
112.7737542707
 20
77.5737575863
 11
110.1246090969
 21
76.0442820369
  0
LINE
  5
3F5
100
AcDbEntity
  8
00_COMPONENTS
100
AcDbLine
 62
7
  6
CONTINUOUS
 10
181.9668088982
 20
257.0750919554
 11
178.0276901481
 21
258.1109295342
  0
LINE
  5
3F6
100
AcDbEntity
  8
00_COMPONENTS
100
AcDbLine
 62
7
  6
CONTINUOUS
 10
72.0317142962
 20
316.2293932138
 11
78.2521300067
 21
312.6381157744
  0
LINE
  5
3F7
100
AcDbEntity
  8
00_COMPONENTS
100
AcDbLine
 62
7
  6
CONTINUOUS
 10
95.6470292453
 20
302.5953932132
 11
101.8717446974
 21
299.0016333731
  0
LINE
  5
3F8
100
AcDbEntity
  8
00_COMPONENTS
100
AcDbLine
 62
7
  6
CONTINUOUS
 10
114.458297805
 20
291.7349479426
 11
120.6787135155
 21
288.1436705032
  0
LINE
  5
3F9
100
AcDbEntity
  8
00_COMPONENTS
100
AcDbLine
 62
7
  6
CONTINUOUS
 10
138.0736127541
 20
278.100947942
 11
144.2983282062
 21
274.5071881018
  0
LINE
  5
3FA
100
AcDbEntity
  8
00_COMPONENTS
100
AcDbLine
 62
7
  6
CONTINUOUS
 10
156.8848813139
 20
267.2405026714
 11
163.1052970243
 21
263.649225232
  0
LINE
  5
3FB
100
AcDbEntity
  8
00_COMPONENTS
100
AcDbLine
 62
7
  6
CONTINUOUS
 10
180.500196263
 20
253.6065026708
 11
186.7249117151
 21
250.0127428306
  0
LINE
  5
3FC
100
AcDbEntity
  8
00_COMPONENTS
100
AcDbLine
 62
7
  6
CONTINUOUS
 10
190.5432806791
 20
251.0741823898
 11
183.3286116118
 21
255.2394792863
  0
LINE
  5
3FD
100
AcDbEntity
  8
00_COMPONENTS
100
AcDbLine
 62
7
  6
CONTINUOUS
 10
165.9337123732
 20
265.2822018475
 11
158.7233430475
 21
269.4450163432
  0
LINE
  5
3FE
100
AcDbEntity
  8
00_COMPONENTS
100
AcDbLine
 62
7
  6
CONTINUOUS
 10
148.1166971703
 20
275.568627661
 11
140.902028103
 21
279.7339245575
  0
LINE
  5
3FF
100
AcDbEntity
  8
00_COMPONENTS
100
AcDbLine
 62
7
  6
CONTINUOUS
 10
123.5071288644
 20
289.7766471187
 11
116.2967595387
 21
293.9394616144
  0
LINE
  5
400
100
AcDbEntity
  8
00_COMPONENTS
100
AcDbLine
 62
7
  6
CONTINUOUS
 10
105.6901136615
 20
300.0630729322
 11
98.4754445942
 21
304.2283698287
  0
LINE
  5
401
100
AcDbEntity
  8
00_COMPONENTS
100
AcDbLine
 62
7
  6
CONTINUOUS
 10
81.0805453556
 20
314.2710923899
 11
73.8701760299
 21
318.4339068856
  0
LINE
  5
402
100
AcDbEntity
  8
00_COMPONENTS
100
AcDbLine
 62
7
  6
CONTINUOUS
 10
200.0892001453
 20
254.1360237419
 11
197.9678709699
 21
255.3607460054
  0
LINE
  5
403
100
AcDbEntity
  8
00_COMPONENTS
100
AcDbLine
 62
7
  6
CONTINUOUS
 10
166.1479333383
 20
273.7315799588
 11
164.0266041628
 21
274.9563022224
  0
LINE
  5
404
100
AcDbEntity
  8
00_COMPONENTS
100
AcDbLine
 62
7
  6
CONTINUOUS
 10
157.6626166365
 20
278.6304690131
 11
155.5412874611
 21
279.8551912766
  0
LINE
  5
405
100
AcDbEntity
  8
00_COMPONENTS
100
AcDbLine
 62
7
  6
CONTINUOUS
 10
123.7213498294
 20
298.2260252301
 11
121.600020654
 21
299.4507474936
  0
LINE
  5
406
100
AcDbEntity
  8
00_COMPONENTS
100
AcDbLine
 62
7
  6
CONTINUOUS
 10
115.2360331277
 20
303.1249142843
 11
113.1147039522
 21
304.3496365479
  0
LINE
  5
407
100
AcDbEntity
  8
00_COMPONENTS
100
AcDbLine
 62
7
  6
CONTINUOUS
 10
81.2947663206
 20
322.7204705013
 11
79.1734371452
 21
323.9451927648
  0
LINE
  5
408
100
AcDbEntity
  8
00_COMPONENTS
100
AcDbLine
 62
7
  6
CONTINUOUS
 10
140.833256832
 20
280.128083968
 11
136.7653143156
 21
282.8744019083
  0
LINE
  5
409
100
AcDbEntity
  8
00_COMPONENTS
100
AcDbLine
 62
7
  6
CONTINUOUS
 10
175.7947030357
 20
289.0989714881
 11
172.1952979048
 21
296.7187052593
  0
LINE
  5
40A
100
AcDbEntity
  8
00_COMPONENTS
100
AcDbLine
 62
7
  6
CONTINUOUS
 10
127.4161812944
 20
73.7804597692
 11
124.0442919807
 21
71.8337101868
  0
LINE
  5
40B
100
AcDbEntity
  8
00_COMPONENTS
100
AcDbLine
 62
7
  6
CONTINUOUS
 10
163.849785997
 20
92.6932725286
 11
164.0269204778
 21
92.7955405584
  0
LINE
  5
40C
100
AcDbEntity
  8
00_COMPONENTS
100
AcDbLine
 62
7
  6
CONTINUOUS
 10
164.1153055277
 20
89.5805597176
 11
163.849785997
 21
89.4272628601
  0
LINE
  5
40D
100
AcDbEntity
  8
00_COMPONENTS
100
AcDbLine
 62
7
  6
CONTINUOUS
 10
209.2478922507
 20
269.1216044187
 11
212.8472973817
 21
261.5018706475
  0
LINE
  5
40E
100
AcDbEntity
  8
00_COMPONENTS
100
AcDbLine
 62
7
  6
CONTINUOUS
 10
237.9171149861
 20
267.1601290834
 11
237.9171149861
 21
267.9766512536
  0
LINE
  5
40F
100
AcDbEntity
  8
00_COMPONENTS
100
AcDbLine
 62
7
  6
CONTINUOUS
 10
237.9192648569
 20
76.0973222746
 11
237.9192648569
 21
76.9138656089
  0
LINE
  5
410
100
AcDbEntity
  8
00_COMPONENTS
100
AcDbLine
 62
7
  6
CONTINUOUS
 10
238.9070686013
 20
265.3638384014
 11
238.9070686013
 21
266.5885920271
  0
LINE
  5
411
100
AcDbEntity
  8
00_COMPONENTS
100
AcDbLine
 62
7
  6
CONTINUOUS
 10
238.9070686013
 20
268.5481978282
 11
238.9070686013
 21
274.1004142646
  0
LINE
  5
412
100
AcDbEntity
  8
00_COMPONENTS
100
AcDbLine
 62
7
  6
CONTINUOUS
 10
238.9092184722
 20
75.5257852183
 11
238.9092184722
 21
69.9735687818
  0
LINE
  5
413
100
AcDbEntity
  8
00_COMPONENTS
100
AcDbLine
 62
7
  6
CONTINUOUS
 10
239.9698830599
 20
264.7502360692
 11
239.9698830599
 21
260.4227700342
  0
LINE
  5
414
100
AcDbEntity
  8
00_COMPONENTS
100
AcDbLine
 62
7
  6
CONTINUOUS
 10
239.9698830599
 20
255.5237619798
 11
239.9698830599
 21
78.0977835133
  0
LINE
  5
415
100
AcDbEntity
  8
00_COMPONENTS
100
AcDbLine
 62
7
  6
CONTINUOUS
 10
132.8159482379
 20
65.2220769856
 11
132.0654753932
 21
64.788793873
  0
LINE
  5
416
100
AcDbEntity
  8
00_COMPONENTS
100
AcDbLine
 62
7
  6
CONTINUOUS
 10
164.1153055277
 20
82.640268008
 11
162.7891214093
 21
81.8745998206
  0
LINE
  5
417
100
AcDbEntity
  8
00_COMPONENTS
100
AcDbLine
 62
7
  6
CONTINUOUS
 10
132.9404396937
 20
64.4774295618
 11
131.0755217779
 21
63.4007251282
  0
LINE
  5
418
100
AcDbEntity
  8
00_COMPONENTS
100
AcDbLine
 62
7
  6
CONTINUOUS
 10
164.1153055277
 20
81.4155355463
 11
163.849785997
 21
81.2622386888
  0
LINE
  5
419
100
AcDbEntity
  8
00_COMPONENTS
100
AcDbLine
 62
7
  6
CONTINUOUS
 10
133.1271691331
 20
63.3605047487
 11
132.1361863657
 21
62.7883639964
  0
LINE
  5
41A
100
AcDbEntity
  8
00_COMPONENTS
100
AcDbLine
 62
7
  6
CONTINUOUS
 10
128.88348163
 20
59.1140550307
 11
127.5965526463
 21
58.3710506707
  0
LINE
  5
41B
100
AcDbEntity
  8
00_COMPONENTS
100
AcDbLine
 62
7
  6
CONTINUOUS
 10
133.9736905532
 20
58.2970247646
 11
132.1361863657
 21
57.2361475599
  0
LINE
  5
41C
100
AcDbEntity
  8
00_COMPONENTS
100
AcDbLine
 62
7
  6
CONTINUOUS
 10
209.2478922507
 20
269.1216044187
 11
190.0816831506
 21
280.18697007
  0
LINE
  5
41D
100
AcDbEntity
  8
00_COMPONENTS
100
AcDbLine
 62
7
  6
CONTINUOUS
 10
105.228516133
 20
329.1758606124
 11
124.3947252331
 21
318.1104949611
  0
LINE
  5
41E
100
AcDbEntity
  8
00_COMPONENTS
100
AcDbLine
 62
7
  6
CONTINUOUS
 10
147.6550996418
 20
304.6814153412
 11
166.8213087419
 21
293.6160496899
  0
LINE
  5
41F
100
AcDbEntity
  8
00_COMPONENTS
100
AcDbLine
 62
7
  6
CONTINUOUS
 10
110.6025052958
 20
332.2785161818
 11
129.7687143959
 21
321.2131505306
  0
LINE
  5
420
100
AcDbEntity
  8
00_COMPONENTS
100
AcDbLine
 62
7
  6
CONTINUOUS
 10
153.0290888046
 20
307.7840709106
 11
172.1952979048
 21
296.7187052593
  0
LINE
  5
421
100
AcDbEntity
  8
00_COMPONENTS
100
AcDbLine
 62
7
  6
CONTINUOUS
 10
195.4556723135
 20
283.2896256394
 11
214.6218814136
 21
272.2242599881
  0
LINE
  5
422
100
AcDbEntity
  8
00_COMPONENTS
100
AcDbLine
 62
7
  6
CONTINUOUS
 10
223.0700748548
 20
267.4039587427
 11
187.0074788723
 21
288.2242372232
  0
LINE
  5
423
100
AcDbEntity
  8
00_COMPONENTS
100
AcDbLine
 62
7
  6
CONTINUOUS
 10
180.6434913459
 20
291.8984040139
 11
144.5808953634
 21
312.7186824944
  0
LINE
  5
424
100
AcDbEntity
  8
00_COMPONENTS
100
AcDbLine
 62
7
  6
CONTINUOUS
 10
138.2169078371
 20
316.3928492851
 11
102.1543118546
 21
337.2131277657
  0
LINE
  5
425
100
AcDbEntity
  8
00_COMPONENTS
100
AcDbLine
 62
7
  6
CONTINUOUS
 10
218.2212865445
 20
264.6045262169
 11
214.6218814136
 21
272.2242599881
  0
LINE
  5
426
100
AcDbEntity
  8
00_COMPONENTS
100
AcDbLine
 62
7
  6
CONTINUOUS
 10
238.9070686013
 20
265.3638384014
 11
239.9698830599
 21
264.7502360692
  0
LINE
  5
427
100
AcDbEntity
  8
00_COMPONENTS
100
AcDbLine
 62
7
  6
CONTINUOUS
 10
238.9070686013
 20
266.5885920271
 11
237.9171149861
 21
267.1601290834
  0
LINE
  5
428
100
AcDbEntity
  8
00_COMPONENTS
100
AcDbLine
 62
7
  6
CONTINUOUS
 10
238.9070686013
 20
274.1004142646
 11
198.601814268
 21
297.3701372723
  0
LINE
  5
429
100
AcDbEntity
  8
00_COMPONENTS
100
AcDbLine
 62
7
  6
CONTINUOUS
 10
196.4804850925
 20
298.5948595359
 11
156.1752307592
 21
321.8645825435
  0
LINE
  5
42A
100
AcDbEntity
  8
00_COMPONENTS
100
AcDbLine
 62
7
  6
CONTINUOUS
 10
154.0539015837
 20
323.0893048071
 11
113.7486472503
 21
346.3590278147
  0
LINE
  5
42B
100
AcDbEntity
  8
00_COMPONENTS
100
AcDbLine
 62
7
  6
CONTINUOUS
 10
155.2003377795
 20
53.0793123151
 11
152.5511926058
 21
51.5498367657
  0
LINE
  5
42C
100
AcDbEntity
  8
00_COMPONENTS
100
AcDbLine
 62
7
  6
CONTINUOUS
 10
167.350318978
 20
54.6240635379
 11
165.7239801524
 21
53.685101984
  0
LINE
  5
42D
100
AcDbEntity
  8
00_COMPONENTS
100
AcDbLine
 62
7
  6
CONTINUOUS
 10
166.3319480684
 20
52.7296923519
 11
165.0168704273
 21
51.970436454
  0
LINE
  5
42E
100
AcDbEntity
  8
00_COMPONENTS
100
AcDbLine
 62
7
  6
CONTINUOUS
 10
167.350318978
 20
52.5011572533
 11
165.7239801524
 21
51.5621956994
  0
LINE
  5
42F
100
AcDbEntity
  8
00_COMPONENTS
100
AcDbLine
 62
7
  6
CONTINUOUS
 10
171.663652385
 20
54.2565944165
 11
165.7239801524
 21
50.827343524
  0
LINE
  5
430
100
AcDbEntity
  8
00_COMPONENTS
100
AcDbLine
 62
7
  6
CONTINUOUS
 10
169.9666031757
 20
53.0318577221
 11
171.663652385
 21
54.0116436914
  0
LINE
  5
431
100
AcDbEntity
  8
00_COMPONENTS
100
AcDbLine
 62
7
  6
CONTINUOUS
 10
170.3400685081
 20
47.1237086167
 11
192.5939259665
 21
59.9719025175
  0
LINE
  5
432
100
AcDbEntity
  8
00_COMPONENTS
100
AcDbLine
 62
7
  6
CONTINUOUS
 10
192.5939259665
 20
55.0728880147
 11
171.0869991728
 21
42.6559321602
  0
LINE
  5
433
100
AcDbEntity
  8
00_COMPONENTS
100
AcDbLine
 62
7
  6
CONTINUOUS
 10
239.9698830599
 20
78.0977835133
 11
170.8728560051
 21
38.2048133078
  0
LINE
  5
434
100
AcDbEntity
  8
00_COMPONENTS
100
AcDbLine
 62
7
  6
CONTINUOUS
 10
237.9192648569
 20
76.0973222746
 11
170.1816746558
 21
36.9892397815
  0
LINE
  5
435
100
AcDbEntity
  8
00_COMPONENTS
100
AcDbLine
 62
7
  6
CONTINUOUS
 10
238.9092184722
 20
75.5257852183
 11
171.171628271
 21
36.4177027252
  0
LINE
  5
436
100
AcDbEntity
  8
00_COMPONENTS
100
AcDbLine
 62
7
  6
CONTINUOUS
 10
238.9092184722
 20
69.9735687818
 11
173.2051299182
 21
32.0395220041
  0
ARC
  5
437
100
AcDbEntity
  8
00_COMPONENTS
100
AcDbCircle
 62
7
  6
CONTINUOUS
 10
107.7134124583
 20
82.0653345521
 40
2.0927673643
100
AcDbArc
 50
112.4412398837
 51
120.0130321956
  0
ARC
  5
438
100
AcDbEntity
  8
00_COMPONENTS
100
AcDbCircle
 62
7
  6
CONTINUOUS
 10
65.2868289495
 20
106.5597798233
 40
2.0927673643
100
AcDbArc
 50
112.4412398837
 51
120.0130321956
  0
ARC
  5
439
100
AcDbEntity
  8
00_COMPONENTS
100
AcDbCircle
 62
7
  6
CONTINUOUS
 10
103.4055920846
 20
303.9338586576
 40
9.9897285825
100
AcDbArc
 50
1.4760004878
 51
2.2544706485
  0
ARC
  5
43A
100
AcDbEntity
  8
00_COMPONENTS
100
AcDbCircle
 62
7
  6
CONTINUOUS
 10
102.7852591859
 20
303.3270828432
 40
8.1373435638
100
AcDbArc
 50
357.6499022699
 51
0.0120486085
  0
ARC
  5
43B
100
AcDbEntity
  8
00_COMPONENTS
100
AcDbCircle
 62
7
  6
CONTINUOUS
 10
94.1437884907
 20
270.7155558435
 40
6.7848415244
100
AcDbArc
 50
233.5677238621
 51
233.8273615585
  0
ARC
  5
43C
100
AcDbEntity
  8
00_COMPONENTS
100
AcDbCircle
 62
7
  6
CONTINUOUS
 10
93.9957037919
 20
270.5101056447
 40
6.5315910815
100
AcDbArc
 50
233.8122679504
 51
236.4201770823
  0
ARC
  5
43D
100
AcDbEntity
  8
00_COMPONENTS
100
AcDbCircle
 62
7
  6
CONTINUOUS
 10
72.8891506193
 20
290.5307824668
 40
5.7010101936
100
AcDbArc
 50
178.4693822297
 51
180.0049698071
  0
ARC
  5
43E
100
AcDbEntity
  8
00_COMPONENTS
100
AcDbCircle
 62
7
  6
CONTINUOUS
 10
41.35180835
 20
252.5525881521
 40
5.3647285063
100
AcDbArc
 50
50.7272337898
 51
53.2011378676
  0
ARC
  5
43F
100
AcDbEntity
  8
00_COMPONENTS
100
AcDbCircle
 62
7
  6
CONTINUOUS
 10
45.2131265344
 20
255.3189942482
 40
4.2940128957
100
AcDbArc
 50
180.0062111552
 51
181.4595779246
  0
ARC
  5
440
100
AcDbEntity
  8
00_COMPONENTS
100
AcDbCircle
 62
7
  6
CONTINUOUS
 10
101.2263116579
 20
312.7735201251
 40
3.3384882501
100
AcDbArc
 50
120.010909735
 51
122.7231543465
  0
ARC
  5
441
100
AcDbEntity
  8
00_COMPONENTS
100
AcDbCircle
 62
7
  6
CONTINUOUS
 10
64.3524268583
 20
290.7775020697
 40
3.1997759991
100
AcDbArc
 50
131.0045282035
 51
132.1165731308
  0
ARC
  5
442
100
AcDbEntity
  8
00_COMPONENTS
100
AcDbCircle
 62
7
  6
CONTINUOUS
 10
106.7790103667
 20
266.283056799
 40
3.1997759985
100
AcDbArc
 50
131.0045282034
 51
132.1165731309
  0
ARC
  5
443
100
AcDbEntity
  8
00_COMPONENTS
100
AcDbCircle
 62
7
  6
CONTINUOUS
 10
42.6038646553
 20
256.0759900518
 40
1.5043428084
100
AcDbArc
 50
111.4239386581
 51
122.2037194657
  0
ARC
  5
444
100
AcDbEntity
  8
00_COMPONENTS
100
AcDbCircle
 62
7
  6
CONTINUOUS
 10
42.74671204
 20
255.9430164916
 40
1.4059384555
100
AcDbArc
 50
114.9423649927
 51
120.0276826623
  0
ARC
  5
445
100
AcDbEntity
  8
00_COMPONENTS
100
AcDbCircle
 62
7
  6
CONTINUOUS
 10
185.8023774273
 20
165.523176975
 40
90.9192475563
100
AcDbArc
 50
158.6542776967
 51
158.88633897
  0
ARC
  5
446
100
AcDbEntity
  8
00_COMPONENTS
100
AcDbCircle
 62
7
  6
CONTINUOUS
 10
162.72170284
 20
178.7222861472
 40
90.2057250965
100
AcDbArc
 50
158.6201012297
 51
160.1991946413
  0
ARC
  5
447
100
AcDbEntity
  8
00_COMPONENTS
100
AcDbCircle
 62
7
  6
CONTINUOUS
 10
184.7826653128
 20
165.9131083982
 40
89.8275303567
100
AcDbArc
 50
158.8840647409
 51
160.2018658197
  0
ARC
  5
448
100
AcDbEntity
  8
00_COMPONENTS
100
AcDbCircle
 62
7
  6
CONTINUOUS
 10
164.7005765732
 20
177.508284
 40
89.8269825082
100
AcDbArc
 50
158.6174862734
 51
160.2025116104
  0
ARC
  5
449
100
AcDbEntity
  8
00_COMPONENTS
100
AcDbCircle
 62
7
  6
CONTINUOUS
 10
163.8006220141
 20
178.128441381
 40
87.9362103264
100
AcDbArc
 50
158.8616927338
 51
159.7389316968
  0
ARC
  5
44A
100
AcDbEntity
  8
00_COMPONENTS_2
100
AcDbCircle
 62
7
  6
CONTINUOUS
 10
153.3376232152
 20
182.8297684097
 40
81.6872397314
100
AcDbArc
 50
162.6060227657
 51
163.6374757757
  0
ARC
  5
44B
100
AcDbEntity
  8
00_COMPONENTS
100
AcDbCircle
 62
7
  6
CONTINUOUS
 10
148.3430557562
 20
171.0265660074
 40
50.2941015765
100
AcDbArc
 50
179.9782041665
 51
184.1639057496
  0
ARC
  5
44C
100
AcDbEntity
  8
00_COMPONENTS
100
AcDbCircle
 62
7
  6
CONTINUOUS
 10
157.2915158736
 20
113.7148802879
 40
5.4077093157
100
AcDbArc
 50
50.2078860954
 51
53.1939717021
  0
ARC
  5
44D
100
AcDbEntity
  8
00_COMPONENTS
100
AcDbCircle
 62
7
  6
CONTINUOUS
 10
162.8027490485
 20
115.5888581015
 40
5.3423390286
100
AcDbArc
 50
230.9972859572
 51
233.2043644617
  0
ARC
  5
44E
100
AcDbEntity
  8
00_COMPONENTS
100
AcDbCircle
 62
7
  6
CONTINUOUS
 10
161.1791214588
 20
116.5152977995
 40
4.294012896
100
AcDbArc
 50
180.0062111552
 51
181.4595779246
  0
ARC
  5
44F
100
AcDbEntity
  8
00_COMPONENTS
100
AcDbCircle
 62
7
  6
CONTINUOUS
 10
159.2545339835
 20
112.9852132233
 40
3.8425331464
100
AcDbArc
 50
358.3756206311
 51
0.0056363109
  0
ARC
  5
450
100
AcDbEntity
  8
00_COMPONENTS
100
AcDbCircle
 62
7
  6
CONTINUOUS
 10
161.75272273
 20
113.7750895346
 40
3.2393646736
100
AcDbArc
 50
247.3631133179
 51
250.6040185897
  0
ARC
  5
451
100
AcDbEntity
  8
00_COMPONENTS
100
AcDbCircle
 62
7
  6
CONTINUOUS
 10
150.1399959671
 20
57.5708892809
 40
2.0927673643
100
AcDbArc
 50
112.4412398838
 51
120.0130321956
  0
ARC
  5
452
100
AcDbEntity
  8
00_COMPONENTS
100
AcDbCircle
 62
7
  6
CONTINUOUS
 10
161.5633205984
 20
112.0855224786
 40
1.5068626563
100
AcDbArc
 50
292.4017997669
 51
305.9117807744
  0
ARC
  5
453
100
AcDbEntity
  8
00_COMPONENTS
100
AcDbCircle
 62
7
  6
CONTINUOUS
 10
158.5698595794
 20
117.2722936032
 40
1.5043428082
100
AcDbArc
 50
111.4239386581
 51
122.2037194658
  0
ARC
  5
454
100
AcDbEntity
  8
00_COMPONENTS
100
AcDbCircle
 62
7
  6
CONTINUOUS
 10
158.7127873499
 20
117.1391769078
 40
1.4061015302
100
AcDbArc
 50
114.8746220082
 51
120.0275997855
  0
ARC
  5
455
100
AcDbEntity
  8
00_COMPONENTS
100
AcDbCircle
 62
7
  6
CONTINUOUS
 10
161.521474289
 20
112.2716155913
 40
1.4039744744
100
AcDbArc
 50
295.8118144928
 51
300.0280389343
  0
ARC
  5
456
100
AcDbEntity
  8
00_COMPONENTS
100
AcDbCircle
 62
7
  6
CONTINUOUS
 10
167.8236356281
 20
53.8599671046
 40
0.8966450529
100
AcDbArc
 50
106.972550102
 51
110.8899762555
  0
ARC
  5
457
100
AcDbEntity
  8
00_COMPONENTS
100
AcDbCircle
 62
7
  6
CONTINUOUS
 10
167.7978285253
 20
53.944182774
 40
0.8085639847
100
AcDbArc
 50
103.4038649324
 51
106.9655082626
  0
ARC
  5
458
100
AcDbEntity
  8
00_COMPONENTS
100
AcDbCircle
 62
7
  6
CONTINUOUS
 10
166.212774045
 20
53.2238223489
 40
0.4370031388
100
AcDbArc
 50
230.4662510225
 51
249.5505713102
  0
ARC
  5
459
100
AcDbEntity
  8
00_COMPONENTS
100
AcDbCircle
 62
7
  6
CONTINUOUS
 10
122.5378142138
 20
185.2767903305
 40
49.2377301565
100
AcDbArc
 50
179.9332824481
 51
184.2088274681
  0
ARC
  5
45A
100
AcDbEntity
  8
00_COMPONENTS
100
AcDbCircle
 62
7
  6
CONTINUOUS
 10
123.263355915
 20
185.8969900013
 40
48.9685388332
100
AcDbArc
 50
179.9769401067
 51
184.2831586941
  0
ARC
  5
45B
100
AcDbEntity
  8
00_COMPONENTS
100
AcDbCircle
 62
7
  6
CONTINUOUS
 10
145.8321755907
 20
279.4394133863
 40
9.9897285852
100
AcDbArc
 50
1.4760004879
 51
2.2544706484
  0
ARC
  5
45C
100
AcDbEntity
  8
00_COMPONENTS
100
AcDbCircle
 62
7
  6
CONTINUOUS
 10
188.258759103
 20
254.9449681152
 40
9.9897285817
100
AcDbArc
 50
1.4760004877
 51
2.2544706485
  0
ARC
  5
45D
100
AcDbEntity
  8
00_COMPONENTS
100
AcDbCircle
 62
7
  6
CONTINUOUS
 10
145.2118426947
 20
278.832637572
 40
8.1373435638
100
AcDbArc
 50
357.6499022699
 51
0.0120486085
  0
ARC
  5
45E
100
AcDbEntity
  8
00_COMPONENTS
100
AcDbCircle
 62
7
  6
CONTINUOUS
 10
187.6384262036
 20
254.3381923008
 40
8.1373435638
100
AcDbArc
 50
357.6499022699
 51
0.0120486085
  0
ARC
  5
45F
100
AcDbEntity
  8
00_COMPONENTS
100
AcDbCircle
 62
7
  6
CONTINUOUS
 10
136.5703719991
 20
246.2211105718
 40
6.7848415238
100
AcDbArc
 50
233.5677238621
 51
233.8273615585
  0
ARC
  5
460
100
AcDbEntity
  8
00_COMPONENTS
100
AcDbCircle
 62
7
  6
CONTINUOUS
 10
136.4222873007
 20
246.0156603734
 40
6.5315910815
100
AcDbArc
 50
233.8122679504
 51
236.4201770823
  0
ARC
  5
461
100
AcDbEntity
  8
00_COMPONENTS
100
AcDbCircle
 62
7
  6
CONTINUOUS
 10
157.7423176368
 20
241.5418919244
 40
5.7010101935
100
AcDbArc
 50
178.4693822296
 51
180.0049698071
  0
ARC
  5
462
100
AcDbEntity
  8
00_COMPONENTS
100
AcDbCircle
 62
7
  6
CONTINUOUS
 10
115.3157341284
 20
266.0363371956
 40
5.7010101939
100
AcDbArc
 50
178.4693822297
 51
180.004969807
  0
ARC
  5
463
100
AcDbEntity
  8
00_COMPONENTS
100
AcDbCircle
 62
7
  6
CONTINUOUS
 10
157.2915158735
 20
185.5670929953
 40
5.4077093158
100
AcDbArc
 50
50.2078860954
 51
53.193971702
  0
ARC
  5
464
100
AcDbEntity
  8
00_COMPONENTS
100
AcDbCircle
 62
7
  6
CONTINUOUS
 10
162.8027490487
 20
187.4410708091
 40
5.3423390289
100
AcDbArc
 50
230.9972859572
 51
233.2043644616
  0
ARC
  5
465
100
AcDbEntity
  8
00_COMPONENTS
100
AcDbCircle
 62
7
  6
CONTINUOUS
 10
161.1791214588
 20
188.3675105069
 40
4.294012896
100
AcDbArc
 50
180.0062111552
 51
181.4595779246
  0
ARC
  5
466
100
AcDbEntity
  8
00_COMPONENTS
100
AcDbCircle
 62
7
  6
CONTINUOUS
 10
159.2545339833
 20
184.8374259307
 40
3.8425331466
100
AcDbArc
 50
358.3756206312
 51
0.0056363108
  0
ARC
  5
467
100
AcDbEntity
  8
00_COMPONENTS
100
AcDbCircle
 62
7
  6
CONTINUOUS
 10
186.0794786755
 20
263.7846295827
 40
3.33848825
100
AcDbArc
 50
120.0109097349
 51
122.7231543464
  0
ARC
  5
468
100
AcDbEntity
  8
00_COMPONENTS
100
AcDbCircle
 62
7
  6
CONTINUOUS
 10
143.6528951667
 20
288.2790748539
 40
3.33848825
100
AcDbArc
 50
120.0109097349
 51
122.7231543465
  0
ARC
  5
469
100
AcDbEntity
  8
00_COMPONENTS
100
AcDbCircle
 62
7
  6
CONTINUOUS
 10
161.7527227299
 20
185.6273022419
 40
3.2393646736
100
AcDbArc
 50
247.3631133179
 51
250.6040185898
  0
ARC
  5
46A
100
AcDbEntity
  8
00_COMPONENTS
100
AcDbCircle
 62
7
  6
CONTINUOUS
 10
149.2055938758
 20
241.7886115274
 40
3.1997759989
100
AcDbArc
 50
131.0045282035
 51
132.1165731309
  0
ARC
  5
46B
100
AcDbEntity
  8
00_COMPONENTS
100
AcDbCircle
 62
7
  6
CONTINUOUS
 10
161.5633205984
 20
183.937735186
 40
1.5068626563
100
AcDbArc
 50
292.4017997668
 51
305.9117807744
  0
ARC
  5
46C
100
AcDbEntity
  8
00_COMPONENTS
100
AcDbCircle
 62
7
  6
CONTINUOUS
 10
158.5698595795
 20
189.1245063104
 40
1.5043428084
100
AcDbArc
 50
111.423938658
 51
122.2037194657
  0
ARC
  5
46D
100
AcDbEntity
  8
00_COMPONENTS
100
AcDbCircle
 62
7
  6
CONTINUOUS
 10
158.7127873499
 20
188.9913896152
 40
1.4061015302
100
AcDbArc
 50
114.8746220081
 51
120.0275997856
  0
ARC
  5
46E
100
AcDbEntity
  8
00_COMPONENTS
100
AcDbCircle
 62
7
  6
CONTINUOUS
 10
161.521474289
 20
184.1238282987
 40
1.4039744744
100
AcDbArc
 50
295.8118144929
 51
300.0280389343
  0
SPLINE
  5
46F
100
AcDbEntity
  8
00_COMPONENTS
100
AcDbSpline
 62
7
  6
CONTINUOUS
 70
0
 71
3
 72
9
 73
5
 74
0
 42
0.0000001
 43
0.0000001
 44
0.0000000001
 40
0.0
 40
0.0
 40
0.0
 40
0.0
 40
0.4753229516
 40
1.0
 40
1.0
 40
1.0
 40
1.0
 10
167.5903770717
 20
53.8759521099
 30
0.0
 10
167.5903770717
 20
53.8011327212
 30
0.0
 10
167.5583985492
 20
53.6439893887
 30
0.0
 10
167.490594063
 20
53.5004537682
 30
0.0
 10
167.446737905
 20
53.4304721243
 30
0.0
  0
SPLINE
  5
470
100
AcDbEntity
  8
00_COMPONENTS
100
AcDbSpline
 62
7
  6
CONTINUOUS
 70
0
 71
3
 72
15
 73
11
 74
0
 42
0.0000001
 43
0.0000001
 44
0.0000000001
 40
0.0
 40
0.0
 40
0.0
 40
0.0
 40
0.1288248732
 40
0.2705977602
 40
0.4178979
 40
0.5623932695
 40
0.696206034
 40
0.8135977194
 40
0.9130663632
 40
1.0
 40
1.0
 40
1.0
 40
1.0
 10
47.1059703752
 20
127.6133549465
 30
0.0
 10
47.1059703752
 20
127.767203641
 30
0.0
 10
47.0628953748
 20
128.0907282371
 30
0.0
 10
46.9022938575
 20
128.5657388213
 30
0.0
 10
46.6546584332
 20
129.0233086011
 30
0.0
 10
46.3402429759
 20
129.4258409913
 30
0.0
 10
45.9840516315
 20
129.7412289827
 30
0.0
 10
45.6126006062
 20
129.9441141007
 30
0.0
 10
45.2490047009
 20
130.0169636902
 30
0.0
 10
45.0231291901
 20
129.9588745965
 30
0.0
 10
44.9332161105
 20
129.9069681809
 30
0.0
  0
SPLINE
  5
471
100
AcDbEntity
  8
00_COMPONENTS
100
AcDbSpline
 62
7
  6
CONTINUOUS
 70
0
 71
3
 72
9
 73
5
 74
0
 42
0.0000001
 43
0.0000001
 44
0.0000000001
 40
0.0
 40
0.0
 40
0.0
 40
0.0
 40
0.2534391757
 40
1.0
 40
1.0
 40
1.0
 40
1.0
 10
167.446737905
 20
53.4304721243
 30
0.0
 10
167.4286177358
 20
53.4012192026
 30
0.0
 10
167.3543179223
 20
53.2875683591
 30
0.0
 10
167.2692172165
 20
53.1808737734
 30
0.0
 10
167.1998413167
 20
53.1069717508
 30
0.0
  0
SPLINE
  5
472
100
AcDbEntity
  8
00_COMPONENTS
100
AcDbSpline
 62
7
  6
CONTINUOUS
 70
0
 71
3
 72
11
 73
7
 74
0
 42
0.0000001
 43
0.0000001
 44
0.0000000001
 40
0.0
 40
0.0
 40
0.0
 40
0.0
 40
0.3059636579
 40
0.5743528596
 40
0.801615934
 40
1.0
 40
1.0
 40
1.0
 40
1.0
 10
167.1998413167
 20
53.1069717508
 30
0.0
 10
167.1232924615
 20
53.0254288052
 30
0.0
 10
166.9654242532
 20
52.8844664425
 30
0.0
 10
166.7061204245
 20
52.7416156152
 30
0.0
 10
166.4519978397
 20
52.689721922
 30
0.0
 10
166.2940059188
 20
52.7301254102
 30
0.0
 10
166.2311902132
 20
52.7663620952
 30
0.0
  0
SPLINE
  5
473
100
AcDbEntity
  8
00_COMPONENTS
100
AcDbSpline
 62
7
  6
CONTINUOUS
 70
0
 71
3
 72
11
 73
7
 74
0
 42
0.0000001
 43
0.0000001
 44
0.0000000001
 40
0.0
 40
0.0
 40
0.0
 40
0.0
 40
0.2896646106
 40
0.5491299737
 40
0.7822463998
 40
1.0
 40
1.0
 40
1.0
 40
1.0
 10
120.3625379004
 20
78.444662426
 30
0.0
 10
120.3625379004
 20
78.3560049628
 30
0.0
 10
120.376002269
 20
78.1873631864
 30
0.0
 10
120.4442902976
 20
77.9556689366
 30
0.0
 10
120.5592536464
 20
77.767630783
 30
0.0
 10
120.6672740838
 20
77.6768747407
 30
0.0
 10
120.724986874
 20
77.6435408156
 30
0.0
  0
SPLINE
  5
474
100
AcDbEntity
  8
00_COMPONENTS
100
AcDbSpline
 62
7
  6
CONTINUOUS
 70
0
 71
3
 72
11
 73
7
 74
0
 42
0.0000001
 43
0.0000001
 44
0.0000000001
 40
0.0
 40
0.0
 40
0.0
 40
0.0
 40
0.2896646106
 40
0.5491299737
 40
0.7822463998
 40
1.0
 40
1.0
 40
1.0
 40
1.0
 10
40.3884279863
 20
124.6166917622
 30
0.0
 10
40.3884279863
 20
124.5280342991
 30
0.0
 10
40.4018923549
 20
124.3593925226
 30
0.0
 10
40.4701803835
 20
124.1276982729
 30
0.0
 10
40.5851437323
 20
123.9396601192
 30
0.0
 10
40.6931641697
 20
123.8489040769
 30
0.0
 10
40.7508769599
 20
123.8155701519
 30
0.0
  0
SPLINE
  5
475
100
AcDbEntity
  8
00_COMPONENTS
100
AcDbSpline
 62
7
  6
CONTINUOUS
 70
0
 71
3
 72
9
 73
5
 74
0
 42
0.0000001
 43
0.0000001
 44
0.0000000001
 40
0.0
 40
0.0
 40
0.0
 40
0.0
 40
0.4792432307
 40
1.0
 40
1.0
 40
1.0
 40
1.0
 10
114.634928519
 20
84.609109717
 30
0.0
 10
114.634928519
 20
84.3107288033
 30
0.0
 10
114.477287318
 20
83.6898023465
 30
0.0
 10
114.1432216887
 20
83.1521997982
 30
0.0
 10
113.9278246818
 20
82.9098618865
 30
0.0
  0
SPLINE
  5
476
100
AcDbEntity
  8
00_COMPONENTS
100
AcDbSpline
 62
7
  6
CONTINUOUS
 70
0
 71
3
 72
11
 73
7
 74
0
 42
0.0000001
 43
0.0000001
 44
0.0000000001
 40
0.0
 40
0.0
 40
0.0
 40
0.0
 40
0.2896646106
 40
0.5491299737
 40
0.7822463998
 40
1.0
 40
1.0
 40
1.0
 40
1.0
 10
47.1059703752
 20
120.7384045943
 30
0.0
 10
47.1059703752
 20
120.6497471311
 30
0.0
 10
47.1194347438
 20
120.4811053547
 30
0.0
 10
47.1877227724
 20
120.2494111049
 30
0.0
 10
47.3026861212
 20
120.0613729513
 30
0.0
 10
47.4107065586
 20
119.970616909
 30
0.0
 10
47.4684193488
 20
119.9372829839
 30
0.0
  0
SPLINE
  5
477
100
AcDbEntity
  8
00_COMPONENTS
100
AcDbSpline
 62
7
  6
CONTINUOUS
 70
0
 71
3
 72
9
 73
5
 74
0
 42
0.0000001
 43
0.0000001
 44
0.0000000001
 40
0.0
 40
0.0
 40
0.0
 40
0.0
 40
0.4792432307
 40
1.0
 40
1.0
 40
1.0
 40
1.0
 10
47.0352387949
 20
123.6369258491
 30
0.0
 10
47.0352387949
 20
123.3385449355
 30
0.0
 10
46.877597594
 20
122.7176184786
 30
0.0
 10
46.5435319647
 20
122.1800159303
 30
0.0
 10
46.3281349577
 20
121.9376780187
 30
0.0
  0
SPLINE
  5
478
100
AcDbEntity
  8
00_COMPONENTS
100
AcDbSpline
 62
7
  6
CONTINUOUS
 70
0
 71
3
 72
9
 73
5
 74
0
 42
0.0000001
 43
0.0000001
 44
0.0000000001
 40
0.0
 40
0.0
 40
0.0
 40
0.0
 40
0.2320320858
 40
1.0
 40
1.0
 40
1.0
 40
1.0
 10
165.972267645
 20
53.3385386521
 30
0.0
 10
165.972267645
 20
53.3846452763
 30
0.0
 10
165.9840875685
 20
53.5833152455
 30
0.0
 10
166.0365289754
 20
53.7783575655
 30
0.0
 10
166.0919785082
 20
53.9205283054
 30
0.0
  0
SPLINE
  5
479
100
AcDbEntity
  8
00_COMPONENTS
100
AcDbSpline
 62
7
  6
CONTINUOUS
 70
0
 71
3
 72
11
 73
7
 74
0
 42
0.0000001
 43
0.0000001
 44
0.0000000001
 40
0.0
 40
0.0
 40
0.0
 40
0.0
 40
0.2177536002
 40
0.4508700263
 40
0.7103353894
 40
1.0
 40
1.0
 40
1.0
 40
1.0
 10
112.5225140623
 20
82.3791335681
 30
0.0
 10
112.4648012721
 20
82.4124674931
 30
0.0
 10
112.3567808347
 20
82.5032235354
 30
0.0
 10
112.2418174859
 20
82.6912616891
 30
0.0
 10
112.1735294573
 20
82.9229559388
 30
0.0
 10
112.1600650887
 20
83.0915977153
 30
0.0
 10
112.1600650887
 20
83.1802551784
 30
0.0
  0
SPLINE
  5
47A
100
AcDbEntity
  8
00_COMPONENTS
100
AcDbSpline
 62
7
  6
CONTINUOUS
 70
0
 71
3
 72
11
 73
7
 74
0
 42
0.0000001
 43
0.0000001
 44
0.0000000001
 40
0.0
 40
0.0
 40
0.0
 40
0.0
 40
0.2177536002
 40
0.4508700263
 40
0.7103353894
 40
1.0
 40
1.0
 40
1.0
 40
1.0
 10
44.9228243382
 20
121.4069497002
 30
0.0
 10
44.8651115481
 20
121.4402836253
 30
0.0
 10
44.7570911107
 20
121.5310396675
 30
0.0
 10
44.6421277618
 20
121.7190778212
 30
0.0
 10
44.5738397333
 20
121.950772071
 30
0.0
 10
44.5603753647
 20
122.1194138474
 30
0.0
 10
44.5603753647
 20
122.2080713106
 30
0.0
  0
SPLINE
  5
47B
100
AcDbEntity
  8
00_COMPONENTS
100
AcDbSpline
 62
7
  6
CONTINUOUS
 70
0
 71
3
 72
9
 73
5
 74
0
 42
0.0000001
 43
0.0000001
 44
0.0000000001
 40
0.0
 40
0.0
 40
0.0
 40
0.0
 40
0.454486056
 40
1.0
 40
1.0
 40
1.0
 40
1.0
 10
164.1094284943
 20
52.6120577071
 30
0.0
 10
164.0212552566
 20
52.6924133147
 30
0.0
 10
163.8814550464
 20
52.9290632857
 30
0.0
 10
163.849785997
 20
53.1946664825
 30
0.0
 10
163.849785997
 20
53.337856023
 30
0.0
  0
SPLINE
  5
47C
100
AcDbEntity
  8
00_COMPONENTS
100
AcDbSpline
 62
7
  6
CONTINUOUS
 70
0
 71
3
 72
9
 73
5
 74
0
 42
0.0000001
 43
0.0000001
 44
0.0000000001
 40
0.0
 40
0.0
 40
0.0
 40
0.0
 40
0.4779663271
 40
1.0
 40
1.0
 40
1.0
 40
1.0
 10
166.2311902132
 20
52.7663620952
 30
0.0
 10
166.1835069475
 20
52.793869284
 30
0.0
 10
166.0949850901
 20
52.8726111785
 30
0.0
 10
166.0410485607
 20
52.9768922788
 30
0.0
 10
166.0206465152
 20
53.0334487539
 30
0.0
  0
SPLINE
  5
47D
100
AcDbEntity
  8
00_COMPONENTS
100
AcDbSpline
 62
7
  6
CONTINUOUS
 70
0
 71
3
 72
9
 73
5
 74
0
 42
0.0000001
 43
0.0000001
 44
0.0000000001
 40
0.0
 40
0.0
 40
0.0
 40
0.0
 40
0.233487357
 40
1.0
 40
1.0
 40
1.0
 40
1.0
 10
166.0206465152
 20
53.0334487539
 30
0.0
 10
166.0124647879
 20
53.0561293059
 30
0.0
 10
165.9826697339
 20
53.1551542313
 30
0.0
 10
165.972267645
 20
53.2593844302
 30
0.0
 10
165.972267645
 20
53.3385386521
 30
0.0
  0
SPLINE
  5
47E
100
AcDbEntity
  8
00_COMPONENTS
100
AcDbSpline
 62
7
  6
CONTINUOUS
 70
0
 71
3
 72
11
 73
7
 74
0
 42
0.0000001
 43
0.0000001
 44
0.0000000001
 40
0.0
 40
0.0
 40
0.0
 40
0.0
 40
0.2177239861
 40
0.4508730345
 40
0.7104683317
 40
1.0
 40
1.0
 40
1.0
 40
1.0
 10
44.9332161105
 20
129.9069681809
 30
0.0
 10
44.8738560558
 20
129.8726998889
 30
0.0
 10
44.7626974894
 20
129.7794181612
 30
0.0
 10
44.6444077486
 20
129.5859646417
 30
0.0
 10
44.5742947579
 20
129.3476129743
 30
0.0
 10
44.5603753647
 20
129.174168826
 30
0.0
 10
44.5603753647
 20
129.0830216628
 30
0.0
  0
SPLINE
  5
47F
100
AcDbEntity
  8
00_COMPONENTS
100
AcDbSpline
 62
7
  6
CONTINUOUS
 70
0
 71
3
 72
8
 73
4
 74
0
 42
0.0000001
 43
0.0000001
 44
0.0000000001
 40
0.0
 40
0.0
 40
0.0
 40
0.0
 40
1.0
 40
1.0
 40
1.0
 40
1.0
 10
76.9463194214
 20
266.1172025538
 30
0.0
 10
76.9463194214
 20
266.1739545231
 30
0.0
 10
76.9422401437
 20
266.230797741
 30
0.0
 10
76.9349323158
 20
266.287077237
 30
0.0
  0
SPLINE
  5
480
100
AcDbEntity
  8
00_COMPONENTS
100
AcDbSpline
 62
7
  6
CONTINUOUS
 70
0
 71
3
 72
8
 73
4
 74
0
 42
0.0000001
 43
0.0000001
 44
0.0000000001
 40
0.0
 40
0.0
 40
0.0
 40
0.0
 40
1.0
 40
1.0
 40
1.0
 40
1.0
 10
137.333489949
 20
231.2534421178
 30
0.0
 10
137.333489949
 20
231.3101940871
 30
0.0
 10
137.3294106712
 20
231.3670373049
 30
0.0
 10
137.3221028434
 20
231.4233168009
 30
0.0
  0
SPLINE
  5
481
100
AcDbEntity
  8
00_COMPONENTS
100
AcDbSpline
 62
7
  6
CONTINUOUS
 70
0
 71
3
 72
11
 73
7
 74
0
 42
0.0000001
 43
0.0000001
 44
0.0000000001
 40
0.0
 40
0.0
 40
0.0
 40
0.0
 40
0.2372531816
 40
0.5000006935
 40
0.7627478297
 40
1.0
 40
1.0
 40
1.0
 40
1.0
 10
88.0832198718
 20
291.0408723726
 30
0.0
 10
88.4847991529
 20
290.8090257116
 30
0.0
 10
89.4186068041
 20
290.4706533114
 30
0.0
 10
90.911652263
 20
290.3088831499
 30
0.0
 10
92.4046949537
 20
290.4706604453
 30
0.0
 10
93.3384982237
 20
290.8090374014
 30
0.0
 10
93.7400741212
 20
291.04088597
 30
0.0
  0
SPLINE
  5
482
100
AcDbEntity
  8
00_COMPONENTS
100
AcDbSpline
 62
7
  6
CONTINUOUS
 70
0
 71
3
 72
11
 73
7
 74
0
 42
0.0000001
 43
0.0000001
 44
0.0000000001
 40
0.0
 40
0.0
 40
0.0
 40
0.0
 40
0.2895416688
 40
0.549118971
 40
0.7822562702
 40
1.0
 40
1.0
 40
1.0
 40
1.0
 10
101.8717682492
 20
295.7356937395
 30
0.0
 10
102.0471804344
 20
295.8369674073
 30
0.0
 10
102.3654955505
 20
296.0564565577
 30
0.0
 10
102.7462633625
 20
296.4561994784
 30
0.0
 10
102.9871699695
 20
296.8987573384
 30
0.0
 10
103.0431055841
 20
297.216334605
 30
0.0
 10
103.0431055368
 20
297.368656756
 30
0.0
  0
SPLINE
  5
483
100
AcDbEntity
  8
00_COMPONENTS
100
AcDbSpline
 62
7
  6
CONTINUOUS
 70
0
 71
3
 72
11
 73
7
 74
0
 42
0.0000001
 43
0.0000001
 44
0.0000000001
 40
0.0
 40
0.0
 40
0.0
 40
0.0
 40
0.2989112963
 40
0.5622118986
 40
0.7918093191
 40
1.0
 40
1.0
 40
1.0
 40
1.0
 10
91.0954838407
 20
272.031961842
 30
0.0
 10
90.9309972944
 20
272.1617896993
 30
0.0
 10
90.6002681134
 20
272.3813453503
 30
0.0
 10
90.0772183506
 20
272.5831392622
 30
0.0
 10
89.5785277242
 20
272.6238402898
 30
0.0
 10
89.2760309294
 20
272.5286496172
 30
0.0
 10
89.1496309419
 20
272.4556794742
 30
0.0
  0
SPLINE
  5
484
100
AcDbEntity
  8
00_COMPONENTS
100
AcDbSpline
 62
7
  6
CONTINUOUS
 70
0
 71
3
 72
11
 73
7
 74
0
 42
0.0000001
 43
0.0000001
 44
0.0000000001
 40
0.0
 40
0.0
 40
0.0
 40
0.0
 40
0.2413110789
 40
0.504114975
 40
0.7646848671
 40
1.0
 40
1.0
 40
1.0
 40
1.0
 10
95.6399397239
 20
295.0229063242
 30
0.0
 10
94.7866762956
 20
295.5829173456
 30
0.0
 10
93.1873445564
 20
297.0364721998
 30
0.0
 10
91.3261137995
 20
299.7086092724
 30
0.0
 10
90.0664681409
 20
302.683948788
 30
0.0
 10
89.7093814706
 20
304.782934794
 30
0.0
 10
89.7093814706
 20
305.7781977629
 30
0.0
  0
SPLINE
  5
485
100
AcDbEntity
  8
00_COMPONENTS
100
AcDbSpline
 62
7
  6
CONTINUOUS
 70
0
 71
3
 72
11
 73
7
 74
0
 42
0.0000001
 43
0.0000001
 44
0.0000000001
 40
0.0
 40
0.0
 40
0.0
 40
0.0
 40
0.2348282353
 40
0.4880502107
 40
0.7474977085
 40
1.0
 40
1.0
 40
1.0
 40
1.0
 10
117.5917835214
 20
304.2796794645
 30
0.0
 10
117.4964902579
 20
305.4449757954
 30
0.0
 10
117.0233160116
 20
307.8473301989
 30
0.0
 10
115.6742597738
 20
311.3324922876
 30
0.0
 10
113.7479347976
 20
314.6367763991
 30
0.0
 10
112.122192742
 20
316.6185455894
 30
0.0
 10
111.2392447458
 20
317.5134831776
 30
0.0
  0
SPLINE
  5
486
100
AcDbEntity
  8
00_COMPONENTS
100
AcDbSpline
 62
7
  6
CONTINUOUS
 70
0
 71
3
 72
9
 73
5
 74
0
 42
0.0000001
 43
0.0000001
 44
0.0000000001
 40
0.0
 40
0.0
 40
0.0
 40
0.0
 40
0.2632190521
 40
1.0
 40
1.0
 40
1.0
 40
1.0
 10
111.2392447458
 20
317.5134831776
 30
0.0
 10
110.964292827
 20
317.7921686813
 30
0.0
 10
109.8896680819
 20
318.8200108945
 30
0.0
 10
108.6896003546
 20
319.7231899232
 30
0.0
 10
107.7405823109
 20
320.271093351
 30
0.0
  0
SPLINE
  5
487
100
AcDbEntity
  8
00_COMPONENTS
100
AcDbSpline
 62
7
  6
CONTINUOUS
 70
0
 71
3
 72
11
 73
7
 74
0
 42
0.0000001
 43
0.0000001
 44
0.0000000001
 40
0.0
 40
0.0
 40
0.0
 40
0.0
 40
0.2177434119
 40
0.4508805377
 40
0.710457812
 40
1.0
 40
1.0
 40
1.0
 40
1.0
 10
57.0718286312
 20
309.9016088304
 30
0.0
 10
57.0718286785
 20
309.7492849372
 30
0.0
 10
57.1277654676
 20
309.4317038695
 30
0.0
 10
57.3686775025
 20
308.9891418557
 30
0.0
 10
57.7494527519
 20
308.5893958489
 30
0.0
 10
58.067773978
 20
308.369906104
 30
0.0
 10
58.2431894706
 20
308.2686322133
 30
0.0
  0
SPLINE
  5
488
100
AcDbEntity
  8
00_COMPONENTS
100
AcDbSpline
 62
7
  6
CONTINUOUS
 70
0
 71
3
 72
9
 73
5
 74
0
 42
0.0000001
 43
0.0000001
 44
0.0000000001
 40
0.0
 40
0.0
 40
0.0
 40
0.0
 40
0.4891095994
 40
1.0
 40
1.0
 40
1.0
 40
1.0
 10
70.4898733542
 20
280.1167647068
 30
0.0
 10
70.6508039223
 20
280.2097627159
 30
0.0
 10
70.955315899
 20
280.4455042308
 30
0.0
 10
71.1887277808
 20
280.750623971
 30
0.0
 10
71.2892529229
 20
280.9167184294
 30
0.0
  0
SPLINE
  5
489
100
AcDbEntity
  8
00_COMPONENTS
100
AcDbSpline
 62
7
  6
CONTINUOUS
 70
0
 71
3
 72
9
 73
5
 74
0
 42
0.0000001
 43
0.0000001
 44
0.0000000001
 40
0.0
 40
0.0
 40
0.0
 40
0.0
 40
0.2262727648
 40
1.0
 40
1.0
 40
1.0
 40
1.0
 10
71.2892529229
 20
280.9167184294
 30
0.0
 10
71.3726417821
 20
281.054499159
 30
0.0
 10
71.6862613344
 20
281.6970176952
 30
0.0
 10
71.7843889882
 20
282.4271106526
 30
0.0
 10
71.7843889882
 20
282.9778136093
 30
0.0
  0
SPLINE
  5
48A
100
AcDbEntity
  8
00_COMPONENTS
100
AcDbSpline
 62
7
  6
CONTINUOUS
 70
0
 71
3
 72
11
 73
7
 74
0
 42
0.0000001
 43
0.0000001
 44
0.0000000001
 40
0.0
 40
0.0
 40
0.0
 40
0.0
 40
0.2371516501
 40
0.4998964782
 40
0.7626976206
 40
1.0
 40
1.0
 40
1.0
 40
1.0
 10
239.9698830599
 20
255.5237619798
 30
0.0
 10
239.668313669
 20
255.6973042106
 30
0.0
 10
239.0974741653
 20
256.1767687949
 30
0.0
 10
238.4314379347
 20
257.0862581324
 30
0.0
 10
237.9757820947
 20
258.1175941443
 30
0.0
 10
237.8451119897
 20
258.8518160435
 30
0.0
 10
237.8451119897
 20
259.1999754045
 30
0.0
  0
SPLINE
  5
48B
100
AcDbEntity
  8
00_COMPONENTS
100
AcDbSpline
 62
7
  6
CONTINUOUS
 70
0
 71
3
 72
9
 73
5
 74
0
 42
0.0000001
 43
0.0000001
 44
0.0000000001
 40
0.0
 40
0.0
 40
0.0
 40
0.0
 40
0.2422947963
 40
1.0
 40
1.0
 40
1.0
 40
1.0
 10
71.7668510005
 20
282.7871202812
 30
0.0
 10
71.7019506854
 20
282.8218947999
 30
0.0
 10
71.4369404498
 20
282.9707006314
 30
0.0
 10
71.1833543693
 20
283.1395770302
 30
0.0
 10
70.9981003897
 20
283.2763184646
 30
0.0
  0
SPLINE
  5
48C
100
AcDbEntity
  8
00_COMPONENTS
100
AcDbSpline
 62
7
  6
CONTINUOUS
 70
0
 71
3
 72
11
 73
7
 74
0
 42
0.0000001
 43
0.0000001
 44
0.0000000001
 40
0.0
 40
0.0
 40
0.0
 40
0.0
 40
0.2452607182
 40
0.5080142437
 40
0.7664464242
 40
1.0
 40
1.0
 40
1.0
 40
1.0
 10
70.9981003897
 20
283.2763184646
 30
0.0
 10
70.4430450417
 20
283.6860212123
 30
0.0
 10
69.4115250792
 20
284.6982583957
 30
0.0
 10
68.2149036686
 20
286.5079229096
 30
0.0
 10
67.4126811367
 20
288.4881802569
 30
0.0
 10
67.1881404471
 20
289.8733325483
 30
0.0
 10
67.1881404471
 20
290.5302879641
 30
0.0
  0
SPLINE
  5
48D
100
AcDbEntity
  8
00_COMPONENTS
100
AcDbSpline
 62
7
  6
CONTINUOUS
 70
0
 71
3
 72
9
 73
5
 74
0
 42
0.0000001
 43
0.0000001
 44
0.0000000001
 40
0.0
 40
0.0
 40
0.0
 40
0.0
 40
0.5117720301
 40
1.0
 40
1.0
 40
1.0
 40
1.0
 10
85.1081204049
 20
292.6955008334
 30
0.0
 10
84.1281294383
 20
293.9813148417
 30
0.0
 10
82.5034037932
 20
296.7238864215
 30
0.0
 10
81.5252496808
 20
299.7677460098
 30
0.0
 10
81.2717318241
 20
301.289085561
 30
0.0
  0
SPLINE
  5
48E
100
AcDbEntity
  8
00_COMPONENTS
100
AcDbSpline
 62
7
  6
CONTINUOUS
 70
0
 71
3
 72
9
 73
5
 74
0
 42
0.0000001
 43
0.0000001
 44
0.0000000001
 40
0.0
 40
0.0
 40
0.0
 40
0.0
 40
0.2589041284
 40
1.0
 40
1.0
 40
1.0
 40
1.0
 10
81.2717318241
 20
301.289085561
 30
0.0
 10
81.2403271164
 20
301.4775425969
 30
0.0
 10
81.1327030518
 20
302.2075837222
 30
0.0
 10
81.0805453556
 20
302.9463760108
 30
0.0
 10
81.0805453556
 20
303.4932604838
 30
0.0
  0
SPLINE
  5
48F
100
AcDbEntity
  8
00_COMPONENTS
100
AcDbSpline
 62
7
  6
CONTINUOUS
 70
0
 71
3
 72
9
 73
5
 74
0
 42
0.0000001
 43
0.0000001
 44
0.0000000001
 40
0.0
 40
0.0
 40
0.0
 40
0.0
 40
0.259201207
 40
1.0
 40
1.0
 40
1.0
 40
1.0
 10
45.9868923208
 20
255.3521372292
 30
0.0
 10
45.8957345433
 20
255.4821895827
 30
0.0
 10
45.5285986138
 20
255.9726928926
 30
0.0
 10
45.0992162799
 20
256.4184142885
 30
0.0
 10
44.7477511282
 20
256.7056454107
 30
0.0
  0
SPLINE
  5
490
100
AcDbEntity
  8
00_COMPONENTS
100
AcDbSpline
 62
7
  6
CONTINUOUS
 70
0
 71
3
 72
11
 73
7
 74
0
 42
0.0000001
 43
0.0000001
 44
0.0000000001
 40
0.0
 40
0.0
 40
0.0
 40
0.0
 40
0.2936397778
 40
0.5563101383
 40
0.7891458065
 40
1.0
 40
1.0
 40
1.0
 40
1.0
 10
44.5653220135
 20
256.8483583834
 30
0.0
 10
44.3543242861
 20
257.0061063721
 30
0.0
 10
43.9309353214
 20
257.2757912956
 30
0.0
 10
43.2670486103
 20
257.5369025631
 30
0.0
 10
42.6311138393
 20
257.620754592
 30
0.0
 10
42.2307458946
 20
257.5455903656
 30
0.0
 10
42.0546472211
 20
257.4764817704
 30
0.0
  0
SPLINE
  5
491
100
AcDbEntity
  8
00_COMPONENTS
100
AcDbSpline
 62
7
  6
CONTINUOUS
 70
0
 71
3
 72
11
 73
7
 74
0
 42
0.0000001
 43
0.0000001
 44
0.0000000001
 40
0.0
 40
0.0
 40
0.0
 40
0.0
 40
0.2318436102
 40
0.4880667341
 40
0.7506632534
 40
1.0
 40
1.0
 40
1.0
 40
1.0
 10
163.2490961144
 20
184.6928782233
 30
0.0
 10
163.2490961144
 20
185.1383721724
 30
0.0
 10
163.1053534247
 20
186.0771567401
 30
0.0
 10
162.5846479008
 20
187.4314009158
 30
0.0
 10
161.7998110426
 20
188.6914403577
 30
0.0
 10
161.1207250883
 20
189.4157383584
 30
0.0
 10
160.7524711861
 20
189.7222233624
 30
0.0
  0
SPLINE
  5
492
100
AcDbEntity
  8
00_COMPONENTS
100
AcDbSpline
 62
7
  6
CONTINUOUS
 70
0
 71
3
 72
11
 73
7
 74
0
 42
0.0000001
 43
0.0000001
 44
0.0000000001
 40
0.0
 40
0.0
 40
0.0
 40
0.0
 40
0.2936397778
 40
0.5563101383
 40
0.7891458065
 40
1.0
 40
1.0
 40
1.0
 40
1.0
 10
160.5313169376
 20
189.8968746421
 30
0.0
 10
160.3203192102
 20
190.0546226307
 30
0.0
 10
159.8969302455
 20
190.3243075543
 30
0.0
 10
159.2330435344
 20
190.5854188218
 30
0.0
 10
158.5971087634
 20
190.6692708507
 30
0.0
 10
158.1967408187
 20
190.5941066243
 30
0.0
 10
158.0206421452
 20
190.5249980291
 30
0.0
  0
SPLINE
  5
493
100
AcDbEntity
  8
00_COMPONENTS
100
AcDbSpline
 62
7
  6
CONTINUOUS
 70
0
 71
3
 72
11
 73
7
 74
0
 42
0.0000001
 43
0.0000001
 44
0.0000000001
 40
0.0
 40
0.0
 40
0.0
 40
0.0
 40
0.2318436102
 40
0.4880667341
 40
0.7506632534
 40
1.0
 40
1.0
 40
1.0
 40
1.0
 10
163.2490961144
 20
112.8406655159
 30
0.0
 10
163.2490961144
 20
113.286159465
 30
0.0
 10
163.1053534247
 20
114.2249440327
 30
0.0
 10
162.5846479008
 20
115.5791882084
 30
0.0
 10
161.7998110426
 20
116.8392276503
 30
0.0
 10
161.1207250883
 20
117.563525651
 30
0.0
 10
160.7524711861
 20
117.870010655
 30
0.0
  0
SPLINE
  5
494
100
AcDbEntity
  8
00_COMPONENTS
100
AcDbSpline
 62
7
  6
CONTINUOUS
 70
0
 71
3
 72
11
 73
7
 74
0
 42
0.0000001
 43
0.0000001
 44
0.0000000001
 40
0.0
 40
0.0
 40
0.0
 40
0.0
 40
0.2936397778
 40
0.5563101383
 40
0.7891458065
 40
1.0
 40
1.0
 40
1.0
 40
1.0
 10
160.5313169376
 20
118.0446619347
 30
0.0
 10
160.3203192102
 20
118.2024099233
 30
0.0
 10
159.8969302455
 20
118.4720948469
 30
0.0
 10
159.2330435344
 20
118.7332061144
 30
0.0
 10
158.5971087634
 20
118.8170581433
 30
0.0
 10
158.1967408187
 20
118.7418939169
 30
0.0
 10
158.0206421452
 20
118.6727853217
 30
0.0
  0
SPLINE
  5
495
100
AcDbEntity
  8
00_COMPONENTS
100
AcDbSpline
 62
7
  6
CONTINUOUS
 70
0
 71
3
 72
9
 73
5
 74
0
 42
0.0000001
 43
0.0000001
 44
0.0000000001
 40
0.0
 40
0.0
 40
0.0
 40
0.0
 40
0.4667816408
 40
1.0
 40
1.0
 40
1.0
 40
1.0
 10
162.1327882742
 20
111.0077170446
 30
0.0
 10
161.9253453874
 20
110.9073857248
 30
0.0
 10
161.4220812169
 20
110.8068329259
 30
0.0
 10
160.9291479278
 20
110.9131899188
 30
0.0
 10
160.6810564684
 20
111.0011687826
 30
0.0
  0
SPLINE
  5
496
100
AcDbEntity
  8
00_COMPONENTS
100
AcDbSpline
 62
7
  6
CONTINUOUS
 70
0
 71
3
 72
11
 73
7
 74
0
 42
0.0000001
 43
0.0000001
 44
0.0000000001
 40
0.0
 40
0.0
 40
0.0
 40
0.0
 40
0.2179426926
 40
0.4526913799
 40
0.7125676915
 40
1.0
 40
1.0
 40
1.0
 40
1.0
 10
162.4471095301
 20
110.8650831061
 30
0.0
 10
162.5770103678
 20
110.9591404963
 30
0.0
 10
162.816373545
 20
111.1994221271
 30
0.0
 10
163.0687913972
 20
111.6654524374
 30
0.0
 10
163.2190280314
 20
112.2252878139
 30
0.0
 10
163.2490961144
 20
112.6291523689
 30
0.0
 10
163.2490961144
 20
112.8406655159
 30
0.0
  0
SPLINE
  5
497
100
AcDbEntity
  8
00_COMPONENTS
100
AcDbSpline
 62
7
  6
CONTINUOUS
 70
0
 71
3
 72
9
 73
5
 74
0
 42
0.0000001
 43
0.0000001
 44
0.0000000001
 40
0.0
 40
0.0
 40
0.0
 40
0.0
 40
0.4667816408
 40
1.0
 40
1.0
 40
1.0
 40
1.0
 10
162.1327882742
 20
182.859929752
 30
0.0
 10
161.9253453874
 20
182.7595984322
 30
0.0
 10
161.4220812169
 20
182.6590456333
 30
0.0
 10
160.9291479278
 20
182.7654026262
 30
0.0
 10
160.6810564684
 20
182.85338149
 30
0.0
  0
SPLINE
  5
498
100
AcDbEntity
  8
00_COMPONENTS
100
AcDbSpline
 62
7
  6
CONTINUOUS
 70
0
 71
3
 72
11
 73
7
 74
0
 42
0.0000001
 43
0.0000001
 44
0.0000000001
 40
0.0
 40
0.0
 40
0.0
 40
0.0
 40
0.2179426926
 40
0.4526913799
 40
0.7125676915
 40
1.0
 40
1.0
 40
1.0
 40
1.0
 10
162.4471095301
 20
182.7172958135
 30
0.0
 10
162.5770103678
 20
182.8113532037
 30
0.0
 10
162.816373545
 20
183.0516348345
 30
0.0
 10
163.0687913972
 20
183.5176651448
 30
0.0
 10
163.2190280314
 20
184.0775005213
 30
0.0
 10
163.2490961144
 20
184.4813650763
 30
0.0
 10
163.2490961144
 20
184.6928782233
 30
0.0
  0
SPLINE
  5
499
100
AcDbEntity
  8
00_COMPONENTS
100
AcDbSpline
 62
7
  6
CONTINUOUS
 70
0
 71
3
 72
9
 73
5
 74
0
 42
0.0000001
 43
0.0000001
 44
0.0000000001
 40
0.0
 40
0.0
 40
0.0
 40
0.0
 40
0.2606806551
 40
1.0
 40
1.0
 40
1.0
 40
1.0
 10
165.7534371321
 20
53.7195214527
 30
0.0
 10
165.7487559887
 20
53.6955904005
 30
0.0
 10
165.7327728219
 20
53.6034296617
 30
0.0
 10
165.7247795356
 20
53.509756089
 30
0.0
 10
165.7247795356
 20
53.4405986708
 30
0.0
  0
SPLINE
  5
49A
100
AcDbEntity
  8
00_COMPONENTS
100
AcDbSpline
 62
7
  6
CONTINUOUS
 70
0
 71
3
 72
9
 73
5
 74
0
 42
0.0000001
 43
0.0000001
 44
0.0000000001
 40
0.0
 40
0.0
 40
0.0
 40
0.0
 40
0.5467575826
 40
1.0
 40
1.0
 40
1.0
 40
1.0
 10
165.7247795356
 20
53.4405986708
 30
0.0
 10
165.7247795356
 20
53.3300385983
 30
0.0
 10
165.749936836
 20
53.1250281904
 30
0.0
 10
165.8638996059
 20
52.9450950655
 30
0.0
 10
165.9346072919
 20
52.8867837742
 30
0.0
  0
SPLINE
  5
49B
100
AcDbEntity
  8
00_COMPONENTS
100
AcDbSpline
 62
7
  6
CONTINUOUS
 70
0
 71
3
 72
11
 73
7
 74
0
 42
0.0000001
 43
0.0000001
 44
0.0000000001
 40
0.0
 40
0.0
 40
0.0
 40
0.0
 40
0.2372531816
 40
0.5000006935
 40
0.7627478297
 40
1.0
 40
1.0
 40
1.0
 40
1.0
 10
130.5098033806
 20
266.5464271013
 30
0.0
 10
130.9113826617
 20
266.3145804404
 30
0.0
 10
131.8451903129
 20
265.9762080402
 30
0.0
 10
133.3382357718
 20
265.8144378786
 30
0.0
 10
134.8312784625
 20
265.9762151741
 30
0.0
 10
135.7650817325
 20
266.3145921302
 30
0.0
 10
136.16665763
 20
266.5464406987
 30
0.0
  0
SPLINE
  5
49C
100
AcDbEntity
  8
00_COMPONENTS
100
AcDbSpline
 62
7
  6
CONTINUOUS
 70
0
 71
3
 72
11
 73
7
 74
0
 42
0.0000001
 43
0.0000001
 44
0.0000000001
 40
0.0
 40
0.0
 40
0.0
 40
0.0
 40
0.2895416688
 40
0.549118971
 40
0.7822562702
 40
1.0
 40
1.0
 40
1.0
 40
1.0
 10
144.298351758
 20
271.2412484683
 30
0.0
 10
144.4737639432
 20
271.3425221361
 30
0.0
 10
144.7920790593
 20
271.5620112865
 30
0.0
 10
145.1728468713
 20
271.9617542072
 30
0.0
 10
145.4137534784
 20
272.4043120671
 30
0.0
 10
145.4696890929
 20
272.7218893338
 30
0.0
 10
145.4696890456
 20
272.8742114847
 30
0.0
  0
SPLINE
  5
49D
100
AcDbEntity
  8
00_COMPONENTS
100
AcDbSpline
 62
7
  6
CONTINUOUS
 70
0
 71
3
 72
11
 73
7
 74
0
 42
0.0000001
 43
0.0000001
 44
0.0000000001
 40
0.0
 40
0.0
 40
0.0
 40
0.0
 40
0.2989112963
 40
0.5622118986
 40
0.7918093191
 40
1.0
 40
1.0
 40
1.0
 40
1.0
 10
133.5220673495
 20
247.5375165707
 30
0.0
 10
133.3575808032
 20
247.6673444281
 30
0.0
 10
133.0268516222
 20
247.8869000791
 30
0.0
 10
132.5038018594
 20
248.088693991
 30
0.0
 10
132.005111233
 20
248.1293950186
 30
0.0
 10
131.7026144382
 20
248.034204346
 30
0.0
 10
131.5762144507
 20
247.961234203
 30
0.0
  0
SPLINE
  5
49E
100
AcDbEntity
  8
00_COMPONENTS
100
AcDbSpline
 62
7
  6
CONTINUOUS
 70
0
 71
3
 72
11
 73
7
 74
0
 42
0.0000001
 43
0.0000001
 44
0.0000000001
 40
0.0
 40
0.0
 40
0.0
 40
0.0
 40
0.2372531816
 40
0.5000006935
 40
0.7627478297
 40
1.0
 40
1.0
 40
1.0
 40
1.0
 10
172.9363868894
 20
242.0519818301
 30
0.0
 10
173.3379661705
 20
241.8201351691
 30
0.0
 10
174.2717738217
 20
241.481762769
 30
0.0
 10
175.7648192806
 20
241.3199926074
 30
0.0
 10
177.2578619713
 20
241.4817699029
 30
0.0
 10
178.1916652413
 20
241.8201468589
 30
0.0
 10
178.5932411388
 20
242.0519954275
 30
0.0
  0
SPLINE
  5
49F
100
AcDbEntity
  8
00_COMPONENTS
100
AcDbSpline
 62
7
  6
CONTINUOUS
 70
0
 71
3
 72
11
 73
7
 74
0
 42
0.0000001
 43
0.0000001
 44
0.0000000001
 40
0.0
 40
0.0
 40
0.0
 40
0.0
 40
0.2895416688
 40
0.549118971
 40
0.7822562702
 40
1.0
 40
1.0
 40
1.0
 40
1.0
 10
186.7249352668
 20
246.7468031971
 30
0.0
 10
186.900347452
 20
246.8480768649
 30
0.0
 10
187.2186625682
 20
247.0675660153
 30
0.0
 10
187.5994303801
 20
247.467308936
 30
0.0
 10
187.8403369872
 20
247.9098667959
 30
0.0
 10
187.8962726017
 20
248.2274440625
 30
0.0
 10
187.8962725544
 20
248.3797662135
 30
0.0
  0
SPLINE
  5
4A0
100
AcDbEntity
  8
00_COMPONENTS
100
AcDbSpline
 62
7
  6
CONTINUOUS
 70
0
 71
3
 72
9
 73
5
 74
0
 42
0.0000001
 43
0.0000001
 44
0.0000000001
 40
0.0
 40
0.0
 40
0.0
 40
0.0
 40
0.2443510313
 40
1.0
 40
1.0
 40
1.0
 40
1.0
 10
156.6375560058
 20
233.9889230669
 30
0.0
 10
156.6375560058
 20
234.0403464243
 30
0.0
 10
156.6347619678
 20
234.2507901525
 30
0.0
 10
156.6211450957
 20
234.4610549171
 30
0.0
 10
156.605507876
 20
234.619309578
 30
0.0
  0
SPLINE
  5
4A1
100
AcDbEntity
  8
00_COMPONENTS
100
AcDbSpline
 62
7
  6
CONTINUOUS
 70
0
 71
3
 72
14
 73
10
 74
0
 42
0.0000001
 43
0.0000001
 44
0.0000000001
 40
0.0
 40
0.0
 40
0.0
 40
0.0
 40
0.2917164771
 40
0.4385584444
 40
0.5778189842
 40
0.7046169439
 40
0.8161164966
 40
0.9128304812
 40
1.0
 40
1.0
 40
1.0
 40
1.0
 10
156.3670443327
 20
235.9031159744
 30
0.0
 10
156.1020741425
 20
236.8897149019
 30
0.0
 10
155.4560852089
 20
238.3161606952
 30
0.0
 10
154.2562594179
 20
239.9505293084
 30
0.0
 10
153.2291914
 20
240.9780221892
 30
0.0
 10
152.1393190476
 20
241.7407390001
 30
0.0
 10
151.0437546236
 20
242.1933035999
 30
0.0
 10
149.99549099
 20
242.2999809588
 30
0.0
 10
149.3575015435
 20
242.1057150341
 30
0.0
 10
149.0932000755
 20
241.9529814009
 30
0.0
  0
SPLINE
  5
4A2
100
AcDbEntity
  8
00_COMPONENTS
100
AcDbSpline
 62
7
  6
CONTINUOUS
 70
0
 71
3
 72
11
 73
7
 74
0
 42
0.0000001
 43
0.0000001
 44
0.0000000001
 40
0.0
 40
0.0
 40
0.0
 40
0.0
 40
0.2897736012
 40
0.5490666202
 40
0.7822259336
 40
1.0
 40
1.0
 40
1.0
 40
1.0
 10
192.5937493286
 20
271.2822028085
 30
0.0
 10
191.9792892723
 20
271.6369534619
 30
0.0
 10
190.7573703587
 20
272.2185473247
 30
0.0
 10
188.8789413222
 20
272.6717489673
 30
0.0
 10
187.1166857667
 20
272.6273203357
 30
0.0
 10
186.0556108333
 20
272.2420730371
 30
0.0
 10
185.5938285441
 20
271.9754597889
 30
0.0
  0
SPLINE
  5
4A3
100
AcDbEntity
  8
00_COMPONENTS
100
AcDbSpline
 62
7
  6
CONTINUOUS
 70
0
 71
3
 72
9
 73
5
 74
0
 42
0.0000001
 43
0.0000001
 44
0.0000000001
 40
0.0
 40
0.0
 40
0.0
 40
0.0
 40
0.4878058362
 40
1.0
 40
1.0
 40
1.0
 40
1.0
 10
155.3430403718
 20
48.5579336942
 30
0.0
 10
155.5141614369
 20
48.656820553
 30
0.0
 10
155.8371625507
 20
48.9114236891
 30
0.0
 10
156.0783982324
 20
49.2429826808
 30
0.0
 10
156.1808533442
 20
49.4234470958
 30
0.0
  0
SPLINE
  5
4A4
100
AcDbEntity
  8
00_COMPONENTS
100
AcDbSpline
 62
7
  6
CONTINUOUS
 70
0
 71
3
 72
9
 73
5
 74
0
 42
0.0000001
 43
0.0000001
 44
0.0000000001
 40
0.0
 40
0.0
 40
0.0
 40
0.0
 40
0.2422796027
 40
1.0
 40
1.0
 40
1.0
 40
1.0
 10
156.1808533442
 20
49.4234470958
 30
0.0
 10
156.2062117837
 20
49.4681134464
 30
0.0
 10
156.3057349307
 20
49.6553734484
 30
0.0
 10
156.3848348529
 20
49.8532529373
 30
0.0
 10
156.434182887
 20
50.0061202411
 30
0.0
  0
SPLINE
  5
4A5
100
AcDbEntity
  8
00_COMPONENTS
100
AcDbSpline
 62
7
  6
CONTINUOUS
 70
0
 71
3
 72
11
 73
7
 74
0
 42
0.0000001
 43
0.0000001
 44
0.0000000001
 40
0.0
 40
0.0
 40
0.0
 40
0.0
 40
0.2934841724
 40
0.5541910818
 40
0.7858934611
 40
1.0
 40
1.0
 40
1.0
 40
1.0
 10
181.3024515704
 20
263.9690660602
 30
0.0
 10
181.2576400609
 20
264.7623900964
 30
0.0
 10
181.2939773235
 20
266.2726675533
 30
0.0
 10
181.796426281
 20
268.3607784679
 30
0.0
 10
182.7421948393
 20
270.0571383053
 30
0.0
 10
183.6776140874
 20
270.8691146765
 30
0.0
 10
184.1796245951
 20
271.1589650447
 30
0.0
  0
SPLINE
  5
4A6
100
AcDbEntity
  8
00_COMPONENTS
100
AcDbSpline
 62
7
  6
CONTINUOUS
 70
0
 71
3
 72
14
 73
10
 74
0
 42
0.0000001
 43
0.0000001
 44
0.0000000001
 40
0.0
 40
0.0
 40
0.0
 40
0.0
 40
0.2032803951
 40
0.327645825
 40
0.4627906102
 40
0.6034900255
 40
0.7437255631
 40
0.8776041529
 40
1.0
 40
1.0
 40
1.0
 40
1.0
 10
156.2103749946
 20
49.4084078644
 30
0.0
 10
155.4466770326
 20
49.398145953
 30
0.0
 10
154.224275476
 20
49.8896750227
 30
0.0
 10
152.8636966291
 20
50.9634145919
 30
0.0
 10
151.8473554862
 20
52.0849088092
 30
0.0
 10
150.9818565204
 20
53.3922469021
 30
0.0
 10
150.3147602377
 20
54.8074980276
 30
0.0
 10
149.8896503937
 20
56.2412584104
 30
0.0
 10
149.7785751857
 20
57.2052088962
 30
0.0
 10
149.7785751857
 20
57.6650756591
 30
0.0
  0
SPLINE
  5
4A7
100
AcDbEntity
  8
00_COMPONENTS
100
AcDbSpline
 62
7
  6
CONTINUOUS
 70
0
 71
3
 72
9
 73
5
 74
0
 42
0.0000001
 43
0.0000001
 44
0.0000000001
 40
0.0
 40
0.0
 40
0.0
 40
0.0
 40
0.516451053
 40
1.0
 40
1.0
 40
1.0
 40
1.0
 10
182.8904999406
 20
264.9414679873
 30
0.0
 10
183.0473625473
 20
265.2819203773
 30
0.0
 10
183.4293264602
 20
265.9103075482
 30
0.0
 10
183.9794865261
 20
266.4035500068
 30
0.0
 10
184.2747575377
 20
266.5932743467
 30
0.0
  0
SPLINE
  5
4A8
100
AcDbEntity
  8
00_COMPONENTS
100
AcDbSpline
 62
7
  6
CONTINUOUS
 70
0
 71
3
 72
11
 73
7
 74
0
 42
0.0000001
 43
0.0000001
 44
0.0000000001
 40
0.0
 40
0.0
 40
0.0
 40
0.0
 40
0.2897016594
 40
0.5490895814
 40
0.7822189142
 40
1.0
 40
1.0
 40
1.0
 40
1.0
 10
174.5625484882
 20
256.7893072205
 30
0.0
 10
174.5625484882
 20
257.245318914
 30
0.0
 10
174.6316860823
 20
258.1125609596
 30
0.0
 10
174.9828903332
 20
259.304114868
 30
0.0
 10
175.5742447356
 20
260.2709926423
 30
0.0
 10
176.1297075464
 20
260.7379307582
 30
0.0
 10
176.4265715136
 20
260.9093541371
 30
0.0
  0
SPLINE
  5
4A9
100
AcDbEntity
  8
00_COMPONENTS
100
AcDbSpline
 62
7
  6
CONTINUOUS
 70
0
 71
3
 72
9
 73
5
 74
0
 42
0.0000001
 43
0.0000001
 44
0.0000000001
 40
0.0
 40
0.0
 40
0.0
 40
0.0
 40
0.4878058362
 40
1.0
 40
1.0
 40
1.0
 40
1.0
 10
70.4898733542
 20
97.5468242366
 30
0.0
 10
70.6609944193
 20
97.6457110955
 30
0.0
 10
70.9839955331
 20
97.9003142315
 30
0.0
 10
71.2252312148
 20
98.2318732232
 30
0.0
 10
71.3276863266
 20
98.4123376382
 30
0.0
  0
SPLINE
  5
4AA
100
AcDbEntity
  8
00_COMPONENTS
100
AcDbSpline
 62
7
  6
CONTINUOUS
 70
0
 71
3
 72
9
 73
5
 74
0
 42
0.0000001
 43
0.0000001
 44
0.0000000001
 40
0.0
 40
0.0
 40
0.0
 40
0.0
 40
0.2422796027
 40
1.0
 40
1.0
 40
1.0
 40
1.0
 10
71.3276863266
 20
98.4123376382
 30
0.0
 10
71.3530447661
 20
98.4570039888
 30
0.0
 10
71.4525679131
 20
98.6442639908
 30
0.0
 10
71.5316678353
 20
98.8421434797
 30
0.0
 10
71.5810158694
 20
98.9950107835
 30
0.0
  0
SPLINE
  5
4AB
100
AcDbEntity
  8
00_COMPONENTS
100
AcDbSpline
 62
7
  6
CONTINUOUS
 70
0
 71
3
 72
14
 73
10
 74
0
 42
0.0000001
 43
0.0000001
 44
0.0000000001
 40
0.0
 40
0.0
 40
0.0
 40
0.0
 40
0.2032803951
 40
0.327645825
 40
0.4627906102
 40
0.6034900255
 40
0.7437255631
 40
0.8776041529
 40
1.0
 40
1.0
 40
1.0
 40
1.0
 10
71.3572079769
 20
98.3972984069
 30
0.0
 10
70.5935100149
 20
98.3870364955
 30
0.0
 10
69.3711084583
 20
98.8785655651
 30
0.0
 10
68.0105296115
 20
99.9523051343
 30
0.0
 10
66.9941884685
 20
101.0737993517
 30
0.0
 10
66.1286895027
 20
102.3811374446
 30
0.0
 10
65.4615932201
 20
103.79638857
 30
0.0
 10
65.0364833761
 20
105.2301489529
 30
0.0
 10
64.925408168
 20
106.1940994386
 30
0.0
 10
64.925408168
 20
106.6539662015
 30
0.0
  0
SPLINE
  5
4AC
100
AcDbEntity
  8
00_COMPONENTS
100
AcDbSpline
 62
7
  6
CONTINUOUS
 70
0
 71
3
 72
9
 73
5
 74
0
 42
0.0000001
 43
0.0000001
 44
0.0000000001
 40
0.0
 40
0.0
 40
0.0
 40
0.0
 40
0.2443510313
 40
1.0
 40
1.0
 40
1.0
 40
1.0
 10
114.210972497
 20
258.4833683381
 30
0.0
 10
114.210972497
 20
258.5347916956
 30
0.0
 10
114.208178459
 20
258.7452354237
 30
0.0
 10
114.1945615869
 20
258.9555001883
 30
0.0
 10
114.1789243672
 20
259.1137548492
 30
0.0
  0
SPLINE
  5
4AD
100
AcDbEntity
  8
00_COMPONENTS
100
AcDbSpline
 62
7
  6
CONTINUOUS
 70
0
 71
3
 72
14
 73
10
 74
0
 42
0.0000001
 43
0.0000001
 44
0.0000000001
 40
0.0
 40
0.0
 40
0.0
 40
0.0
 40
0.2917164771
 40
0.4385584444
 40
0.5778189842
 40
0.7046169439
 40
0.8161164966
 40
0.9128304812
 40
1.0
 40
1.0
 40
1.0
 40
1.0
 10
113.9404608239
 20
260.3975612457
 30
0.0
 10
113.6754906337
 20
261.3841601732
 30
0.0
 10
113.0295017001
 20
262.8106059664
 30
0.0
 10
111.8296759091
 20
264.4449745796
 30
0.0
 10
110.8026078912
 20
265.4724674604
 30
0.0
 10
109.7127355388
 20
266.2351842713
 30
0.0
 10
108.6171711148
 20
266.6877488711
 30
0.0
 10
107.5689074812
 20
266.79442623
 30
0.0
 10
106.9309180347
 20
266.6001603053
 30
0.0
 10
106.6666165666
 20
266.4474266722
 30
0.0
  0
SPLINE
  5
4AE
100
AcDbEntity
  8
00_COMPONENTS
100
AcDbSpline
 62
7
  6
CONTINUOUS
 70
0
 71
3
 72
11
 73
7
 74
0
 42
0.0000001
 43
0.0000001
 44
0.0000000001
 40
0.0
 40
0.0
 40
0.0
 40
0.0
 40
0.2897736012
 40
0.5490666202
 40
0.7822259336
 40
1.0
 40
1.0
 40
1.0
 40
1.0
 10
150.1671658197
 20
295.7766480797
 30
0.0
 10
149.5527057635
 20
296.1313987331
 30
0.0
 10
148.3307868499
 20
296.7129925959
 30
0.0
 10
146.4523578134
 20
297.1661942385
 30
0.0
 10
144.6901022579
 20
297.1217656069
 30
0.0
 10
143.6290273245
 20
296.7365183083
 30
0.0
 10
143.1672450352
 20
296.4699050601
 30
0.0
  0
SPLINE
  5
4AF
100
AcDbEntity
  8
00_COMPONENTS
100
AcDbSpline
 62
7
  6
CONTINUOUS
 70
0
 71
3
 72
11
 73
7
 74
0
 42
0.0000001
 43
0.0000001
 44
0.0000000001
 40
0.0
 40
0.0
 40
0.0
 40
0.0
 40
0.2934841724
 40
0.5541910818
 40
0.7858934611
 40
1.0
 40
1.0
 40
1.0
 40
1.0
 10
138.8758680616
 20
288.4635113314
 30
0.0
 10
138.8310565521
 20
289.2568353676
 30
0.0
 10
138.8673938146
 20
290.7671128245
 30
0.0
 10
139.3698427721
 20
292.8552237391
 30
0.0
 10
140.3156113305
 20
294.5515835765
 30
0.0
 10
141.2510305786
 20
295.3635599477
 30
0.0
 10
141.7530410862
 20
295.6534103159
 30
0.0
  0
SPLINE
  5
4B0
100
AcDbEntity
  8
00_COMPONENTS
100
AcDbSpline
 62
7
  6
CONTINUOUS
 70
0
 71
3
 72
9
 73
5
 74
0
 42
0.0000001
 43
0.0000001
 44
0.0000000001
 40
0.0
 40
0.0
 40
0.0
 40
0.0
 40
0.516451053
 40
1.0
 40
1.0
 40
1.0
 40
1.0
 10
140.4639164318
 20
289.4359132586
 30
0.0
 10
140.6207790385
 20
289.7763656485
 30
0.0
 10
141.0027429514
 20
290.4047528194
 30
0.0
 10
141.5529030173
 20
290.897995278
 30
0.0
 10
141.8481740289
 20
291.0877196179
 30
0.0
  0
SPLINE
  5
4B1
100
AcDbEntity
  8
00_COMPONENTS
100
AcDbSpline
 62
7
  6
CONTINUOUS
 70
0
 71
3
 72
9
 73
5
 74
0
 42
0.0000001
 43
0.0000001
 44
0.0000000001
 40
0.0
 40
0.0
 40
0.0
 40
0.0
 40
0.4878058362
 40
1.0
 40
1.0
 40
1.0
 40
1.0
 10
112.916456863
 20
73.0523789654
 30
0.0
 10
113.0875779281
 20
73.1512658242
 30
0.0
 10
113.4105790419
 20
73.4058689603
 30
0.0
 10
113.6518147236
 20
73.737427952
 30
0.0
 10
113.7542698354
 20
73.917892367
 30
0.0
  0
SPLINE
  5
4B2
100
AcDbEntity
  8
00_COMPONENTS
100
AcDbSpline
 62
7
  6
CONTINUOUS
 70
0
 71
3
 72
9
 73
5
 74
0
 42
0.0000001
 43
0.0000001
 44
0.0000000001
 40
0.0
 40
0.0
 40
0.0
 40
0.0
 40
0.2422796027
 40
1.0
 40
1.0
 40
1.0
 40
1.0
 10
113.7542698354
 20
73.917892367
 30
0.0
 10
113.7796282749
 20
73.9625587176
 30
0.0
 10
113.8791514219
 20
74.1498187196
 30
0.0
 10
113.9582513441
 20
74.3476982085
 30
0.0
 10
114.0075993782
 20
74.5005655123
 30
0.0
  0
SPLINE
  5
4B3
100
AcDbEntity
  8
00_COMPONENTS
100
AcDbSpline
 62
7
  6
CONTINUOUS
 70
0
 71
3
 72
11
 73
7
 74
0
 42
0.0000001
 43
0.0000001
 44
0.0000000001
 40
0.0
 40
0.0
 40
0.0
 40
0.0
 40
0.2897016594
 40
0.5490895814
 40
0.7822189142
 40
1.0
 40
1.0
 40
1.0
 40
1.0
 10
132.1359649794
 20
281.2837524917
 30
0.0
 10
132.1359649794
 20
281.7397641852
 30
0.0
 10
132.2051025735
 20
282.6070062309
 30
0.0
 10
132.5563068244
 20
283.7985601392
 30
0.0
 10
133.1476612268
 20
284.7654379135
 30
0.0
 10
133.7031240375
 20
285.2323760295
 30
0.0
 10
133.9999880048
 20
285.4037994083
 30
0.0
  0
SPLINE
  5
4B4
100
AcDbEntity
  8
00_COMPONENTS
100
AcDbSpline
 62
7
  6
CONTINUOUS
 70
0
 71
3
 72
14
 73
10
 74
0
 42
0.0000001
 43
0.0000001
 44
0.0000000001
 40
0.0
 40
0.0
 40
0.0
 40
0.0
 40
0.2032803951
 40
0.327645825
 40
0.4627906102
 40
0.6034900255
 40
0.7437255631
 40
0.8776041529
 40
1.0
 40
1.0
 40
1.0
 40
1.0
 10
113.7837914858
 20
73.9028531356
 30
0.0
 10
113.0200935238
 20
73.8925912242
 30
0.0
 10
111.7976919671
 20
74.3841202939
 30
0.0
 10
110.4371131203
 20
75.4578598631
 30
0.0
 10
109.4207719773
 20
76.5793540805
 30
0.0
 10
108.5552730115
 20
77.8866921734
 30
0.0
 10
107.8881767289
 20
79.3019432988
 30
0.0
 10
107.4630668849
 20
80.7357036816
 30
0.0
 10
107.3519916769
 20
81.6996541674
 30
0.0
 10
107.3519916769
 20
82.1595209303
 30
0.0
  0
SPLINE
  5
4B5
100
AcDbEntity
  8
00_COMPONENTS
100
AcDbSpline
 62
7
  6
CONTINUOUS
 70
0
 71
3
 72
10
 73
6
 74
0
 42
0.0000001
 43
0.0000001
 44
0.0000000001
 40
0.0
 40
0.0
 40
0.0
 40
0.0
 40
0.5477972326
 40
0.7816898178
 40
1.0
 40
1.0
 40
1.0
 40
1.0
 10
173.2051299182
 20
32.0395220041
 30
0.0
 10
173.039697652
 20
31.9440102108
 30
0.0
 10
172.7757153184
 20
31.8384919079
 30
0.0
 10
172.4226887037
 20
31.8474125522
 30
0.0
 10
172.271091471
 20
31.902429526
 30
0.0
 10
172.2051724781
 20
31.9405100125
 30
0.0
  0
SPLINE
  5
4B6
100
AcDbEntity
  8
00_COMPONENTS
100
AcDbSpline
 62
7
  6
CONTINUOUS
 70
0
 71
3
 72
11
 73
7
 74
0
 42
0.0000001
 43
0.0000001
 44
0.0000000001
 40
0.0
 40
0.0
 40
0.0
 40
0.0
 40
0.2413110789
 40
0.504114975
 40
0.7646848671
 40
1.0
 40
1.0
 40
1.0
 40
1.0
 10
138.0665232327
 20
270.528461053
 30
0.0
 10
137.2132598044
 20
271.0884720744
 30
0.0
 10
135.6139280652
 20
272.5420269286
 30
0.0
 10
133.7526973084
 20
275.2141640012
 30
0.0
 10
132.4930516497
 20
278.1895035168
 30
0.0
 10
132.1359649794
 20
280.2884895228
 30
0.0
 10
132.1359649794
 20
281.2837524917
 30
0.0
  0
SPLINE
  5
4B7
100
AcDbEntity
  8
00_COMPONENTS
100
AcDbSpline
 62
7
  6
CONTINUOUS
 70
0
 71
3
 72
10
 73
6
 74
0
 42
0.0000001
 43
0.0000001
 44
0.0000000001
 40
0.0
 40
0.0
 40
0.0
 40
0.0
 40
0.5477972326
 40
0.7816898178
 40
1.0
 40
1.0
 40
1.0
 40
1.0
 10
127.5965526463
 20
58.3710506707
 30
0.0
 10
127.43112038
 20
58.2755388774
 30
0.0
 10
127.1671380465
 20
58.1700205744
 30
0.0
 10
126.8141114318
 20
58.1789412188
 30
0.0
 10
126.662514199
 20
58.2339581925
 30
0.0
 10
126.5965952061
 20
58.272038679
 30
0.0
  0
SPLINE
  5
4B8
100
AcDbEntity
  8
00_COMPONENTS
100
AcDbSpline
 62
7
  6
CONTINUOUS
 70
0
 71
3
 72
11
 73
7
 74
0
 42
0.0000001
 43
0.0000001
 44
0.0000000001
 40
0.0
 40
0.0
 40
0.0
 40
0.0
 40
0.2348282353
 40
0.4880502107
 40
0.7474977085
 40
1.0
 40
1.0
 40
1.0
 40
1.0
 10
160.0183670302
 20
279.7852341933
 30
0.0
 10
159.9230737667
 20
280.9505305242
 30
0.0
 10
159.4498995204
 20
283.3528849277
 30
0.0
 10
158.1008432826
 20
286.8380470164
 30
0.0
 10
156.1745183065
 20
290.1423311279
 30
0.0
 10
154.5487762508
 20
292.1241003182
 30
0.0
 10
153.6658282546
 20
293.0190379063
 30
0.0
  0
SPLINE
  5
4B9
100
AcDbEntity
  8
00_COMPONENTS
100
AcDbSpline
 62
7
  6
CONTINUOUS
 70
0
 71
3
 72
9
 73
5
 74
0
 42
0.0000001
 43
0.0000001
 44
0.0000000001
 40
0.0
 40
0.0
 40
0.0
 40
0.0
 40
0.2632190521
 40
1.0
 40
1.0
 40
1.0
 40
1.0
 10
153.6658282546
 20
293.0190379063
 30
0.0
 10
153.3908763358
 20
293.2977234101
 30
0.0
 10
152.3162515907
 20
294.3255656233
 30
0.0
 10
151.1161838634
 20
295.228744652
 30
0.0
 10
150.1671658197
 20
295.7766480797
 30
0.0
  0
SPLINE
  5
4BA
100
AcDbEntity
  8
00_COMPONENTS
100
AcDbSpline
 62
7
  6
CONTINUOUS
 70
0
 71
3
 72
10
 73
6
 74
0
 42
0.0000001
 43
0.0000001
 44
0.0000000001
 40
0.0
 40
0.0
 40
0.0
 40
0.0
 40
0.5477972326
 40
0.7816898178
 40
1.0
 40
1.0
 40
1.0
 40
1.0
 10
85.1699691374
 20
82.8654959419
 30
0.0
 10
85.0045368712
 20
82.7699841486
 30
0.0
 10
84.7405545376
 20
82.6644658457
 30
0.0
 10
84.3875279229
 20
82.67338649
 30
0.0
 10
84.2359306902
 20
82.7284034638
 30
0.0
 10
84.1700116973
 20
82.7664839502
 30
0.0
  0
SPLINE
  5
4BB
100
AcDbEntity
  8
00_COMPONENTS
100
AcDbSpline
 62
7
  6
CONTINUOUS
 70
0
 71
3
 72
9
 73
5
 74
0
 42
0.0000001
 43
0.0000001
 44
0.0000000001
 40
0.0
 40
0.0
 40
0.0
 40
0.0
 40
0.2658612582
 40
1.0
 40
1.0
 40
1.0
 40
1.0
 10
107.3519916769
 20
82.1595209303
 30
0.0
 10
107.3519916769
 20
82.2869630354
 30
0.0
 10
107.3677515532
 20
82.7658805482
 30
0.0
 10
107.4488765534
 20
83.2449664876
 30
0.0
 10
107.5577100697
 20
83.579628156
 30
0.0
  0
SPLINE
  5
4BC
100
AcDbEntity
  8
00_COMPONENTS
100
AcDbSpline
 62
7
  6
CONTINUOUS
 70
0
 71
3
 72
11
 73
7
 74
0
 42
0.0000001
 43
0.0000001
 44
0.0000000001
 40
0.0
 40
0.0
 40
0.0
 40
0.0
 40
0.2177434119
 40
0.4508805377
 40
0.710457812
 40
1.0
 40
1.0
 40
1.0
 40
1.0
 10
99.49841214
 20
285.4071635592
 30
0.0
 10
99.4984121873
 20
285.254839666
 30
0.0
 10
99.5543489764
 20
284.9372585983
 30
0.0
 10
99.7952610113
 20
284.4946965844
 30
0.0
 10
100.1760362608
 20
284.0949505777
 30
0.0
 10
100.4943574868
 20
283.8754608328
 30
0.0
 10
100.6697729794
 20
283.7741869421
 30
0.0
  0
SPLINE
  5
4BD
100
AcDbEntity
  8
00_COMPONENTS
100
AcDbSpline
 62
7
  6
CONTINUOUS
 70
0
 71
3
 72
9
 73
5
 74
0
 42
0.0000001
 43
0.0000001
 44
0.0000000001
 40
0.0
 40
0.0
 40
0.0
 40
0.0
 40
0.4891095994
 40
1.0
 40
1.0
 40
1.0
 40
1.0
 10
112.916456863
 20
255.6223194356
 30
0.0
 10
113.0773874311
 20
255.7153174447
 30
0.0
 10
113.3818994078
 20
255.9510589596
 30
0.0
 10
113.6153112897
 20
256.2561786998
 30
0.0
 10
113.7158364317
 20
256.4222731582
 30
0.0
  0
SPLINE
  5
4BE
100
AcDbEntity
  8
00_COMPONENTS
100
AcDbSpline
 62
7
  6
CONTINUOUS
 70
0
 71
3
 72
9
 73
5
 74
0
 42
0.0000001
 43
0.0000001
 44
0.0000000001
 40
0.0
 40
0.0
 40
0.0
 40
0.0
 40
0.2262727648
 40
1.0
 40
1.0
 40
1.0
 40
1.0
 10
113.7158364317
 20
256.4222731582
 30
0.0
 10
113.7992252909
 20
256.5600538878
 30
0.0
 10
114.1128448433
 20
257.202572424
 30
0.0
 10
114.210972497
 20
257.9326653814
 30
0.0
 10
114.210972497
 20
258.4833683381
 30
0.0
  0
SPLINE
  5
4BF
100
AcDbEntity
  8
00_COMPONENTS
100
AcDbSpline
 62
7
  6
CONTINUOUS
 70
0
 71
3
 72
9
 73
5
 74
0
 42
0.0000001
 43
0.0000001
 44
0.0000000001
 40
0.0
 40
0.0
 40
0.0
 40
0.0
 40
0.2422947963
 40
1.0
 40
1.0
 40
1.0
 40
1.0
 10
114.1934345094
 20
258.2926750099
 30
0.0
 10
114.1285341942
 20
258.3274495286
 30
0.0
 10
113.8635239586
 20
258.4762553602
 30
0.0
 10
113.6099378781
 20
258.645131759
 30
0.0
 10
113.4246838985
 20
258.7818731934
 30
0.0
  0
SPLINE
  5
4C0
100
AcDbEntity
  8
00_COMPONENTS
100
AcDbSpline
 62
7
  6
CONTINUOUS
 70
0
 71
3
 72
11
 73
7
 74
0
 42
0.0000001
 43
0.0000001
 44
0.0000000001
 40
0.0
 40
0.0
 40
0.0
 40
0.0
 40
0.2452607182
 40
0.5080142437
 40
0.7664464242
 40
1.0
 40
1.0
 40
1.0
 40
1.0
 10
113.4246838985
 20
258.7818731934
 30
0.0
 10
112.8696285505
 20
259.191575941
 30
0.0
 10
111.838108588
 20
260.2038131245
 30
0.0
 10
110.6414871774
 20
262.0134776384
 30
0.0
 10
109.8392646456
 20
263.9937349857
 30
0.0
 10
109.6147239559
 20
265.3788872771
 30
0.0
 10
109.6147239559
 20
266.0358426928
 30
0.0
  0
SPLINE
  5
4C1
100
AcDbEntity
  8
00_COMPONENTS
100
AcDbSpline
 62
7
  6
CONTINUOUS
 70
0
 71
3
 72
9
 73
5
 74
0
 42
0.0000001
 43
0.0000001
 44
0.0000000001
 40
0.0
 40
0.0
 40
0.0
 40
0.0
 40
0.5117720301
 40
1.0
 40
1.0
 40
1.0
 40
1.0
 10
127.5347039137
 20
268.2010555622
 30
0.0
 10
126.5547129471
 20
269.4868695705
 30
0.0
 10
124.9299873021
 20
272.2294411503
 30
0.0
 10
123.9518331897
 20
275.2733007386
 30
0.0
 10
123.6983153329
 20
276.7946402898
 30
0.0
  0
SPLINE
  5
4C2
100
AcDbEntity
  8
00_COMPONENTS
100
AcDbSpline
 62
7
  6
CONTINUOUS
 70
0
 71
3
 72
9
 73
5
 74
0
 42
0.0000001
 43
0.0000001
 44
0.0000000001
 40
0.0
 40
0.0
 40
0.0
 40
0.0
 40
0.2589041284
 40
1.0
 40
1.0
 40
1.0
 40
1.0
 10
123.6983153329
 20
276.7946402898
 30
0.0
 10
123.6669106252
 20
276.9830973257
 30
0.0
 10
123.5592865606
 20
277.713138451
 30
0.0
 10
123.5071288644
 20
278.4519307396
 30
0.0
 10
123.5071288644
 20
278.9988152126
 30
0.0
  0
SPLINE
  5
4C3
100
AcDbEntity
  8
00_COMPONENTS
100
AcDbSpline
 62
7
  6
CONTINUOUS
 70
0
 71
3
 72
11
 73
7
 74
0
 42
0.0000001
 43
0.0000001
 44
0.0000000001
 40
0.0
 40
0.0
 40
0.0
 40
0.0
 40
0.2413110789
 40
0.504114975
 40
0.7646848671
 40
1.0
 40
1.0
 40
1.0
 40
1.0
 10
180.4931067415
 20
246.0340157818
 30
0.0
 10
179.6398433132
 20
246.5940268032
 30
0.0
 10
178.040511574
 20
248.0475816574
 30
0.0
 10
176.1792808172
 20
250.7197187299
 30
0.0
 10
174.9196351585
 20
253.6950582456
 30
0.0
 10
174.5625484882
 20
255.7940442516
 30
0.0
 10
174.5625484882
 20
256.7893072205
 30
0.0
  0
SPLINE
  5
4C4
100
AcDbEntity
  8
00_COMPONENTS
100
AcDbSpline
 62
7
  6
CONTINUOUS
 70
0
 71
3
 72
11
 73
7
 74
0
 42
0.0000001
 43
0.0000001
 44
0.0000000001
 40
0.0
 40
0.0
 40
0.0
 40
0.0
 40
0.2348282353
 40
0.4880502107
 40
0.7474977085
 40
1.0
 40
1.0
 40
1.0
 40
1.0
 10
202.444950539
 20
255.2907889221
 30
0.0
 10
202.3496572755
 20
256.4560852529
 30
0.0
 10
201.8764830292
 20
258.8584396565
 30
0.0
 10
200.5274267915
 20
262.3436017451
 30
0.0
 10
198.6011018153
 20
265.6478858567
 30
0.0
 10
196.9753597596
 20
267.629655047
 30
0.0
 10
196.0924117635
 20
268.5245926351
 30
0.0
  0
SPLINE
  5
4C5
100
AcDbEntity
  8
00_COMPONENTS
100
AcDbSpline
 62
7
  6
CONTINUOUS
 70
0
 71
3
 72
9
 73
5
 74
0
 42
0.0000001
 43
0.0000001
 44
0.0000000001
 40
0.0
 40
0.0
 40
0.0
 40
0.0
 40
0.2632190521
 40
1.0
 40
1.0
 40
1.0
 40
1.0
 10
196.0924117635
 20
268.5245926351
 30
0.0
 10
195.8174598447
 20
268.8032781388
 30
0.0
 10
194.7428350996
 20
269.8311203521
 30
0.0
 10
193.5427673722
 20
270.7342993808
 30
0.0
 10
192.5937493286
 20
271.2822028085
 30
0.0
  0
SPLINE
  5
4C6
100
AcDbEntity
  8
00_COMPONENTS
100
AcDbSpline
 62
7
  6
CONTINUOUS
 70
0
 71
3
 72
11
 73
7
 74
0
 42
0.0000001
 43
0.0000001
 44
0.0000000001
 40
0.0
 40
0.0
 40
0.0
 40
0.0
 40
0.2177434119
 40
0.4508805377
 40
0.710457812
 40
1.0
 40
1.0
 40
1.0
 40
1.0
 10
141.9249956489
 20
260.912718288
 30
0.0
 10
141.9249956962
 20
260.7603943948
 30
0.0
 10
141.9809324852
 20
260.4428133271
 30
0.0
 10
142.2218445201
 20
260.0002513132
 30
0.0
 10
142.6026197696
 20
259.6005053065
 30
0.0
 10
142.9209409956
 20
259.3810155616
 30
0.0
 10
143.0963564882
 20
259.2797416709
 30
0.0
  0
SPLINE
  5
4C7
100
AcDbEntity
  8
00_COMPONENTS
100
AcDbSpline
 62
7
  6
CONTINUOUS
 70
0
 71
3
 72
9
 73
5
 74
0
 42
0.0000001
 43
0.0000001
 44
0.0000000001
 40
0.0
 40
0.0
 40
0.0
 40
0.0
 40
0.4891095994
 40
1.0
 40
1.0
 40
1.0
 40
1.0
 10
155.3430403718
 20
231.1278741643
 30
0.0
 10
155.5039709399
 20
231.2208721735
 30
0.0
 10
155.8084829166
 20
231.4566136883
 30
0.0
 10
156.0418947985
 20
231.7617334286
 30
0.0
 10
156.1424199405
 20
231.927827887
 30
0.0
  0
SPLINE
  5
4C8
100
AcDbEntity
  8
00_COMPONENTS
100
AcDbSpline
 62
7
  6
CONTINUOUS
 70
0
 71
3
 72
9
 73
5
 74
0
 42
0.0000001
 43
0.0000001
 44
0.0000000001
 40
0.0
 40
0.0
 40
0.0
 40
0.0
 40
0.2262727648
 40
1.0
 40
1.0
 40
1.0
 40
1.0
 10
156.1424199405
 20
231.927827887
 30
0.0
 10
156.2258087998
 20
232.0656086165
 30
0.0
 10
156.5394283521
 20
232.7081271527
 30
0.0
 10
156.6375560058
 20
233.4382201102
 30
0.0
 10
156.6375560058
 20
233.9889230669
 30
0.0
  0
SPLINE
  5
4C9
100
AcDbEntity
  8
00_COMPONENTS
100
AcDbSpline
 62
7
  6
CONTINUOUS
 70
0
 71
3
 72
9
 73
5
 74
0
 42
0.0000001
 43
0.0000001
 44
0.0000000001
 40
0.0
 40
0.0
 40
0.0
 40
0.0
 40
0.2422947963
 40
1.0
 40
1.0
 40
1.0
 40
1.0
 10
156.6200180182
 20
233.7982297387
 30
0.0
 10
156.555117703
 20
233.8330042574
 30
0.0
 10
156.2901074674
 20
233.981810089
 30
0.0
 10
156.0365213869
 20
234.1506864878
 30
0.0
 10
155.8512674073
 20
234.2874279222
 30
0.0
  0
SPLINE
  5
4CA
100
AcDbEntity
  8
00_COMPONENTS
100
AcDbSpline
 62
7
  6
CONTINUOUS
 70
0
 71
3
 72
11
 73
7
 74
0
 42
0.0000001
 43
0.0000001
 44
0.0000000001
 40
0.0
 40
0.0
 40
0.0
 40
0.0
 40
0.2452607182
 40
0.5080142437
 40
0.7664464242
 40
1.0
 40
1.0
 40
1.0
 40
1.0
 10
155.8512674073
 20
234.2874279222
 30
0.0
 10
155.2962120593
 20
234.6971306698
 30
0.0
 10
154.2646920968
 20
235.7093678533
 30
0.0
 10
153.0680706862
 20
237.5190323672
 30
0.0
 10
152.2658481544
 20
239.4992897145
 30
0.0
 10
152.0413074648
 20
240.8844420059
 30
0.0
 10
152.0413074648
 20
241.5413974216
 30
0.0
  0
SPLINE
  5
4CB
100
AcDbEntity
  8
00_COMPONENTS
100
AcDbSpline
 62
7
  6
CONTINUOUS
 70
0
 71
3
 72
9
 73
5
 74
0
 42
0.0000001
 43
0.0000001
 44
0.0000000001
 40
0.0
 40
0.0
 40
0.0
 40
0.0
 40
0.5117720301
 40
1.0
 40
1.0
 40
1.0
 40
1.0
 10
169.9612874225
 20
243.706610291
 30
0.0
 10
168.9812964559
 20
244.9924242993
 30
0.0
 10
167.3565708109
 20
247.734995879
 30
0.0
 10
166.3784166985
 20
250.7788554673
 30
0.0
 10
166.1248988417
 20
252.3001950186
 30
0.0
  0
SPLINE
  5
4CC
100
AcDbEntity
  8
00_COMPONENTS
100
AcDbSpline
 62
7
  6
CONTINUOUS
 70
0
 71
3
 72
9
 73
5
 74
0
 42
0.0000001
 43
0.0000001
 44
0.0000000001
 40
0.0
 40
0.0
 40
0.0
 40
0.0
 40
0.2589041284
 40
1.0
 40
1.0
 40
1.0
 40
1.0
 10
166.1248988417
 20
252.3001950186
 30
0.0
 10
166.093494134
 20
252.4886520545
 30
0.0
 10
165.9858700694
 20
253.2186931798
 30
0.0
 10
165.9337123732
 20
253.9574854684
 30
0.0
 10
165.9337123732
 20
254.5043699414
 30
0.0
  0
SPLINE
  5
4CD
100
AcDbEntity
  8
00_COMPONENTS
100
AcDbSpline
 62
7
  6
CONTINUOUS
 70
0
 71
3
 72
9
 73
5
 74
0
 42
0.0000001
 43
0.0000001
 44
0.0000000001
 40
0.0
 40
0.0
 40
0.0
 40
0.0
 40
0.4737905398
 40
1.0
 40
1.0
 40
1.0
 40
1.0
 10
168.0002938493
 20
54.688425365
 30
0.0
 10
167.9456538973
 20
54.7199710293
 30
0.0
 10
167.8139792333
 20
54.7603888027
 30
0.0
 10
167.6785648765
 20
54.7469302591
 30
0.0
 10
167.61039246
 20
54.7307216724
 30
0.0
  0
SPLINE
  5
4CE
100
AcDbEntity
  8
00_COMPONENTS
100
AcDbSpline
 62
7
  6
CONTINUOUS
 70
0
 71
3
 72
8
 73
4
 74
0
 42
0.0000001
 43
0.0000001
 44
0.0000000001
 40
0.0
 40
0.0
 40
0.0
 40
0.0
 40
1.0
 40
1.0
 40
1.0
 40
1.0
 10
167.5039148154
 20
54.697672872
 30
0.0
 10
167.4508601203
 20
54.677460639
 30
0.0
 10
167.3994871434
 20
54.652450622
 30
0.0
 10
167.350318978
 20
54.6240635379
 30
0.0
  0
SPLINE
  5
4CF
100
AcDbEntity
  8
00_COMPONENTS
100
AcDbSpline
 62
7
  6
CONTINUOUS
 70
0
 71
3
 72
14
 73
10
 74
0
 42
0.0000001
 43
0.0000001
 44
0.0000000001
 40
0.0
 40
0.0
 40
0.0
 40
0.0
 40
0.0982873226
 40
0.2076270848
 40
0.330299457
 40
0.4642750522
 40
0.6047228053
 40
0.7453134555
 40
1.0
 40
1.0
 40
1.0
 40
1.0
 10
44.6388840191
 20
288.590563134
 30
0.0
 10
44.8231547484
 20
288.6968684667
 30
0.0
 10
45.162510481
 20
289.0136009117
 30
0.0
 10
45.4783708997
 20
289.6677447684
 30
0.0
 10
45.614361273
 20
290.4566265639
 30
0.0
 10
45.5653073248
 20
291.3207934813
 30
0.0
 10
45.3353438004
 20
292.1962798555
 30
0.0
 10
44.8325788841
 20
293.242347423
 30
0.0
 10
44.2283424692
 20
293.9100290699
 30
0.0
 10
43.7512182462
 20
294.186126399
 30
0.0
  0
SPLINE
  5
4D0
100
AcDbEntity
  8
00_COMPONENTS
100
AcDbSpline
 62
7
  6
CONTINUOUS
 70
0
 71
3
 72
9
 73
5
 74
0
 42
0.0000001
 43
0.0000001
 44
0.0000000001
 40
0.0
 40
0.0
 40
0.0
 40
0.0
 40
0.2658612582
 40
1.0
 40
1.0
 40
1.0
 40
1.0
 10
64.925408168
 20
106.6539662015
 30
0.0
 10
64.925408168
 20
106.7814083066
 30
0.0
 10
64.9411680444
 20
107.2603258194
 30
0.0
 10
65.0222930446
 20
107.7394117588
 30
0.0
 10
65.1311265609
 20
108.0740734272
 30
0.0
  0
SPLINE
  5
4D1
100
AcDbEntity
  8
00_COMPONENTS
100
AcDbSpline
 62
7
  6
CONTINUOUS
 70
0
 71
3
 72
11
 73
7
 74
0
 42
0.0000001
 43
0.0000001
 44
0.0000000001
 40
0.0
 40
0.0
 40
0.0
 40
0.0
 40
0.2897016594
 40
0.5490895814
 40
0.7822189142
 40
1.0
 40
1.0
 40
1.0
 40
1.0
 10
89.7093814706
 20
305.7781977629
 30
0.0
 10
89.7093814706
 20
306.2342094565
 30
0.0
 10
89.7785190647
 20
307.1014515021
 30
0.0
 10
90.1297233156
 20
308.2930054104
 30
0.0
 10
90.7210777179
 20
309.2598831847
 30
0.0
 10
91.2765405287
 20
309.7268213007
 30
0.0
 10
91.5734044959
 20
309.8982446795
 30
0.0
  0
SPLINE
  5
4D2
100
AcDbEntity
  8
00_COMPONENTS
100
AcDbSpline
 62
7
  6
CONTINUOUS
 70
0
 71
3
 72
9
 73
5
 74
0
 42
0.0000001
 43
0.0000001
 44
0.0000000001
 40
0.0
 40
0.0
 40
0.0
 40
0.0
 40
0.516451053
 40
1.0
 40
1.0
 40
1.0
 40
1.0
 10
98.037332923
 20
313.9303585298
 30
0.0
 10
98.1941955297
 20
314.2708109198
 30
0.0
 10
98.5761594425
 20
314.8991980906
 30
0.0
 10
99.1263195085
 20
315.3924405492
 30
0.0
 10
99.4215905201
 20
315.5821648891
 30
0.0
  0
SPLINE
  5
4D3
100
AcDbEntity
  8
00_COMPONENTS
100
AcDbSpline
 62
7
  6
CONTINUOUS
 70
0
 71
3
 72
11
 73
7
 74
0
 42
0.0000001
 43
0.0000001
 44
0.0000000001
 40
0.0
 40
0.0
 40
0.0
 40
0.0
 40
0.2934841724
 40
0.5541910818
 40
0.7858934611
 40
1.0
 40
1.0
 40
1.0
 40
1.0
 10
96.4492845527
 20
312.9579566026
 30
0.0
 10
96.4044730433
 20
313.7512806389
 30
0.0
 10
96.4408103058
 20
315.2615580957
 30
0.0
 10
96.9432592633
 20
317.3496690104
 30
0.0
 10
97.8890278216
 20
319.0460288477
 30
0.0
 10
98.8244470698
 20
319.8580052189
 30
0.0
 10
99.3264575774
 20
320.1478555871
 30
0.0
  0
SPLINE
  5
4D4
100
AcDbEntity
  8
00_COMPONENTS
100
AcDbSpline
 62
7
  6
CONTINUOUS
 70
0
 71
3
 72
11
 73
7
 74
0
 42
0.0000001
 43
0.0000001
 44
0.0000000001
 40
0.0
 40
0.0
 40
0.0
 40
0.0
 40
0.2897736012
 40
0.5490666202
 40
0.7822259336
 40
1.0
 40
1.0
 40
1.0
 40
1.0
 10
107.7405823109
 20
320.271093351
 30
0.0
 10
107.1261222547
 20
320.6258440043
 30
0.0
 10
105.9042033411
 20
321.2074378671
 30
0.0
 10
104.0257743046
 20
321.6606395097
 30
0.0
 10
102.2635187491
 20
321.6162108781
 30
0.0
 10
101.2024438156
 20
321.2309635795
 30
0.0
 10
100.7406615264
 20
320.9643503313
 30
0.0
  0
SPLINE
  5
4D5
100
AcDbEntity
  8
00_COMPONENTS
100
AcDbSpline
 62
7
  6
CONTINUOUS
 70
0
 71
3
 72
9
 73
5
 74
0
 42
0.0000001
 43
0.0000001
 44
0.0000000001
 40
0.0
 40
0.0
 40
0.0
 40
0.0
 40
0.2443510313
 40
1.0
 40
1.0
 40
1.0
 40
1.0
 10
71.7843889882
 20
282.9778136093
 30
0.0
 10
71.7843889882
 20
283.0292369668
 30
0.0
 10
71.7815949502
 20
283.2396806949
 30
0.0
 10
71.7679780781
 20
283.4499454595
 30
0.0
 10
71.7523408584
 20
283.6082001204
 30
0.0
  0
SPLINE
  5
4D6
100
AcDbEntity
  8
00_COMPONENTS
100
AcDbSpline
 62
7
  6
CONTINUOUS
 70
0
 71
3
 72
14
 73
10
 74
0
 42
0.0000001
 43
0.0000001
 44
0.0000000001
 40
0.0
 40
0.0
 40
0.0
 40
0.0
 40
0.2917164771
 40
0.4385584444
 40
0.5778189842
 40
0.7046169439
 40
0.8161164966
 40
0.9128304812
 40
1.0
 40
1.0
 40
1.0
 40
1.0
 10
71.5138773151
 20
284.8920065169
 30
0.0
 10
71.2489071249
 20
285.8786054444
 30
0.0
 10
70.6029181913
 20
287.3050512377
 30
0.0
 10
69.4030924003
 20
288.9394198508
 30
0.0
 10
68.3760243824
 20
289.9669127316
 30
0.0
 10
67.28615203
 20
290.7296295426
 30
0.0
 10
66.1905876059
 20
291.1821941423
 30
0.0
 10
65.1423239724
 20
291.2888715012
 30
0.0
 10
64.5043345259
 20
291.0946055765
 30
0.0
 10
64.2400330578
 20
290.9418719434
 30
0.0
  0
SPLINE
  5
4D7
100
AcDbEntity
  8
00_COMPONENTS
100
AcDbSpline
 62
7
  6
CONTINUOUS
 70
0
 71
3
 72
9
 73
5
 74
0
 42
0.0000001
 43
0.0000001
 44
0.0000000001
 40
0.0
 40
0.0
 40
0.0
 40
0.0
 40
0.2658612582
 40
1.0
 40
1.0
 40
1.0
 40
1.0
 10
149.7785751857
 20
57.6650756591
 30
0.0
 10
149.7785751857
 20
57.7925177642
 30
0.0
 10
149.794335062
 20
58.271435277
 30
0.0
 10
149.8754600622
 20
58.7505212163
 30
0.0
 10
149.9842935785
 20
59.0851828848
 30
0.0
  0
SPLINE
  5
4D8
100
AcDbEntity
  8
00_COMPONENTS
100
AcDbSpline
 62
7
  6
CONTINUOUS
 70
0
 71
3
 72
9
 73
5
 74
0
 42
0.0000001
 43
0.0000001
 44
0.0000000001
 40
0.0
 40
0.0
 40
0.0
 40
0.0
 40
0.5188854277
 40
1.0
 40
1.0
 40
1.0
 40
1.0
 10
77.1945743929
 20
204.5741120779
 30
0.0
 10
76.2687314995
 20
201.4337345061
 30
0.0
 10
74.8454604913
 20
195.2671050287
 30
0.0
 10
74.2948210478
 20
188.9523878618
 30
0.0
 10
74.2948210478
 20
185.9166984206
 30
0.0
  0
SPLINE
  5
4D9
100
AcDbEntity
  8
00_COMPONENTS
100
AcDbSpline
 62
7
  6
CONTINUOUS
 70
0
 71
3
 72
9
 73
5
 74
0
 42
0.0000001
 43
0.0000001
 44
0.0000000001
 40
0.0
 40
0.0
 40
0.0
 40
0.0
 40
0.2611530219
 40
1.0
 40
1.0
 40
1.0
 40
1.0
 10
99.651813653
 20
184.8719532374
 30
0.0
 10
99.3897554011
 20
183.6876545263
 30
0.0
 10
98.4953920625
 20
179.1303340379
 30
0.0
 10
98.0489578187
 20
174.477331906
 30
0.0
 10
98.0489578187
 20
171.0456983387
 30
0.0
  0
SPLINE
  5
4DA
100
AcDbEntity
  8
00_COMPONENTS
100
AcDbSpline
 62
7
  6
CONTINUOUS
 70
0
 71
3
 72
10
 73
6
 74
0
 42
0.0000001
 43
0.0000001
 44
0.0000000001
 40
0.0
 40
0.0
 40
0.0
 40
0.0
 40
0.5439444712
 40
0.7788854073
 40
1.0
 40
1.0
 40
1.0
 40
1.0
 10
100.6725549848
 20
123.7011447037
 30
0.0
 10
100.684319575
 20
123.4385079504
 30
0.0
 10
100.7573980757
 20
123.0536823968
 30
0.0
 10
101.0248019181
 20
122.6443590966
 30
0.0
 10
101.198754131
 20
122.5019185821
 30
0.0
 10
101.2913063282
 20
122.4484847712
 30
0.0
  0
SPLINE
  5
4DB
100
AcDbEntity
  8
00_COMPONENTS
100
AcDbSpline
 62
7
  6
CONTINUOUS
 70
0
 71
3
 72
10
 73
6
 74
0
 42
0.0000001
 43
0.0000001
 44
0.0000000001
 40
0.0
 40
0.0
 40
0.0
 40
0.0
 40
0.5439452877
 40
0.7788860056
 40
1.0
 40
1.0
 40
1.0
 40
1.0
 10
105.5139776518
 20
120.906036663
 30
0.0
 10
105.2806443437
 20
120.7848974434
 30
0.0
 10
104.910833115
 20
120.6557591614
 30
0.0
 10
104.4226372845
 20
120.6826636739
 30
0.0
 10
104.2122988
 20
120.7620870831
 30
0.0
 10
104.1197452308
 20
120.815521752
 30
0.0
  0
SPLINE
  5
4DC
100
AcDbEntity
  8
00_COMPONENTS
100
AcDbSpline
 62
7
  6
CONTINUOUS
 70
0
 71
3
 72
9
 73
5
 74
0
 42
0.0000001
 43
0.0000001
 44
0.0000000001
 40
0.0
 40
0.0
 40
0.0
 40
0.0
 40
0.2817628316
 40
1.0
 40
1.0
 40
1.0
 40
1.0
 10
157.1361321284
 20
116.4270607823
 30
0.0
 10
157.1361321284
 20
116.5813463669
 30
0.0
 10
157.1668318
 20
117.1257603665
 30
0.0
 10
157.3460467632
 20
117.6810676725
 30
0.0
 10
157.5895155767
 20
117.9899326152
 30
0.0
  0
SPLINE
  5
4DD
100
AcDbEntity
  8
00_COMPONENTS
100
AcDbSpline
 62
7
  6
CONTINUOUS
 70
0
 71
3
 72
9
 73
5
 74
0
 42
0.0000001
 43
0.0000001
 44
0.0000000001
 40
0.0
 40
0.0
 40
0.0
 40
0.0
 40
0.255863866
 40
1.0
 40
1.0
 40
1.0
 40
1.0
 10
157.5895155767
 20
117.9899326152
 30
0.0
 10
157.6190357237
 20
118.0273819229
 30
0.0
 10
157.7407476201
 20
118.16860236
 30
0.0
 10
157.8890815396
 20
118.287153466
 30
0.0
 10
158.0091500821
 20
118.3565577474
 30
0.0
  0
SPLINE
  5
4DE
100
AcDbEntity
  8
00_COMPONENTS
100
AcDbSpline
 62
7
  6
CONTINUOUS
 70
0
 71
3
 72
11
 73
7
 74
0
 42
0.0000001
 43
0.0000001
 44
0.0000000001
 40
0.0
 40
0.0
 40
0.0
 40
0.0
 40
0.2472240044
 40
0.5098912547
 40
0.7672787411
 40
1.0
 40
1.0
 40
1.0
 40
1.0
 10
159.5985548483
 20
111.6162400579
 30
0.0
 10
159.2376250305
 20
111.8981775931
 30
0.0
 10
158.5695007541
 20
112.579710447
 30
0.0
 10
157.7958829569
 20
113.782368452
 30
0.0
 10
157.2796802648
 20
115.0871047187
 30
0.0
 10
157.1361321284
 20
115.995933175
 30
0.0
 10
157.1361321284
 20
116.4270607823
 30
0.0
  0
SPLINE
  5
4DF
100
AcDbEntity
  8
00_COMPONENTS
100
AcDbSpline
 62
7
  6
CONTINUOUS
 70
0
 71
3
 72
9
 73
5
 74
0
 42
0.0000001
 43
0.0000001
 44
0.0000000001
 40
0.0
 40
0.0
 40
0.0
 40
0.0
 40
0.2817628316
 40
1.0
 40
1.0
 40
1.0
 40
1.0
 10
157.1361321284
 20
188.2792734897
 30
0.0
 10
157.1361321284
 20
188.4335590743
 30
0.0
 10
157.1668318
 20
188.9779730739
 30
0.0
 10
157.3460467632
 20
189.5332803799
 30
0.0
 10
157.5895155767
 20
189.8421453226
 30
0.0
  0
SPLINE
  5
4E0
100
AcDbEntity
  8
00_COMPONENTS
100
AcDbSpline
 62
7
  6
CONTINUOUS
 70
0
 71
3
 72
9
 73
5
 74
0
 42
0.0000001
 43
0.0000001
 44
0.0000000001
 40
0.0
 40
0.0
 40
0.0
 40
0.0
 40
0.255863866
 40
1.0
 40
1.0
 40
1.0
 40
1.0
 10
157.5895155767
 20
189.8421453226
 30
0.0
 10
157.6190357237
 20
189.8795946303
 30
0.0
 10
157.7407476201
 20
190.0208150674
 30
0.0
 10
157.8890815396
 20
190.1393661734
 30
0.0
 10
158.0091500821
 20
190.2087704548
 30
0.0
  0
SPLINE
  5
4E1
100
AcDbEntity
  8
00_COMPONENTS
100
AcDbSpline
 62
7
  6
CONTINUOUS
 70
0
 71
3
 72
11
 73
7
 74
0
 42
0.0000001
 43
0.0000001
 44
0.0000000001
 40
0.0
 40
0.0
 40
0.0
 40
0.0
 40
0.2472240044
 40
0.5098912547
 40
0.7672787411
 40
1.0
 40
1.0
 40
1.0
 40
1.0
 10
159.5985548483
 20
183.4684527653
 30
0.0
 10
159.2376250305
 20
183.7503903005
 30
0.0
 10
158.5695007541
 20
184.4319231544
 30
0.0
 10
157.7958829569
 20
185.6345811594
 30
0.0
 10
157.2796802648
 20
186.9393174261
 30
0.0
 10
157.1361321284
 20
187.8481458824
 30
0.0
 10
157.1361321284
 20
188.2792734897
 30
0.0
  0
SPLINE
  5
4E2
100
AcDbEntity
  8
00_COMPONENTS
100
AcDbSpline
 62
7
  6
CONTINUOUS
 70
0
 71
3
 72
9
 73
5
 74
0
 42
0.0000001
 43
0.0000001
 44
0.0000000001
 40
0.0
 40
0.0
 40
0.0
 40
0.0
 40
0.5244794261
 40
1.0
 40
1.0
 40
1.0
 40
1.0
 10
41.7448502821
 20
252.8675015697
 30
0.0
 10
41.5648903876
 20
253.2553996557
 30
0.0
 10
41.2865402946
 20
254.0270729334
 30
0.0
 10
41.1701372042
 20
254.8430633754
 30
0.0
 10
41.1701372042
 20
255.230757231
 30
0.0
  0
SPLINE
  5
4E3
100
AcDbEntity
  8
00_COMPONENTS
100
AcDbSpline
 62
7
  6
CONTINUOUS
 70
0
 71
3
 72
9
 73
5
 74
0
 42
0.0000001
 43
0.0000001
 44
0.0000000001
 40
0.0
 40
0.0
 40
0.0
 40
0.0
 40
0.2817345892
 40
1.0
 40
1.0
 40
1.0
 40
1.0
 10
41.1701372042
 20
255.230757231
 30
0.0
 10
41.1701372042
 20
255.3849212715
 30
0.0
 10
41.2007964161
 20
255.9289687199
 30
0.0
 10
41.379707642
 20
256.4838674391
 30
0.0
 10
41.6227954166
 20
256.7927079412
 30
0.0
  0
SPLINE
  5
4E4
100
AcDbEntity
  8
00_COMPONENTS
100
AcDbSpline
 62
7
  6
CONTINUOUS
 70
0
 71
3
 72
9
 73
5
 74
0
 42
0.0000001
 43
0.0000001
 44
0.0000000001
 40
0.0
 40
0.0
 40
0.0
 40
0.0
 40
0.2558867558
 40
1.0
 40
1.0
 40
1.0
 40
1.0
 10
41.6227954166
 20
256.7927079412
 30
0.0
 10
41.6523525018
 20
256.8302599122
 30
0.0
 10
41.7742250076
 20
256.9718540693
 30
0.0
 10
41.9228398769
 20
257.090708631
 30
0.0
 10
42.0431546169
 20
257.160255126
 30
0.0
  0
SPLINE
  5
4E5
100
AcDbEntity
  8
00_COMPONENTS
100
AcDbSpline
 62
7
  6
CONTINUOUS
 70
0
 71
3
 72
11
 73
7
 74
0
 42
0.0000001
 43
0.0000001
 44
0.0000000001
 40
0.0
 40
0.0
 40
0.0
 40
0.0
 40
0.2177833598
 40
0.4509104088
 40
0.7102966711
 40
1.0
 40
1.0
 40
1.0
 40
1.0
 10
117.8115922828
 20
307.7263668011
 30
0.0
 10
118.0095118369
 20
307.8406350623
 30
0.0
 10
118.3798111878
 20
308.1519449878
 30
0.0
 10
118.7740387344
 20
308.796524977
 30
0.0
 10
119.0081867135
 20
309.5908871595
 30
0.0
 10
119.0542790339
 20
310.1690476565
 30
0.0
 10
119.0542790339
 20
310.4730565227
 30
0.0
  0
SPLINE
  5
4E6
100
AcDbEntity
  8
00_COMPONENTS
100
AcDbSpline
 62
7
  6
CONTINUOUS
 70
0
 71
3
 72
14
 73
10
 74
0
 42
0.0000001
 43
0.0000001
 44
0.0000000001
 40
0.0
 40
0.0
 40
0.0
 40
0.0
 40
0.0879622287
 40
0.1843256117
 40
0.2941220311
 40
0.4184640461
 40
0.5555223859
 40
0.7015535184
 40
1.0
 40
1.0
 40
1.0
 40
1.0
 10
133.9999880048
 20
285.4037994083
 30
0.0
 10
134.3514859545
 20
285.6067710481
 30
0.0
 10
135.1853032063
 20
285.877755875
 30
0.0
 10
136.5632320105
 20
285.7970016147
 30
0.0
 10
138.014979247
 20
285.2819141992
 30
0.0
 10
139.4778596464
 20
284.3714907056
 30
0.0
 10
140.8863234584
 20
283.1136099066
 30
0.0
 10
142.6074960064
 20
281.0474094
 30
0.0
 10
143.598057722
 20
279.2137849364
 30
0.0
 10
144.0792276781
 20
277.9234311652
 30
0.0
  0
SPLINE
  5
4E7
100
AcDbEntity
  8
00_COMPONENTS
100
AcDbSpline
 62
7
  6
CONTINUOUS
 70
0
 71
3
 72
11
 73
7
 74
0
 42
0.0000001
 43
0.0000001
 44
0.0000000001
 40
0.0
 40
0.0
 40
0.0
 40
0.0
 40
0.2177239861
 40
0.4508730345
 40
0.7104683317
 40
1.0
 40
1.0
 40
1.0
 40
1.0
 10
89.1496309419
 20
272.4556794742
 30
0.0
 10
89.0473997365
 20
272.3966618601
 30
0.0
 10
88.8559599833
 20
272.2360099957
 30
0.0
 10
88.6522387631
 20
271.9028400456
 30
0.0
 10
88.5314886125
 20
271.4923455072
 30
0.0
 10
88.5075163241
 20
271.1936361406
 30
0.0
 10
88.5075163241
 20
271.0366604707
 30
0.0
  0
SPLINE
  5
4E8
100
AcDbEntity
  8
00_COMPONENTS
100
AcDbSpline
 62
7
  6
CONTINUOUS
 70
0
 71
3
 72
8
 73
4
 74
0
 42
0.0000001
 43
0.0000001
 44
0.0000000001
 40
0.0
 40
0.0
 40
0.0
 40
0.0
 40
1.0
 40
1.0
 40
1.0
 40
1.0
 10
75.1899322141
 20
267.2945307238
 30
0.0
 10
75.1820228712
 20
267.2427515186
 30
0.0
 10
75.1785451085
 20
267.1901842435
 30
0.0
 10
75.1785451085
 20
267.1378044401
 30
0.0
  0
SPLINE
  5
4E9
100
AcDbEntity
  8
00_COMPONENTS
100
AcDbSpline
 62
7
  6
CONTINUOUS
 70
0
 71
3
 72
11
 73
7
 74
0
 42
0.0000001
 43
0.0000001
 44
0.0000000001
 40
0.0
 40
0.0
 40
0.0
 40
0.0
 40
0.2372413576
 40
0.5000010231
 40
0.762760128
 40
1.0
 40
1.0
 40
1.0
 40
1.0
 10
203.9074460516
 20
261.4841659803
 30
0.0
 10
203.9074460516
 20
262.1796866747
 30
0.0
 10
203.6465598118
 20
263.6464842205
 30
0.0
 10
202.7373200912
 20
265.7075850393
 30
0.0
 10
201.4069688222
 20
267.5255507203
 30
0.0
 10
200.2671259259
 20
268.484872741
 30
0.0
 10
199.6647877007
 20
268.8326250102
 30
0.0
  0
SPLINE
  5
4EA
100
AcDbEntity
  8
00_COMPONENTS
100
AcDbSpline
 62
7
  6
CONTINUOUS
 70
0
 71
3
 72
11
 73
7
 74
0
 42
0.0000001
 43
0.0000001
 44
0.0000000001
 40
0.0
 40
0.0
 40
0.0
 40
0.0
 40
0.289702329
 40
0.5490881649
 40
0.7822156415
 40
1.0
 40
1.0
 40
1.0
 40
1.0
 10
199.6647877007
 20
268.8326250102
 30
0.0
 10
199.4015147562
 20
268.9846222769
 30
0.0
 10
198.877779976
 20
269.2337731796
 30
0.0
 10
198.0727891973
 20
269.4281640298
 30
0.0
 10
197.3174723461
 20
269.4090395442
 30
0.0
 10
196.8627312725
 20
269.2440104871
 30
0.0
 10
196.6648161009
 20
269.1297447562
 30
0.0
  0
SPLINE
  5
4EB
100
AcDbEntity
  8
00_COMPONENTS
100
AcDbSpline
 62
7
  6
CONTINUOUS
 70
0
 71
3
 72
11
 73
7
 74
0
 42
0.0000001
 43
0.0000001
 44
0.0000000001
 40
0.0
 40
0.0
 40
0.0
 40
0.0
 40
0.2177812265
 40
0.4509255805
 40
0.7102612891
 40
1.0
 40
1.0
 40
1.0
 40
1.0
 10
141.9831005533
 20
291.1699725942
 30
0.0
 10
142.3129222322
 20
291.3604709659
 30
0.0
 10
143.0708985519
 20
291.6354459483
 30
0.0
 10
144.3296721164
 20
291.6673552248
 30
0.0
 10
145.6713741494
 20
291.3434860277
 30
0.0
 10
146.5442039129
 20
290.9281423327
 30
0.0
 10
146.9830486815
 20
290.6747809192
 30
0.0
  0
SPLINE
  5
4EC
100
AcDbEntity
  8
00_COMPONENTS
100
AcDbSpline
 62
7
  6
CONTINUOUS
 70
0
 71
3
 72
11
 73
7
 74
0
 42
0.0000001
 43
0.0000001
 44
0.0000000001
 40
0.0
 40
0.0
 40
0.0
 40
0.0
 40
0.240041192
 40
0.5028449952
 40
0.7641025364
 40
1.0
 40
1.0
 40
1.0
 40
1.0
 10
155.8141718248
 20
279.8323871618
 30
0.0
 10
155.7692603151
 20
280.9739386217
 30
0.0
 10
155.2815923652
 20
283.3522053852
 30
0.0
 10
153.7504279248
 20
286.6789309958
 30
0.0
 10
151.5694362969
 20
289.5962213728
 30
0.0
 10
149.7231119471
 20
291.1340442161
 30
0.0
 10
148.7508082745
 20
291.6953913039
 30
0.0
  0
SPLINE
  5
4ED
100
AcDbEntity
  8
00_COMPONENTS
100
AcDbSpline
 62
7
  6
CONTINUOUS
 70
0
 71
3
 72
11
 73
7
 74
0
 42
0.0000001
 43
0.0000001
 44
0.0000000001
 40
0.0
 40
0.0
 40
0.0
 40
0.0
 40
0.2341123382
 40
0.4932082337
 40
0.7559779312
 40
1.0
 40
1.0
 40
1.0
 40
1.0
 10
88.5075163241
 20
271.0366604707
 30
0.0
 10
88.5075163241
 20
270.7053351809
 30
0.0
 10
88.6225592312
 20
270.0067114761
 30
0.0
 10
89.0319854259
 20
269.0106696852
 30
0.0
 10
89.6407606603
 20
268.1053655738
 30
0.0
 10
90.1650636699
 20
267.6033904698
 30
0.0
 10
90.4464173403
 20
267.403123909
 30
0.0
  0
SPLINE
  5
4EE
100
AcDbEntity
  8
00_COMPONENTS
100
AcDbSpline
 62
7
  6
CONTINUOUS
 70
0
 71
3
 72
9
 73
5
 74
0
 42
0.0000001
 43
0.0000001
 44
0.0000000001
 40
0.0
 40
0.0
 40
0.0
 40
0.0
 40
0.2476522178
 40
1.0
 40
1.0
 40
1.0
 40
1.0
 10
141.7530410862
 20
295.6534103159
 30
0.0
 10
141.8638589565
 20
295.7173942366
 30
0.0
 10
142.3217500909
 20
295.9574694406
 30
0.0
 10
142.8193284756
 20
296.1202449418
 30
0.0
 10
143.2001585434
 20
296.198273692
 30
0.0
  0
SPLINE
  5
4EF
100
AcDbEntity
  8
00_COMPONENTS
100
AcDbSpline
 62
7
  6
CONTINUOUS
 70
0
 71
3
 72
11
 73
7
 74
0
 42
0.0000001
 43
0.0000001
 44
0.0000000001
 40
0.0
 40
0.0
 40
0.0
 40
0.0
 40
0.2207549075
 40
0.4588671878
 40
0.7183256032
 40
1.0
 40
1.0
 40
1.0
 40
1.0
 10
143.2001585434
 20
296.198273692
 30
0.0
 10
143.618667095
 20
296.2840224342
 30
0.0
 10
144.5130652193
 20
296.3540198857
 30
0.0
 10
145.8987919794
 20
296.1667655517
 30
0.0
 10
147.3400423984
 20
295.7011555664
 30
0.0
 10
148.2808905269
 20
295.2327019728
 30
0.0
 10
148.7529581453
 20
294.960159772
 30
0.0
  0
SPLINE
  5
4F0
100
AcDbEntity
  8
00_COMPONENTS
100
AcDbSpline
 62
7
  6
CONTINUOUS
 70
0
 71
3
 72
9
 73
5
 74
0
 42
0.0000001
 43
0.0000001
 44
0.0000000001
 40
0.0
 40
0.0
 40
0.0
 40
0.0
 40
0.2735833443
 40
1.0
 40
1.0
 40
1.0
 40
1.0
 10
103.2507717572
 20
82.241159563
 30
0.0
 10
103.2507717572
 20
82.5027966287
 30
0.0
 10
103.2935204535
 20
83.4567237302
 30
0.0
 10
103.5240888105
 20
84.4163042108
 30
0.0
 10
103.8405031323
 20
85.0347586288
 30
0.0
  0
SPLINE
  5
4F1
100
AcDbEntity
  8
00_COMPONENTS
100
AcDbSpline
 62
7
  6
CONTINUOUS
 70
0
 71
3
 72
16
 73
12
 74
0
 42
0.0000001
 43
0.0000001
 44
0.0000000001
 40
0.0
 40
0.0
 40
0.0
 40
0.0
 40
0.128744776
 40
0.2703971998
 40
0.4176131979
 40
0.5620174334
 40
0.6957476677
 40
0.8130627022
 40
0.912470568
 40
0.9571203641
 40
1.0
 40
1.0
 40
1.0
 40
1.0
 10
105.3721009327
 20
81.0164372994
 30
0.0
 10
105.3721009327
 20
80.4822191096
 30
0.0
 10
105.521565683
 20
79.3589427453
 30
0.0
 10
106.0793171584
 20
77.7096699106
 30
0.0
 10
106.9390380788
 20
76.1208761827
 30
0.0
 10
108.030645689
 20
74.72298548
 30
0.0
 10
109.268165853
 20
73.6283567758
 30
0.0
 10
110.5556186188
 20
72.9221520041
 30
0.0
 10
111.6485432451
 20
72.708737679
 30
0.0
 10
112.4227117913
 20
72.8222101623
 30
0.0
 10
112.7624032901
 20
72.9633550108
 30
0.0
 10
112.916456863
 20
73.0523789654
 30
0.0
  0
SPLINE
  5
4F2
100
AcDbEntity
  8
00_COMPONENTS
100
AcDbSpline
 62
7
  6
CONTINUOUS
 70
0
 71
3
 72
9
 73
5
 74
0
 42
0.0000001
 43
0.0000001
 44
0.0000000001
 40
0.0
 40
0.0
 40
0.0
 40
0.0
 40
0.4656930672
 40
1.0
 40
1.0
 40
1.0
 40
1.0
 10
158.121333217
 20
190.2670476893
 30
0.0
 10
158.3335732285
 20
190.3654491613
 30
0.0
 10
158.8477193454
 20
190.457935785
 30
0.0
 10
159.3471137171
 20
190.3407190443
 30
0.0
 10
159.5985548483
 20
190.2467976975
 30
0.0
  0
SPLINE
  5
4F3
100
AcDbEntity
  8
00_COMPONENTS
100
AcDbSpline
 62
7
  6
CONTINUOUS
 70
0
 71
3
 72
13
 73
9
 74
0
 42
0.0000001
 43
0.0000001
 44
0.0000000001
 40
0.0
 40
0.0
 40
0.0
 40
0.0
 40
0.2699336621
 40
0.5613241335
 40
0.6954675297
 40
0.8131379116
 40
0.9128505993
 40
1.0
 40
1.0
 40
1.0
 40
1.0
 10
75.1785451085
 20
267.1378044401
 30
0.0
 10
75.1785451085
 20
266.9144872666
 30
0.0
 10
75.3013387162
 20
266.4516190942
 30
0.0
 10
75.6191988841
 20
265.9602529364
 30
0.0
 10
75.9576060117
 20
265.6601142946
 30
0.0
 10
76.2156205028
 20
265.5192791986
 30
0.0
 10
76.4680894196
 20
265.4687059439
 30
0.0
 10
76.62496327
 20
265.5089665731
 30
0.0
 10
76.6874192779
 20
265.5449876588
 30
0.0
  0
SPLINE
  5
4F4
100
AcDbEntity
  8
00_COMPONENTS
100
AcDbSpline
 62
7
  6
CONTINUOUS
 70
0
 71
3
 72
9
 73
5
 74
0
 42
0.0000001
 43
0.0000001
 44
0.0000000001
 40
0.0
 40
0.0
 40
0.0
 40
0.0
 40
0.2257315949
 40
1.0
 40
1.0
 40
1.0
 40
1.0
 10
112.8761316902
 20
252.5940412784
 30
0.0
 10
112.6329021535
 20
252.5842145009
 30
0.0
 10
111.5507335669
 20
252.6426339872
 30
0.0
 10
110.5146440055
 20
253.0647489511
 30
0.0
 10
109.7915367148
 20
253.4822256954
 30
0.0
  0
SPLINE
  5
4F5
100
AcDbEntity
  8
00_COMPONENTS
100
AcDbSpline
 62
7
  6
CONTINUOUS
 70
0
 71
3
 72
11
 73
7
 74
0
 42
0.0000001
 43
0.0000001
 44
0.0000000001
 40
0.0
 40
0.0
 40
0.0
 40
0.0
 40
0.2177660095
 40
0.4508968553
 40
0.7103699668
 40
1.0
 40
1.0
 40
1.0
 40
1.0
 10
106.6666165666
 20
266.4474266722
 30
0.0
 10
106.4605147562
 20
266.3283252592
 30
0.0
 10
106.0745782694
 20
266.0043620444
 30
0.0
 10
105.6639799449
 20
265.3327107349
 30
0.0
 10
105.420225483
 20
264.5052263223
 30
0.0
 10
105.3721009327
 20
263.9029724967
 30
0.0
 10
105.3721009327
 20
263.5863777696
 30
0.0
  0
SPLINE
  5
4F6
100
AcDbEntity
  8
00_COMPONENTS
100
AcDbSpline
 62
7
  6
CONTINUOUS
 70
0
 71
3
 72
11
 73
7
 74
0
 42
0.0000001
 43
0.0000001
 44
0.0000000001
 40
0.0
 40
0.0
 40
0.0
 40
0.0
 40
0.2177434119
 40
0.4508805377
 40
0.710457812
 40
1.0
 40
1.0
 40
1.0
 40
1.0
 10
145.4696890456
 20
272.8742114847
 30
0.0
 10
145.4696889983
 20
273.026535378
 30
0.0
 10
145.4137522092
 20
273.3441164456
 30
0.0
 10
145.1728401743
 20
273.7866784595
 30
0.0
 10
144.7920649249
 20
274.1864244662
 30
0.0
 10
144.4737436988
 20
274.4059142111
 30
0.0
 10
144.2983282062
 20
274.5071881018
 30
0.0
  0
SPLINE
  5
4F7
100
AcDbEntity
  8
00_COMPONENTS
100
AcDbSpline
 62
7
  6
CONTINUOUS
 70
0
 71
3
 72
9
 73
5
 74
0
 42
0.0000001
 43
0.0000001
 44
0.0000000001
 40
0.0
 40
0.0
 40
0.0
 40
0.0
 40
0.4760458618
 40
1.0
 40
1.0
 40
1.0
 40
1.0
 10
163.1052970243
 20
252.8713933259
 30
0.0
 10
163.1052970243
 20
251.8079428598
 30
0.0
 10
163.4058240879
 20
249.5719990161
 30
0.0
 10
164.1324745776
 20
247.4461912929
 30
0.0
 10
164.602326964
 20
246.374161459
 30
0.0
  0
SPLINE
  5
4F8
100
AcDbEntity
  8
00_COMPONENTS
100
AcDbSpline
 62
7
  6
CONTINUOUS
 70
0
 71
3
 72
11
 73
7
 74
0
 42
0.0000001
 43
0.0000001
 44
0.0000000001
 40
0.0
 40
0.0
 40
0.0
 40
0.0
 40
0.2177239861
 40
0.4508730345
 40
0.7104683317
 40
1.0
 40
1.0
 40
1.0
 40
1.0
 10
131.5762144507
 20
247.961234203
 30
0.0
 10
131.4739832453
 20
247.9022165889
 30
0.0
 10
131.2825434921
 20
247.7415647245
 30
0.0
 10
131.0788222719
 20
247.4083947743
 30
0.0
 10
130.9580721213
 20
246.997900236
 30
0.0
 10
130.9340998329
 20
246.6991908694
 30
0.0
 10
130.9340998329
 20
246.5422151995
 30
0.0
  0
SPLINE
  5
4F9
100
AcDbEntity
  8
00_COMPONENTS
100
AcDbSpline
 62
7
  6
CONTINUOUS
 70
0
 71
3
 72
14
 73
10
 74
0
 42
0.0000001
 43
0.0000001
 44
0.0000000001
 40
0.0
 40
0.0
 40
0.0
 40
0.0
 40
0.0879622287
 40
0.1843256117
 40
0.2941220311
 40
0.4184640461
 40
0.5555223859
 40
0.7015535184
 40
1.0
 40
1.0
 40
1.0
 40
1.0
 10
176.4265715136
 20
260.9093541371
 30
0.0
 10
176.7780694633
 20
261.1123257768
 30
0.0
 10
177.6118867151
 20
261.3833106038
 30
0.0
 10
178.9898155193
 20
261.3025563435
 30
0.0
 10
180.4415627558
 20
260.787468928
 30
0.0
 10
181.9044431553
 20
259.8770454343
 30
0.0
 10
183.3129069672
 20
258.6191646354
 30
0.0
 10
185.0340795153
 20
256.5529641288
 30
0.0
 10
186.0246412308
 20
254.7193396652
 30
0.0
 10
186.505811187
 20
253.428985894
 30
0.0
  0
SPLINE
  5
4FA
100
AcDbEntity
  8
00_COMPONENTS
100
AcDbSpline
 62
7
  6
CONTINUOUS
 70
0
 71
3
 72
11
 73
7
 74
0
 42
0.0000001
 43
0.0000001
 44
0.0000000001
 40
0.0
 40
0.0
 40
0.0
 40
0.0
 40
0.2177812265
 40
0.4509255805
 40
0.7102612891
 40
1.0
 40
1.0
 40
1.0
 40
1.0
 10
184.4096840621
 20
266.675527323
 30
0.0
 10
184.739505741
 20
266.8660256947
 30
0.0
 10
185.4974820607
 20
267.1410006771
 30
0.0
 10
186.7562556252
 20
267.1729099536
 30
0.0
 10
188.0979576582
 20
266.8490407565
 30
0.0
 10
188.9707874217
 20
266.4336970615
 30
0.0
 10
189.4096321903
 20
266.180335648
 30
0.0
  0
SPLINE
  5
4FB
100
AcDbEntity
  8
00_COMPONENTS
100
AcDbSpline
 62
7
  6
CONTINUOUS
 70
0
 71
3
 72
11
 73
7
 74
0
 42
0.0000001
 43
0.0000001
 44
0.0000000001
 40
0.0
 40
0.0
 40
0.0
 40
0.0
 40
0.2177442009
 40
0.4514743988
 40
0.7111368981
 40
1.0
 40
1.0
 40
1.0
 40
1.0
 10
157.7681483505
 20
190.3974188725
 30
0.0
 10
157.6266171154
 20
190.3082805439
 30
0.0
 10
157.3631849136
 20
190.0718080885
 30
0.0
 10
157.083980865
 20
189.5942875724
 30
0.0
 10
156.9180354837
 20
189.0116207394
 30
0.0
 10
156.8851085881
 20
188.5889381997
 30
0.0
 10
156.8851085881
 20
188.3670450139
 30
0.0
  0
SPLINE
  5
4FC
100
AcDbEntity
  8
00_COMPONENTS
100
AcDbSpline
 62
7
  6
CONTINUOUS
 70
0
 71
3
 72
11
 73
7
 74
0
 42
0.0000001
 43
0.0000001
 44
0.0000000001
 40
0.0
 40
0.0
 40
0.0
 40
0.0
 40
0.240041192
 40
0.5028449952
 40
0.7641025364
 40
1.0
 40
1.0
 40
1.0
 40
1.0
 10
198.2407553336
 20
255.3379418905
 30
0.0
 10
198.1958438239
 20
256.4794933505
 30
0.0
 10
197.708175874
 20
258.857760114
 30
0.0
 10
196.1770114336
 20
262.1844857246
 30
0.0
 10
193.9960198057
 20
265.1017761016
 30
0.0
 10
192.1496954559
 20
266.6395989449
 30
0.0
 10
191.1773917833
 20
267.2009460327
 30
0.0
  0
SPLINE
  5
4FD
100
AcDbEntity
  8
00_COMPONENTS
100
AcDbSpline
 62
7
  6
CONTINUOUS
 70
0
 71
3
 72
9
 73
5
 74
0
 42
0.0000001
 43
0.0000001
 44
0.0000000001
 40
0.0
 40
0.0
 40
0.0
 40
0.0
 40
0.2302206533
 40
1.0
 40
1.0
 40
1.0
 40
1.0
 10
167.350318978
 20
52.5011572533
 30
0.0
 10
167.399741432
 20
52.5296911501
 30
0.0
 10
167.6055375812
 20
52.6688510389
 30
0.0
 10
167.7767325576
 20
52.8554669193
 30
0.0
 10
167.8872072158
 20
53.0110501163
 30
0.0
  0
SPLINE
  5
4FE
100
AcDbEntity
  8
00_COMPONENTS
100
AcDbSpline
 62
7
  6
CONTINUOUS
 70
0
 71
3
 72
9
 73
5
 74
0
 42
0.0000001
 43
0.0000001
 44
0.0000000001
 40
0.0
 40
0.0
 40
0.0
 40
0.0
 40
0.5243245317
 40
1.0
 40
1.0
 40
1.0
 40
1.0
 10
167.8872072158
 20
53.0110501163
 30
0.0
 10
168.0046325593
 20
53.1764220725
 30
0.0
 10
168.1867946213
 20
53.5227827746
 30
0.0
 10
168.2695539664
 20
53.9093248616
 30
0.0
 10
168.2695539664
 20
54.0933277956
 30
0.0
  0
SPLINE
  5
4FF
100
AcDbEntity
  8
00_COMPONENTS
100
AcDbSpline
 62
7
  6
CONTINUOUS
 70
0
 71
3
 72
9
 73
5
 74
0
 42
0.0000001
 43
0.0000001
 44
0.0000000001
 40
0.0
 40
0.0
 40
0.0
 40
0.0
 40
0.2476522178
 40
1.0
 40
1.0
 40
1.0
 40
1.0
 10
184.1796245951
 20
271.1589650447
 30
0.0
 10
184.2904424653
 20
271.2229489654
 30
0.0
 10
184.7483335997
 20
271.4630241694
 30
0.0
 10
185.2459119845
 20
271.6257996705
 30
0.0
 10
185.6267420522
 20
271.7038284208
 30
0.0
  0
SPLINE
  5
500
100
AcDbEntity
  8
00_COMPONENTS
100
AcDbSpline
 62
7
  6
CONTINUOUS
 70
0
 71
3
 72
11
 73
7
 74
0
 42
0.0000001
 43
0.0000001
 44
0.0000000001
 40
0.0
 40
0.0
 40
0.0
 40
0.0
 40
0.2207549075
 40
0.4588671878
 40
0.7183256032
 40
1.0
 40
1.0
 40
1.0
 40
1.0
 10
185.6267420522
 20
271.7038284208
 30
0.0
 10
186.0452506038
 20
271.7895771629
 30
0.0
 10
186.9396487281
 20
271.8595746145
 30
0.0
 10
188.3253754882
 20
271.6723202804
 30
0.0
 10
189.7666259072
 20
271.2067102952
 30
0.0
 10
190.7074740358
 20
270.7382567016
 30
0.0
 10
191.1795416541
 20
270.4657145008
 30
0.0
  0
SPLINE
  5
501
100
AcDbEntity
  8
00_COMPONENTS
100
AcDbSpline
 62
7
  6
CONTINUOUS
 70
0
 71
3
 72
11
 73
7
 74
0
 42
0.0000001
 43
0.0000001
 44
0.0000000001
 40
0.0
 40
0.0
 40
0.0
 40
0.0
 40
0.2177833598
 40
0.4509104088
 40
0.7102966711
 40
1.0
 40
1.0
 40
1.0
 40
1.0
 10
202.6647593005
 20
258.7374762587
 30
0.0
 10
202.8626788546
 20
258.8517445199
 30
0.0
 10
203.2329782054
 20
259.1630544454
 30
0.0
 10
203.627205752
 20
259.8076344346
 30
0.0
 10
203.8613537311
 20
260.6019966171
 30
0.0
 10
203.9074460516
 20
261.180157114
 30
0.0
 10
203.9074460516
 20
261.4841659803
 30
0.0
  0
SPLINE
  5
502
100
AcDbEntity
  8
00_COMPONENTS
100
AcDbSpline
 62
7
  6
CONTINUOUS
 70
0
 71
3
 72
10
 73
6
 74
0
 42
0.0000001
 43
0.0000001
 44
0.0000000001
 40
0.0
 40
0.0
 40
0.0
 40
0.0
 40
0.2211146094
 40
0.4560555392
 40
1.0
 40
1.0
 40
1.0
 40
1.0
 10
104.1197452308
 20
120.815521752
 30
0.0
 10
104.0271926779
 20
120.868955834
 30
0.0
 10
103.8532397753
 20
121.0113969978
 30
0.0
 10
103.5858355955
 20
121.4207225111
 30
0.0
 10
103.5127575965
 20
121.8055497928
 30
0.0
 10
103.5009936069
 20
122.0681876405
 30
0.0
  0
SPLINE
  5
503
100
AcDbEntity
  8
00_COMPONENTS
100
AcDbSpline
 62
7
  6
CONTINUOUS
 70
0
 71
3
 72
11
 73
7
 74
0
 42
0.0000001
 43
0.0000001
 44
0.0000000001
 40
0.0
 40
0.0
 40
0.0
 40
0.0
 40
0.2372278993
 40
0.4999989081
 40
0.7627705112
 40
1.0
 40
1.0
 40
1.0
 40
1.0
 10
152.2181202236
 20
228.9877804242
 30
0.0
 10
151.2895620099
 20
229.5238716308
 30
0.0
 10
149.532271304
 20
231.002787547
 30
0.0
 10
147.481321087
 20
233.8055619522
 30
0.0
 10
146.0795050611
 20
236.9831244041
 30
0.0
 10
145.677355266
 20
239.2444469726
 30
0.0
 10
145.677355266
 20
240.316654762
 30
0.0
  0
SPLINE
  5
504
100
AcDbEntity
  8
00_COMPONENTS
100
AcDbSpline
 62
7
  6
CONTINUOUS
 70
0
 71
3
 72
9
 73
5
 74
0
 42
0.0000001
 43
0.0000001
 44
0.0000000001
 40
0.0
 40
0.0
 40
0.0
 40
0.0
 40
0.539350344
 40
1.0
 40
1.0
 40
1.0
 40
1.0
 10
145.677355266
 20
240.316654762
 30
0.0
 10
145.677355266
 20
240.9649699787
 30
0.0
 10
145.8055269975
 20
242.1752972684
 30
0.0
 10
146.3225789688
 20
243.2987747358
 30
0.0
 10
146.6634947367
 20
243.7350961101
 30
0.0
  0
SPLINE
  5
505
100
AcDbEntity
  8
00_COMPONENTS
100
AcDbSpline
 62
7
  6
CONTINUOUS
 70
0
 71
3
 72
9
 73
5
 74
0
 42
0.0000001
 43
0.0000001
 44
0.0000000001
 40
0.0
 40
0.0
 40
0.0
 40
0.0
 40
0.2534799944
 40
1.0
 40
1.0
 40
1.0
 40
1.0
 10
146.6634947367
 20
243.7350961101
 30
0.0
 10
146.6938200162
 20
243.7739079483
 30
0.0
 10
146.8165896521
 20
243.9245405557
 30
0.0
 10
146.9520894569
 20
244.0648671385
 30
0.0
 10
147.0596922228
 20
244.1621474002
 30
0.0
  0
SPLINE
  5
506
100
AcDbEntity
  8
00_COMPONENTS
100
AcDbSpline
 62
7
  6
CONTINUOUS
 70
0
 71
3
 72
14
 73
10
 74
0
 42
0.0000001
 43
0.0000001
 44
0.0000000001
 40
0.0
 40
0.0
 40
0.0
 40
0.0
 40
0.0879622287
 40
0.1843256117
 40
0.2941220311
 40
0.4184640461
 40
0.5555223859
 40
0.7015535184
 40
1.0
 40
1.0
 40
1.0
 40
1.0
 10
91.5734044959
 20
309.8982446795
 30
0.0
 10
91.9249024456
 20
310.1012163193
 30
0.0
 10
92.7587196975
 20
310.3722011462
 30
0.0
 10
94.1366485017
 20
310.2914468859
 30
0.0
 10
95.5883957382
 20
309.7763594704
 30
0.0
 10
97.0512761376
 20
308.8659359768
 30
0.0
 10
98.4597399496
 20
307.6080551779
 30
0.0
 10
100.1809124976
 20
305.5418546712
 30
0.0
 10
101.1714742132
 20
303.7082302076
 30
0.0
 10
101.6526441693
 20
302.4178764364
 30
0.0
  0
SPLINE
  5
507
100
AcDbEntity
  8
00_COMPONENTS
100
AcDbSpline
 62
7
  6
CONTINUOUS
 70
0
 71
3
 72
16
 73
12
 74
0
 42
0.0000001
 43
0.0000001
 44
0.0000000001
 40
0.0
 40
0.0
 40
0.0
 40
0.0
 40
0.128744776
 40
0.2703971998
 40
0.4176131979
 40
0.5620174334
 40
0.6957476677
 40
0.8130627022
 40
0.912470568
 40
0.9571203641
 40
1.0
 40
1.0
 40
1.0
 40
1.0
 10
147.7986844415
 20
239.0919324984
 30
0.0
 10
147.7986844415
 20
238.5577143086
 30
0.0
 10
147.9481491918
 20
237.4344379443
 30
0.0
 10
148.5059006672
 20
235.7851651095
 30
0.0
 10
149.3656215876
 20
234.1963713816
 30
0.0
 10
150.4572291979
 20
232.7984806789
 30
0.0
 10
151.6947493618
 20
231.7038519748
 30
0.0
 10
152.9822021276
 20
230.9976472031
 30
0.0
 10
154.075126754
 20
230.7842328779
 30
0.0
 10
154.8492953001
 20
230.8977053613
 30
0.0
 10
155.1889867989
 20
231.0388502098
 30
0.0
 10
155.3430403718
 20
231.1278741643
 30
0.0
  0
SPLINE
  5
508
100
AcDbEntity
  8
00_COMPONENTS
100
AcDbSpline
 62
7
  6
CONTINUOUS
 70
0
 71
3
 72
9
 73
5
 74
0
 42
0.0000001
 43
0.0000001
 44
0.0000000001
 40
0.0
 40
0.0
 40
0.0
 40
0.0
 40
0.2257315949
 40
1.0
 40
1.0
 40
1.0
 40
1.0
 10
155.302715199
 20
228.0995960072
 30
0.0
 10
155.0594856623
 20
228.0897692296
 30
0.0
 10
153.9773170757
 20
228.148188716
 30
0.0
 10
152.9412275143
 20
228.5703036799
 30
0.0
 10
152.2181202236
 20
228.9877804242
 30
0.0
  0
SPLINE
  5
509
100
AcDbEntity
  8
00_COMPONENTS
100
AcDbSpline
 62
7
  6
CONTINUOUS
 70
0
 71
3
 72
11
 73
7
 74
0
 42
0.0000001
 43
0.0000001
 44
0.0000000001
 40
0.0
 40
0.0
 40
0.0
 40
0.0
 40
0.2177660095
 40
0.4508968553
 40
0.7103699668
 40
1.0
 40
1.0
 40
1.0
 40
1.0
 10
149.0932000755
 20
241.9529814009
 30
0.0
 10
148.887098265
 20
241.833879988
 30
0.0
 10
148.5011617783
 20
241.5099167731
 30
0.0
 10
148.0905634537
 20
240.8382654637
 30
0.0
 10
147.8468089918
 20
240.0107810511
 30
0.0
 10
147.7986844415
 20
239.4085272255
 30
0.0
 10
147.7986844415
 20
239.0919324984
 30
0.0
  0
SPLINE
  5
50A
100
AcDbEntity
  8
00_COMPONENTS
100
AcDbSpline
 62
7
  6
CONTINUOUS
 70
0
 71
3
 72
11
 73
7
 74
0
 42
0.0000001
 43
0.0000001
 44
0.0000000001
 40
0.0
 40
0.0
 40
0.0
 40
0.0
 40
0.2177434119
 40
0.4508805377
 40
0.710457812
 40
1.0
 40
1.0
 40
1.0
 40
1.0
 10
187.8962725544
 20
248.3797662135
 30
0.0
 10
187.8962725071
 20
248.5320901067
 30
0.0
 10
187.840335718
 20
248.8496711744
 30
0.0
 10
187.5994236832
 20
249.2922331883
 30
0.0
 10
187.2186484337
 20
249.691979195
 30
0.0
 10
186.9003272076
 20
249.9114689399
 30
0.0
 10
186.7249117151
 20
250.0127428306
 30
0.0
  0
SPLINE
  5
50B
100
AcDbEntity
  8
00_COMPONENTS
100
AcDbSpline
 62
7
  6
CONTINUOUS
 70
0
 71
3
 72
11
 73
7
 74
0
 42
0.0000001
 43
0.0000001
 44
0.0000000001
 40
0.0
 40
0.0
 40
0.0
 40
0.0
 40
0.2452607182
 40
0.5080142437
 40
0.7664464242
 40
1.0
 40
1.0
 40
1.0
 40
1.0
 10
132.5410431749
 20
240.7623026682
 30
0.0
 10
132.0081900408
 20
241.1556173059
 30
0.0
 10
131.0179308768
 20
242.127365002
 30
0.0
 10
129.8691743226
 20
243.8646429354
 30
0.0
 10
129.099040692
 20
245.7656899888
 30
0.0
 10
128.88348163
 20
247.0954361885
 30
0.0
 10
128.88348163
 20
247.7261133876
 30
0.0
  0
SPLINE
  5
50C
100
AcDbEntity
  8
00_COMPONENTS
100
AcDbSpline
 62
7
  6
CONTINUOUS
 70
0
 71
3
 72
11
 73
7
 74
0
 42
0.0000001
 43
0.0000001
 44
0.0000000001
 40
0.0
 40
0.0
 40
0.0
 40
0.0
 40
0.2177812265
 40
0.4509255805
 40
0.7102612891
 40
1.0
 40
1.0
 40
1.0
 40
1.0
 10
99.5565170445
 20
315.6644178654
 30
0.0
 10
99.8863387234
 20
315.8549162371
 30
0.0
 10
100.6443150431
 20
316.1298912195
 30
0.0
 10
101.9030886076
 20
316.161800496
 30
0.0
 10
103.2447906406
 20
315.8379312989
 30
0.0
 10
104.1176204041
 20
315.4225876039
 30
0.0
 10
104.5564651727
 20
315.1692261904
 30
0.0
  0
SPLINE
  5
50D
100
AcDbEntity
  8
00_COMPONENTS
100
AcDbSpline
 62
7
  6
CONTINUOUS
 70
0
 71
3
 72
8
 73
4
 74
0
 42
0.0000001
 43
0.0000001
 44
0.0000000001
 40
0.0
 40
0.0
 40
0.0
 40
0.0
 40
1.0
 40
1.0
 40
1.0
 40
1.0
 10
166.0595982293
 20
52.8146460854
 30
0.0
 10
166.1012361714
 20
52.7991018646
 30
0.0
 10
166.1455761792
 20
52.7898023975
 30
0.0
 10
166.1898816607
 20
52.7862859597
 30
0.0
  0
SPLINE
  5
50E
100
AcDbEntity
  8
00_COMPONENTS
100
AcDbSpline
 62
7
  6
CONTINUOUS
 70
0
 71
3
 72
11
 73
7
 74
0
 42
0.0000001
 43
0.0000001
 44
0.0000000001
 40
0.0
 40
0.0
 40
0.0
 40
0.0
 40
0.2452607182
 40
0.5080142437
 40
0.7664464242
 40
1.0
 40
1.0
 40
1.0
 40
1.0
 10
90.114459666
 20
265.2567479394
 30
0.0
 10
89.5816065319
 20
265.6500625771
 30
0.0
 10
88.5913473679
 20
266.6218102733
 30
0.0
 10
87.4425908138
 20
268.3590882066
 30
0.0
 10
86.6724571832
 20
270.26013526
 30
0.0
 10
86.4568981212
 20
271.5898814597
 30
0.0
 10
86.4568981212
 20
272.2205586589
 30
0.0
  0
SPLINE
  5
50F
100
AcDbEntity
  8
00_COMPONENTS
100
AcDbSpline
 62
7
  6
CONTINUOUS
 70
0
 71
3
 72
9
 73
5
 74
0
 42
0.0000001
 43
0.0000001
 44
0.0000000001
 40
0.0
 40
0.0
 40
0.0
 40
0.0
 40
0.2735833443
 40
1.0
 40
1.0
 40
1.0
 40
1.0
 10
60.8241882484
 20
106.7356048342
 30
0.0
 10
60.8241882484
 20
106.9972419
 30
0.0
 10
60.8669369447
 20
107.9511690014
 30
0.0
 10
61.0975053017
 20
108.910749482
 30
0.0
 10
61.4139196235
 20
109.5292039
 30
0.0
  0
SPLINE
  5
510
100
AcDbEntity
  8
00_COMPONENTS
100
AcDbSpline
 62
7
  6
CONTINUOUS
 70
0
 71
3
 72
16
 73
12
 74
0
 42
0.0000001
 43
0.0000001
 44
0.0000000001
 40
0.0
 40
0.0
 40
0.0
 40
0.0
 40
0.128744776
 40
0.2703971998
 40
0.4176131979
 40
0.5620174334
 40
0.6957476677
 40
0.8130627022
 40
0.912470568
 40
0.9571203641
 40
1.0
 40
1.0
 40
1.0
 40
1.0
 10
62.9455174238
 20
105.5108825707
 30
0.0
 10
62.9455174238
 20
104.9766643808
 30
0.0
 10
63.0949821742
 20
103.8533880165
 30
0.0
 10
63.6527336496
 20
102.2041151818
 30
0.0
 10
64.51245457
 20
100.6153214539
 30
0.0
 10
65.6040621802
 20
99.2174307512
 30
0.0
 10
66.8415823442
 20
98.122802047
 30
0.0
 10
68.12903511
 20
97.4165972754
 30
0.0
 10
69.2219597363
 20
97.2031829502
 30
0.0
 10
69.9961282825
 20
97.3166554335
 30
0.0
 10
70.3358197813
 20
97.457800282
 30
0.0
 10
70.4898733542
 20
97.5468242366
 30
0.0
  0
SPLINE
  5
511
100
AcDbEntity
  8
00_COMPONENTS
100
AcDbSpline
 62
7
  6
CONTINUOUS
 70
0
 71
3
 72
17
 73
13
 74
0
 42
0.0000001
 43
0.0000001
 44
0.0000000001
 40
0.0
 40
0.0
 40
0.0
 40
0.0
 40
0.1286930371
 40
0.2702795962
 40
0.4174375935
 40
0.5617786795
 40
0.6954478243
 40
0.81271112
 40
0.8646738576
 40
0.9125098523
 40
0.9571380034
 40
1.0
 40
1.0
 40
1.0
 40
1.0
 10
110.9226025698
 20
303.328794028
 30
0.0
 10
110.9226025698
 20
304.0980940959
 30
0.0
 10
110.7074126438
 20
305.7156190467
 30
0.0
 10
109.9040766309
 20
308.0905836984
 30
0.0
 10
108.6663390022
 20
310.3784277141
 30
0.0
 10
107.0935399759
 20
312.391530482
 30
0.0
 10
105.3143029059
 20
313.9672793413
 30
0.0
 10
103.7038846934
 20
314.8479392374
 30
0.0
 10
102.4440983807
 20
315.1829794992
 30
0.0
 10
101.5770581713
 20
315.2469240281
 30
0.0
 10
100.769725634
 20
315.128394623
 30
0.0
 10
100.2805318797
 20
314.9253050503
 30
0.0
 10
100.0586559639
 20
314.7971653065
 30
0.0
  0
SPLINE
  5
512
100
AcDbEntity
  8
00_COMPONENTS
100
AcDbSpline
 62
7
  6
CONTINUOUS
 70
0
 71
3
 72
9
 73
5
 74
0
 42
0.0000001
 43
0.0000001
 44
0.0000000001
 40
0.0
 40
0.0
 40
0.0
 40
0.0
 40
0.4657705903
 40
1.0
 40
1.0
 40
1.0
 40
1.0
 10
42.1538188313
 20
257.2178265103
 30
0.0
 10
42.3657101864
 20
257.3163708063
 30
0.0
 10
42.8790692831
 20
257.4094502273
 30
0.0
 10
43.3779983614
 20
257.2930233954
 30
0.0
 10
43.6291981713
 20
257.1995348689
 30
0.0
  0
SPLINE
  5
513
100
AcDbEntity
  8
00_COMPONENTS
100
AcDbSpline
 62
7
  6
CONTINUOUS
 70
0
 71
3
 72
11
 73
7
 74
0
 42
0.0000001
 43
0.0000001
 44
0.0000000001
 40
0.0
 40
0.0
 40
0.0
 40
0.0
 40
0.2354556444
 40
0.4961958891
 40
0.7590004397
 40
1.0
 40
1.0
 40
1.0
 40
1.0
 10
104.5564651727
 20
315.1692261904
 30
0.0
 10
105.5178638324
 20
314.6141749724
 30
0.0
 10
107.3455731253
 20
313.097346054
 30
0.0
 10
109.5134442337
 20
310.219049612
 30
0.0
 10
111.0491328475
 20
306.9304036881
 30
0.0
 10
111.5539581433
 20
304.5757233713
 30
0.0
 10
111.6136245137
 20
303.4410314209
 30
0.0
  0
SPLINE
  5
514
100
AcDbEntity
  8
00_COMPONENTS
100
AcDbSpline
 62
7
  6
CONTINUOUS
 70
0
 71
3
 72
11
 73
7
 74
0
 42
0.0000001
 43
0.0000001
 44
0.0000000001
 40
0.0
 40
0.0
 40
0.0
 40
0.0
 40
0.2897462111
 40
0.5490792271
 40
0.7822215756
 40
1.0
 40
1.0
 40
1.0
 40
1.0
 10
106.3242247657
 20
316.1898365751
 30
0.0
 10
105.8853683017
 20
316.4432047408
 30
0.0
 10
105.0125298519
 20
316.8585534568
 30
0.0
 10
103.670821115
 20
317.1824156666
 30
0.0
 10
102.4120580111
 20
317.1505083347
 30
0.0
 10
101.6540946839
 20
316.8755237252
 30
0.0
 10
101.3242757191
 20
316.6850298708
 30
0.0
  0
SPLINE
  5
515
100
AcDbEntity
  8
00_COMPONENTS
100
AcDbSpline
 62
7
  6
CONTINUOUS
 70
0
 71
3
 72
11
 73
7
 74
0
 42
0.0000001
 43
0.0000001
 44
0.0000000001
 40
0.0
 40
0.0
 40
0.0
 40
0.0
 40
0.2345108936
 40
0.494147883
 40
0.7569426038
 40
1.0
 40
1.0
 40
1.0
 40
1.0
 10
106.3263746365
 20
319.4546050432
 30
0.0
 10
107.638494072
 20
318.6970696717
 30
0.0
 10
110.1393351599
 20
316.6382533075
 30
0.0
 10
113.1321730824
 20
312.7293906917
 30
0.0
 10
115.2939096824
 20
308.2448655536
 30
0.0
 10
116.0505213439
 20
305.0232277538
 30
0.0
 10
116.1779932133
 20
303.4580975958
 30
0.0
  0
SPLINE
  5
516
100
AcDbEntity
  8
00_COMPONENTS
100
AcDbSpline
 62
7
  6
CONTINUOUS
 70
0
 71
3
 72
9
 73
5
 74
0
 42
0.0000001
 43
0.0000001
 44
0.0000000001
 40
0.0
 40
0.0
 40
0.0
 40
0.0
 40
0.4656930672
 40
1.0
 40
1.0
 40
1.0
 40
1.0
 10
158.121333217
 20
118.4148349819
 30
0.0
 10
158.3335732285
 20
118.5132364539
 30
0.0
 10
158.8477193454
 20
118.6057230776
 30
0.0
 10
159.3471137171
 20
118.4885063369
 30
0.0
 10
159.5985548483
 20
118.3945849901
 30
0.0
  0
SPLINE
  5
517
100
AcDbEntity
  8
00_COMPONENTS
100
AcDbSpline
 62
7
  6
CONTINUOUS
 70
0
 71
3
 72
11
 73
7
 74
0
 42
0.0000001
 43
0.0000001
 44
0.0000000001
 40
0.0
 40
0.0
 40
0.0
 40
0.0
 40
0.2345108936
 40
0.494147883
 40
0.7569426038
 40
1.0
 40
1.0
 40
1.0
 40
1.0
 10
191.1795416541
 20
270.4657145008
 30
0.0
 10
192.4916610896
 20
269.7081791292
 30
0.0
 10
194.9925021775
 20
267.6493627651
 30
0.0
 10
197.9853401001
 20
263.7405001493
 30
0.0
 10
200.1470767001
 20
259.2559750111
 30
0.0
 10
200.9036883615
 20
256.0343372113
 30
0.0
 10
201.0311602309
 20
254.4692070533
 30
0.0
  0
SPLINE
  5
518
100
AcDbEntity
  8
00_COMPONENTS
100
AcDbSpline
 62
7
  6
CONTINUOUS
 70
0
 71
3
 72
9
 73
5
 74
0
 42
0.0000001
 43
0.0000001
 44
0.0000000001
 40
0.0
 40
0.0
 40
0.0
 40
0.0
 40
0.2257315949
 40
1.0
 40
1.0
 40
1.0
 40
1.0
 10
70.4495481814
 20
277.0884865496
 30
0.0
 10
70.2063186447
 20
277.0786597721
 30
0.0
 10
69.1241500581
 20
277.1370792584
 30
0.0
 10
68.0880604967
 20
277.5591942223
 30
0.0
 10
67.364953206
 20
277.9766709666
 30
0.0
  0
SPLINE
  5
519
100
AcDbEntity
  8
00_COMPONENTS
100
AcDbSpline
 62
7
  6
CONTINUOUS
 70
0
 71
3
 72
11
 73
7
 74
0
 42
0.0000001
 43
0.0000001
 44
0.0000000001
 40
0.0
 40
0.0
 40
0.0
 40
0.0
 40
0.2897462111
 40
0.5490792271
 40
0.7822215756
 40
1.0
 40
1.0
 40
1.0
 40
1.0
 10
191.1773917833
 20
267.2009460327
 30
0.0
 10
190.7385353193
 20
267.4543141984
 30
0.0
 10
189.8656968695
 20
267.8696629143
 30
0.0
 10
188.5239881326
 20
268.1935251242
 30
0.0
 10
187.2652250287
 20
268.1616177923
 30
0.0
 10
186.5072617015
 20
267.8866331828
 30
0.0
 10
186.1774427367
 20
267.6961393284
 30
0.0
  0
SPLINE
  5
51A
100
AcDbEntity
  8
00_COMPONENTS
100
AcDbSpline
 62
7
  6
CONTINUOUS
 70
0
 71
3
 72
11
 73
7
 74
0
 42
0.0000001
 43
0.0000001
 44
0.0000000001
 40
0.0
 40
0.0
 40
0.0
 40
0.0
 40
0.2354556444
 40
0.4961958891
 40
0.7590004397
 40
1.0
 40
1.0
 40
1.0
 40
1.0
 10
189.4096321903
 20
266.180335648
 30
0.0
 10
190.37103085
 20
265.6252844299
 30
0.0
 10
192.1987401429
 20
264.1084555116
 30
0.0
 10
194.3666112513
 20
261.2301590696
 30
0.0
 10
195.9022998651
 20
257.9415131456
 30
0.0
 10
196.407125161
 20
255.5868328288
 30
0.0
 10
196.4667915314
 20
254.4521408784
 30
0.0
  0
SPLINE
  5
51B
100
AcDbEntity
  8
00_COMPONENTS
100
AcDbSpline
 62
7
  6
CONTINUOUS
 70
0
 71
3
 72
16
 73
12
 74
0
 42
0.0000001
 43
0.0000001
 44
0.0000000001
 40
0.0
 40
0.0
 40
0.0
 40
0.0
 40
0.128744776
 40
0.2703971998
 40
0.4176131979
 40
0.5620174334
 40
0.6957476677
 40
0.8130627022
 40
0.912470568
 40
0.9571203641
 40
1.0
 40
1.0
 40
1.0
 40
1.0
 10
62.9455174238
 20
288.0808230408
 30
0.0
 10
62.9455174238
 20
287.546604851
 30
0.0
 10
63.0949821742
 20
286.4233284867
 30
0.0
 10
63.6527336496
 20
284.774055652
 30
0.0
 10
64.51245457
 20
283.1852619241
 30
0.0
 10
65.6040621802
 20
281.7873712214
 30
0.0
 10
66.8415823442
 20
280.6927425172
 30
0.0
 10
68.12903511
 20
279.9865377455
 30
0.0
 10
69.2219597363
 20
279.7731234204
 30
0.0
 10
69.9961282825
 20
279.8865959037
 30
0.0
 10
70.3358197813
 20
280.0277407522
 30
0.0
 10
70.4898733542
 20
280.1167647068
 30
0.0
  0
SPLINE
  5
51C
100
AcDbEntity
  8
00_COMPONENTS
100
AcDbSpline
 62
7
  6
CONTINUOUS
 70
0
 71
3
 72
9
 73
5
 74
0
 42
0.0000001
 43
0.0000001
 44
0.0000000001
 40
0.0
 40
0.0
 40
0.0
 40
0.0
 40
0.539350344
 40
1.0
 40
1.0
 40
1.0
 40
1.0
 10
60.8241882484
 20
289.3055453044
 30
0.0
 10
60.8241882484
 20
289.9538605211
 30
0.0
 10
60.9523599798
 20
291.1641878109
 30
0.0
 10
61.4694119512
 20
292.2876652782
 30
0.0
 10
61.8103277191
 20
292.7239866526
 30
0.0
  0
SPLINE
  5
51D
100
AcDbEntity
  8
00_COMPONENTS
100
AcDbSpline
 62
7
  6
CONTINUOUS
 70
0
 71
3
 72
9
 73
5
 74
0
 42
0.0000001
 43
0.0000001
 44
0.0000000001
 40
0.0
 40
0.0
 40
0.0
 40
0.0
 40
0.2534799944
 40
1.0
 40
1.0
 40
1.0
 40
1.0
 10
61.8103277191
 20
292.7239866526
 30
0.0
 10
61.8406529985
 20
292.7627984907
 30
0.0
 10
61.9634226345
 20
292.9134310981
 30
0.0
 10
62.0989224392
 20
293.0537576809
 30
0.0
 10
62.2065252052
 20
293.1510379426
 30
0.0
  0
SPLINE
  5
51E
100
AcDbEntity
  8
00_COMPONENTS
100
AcDbSpline
 62
7
  6
CONTINUOUS
 70
0
 71
3
 72
11
 73
7
 74
0
 42
0.0000001
 43
0.0000001
 44
0.0000000001
 40
0.0
 40
0.0
 40
0.0
 40
0.0
 40
0.2372278993
 40
0.4999989081
 40
0.7627705112
 40
1.0
 40
1.0
 40
1.0
 40
1.0
 10
67.364953206
 20
277.9766709666
 30
0.0
 10
66.4363949923
 20
278.5127621733
 30
0.0
 10
64.6791042864
 20
279.9916780894
 30
0.0
 10
62.6281540694
 20
282.7944524946
 30
0.0
 10
61.2263380435
 20
285.9720149465
 30
0.0
 10
60.8241882484
 20
288.2333375151
 30
0.0
 10
60.8241882484
 20
289.3055453044
 30
0.0
  0
SPLINE
  5
51F
100
AcDbEntity
  8
00_COMPONENTS
100
AcDbSpline
 62
7
  6
CONTINUOUS
 70
0
 71
3
 72
17
 73
13
 74
0
 42
0.0000001
 43
0.0000001
 44
0.0000000001
 40
0.0
 40
0.0
 40
0.0
 40
0.0
 40
0.1286930371
 40
0.2702795962
 40
0.4174375935
 40
0.5617786795
 40
0.6954478243
 40
0.81271112
 40
0.8646738576
 40
0.9125098523
 40
0.9571380034
 40
1.0
 40
1.0
 40
1.0
 40
1.0
 10
195.7757695874
 20
254.3399034856
 30
0.0
 10
195.7757695874
 20
255.1092035535
 30
0.0
 10
195.5605796614
 20
256.7267285043
 30
0.0
 10
194.7572436486
 20
259.101693156
 30
0.0
 10
193.5195060198
 20
261.3895371717
 30
0.0
 10
191.9467069935
 20
263.4026399395
 30
0.0
 10
190.1674699235
 20
264.9783887989
 30
0.0
 10
188.5570517111
 20
265.859048695
 30
0.0
 10
187.2972653983
 20
266.1940889567
 30
0.0
 10
186.4302251889
 20
266.2580334856
 30
0.0
 10
185.6228926516
 20
266.1395040806
 30
0.0
 10
185.1336988974
 20
265.9364145079
 30
0.0
 10
184.9118229815
 20
265.808274764
 30
0.0
  0
SPLINE
  5
520
100
AcDbEntity
  8
00_COMPONENTS
100
AcDbSpline
 62
7
  6
CONTINUOUS
 70
0
 71
3
 72
11
 73
7
 74
0
 42
0.0000001
 43
0.0000001
 44
0.0000000001
 40
0.0
 40
0.0
 40
0.0
 40
0.0
 40
0.240041192
 40
0.5028449952
 40
0.7641025364
 40
1.0
 40
1.0
 40
1.0
 40
1.0
 10
113.387588316
 20
304.326832433
 30
0.0
 10
113.3426768063
 20
305.4683838929
 30
0.0
 10
112.8550088564
 20
307.8466506564
 30
0.0
 10
111.3238444159
 20
311.1733762671
 30
0.0
 10
109.1428527881
 20
314.090666644
 30
0.0
 10
107.2965284383
 20
315.6284894873
 30
0.0
 10
106.3242247657
 20
316.1898365751
 30
0.0
  0
SPLINE
  5
521
100
AcDbEntity
  8
00_COMPONENTS
100
AcDbSpline
 62
7
  6
CONTINUOUS
 70
0
 71
3
 72
15
 73
11
 74
0
 42
0.0000001
 43
0.0000001
 44
0.0000000001
 40
0.0
 40
0.0
 40
0.0
 40
0.0
 40
0.0917355107
 40
0.1984164307
 40
0.3207715357
 40
0.4556170716
 40
0.5974632872
 40
0.7397491017
 40
0.8758170725
 40
1.0
 40
1.0
 40
1.0
 40
1.0
 10
155.7396580058
 20
45.5728823254
 30
0.0
 10
155.2186697625
 20
45.4894077479
 30
0.0
 10
154.0479407544
 20
45.5669805956
 30
0.0
 10
152.321386569
 20
46.2717670197
 30
0.0
 10
150.6034269256
 20
47.4930576364
 30
0.0
 10
149.0010872783
 20
49.1515510532
 30
0.0
 10
147.6171278781
 20
51.1358773357
 30
0.0
 10
146.5453995581
 20
53.3130068182
 30
0.0
 10
145.8580967346
 20
55.5338605977
 30
0.0
 10
145.677355266
 20
57.0324540194
 30
0.0
 10
145.677355266
 20
57.7467142918
 30
0.0
  0
SPLINE
  5
522
100
AcDbEntity
  8
00_COMPONENTS
100
AcDbSpline
 62
7
  6
CONTINUOUS
 70
0
 71
3
 72
11
 73
7
 74
0
 42
0.0000001
 43
0.0000001
 44
0.0000000001
 40
0.0
 40
0.0
 40
0.0
 40
0.0
 40
0.2177660095
 40
0.4508968553
 40
0.7103699668
 40
1.0
 40
1.0
 40
1.0
 40
1.0
 10
149.0932000755
 20
59.3830409308
 30
0.0
 10
148.887098265
 20
59.2639395178
 30
0.0
 10
148.5011617783
 20
58.939976303
 30
0.0
 10
148.0905634537
 20
58.2683249935
 30
0.0
 10
147.8468089918
 20
57.440840581
 30
0.0
 10
147.7986844415
 20
56.8385867553
 30
0.0
 10
147.7986844415
 20
56.5219920282
 30
0.0
  0
SPLINE
  5
523
100
AcDbEntity
  8
00_COMPONENTS
100
AcDbSpline
 62
7
  6
CONTINUOUS
 70
0
 71
3
 72
9
 73
5
 74
0
 42
0.0000001
 43
0.0000001
 44
0.0000000001
 40
0.0
 40
0.0
 40
0.0
 40
0.0
 40
0.4760458618
 40
1.0
 40
1.0
 40
1.0
 40
1.0
 10
78.2521300067
 20
301.8602838683
 30
0.0
 10
78.2521300067
 20
300.7968334023
 30
0.0
 10
78.5526570703
 20
298.5608895586
 30
0.0
 10
79.2793075599
 20
296.4350818353
 30
0.0
 10
79.7491599463
 20
295.3630520014
 30
0.0
  0
SPLINE
  5
524
100
AcDbEntity
  8
00_COMPONENTS
100
AcDbSpline
 62
7
  6
CONTINUOUS
 70
0
 71
3
 72
11
 73
7
 74
0
 42
0.0000001
 43
0.0000001
 44
0.0000000001
 40
0.0
 40
0.0
 40
0.0
 40
0.0
 40
0.2372413576
 40
0.5000010231
 40
0.762760128
 40
1.0
 40
1.0
 40
1.0
 40
1.0
 10
119.0542790339
 20
310.4730565227
 30
0.0
 10
119.0542790339
 20
311.1685772172
 30
0.0
 10
118.7933927942
 20
312.635374763
 30
0.0
 10
117.8841530735
 20
314.6964755817
 30
0.0
 10
116.5538018045
 20
316.5144412627
 30
0.0
 10
115.4139589082
 20
317.4737632834
 30
0.0
 10
114.8116206831
 20
317.8215155526
 30
0.0
  0
SPLINE
  5
525
100
AcDbEntity
  8
00_COMPONENTS
100
AcDbSpline
 62
7
  6
CONTINUOUS
 70
0
 71
3
 72
11
 73
7
 74
0
 42
0.0000001
 43
0.0000001
 44
0.0000000001
 40
0.0
 40
0.0
 40
0.0
 40
0.0
 40
0.289702329
 40
0.5490881649
 40
0.7822156415
 40
1.0
 40
1.0
 40
1.0
 40
1.0
 10
114.8116206831
 20
317.8215155526
 30
0.0
 10
114.5483477386
 20
317.9735128193
 30
0.0
 10
114.0246129583
 20
318.222663722
 30
0.0
 10
113.2196221797
 20
318.4170545722
 30
0.0
 10
112.4643053284
 20
318.3979300866
 30
0.0
 10
112.0095642549
 20
318.2329010296
 30
0.0
 10
111.8116490833
 20
318.1186352986
 30
0.0
  0
SPLINE
  5
526
100
AcDbEntity
  8
00_COMPONENTS
100
AcDbSpline
 62
7
  6
CONTINUOUS
 70
0
 71
3
 72
9
 73
5
 74
0
 42
0.0000001
 43
0.0000001
 44
0.0000000001
 40
0.0
 40
0.0
 40
0.0
 40
0.0
 40
0.2245246033
 40
1.0
 40
1.0
 40
1.0
 40
1.0
 10
160.9124541033
 20
283.8572673416
 30
0.0
 10
161.0078554618
 20
283.9929918741
 30
0.0
 10
161.3701562177
 20
284.6421376525
 30
0.0
 10
161.4808625428
 20
285.405619247
 30
0.0
 10
161.4808625428
 20
285.9786112515
 30
0.0
  0
SPLINE
  5
527
100
AcDbEntity
  8
00_COMPONENTS
100
AcDbSpline
 62
7
  6
CONTINUOUS
 70
0
 71
3
 72
16
 73
12
 74
0
 42
0.0000001
 43
0.0000001
 44
0.0000000001
 40
0.0
 40
0.0
 40
0.0
 40
0.0
 40
0.128751138
 40
0.2703980489
 40
0.4176196133
 40
0.562023025
 40
0.6957474642
 40
0.8130614181
 40
0.9124704094
 40
0.9571111574
 40
1.0
 40
1.0
 40
1.0
 40
1.0
 10
161.4808625428
 20
285.9786112515
 30
0.0
 10
161.4808625428
 20
286.4914876614
 30
0.0
 10
161.337389029
 20
287.5698448458
 30
0.0
 10
160.8018681926
 20
289.1531525217
 30
0.0
 10
159.9765470668
 20
290.6783994337
 30
0.0
 10
158.9285861362
 20
292.0203675336
 30
0.0
 10
157.7405770162
 20
293.0711728346
 30
0.0
 10
156.504668433
 20
293.7491791758
 30
0.0
 10
155.455483347
 20
293.9540283988
 30
0.0
 10
154.7122814918
 20
293.8451262851
 30
0.0
 10
154.3861480988
 20
293.709685755
 30
0.0
 10
154.238221852
 20
293.6242086411
 30
0.0
  0
SPLINE
  5
528
100
AcDbEntity
  8
00_COMPONENTS
100
AcDbSpline
 62
7
  6
CONTINUOUS
 70
0
 71
3
 72
9
 73
5
 74
0
 42
0.0000001
 43
0.0000001
 44
0.0000000001
 40
0.0
 40
0.0
 40
0.0
 40
0.0
 40
0.2735833443
 40
1.0
 40
1.0
 40
1.0
 40
1.0
 10
145.677355266
 20
57.7467142918
 30
0.0
 10
145.677355266
 20
58.0083513575
 30
0.0
 10
145.7201039623
 20
58.9622784589
 30
0.0
 10
145.9506723193
 20
59.9218589395
 30
0.0
 10
146.2670866411
 20
60.5403133576
 30
0.0
  0
SPLINE
  5
529
100
AcDbEntity
  8
00_COMPONENTS
100
AcDbSpline
 62
7
  6
CONTINUOUS
 70
0
 71
3
 72
16
 73
12
 74
0
 42
0.0000001
 43
0.0000001
 44
0.0000000001
 40
0.0
 40
0.0
 40
0.0
 40
0.0
 40
0.128744776
 40
0.2703971998
 40
0.4176131979
 40
0.5620174334
 40
0.6957476677
 40
0.8130627022
 40
0.912470568
 40
0.9571203641
 40
1.0
 40
1.0
 40
1.0
 40
1.0
 10
147.7986844415
 20
56.5219920282
 30
0.0
 10
147.7986844415
 20
55.9877738384
 30
0.0
 10
147.9481491918
 20
54.8644974741
 30
0.0
 10
148.5059006672
 20
53.2152246394
 30
0.0
 10
149.3656215876
 20
51.6264309114
 30
0.0
 10
150.4572291979
 20
50.2285402088
 30
0.0
 10
151.6947493618
 20
49.1339115046
 30
0.0
 10
152.9822021276
 20
48.4277067329
 30
0.0
 10
154.075126754
 20
48.2142924078
 30
0.0
 10
154.8492953001
 20
48.3277648911
 30
0.0
 10
155.1889867989
 20
48.4689097396
 30
0.0
 10
155.3430403718
 20
48.5579336942
 30
0.0
  0
SPLINE
  5
52A
100
AcDbEntity
  8
00_COMPONENTS
100
AcDbSpline
 62
7
  6
CONTINUOUS
 70
0
 71
3
 72
11
 73
7
 74
0
 42
0.0000001
 43
0.0000001
 44
0.0000000001
 40
0.0
 40
0.0
 40
0.0
 40
0.0
 40
0.2177660095
 40
0.4508968553
 40
0.7103699668
 40
1.0
 40
1.0
 40
1.0
 40
1.0
 10
64.2400330578
 20
290.9418719434
 30
0.0
 10
64.0339312474
 20
290.8227705304
 30
0.0
 10
63.6479947606
 20
290.4988073156
 30
0.0
 10
63.2373964361
 20
289.8271560061
 30
0.0
 10
62.9936419742
 20
288.9996715936
 30
0.0
 10
62.9455174238
 20
288.397417768
 30
0.0
 10
62.9455174238
 20
288.0808230408
 30
0.0
  0
SPLINE
  5
52B
100
AcDbEntity
  8
00_COMPONENTS
100
AcDbSpline
 62
7
  6
CONTINUOUS
 70
0
 71
3
 72
9
 73
5
 74
0
 42
0.0000001
 43
0.0000001
 44
0.0000000001
 40
0.0
 40
0.0
 40
0.0
 40
0.0
 40
0.4835236768
 40
1.0
 40
1.0
 40
1.0
 40
1.0
 10
73.3001174386
 20
185.3341247469
 30
0.0
 10
73.3001174386
 20
187.8946039109
 30
0.0
 10
73.6813407459
 20
193.1935034069
 30
0.0
 10
74.6902254507
 20
198.4041243012
 30
0.0
 10
75.3484057653
 20
201.0587252348
 30
0.0
  0
SPLINE
  5
52C
100
AcDbEntity
  8
00_COMPONENTS
100
AcDbSpline
 62
7
  6
CONTINUOUS
 70
0
 71
3
 72
11
 73
7
 74
0
 42
0.0000001
 43
0.0000001
 44
0.0000000001
 40
0.0
 40
0.0
 40
0.0
 40
0.0
 40
0.2372531816
 40
0.5000006935
 40
0.7627478297
 40
1.0
 40
1.0
 40
1.0
 40
1.0
 10
114.458297805
 20
291.7349479426
 30
0.0
 10
114.0567185239
 20
291.9667946036
 30
0.0
 10
113.1229108727
 20
292.3051670038
 30
0.0
 10
111.6298654138
 20
292.4669371653
 30
0.0
 10
110.1368227231
 20
292.3051598698
 30
0.0
 10
109.2030194531
 20
291.9667829138
 30
0.0
 10
108.8014435556
 20
291.7349343452
 30
0.0
  0
SPLINE
  5
52D
100
AcDbEntity
  8
00_COMPONENTS
100
AcDbSpline
 62
7
  6
CONTINUOUS
 70
0
 71
3
 72
11
 73
7
 74
0
 42
0.0000001
 43
0.0000001
 44
0.0000000001
 40
0.0
 40
0.0
 40
0.0
 40
0.0
 40
0.2895416688
 40
0.549118971
 40
0.7822562702
 40
1.0
 40
1.0
 40
1.0
 40
1.0
 10
100.6697494276
 20
287.0401265757
 30
0.0
 10
100.4943372424
 20
286.9388529078
 30
0.0
 10
100.1760221263
 20
286.7193637574
 30
0.0
 10
99.7952543143
 20
286.3196208368
 30
0.0
 10
99.5543477073
 20
285.8770629768
 30
0.0
 10
99.4984120927
 20
285.5594857102
 30
0.0
 10
99.49841214
 20
285.4071635592
 30
0.0
  0
SPLINE
  5
52E
100
AcDbEntity
  8
00_COMPONENTS
100
AcDbSpline
 62
7
  6
CONTINUOUS
 70
0
 71
3
 72
9
 73
5
 74
0
 42
0.0000001
 43
0.0000001
 44
0.0000000001
 40
0.0
 40
0.0
 40
0.0
 40
0.0
 40
0.4760458618
 40
1.0
 40
1.0
 40
1.0
 40
1.0
 10
120.6787135155
 20
277.3658385971
 30
0.0
 10
120.6787135155
 20
276.302388131
 30
0.0
 10
120.9792405791
 20
274.0664442874
 30
0.0
 10
121.7058910687
 20
271.9406365641
 30
0.0
 10
122.1757434551
 20
270.8686067302
 30
0.0
  0
SPLINE
  5
52F
100
AcDbEntity
  8
00_COMPONENTS
100
AcDbSpline
 62
7
  6
CONTINUOUS
 70
0
 71
3
 72
9
 73
5
 74
0
 42
0.0000001
 43
0.0000001
 44
0.0000000001
 40
0.0
 40
0.0
 40
0.0
 40
0.0
 40
0.4773871815
 40
1.0
 40
1.0
 40
1.0
 40
1.0
 10
40.920506857
 20
255.209618503
 30
0.0
 10
40.9307062208
 20
254.8076335016
 30
0.0
 10
41.0637809671
 20
253.9675943229
 30
0.0
 10
41.3562664308
 20
253.172504929
 30
0.0
 10
41.5427782615
 20
252.7737602922
 30
0.0
  0
SPLINE
  5
530
100
AcDbEntity
  8
00_COMPONENTS
100
AcDbSpline
 62
7
  6
CONTINUOUS
 70
0
 71
3
 72
11
 73
7
 74
0
 42
0.0000001
 43
0.0000001
 44
0.0000000001
 40
0.0
 40
0.0
 40
0.0
 40
0.0
 40
0.2177442009
 40
0.4514743988
 40
0.7111368981
 40
1.0
 40
1.0
 40
1.0
 40
1.0
 10
41.8021534264
 20
257.3489026138
 30
0.0
 10
41.6606221913
 20
257.2597642853
 30
0.0
 10
41.3971899895
 20
257.0232918298
 30
0.0
 10
41.1179859409
 20
256.5457713138
 30
0.0
 10
40.9520405596
 20
255.9631044807
 30
0.0
 10
40.919113664
 20
255.540421941
 30
0.0
 10
40.919113664
 20
255.3185287553
 30
0.0
  0
SPLINE
  5
531
100
AcDbEntity
  8
00_COMPONENTS
100
AcDbSpline
 62
7
  6
CONTINUOUS
 70
0
 71
3
 72
10
 73
6
 74
0
 42
0.0000001
 43
0.0000001
 44
0.0000000001
 40
0.0
 40
0.0
 40
0.0
 40
0.0
 40
0.5255726949
 40
0.7651393666
 40
1.0
 40
1.0
 40
1.0
 40
1.0
 10
42.9778636847
 20
288.6772571497
 30
0.0
 10
43.2410135481
 20
288.5256814649
 30
0.0
 10
43.6794818493
 20
288.3711482335
 30
0.0
 10
44.2622489438
 20
288.4194759672
 30
0.0
 10
44.521336654
 20
288.5227503468
 30
0.0
 10
44.6388840191
 20
288.590563134
 30
0.0
  0
SPLINE
  5
532
100
AcDbEntity
  8
00_COMPONENTS
100
AcDbSpline
 62
7
  6
CONTINUOUS
 70
0
 71
3
 72
11
 73
7
 74
0
 42
0.0000001
 43
0.0000001
 44
0.0000000001
 40
0.0
 40
0.0
 40
0.0
 40
0.0
 40
0.2339974003
 40
0.490817984
 40
0.7525618241
 40
1.0
 40
1.0
 40
1.0
 40
1.0
 10
156.8865017812
 20
188.2581347617
 30
0.0
 10
156.8978420719
 20
187.8111826857
 30
0.0
 10
157.059455329
 20
186.8760874181
 30
0.0
 10
157.5983508369
 20
185.5340416266
 30
0.0
 10
158.3923817615
 20
184.2947863412
 30
0.0
 10
159.0730415026
 20
183.5869178276
 30
0.0
 10
159.4405095002
 20
183.2894528693
 30
0.0
  0
SPLINE
  5
533
100
AcDbEntity
  8
00_COMPONENTS
100
AcDbSpline
 62
7
  6
CONTINUOUS
 70
0
 71
3
 72
9
 73
5
 74
0
 42
0.0000001
 43
0.0000001
 44
0.0000000001
 40
0.0
 40
0.0
 40
0.0
 40
0.0
 40
0.2633057422
 40
1.0
 40
1.0
 40
1.0
 40
1.0
 10
159.6028877648
 20
183.1630485951
 30
0.0
 10
159.6764349013
 20
183.108062634
 30
0.0
 10
159.961199544
 20
182.9068099373
 30
0.0
 10
160.2687519091
 20
182.7362829575
 30
0.0
 10
160.5059249558
 20
182.6374897397
 30
0.0
  0
SPLINE
  5
534
100
AcDbEntity
  8
00_COMPONENTS
100
AcDbSpline
 62
7
  6
CONTINUOUS
 70
0
 71
3
 72
9
 73
5
 74
0
 42
0.0000001
 43
0.0000001
 44
0.0000000001
 40
0.0
 40
0.0
 40
0.0
 40
0.0
 40
0.5319864994
 40
1.0
 40
1.0
 40
1.0
 40
1.0
 10
160.6769459975
 20
182.5717846245
 30
0.0
 10
160.925487068
 20
182.484394217
 30
0.0
 10
161.4178959375
 20
182.3759210508
 30
0.0
 10
161.9233025626
 20
182.4562547255
 30
0.0
 10
162.1375850796
 20
182.5445893319
 30
0.0
  0
SPLINE
  5
535
100
AcDbEntity
  8
00_COMPONENTS
100
AcDbSpline
 62
7
  6
CONTINUOUS
 70
0
 71
3
 72
11
 73
7
 74
0
 42
0.0000001
 43
0.0000001
 44
0.0000000001
 40
0.0
 40
0.0
 40
0.0
 40
0.0
 40
0.2177434119
 40
0.4508805377
 40
0.710457812
 40
1.0
 40
1.0
 40
1.0
 40
1.0
 10
103.0431055368
 20
297.368656756
 30
0.0
 10
103.0431054895
 20
297.5209806492
 30
0.0
 10
102.9871687004
 20
297.8385617168
 30
0.0
 10
102.7462566655
 20
298.2811237307
 30
0.0
 10
102.365481416
 20
298.6808697374
 30
0.0
 10
102.04716019
 20
298.9003594823
 30
0.0
 10
101.8717446974
 20
299.0016333731
 30
0.0
  0
SPLINE
  5
536
100
AcDbEntity
  8
00_COMPONENTS
100
AcDbSpline
 62
7
  6
CONTINUOUS
 70
0
 71
3
 72
11
 73
7
 74
0
 42
0.0000001
 43
0.0000001
 44
0.0000000001
 40
0.0
 40
0.0
 40
0.0
 40
0.0
 40
0.2339974003
 40
0.490817984
 40
0.7525618241
 40
1.0
 40
1.0
 40
1.0
 40
1.0
 10
156.8865017812
 20
116.4059220543
 30
0.0
 10
156.8978420719
 20
115.9589699783
 30
0.0
 10
157.059455329
 20
115.0238747107
 30
0.0
 10
157.5983508369
 20
113.6818289192
 30
0.0
 10
158.3923817615
 20
112.4425736338
 30
0.0
 10
159.0730415026
 20
111.7347051201
 30
0.0
 10
159.4405095002
 20
111.4372401619
 30
0.0
  0
SPLINE
  5
537
100
AcDbEntity
  8
00_COMPONENTS
100
AcDbSpline
 62
7
  6
CONTINUOUS
 70
0
 71
3
 72
9
 73
5
 74
0
 42
0.0000001
 43
0.0000001
 44
0.0000000001
 40
0.0
 40
0.0
 40
0.0
 40
0.0
 40
0.2633057422
 40
1.0
 40
1.0
 40
1.0
 40
1.0
 10
159.6028877648
 20
111.3108358877
 30
0.0
 10
159.6764349013
 20
111.2558499266
 30
0.0
 10
159.961199544
 20
111.0545972299
 30
0.0
 10
160.2687519091
 20
110.8840702501
 30
0.0
 10
160.5059249558
 20
110.7852770323
 30
0.0
  0
SPLINE
  5
538
100
AcDbEntity
  8
00_COMPONENTS
100
AcDbSpline
 62
7
  6
CONTINUOUS
 70
0
 71
3
 72
9
 73
5
 74
0
 42
0.0000001
 43
0.0000001
 44
0.0000000001
 40
0.0
 40
0.0
 40
0.0
 40
0.0
 40
0.5319864994
 40
1.0
 40
1.0
 40
1.0
 40
1.0
 10
160.6769459975
 20
110.7195719171
 30
0.0
 10
160.925487068
 20
110.6321815096
 30
0.0
 10
161.4178959375
 20
110.5237083434
 30
0.0
 10
161.9233025626
 20
110.6040420181
 30
0.0
 10
162.1375850796
 20
110.6923766245
 30
0.0
  0
SPLINE
  5
539
100
AcDbEntity
  8
00_COMPONENTS
100
AcDbSpline
 62
7
  6
CONTINUOUS
 70
0
 71
3
 72
11
 73
7
 74
0
 42
0.0000001
 43
0.0000001
 44
0.0000000001
 40
0.0
 40
0.0
 40
0.0
 40
0.0
 40
0.2372531816
 40
0.5000006935
 40
0.7627478297
 40
1.0
 40
1.0
 40
1.0
 40
1.0
 10
72.0317142962
 20
316.2293932138
 30
0.0
 10
71.6301350151
 20
316.4612398748
 30
0.0
 10
70.6963273639
 20
316.799612275
 30
0.0
 10
69.203281905
 20
316.9613824365
 30
0.0
 10
67.7102392143
 20
316.7996051411
 30
0.0
 10
66.7764359443
 20
316.461228185
 30
0.0
 10
66.3748600468
 20
316.2293796164
 30
0.0
  0
SPLINE
  5
53A
100
AcDbEntity
  8
00_COMPONENTS
100
AcDbSpline
 62
7
  6
CONTINUOUS
 70
0
 71
3
 72
11
 73
7
 74
0
 42
0.0000001
 43
0.0000001
 44
0.0000000001
 40
0.0
 40
0.0
 40
0.0
 40
0.0
 40
0.2177660095
 40
0.4508968553
 40
0.7103699668
 40
1.0
 40
1.0
 40
1.0
 40
1.0
 10
64.2400330578
 20
108.3719314732
 30
0.0
 10
64.0339312474
 20
108.2528300602
 30
0.0
 10
63.6479947606
 20
107.9288668454
 30
0.0
 10
63.2373964361
 20
107.257215536
 30
0.0
 10
62.9936419742
 20
106.4297311234
 30
0.0
 10
62.9455174238
 20
105.8274772978
 30
0.0
 10
62.9455174238
 20
105.5108825707
 30
0.0
  0
SPLINE
  5
53B
100
AcDbEntity
  8
00_COMPONENTS
100
AcDbSpline
 62
7
  6
CONTINUOUS
 70
0
 71
3
 72
11
 73
7
 74
0
 42
0.0000001
 43
0.0000001
 44
0.0000000001
 40
0.0
 40
0.0
 40
0.0
 40
0.0
 40
0.2372278993
 40
0.4999989081
 40
0.7627705112
 40
1.0
 40
1.0
 40
1.0
 40
1.0
 10
109.7915367148
 20
253.4822256954
 30
0.0
 10
108.8629785011
 20
254.018316902
 30
0.0
 10
107.1056877952
 20
255.4972328182
 30
0.0
 10
105.0547375782
 20
258.3000072234
 30
0.0
 10
103.6529215523
 20
261.4775696753
 30
0.0
 10
103.2507717572
 20
263.7388922439
 30
0.0
 10
103.2507717572
 20
264.8111000332
 30
0.0
  0
SPLINE
  5
53C
100
AcDbEntity
  8
00_COMPONENTS
100
AcDbSpline
 62
7
  6
CONTINUOUS
 70
0
 71
3
 72
9
 73
5
 74
0
 42
0.0000001
 43
0.0000001
 44
0.0000000001
 40
0.0
 40
0.0
 40
0.0
 40
0.0
 40
0.539350344
 40
1.0
 40
1.0
 40
1.0
 40
1.0
 10
103.2507717572
 20
264.8111000332
 30
0.0
 10
103.2507717572
 20
265.4594152499
 30
0.0
 10
103.3789434887
 20
266.6697425396
 30
0.0
 10
103.89599546
 20
267.793220007
 30
0.0
 10
104.2369112279
 20
268.2295413814
 30
0.0
  0
SPLINE
  5
53D
100
AcDbEntity
  8
00_COMPONENTS
100
AcDbSpline
 62
7
  6
CONTINUOUS
 70
0
 71
3
 72
9
 73
5
 74
0
 42
0.0000001
 43
0.0000001
 44
0.0000000001
 40
0.0
 40
0.0
 40
0.0
 40
0.0
 40
0.2534799944
 40
1.0
 40
1.0
 40
1.0
 40
1.0
 10
104.2369112279
 20
268.2295413814
 30
0.0
 10
104.2672365074
 20
268.2683532195
 30
0.0
 10
104.3900061433
 20
268.4189858269
 30
0.0
 10
104.525505948
 20
268.5593124097
 30
0.0
 10
104.633108714
 20
268.6565926714
 30
0.0
  0
SPLINE
  5
53E
100
AcDbEntity
  8
00_COMPONENTS
100
AcDbSpline
 62
7
  6
CONTINUOUS
 70
0
 71
3
 72
16
 73
12
 74
0
 42
0.0000001
 43
0.0000001
 44
0.0000000001
 40
0.0
 40
0.0
 40
0.0
 40
0.0
 40
0.128744776
 40
0.2703971998
 40
0.4176131979
 40
0.5620174334
 40
0.6957476677
 40
0.8130627022
 40
0.912470568
 40
0.9571203641
 40
1.0
 40
1.0
 40
1.0
 40
1.0
 10
105.3721009327
 20
263.5863777696
 30
0.0
 10
105.3721009327
 20
263.0521595798
 30
0.0
 10
105.521565683
 20
261.9288832155
 30
0.0
 10
106.0793171584
 20
260.2796103807
 30
0.0
 10
106.9390380788
 20
258.6908166528
 30
0.0
 10
108.030645689
 20
257.2929259502
 30
0.0
 10
109.268165853
 20
256.198297246
 30
0.0
 10
110.5556186188
 20
255.4920924743
 30
0.0
 10
111.6485432451
 20
255.2786781491
 30
0.0
 10
112.4227117913
 20
255.3921506325
 30
0.0
 10
112.7624032901
 20
255.533295481
 30
0.0
 10
112.916456863
 20
255.6223194356
 30
0.0
  0
SPLINE
  5
53F
100
AcDbEntity
  8
00_COMPONENTS
100
AcDbSpline
 62
7
  6
CONTINUOUS
 70
0
 71
3
 72
15
 73
11
 74
0
 42
0.0000001
 43
0.0000001
 44
0.0000000001
 40
0.0
 40
0.0
 40
0.0
 40
0.0
 40
0.0917355107
 40
0.1984164307
 40
0.3207715357
 40
0.4556170716
 40
0.5974632872
 40
0.7397491017
 40
0.8758170725
 40
1.0
 40
1.0
 40
1.0
 40
1.0
 10
70.8864909882
 20
94.5617728678
 30
0.0
 10
70.3655027449
 20
94.4782982904
 30
0.0
 10
69.1947737368
 20
94.5558711381
 30
0.0
 10
67.4682195513
 20
95.2606575621
 30
0.0
 10
65.750259908
 20
96.4819481788
 30
0.0
 10
64.1479202607
 20
98.1404415956
 30
0.0
 10
62.7639608605
 20
100.1247678781
 30
0.0
 10
61.6922325405
 20
102.3018973606
 30
0.0
 10
61.004929717
 20
104.5227511402
 30
0.0
 10
60.8241882484
 20
106.0213445618
 30
0.0
 10
60.8241882484
 20
106.7356048342
 30
0.0
  0
SPLINE
  5
540
100
AcDbEntity
  8
00_COMPONENTS
100
AcDbSpline
 62
7
  6
CONTINUOUS
 70
0
 71
3
 72
9
 73
5
 74
0
 42
0.0000001
 43
0.0000001
 44
0.0000000001
 40
0.0
 40
0.0
 40
0.0
 40
0.0
 40
0.2611530219
 40
1.0
 40
1.0
 40
1.0
 40
1.0
 10
71.3674246471
 20
201.2015834182
 30
0.0
 10
71.1053663952
 20
200.0172847072
 30
0.0
 10
70.2110030566
 20
195.4599642187
 30
0.0
 10
69.7645688129
 20
190.8069620868
 30
0.0
 10
69.7645688129
 20
187.3753285195
 30
0.0
  0
SPLINE
  5
541
100
AcDbEntity
  8
00_COMPONENTS
100
AcDbSpline
 62
7
  6
CONTINUOUS
 70
0
 71
3
 72
11
 73
7
 74
0
 42
0.0000001
 43
0.0000001
 44
0.0000000001
 40
0.0
 40
0.0
 40
0.0
 40
0.0
 40
0.2895416688
 40
0.549118971
 40
0.7822562702
 40
1.0
 40
1.0
 40
1.0
 40
1.0
 10
58.2431659188
 20
311.5345718469
 30
0.0
 10
58.0677537336
 20
311.433298179
 30
0.0
 10
57.7494386175
 20
311.2138090286
 30
0.0
 10
57.3686708055
 20
310.814066108
 30
0.0
 10
57.1277641984
 20
310.371508248
 30
0.0
 10
57.0718285839
 20
310.0539309814
 30
0.0
 10
57.0718286312
 20
309.9016088304
 30
0.0
  0
SPLINE
  5
542
100
AcDbEntity
  8
00_COMPONENTS
100
AcDbSpline
 62
7
  6
CONTINUOUS
 70
0
 71
3
 72
11
 73
7
 74
0
 42
0.0000001
 43
0.0000001
 44
0.0000000001
 40
0.0
 40
0.0
 40
0.0
 40
0.0
 40
0.2341123382
 40
0.4932082337
 40
0.7559779312
 40
1.0
 40
1.0
 40
1.0
 40
1.0
 10
130.9340998329
 20
246.5422151995
 30
0.0
 10
130.9340998329
 20
246.2108899096
 30
0.0
 10
131.04914274
 20
245.5122662049
 30
0.0
 10
131.4585689347
 20
244.516224414
 30
0.0
 10
132.0673441692
 20
243.6109203026
 30
0.0
 10
132.5916471787
 20
243.1089451986
 30
0.0
 10
132.8730008492
 20
242.9086786377
 30
0.0
  0
SPLINE
  5
543
100
AcDbEntity
  8
00_COMPONENTS
100
AcDbSpline
 62
7
  6
CONTINUOUS
 70
0
 71
3
 72
11
 73
7
 74
0
 42
0.0000001
 43
0.0000001
 44
0.0000000001
 40
0.0
 40
0.0
 40
0.0
 40
0.0
 40
0.2345108936
 40
0.494147883
 40
0.7569426038
 40
1.0
 40
1.0
 40
1.0
 40
1.0
 10
148.7529581453
 20
294.960159772
 30
0.0
 10
150.0650775808
 20
294.2026244004
 30
0.0
 10
152.5659186687
 20
292.1438080363
 30
0.0
 10
155.5587565912
 20
288.2349454205
 30
0.0
 10
157.7204931912
 20
283.7504202824
 30
0.0
 10
158.4771048527
 20
280.5287824825
 30
0.0
 10
158.6045767221
 20
278.9636523246
 30
0.0
  0
SPLINE
  5
544
100
AcDbEntity
  8
00_COMPONENTS
100
AcDbSpline
 62
7
  6
CONTINUOUS
 70
0
 71
3
 72
11
 73
7
 74
0
 42
0.0000001
 43
0.0000001
 44
0.0000000001
 40
0.0
 40
0.0
 40
0.0
 40
0.0
 40
0.2897462111
 40
0.5490792271
 40
0.7822215756
 40
1.0
 40
1.0
 40
1.0
 40
1.0
 10
148.7508082745
 20
291.6953913039
 30
0.0
 10
148.3119518105
 20
291.9487594696
 30
0.0
 10
147.4391133607
 20
292.3641081856
 30
0.0
 10
146.0974046238
 20
292.6879703954
 30
0.0
 10
144.8386415199
 20
292.6560630635
 30
0.0
 10
144.0806781927
 20
292.381078454
 30
0.0
 10
143.7508592279
 20
292.1905845996
 30
0.0
  0
SPLINE
  5
545
100
AcDbEntity
  8
00_COMPONENTS
100
AcDbSpline
 62
7
  6
CONTINUOUS
 70
0
 71
3
 72
9
 73
5
 74
0
 42
0.0000001
 43
0.0000001
 44
0.0000000001
 40
0.0
 40
0.0
 40
0.0
 40
0.0
 40
0.27970541
 40
1.0
 40
1.0
 40
1.0
 40
1.0
 10
163.0955229845
 20
112.8762890494
 30
0.0
 10
163.0914920851
 20
112.7346465326
 30
0.0
 10
163.0498277507
 20
112.2314797144
 30
0.0
 10
162.876691993
 20
111.7243268957
 30
0.0
 10
162.6536621318
 20
111.435514389
 30
0.0
  0
SPLINE
  5
546
100
AcDbEntity
  8
00_COMPONENTS
100
AcDbSpline
 62
7
  6
CONTINUOUS
 70
0
 71
3
 72
9
 73
5
 74
0
 42
0.0000001
 43
0.0000001
 44
0.0000000001
 40
0.0
 40
0.0
 40
0.0
 40
0.0
 40
0.2561836683
 40
1.0
 40
1.0
 40
1.0
 40
1.0
 10
162.6536621318
 20
111.435514389
 30
0.0
 10
162.6236400561
 20
111.3966373036
 30
0.0
 10
162.4997413062
 20
111.2502244462
 30
0.0
 10
162.3475304498
 20
111.127452043
 30
0.0
 10
162.2240564582
 20
111.0560817085
 30
0.0
  0
SPLINE
  5
547
100
AcDbEntity
  8
00_COMPONENTS
100
AcDbSpline
 62
7
  6
CONTINUOUS
 70
0
 71
3
 72
11
 73
7
 74
0
 42
0.0000001
 43
0.0000001
 44
0.0000000001
 40
0.0
 40
0.0
 40
0.0
 40
0.0
 40
0.2480369193
 40
0.510672088
 40
0.7676193625
 40
1.0
 40
1.0
 40
1.0
 40
1.0
 10
160.6810564684
 20
117.7597193393
 30
0.0
 10
161.0360646515
 20
117.475694434
 30
0.0
 10
161.6921940036
 20
116.7950799138
 30
0.0
 10
162.4513755854
 20
115.6005863348
 30
0.0
 10
162.9568806223
 20
114.309344391
 30
0.0
 10
163.0970671113
 20
113.4115375253
 30
0.0
 10
163.0970671113
 20
112.9855912217
 30
0.0
  0
SPLINE
  5
548
100
AcDbEntity
  8
00_COMPONENTS
100
AcDbSpline
 62
7
  6
CONTINUOUS
 70
0
 71
3
 72
11
 73
7
 74
0
 42
0.0000001
 43
0.0000001
 44
0.0000000001
 40
0.0
 40
0.0
 40
0.0
 40
0.0
 40
0.2354556444
 40
0.4961958891
 40
0.7590004397
 40
1.0
 40
1.0
 40
1.0
 40
1.0
 10
146.9830486815
 20
290.6747809192
 30
0.0
 10
147.9444473412
 20
290.1197297012
 30
0.0
 10
149.7721566341
 20
288.6029007828
 30
0.0
 10
151.9400277425
 20
285.7246043408
 30
0.0
 10
153.4757163563
 20
282.4359584169
 30
0.0
 10
153.9805416522
 20
280.0812781
 30
0.0
 10
154.0402080225
 20
278.9465861497
 30
0.0
  0
SPLINE
  5
549
100
AcDbEntity
  8
00_COMPONENTS
100
AcDbSpline
 62
7
  6
CONTINUOUS
 70
0
 71
3
 72
17
 73
13
 74
0
 42
0.0000001
 43
0.0000001
 44
0.0000000001
 40
0.0
 40
0.0
 40
0.0
 40
0.0
 40
0.1286930371
 40
0.2702795962
 40
0.4174375935
 40
0.5617786795
 40
0.6954478243
 40
0.81271112
 40
0.8646738576
 40
0.9125098523
 40
0.9571380034
 40
1.0
 40
1.0
 40
1.0
 40
1.0
 10
153.3491860786
 20
278.8343487568
 30
0.0
 10
153.3491860786
 20
279.6036488247
 30
0.0
 10
153.1339961526
 20
281.2211737755
 30
0.0
 10
152.3306601397
 20
283.5961384272
 30
0.0
 10
151.092922511
 20
285.8839824429
 30
0.0
 10
149.5201234847
 20
287.8970852108
 30
0.0
 10
147.7408864147
 20
289.4728340701
 30
0.0
 10
146.1304682023
 20
290.3534939662
 30
0.0
 10
144.8706818895
 20
290.688534228
 30
0.0
 10
144.0036416801
 20
290.7524787568
 30
0.0
 10
143.1963091428
 20
290.6339493518
 30
0.0
 10
142.7071153886
 20
290.4308597791
 30
0.0
 10
142.4852394727
 20
290.3027200353
 30
0.0
  0
SPLINE
  5
54A
100
AcDbEntity
  8
00_COMPONENTS
100
AcDbSpline
 62
7
  6
CONTINUOUS
 70
0
 71
3
 72
9
 73
5
 74
0
 42
0.0000001
 43
0.0000001
 44
0.0000000001
 40
0.0
 40
0.0
 40
0.0
 40
0.0
 40
0.2476522178
 40
1.0
 40
1.0
 40
1.0
 40
1.0
 10
99.3264575774
 20
320.1478555871
 30
0.0
 10
99.4372754477
 20
320.2118395078
 30
0.0
 10
99.8951665821
 20
320.4519147118
 30
0.0
 10
100.3927449668
 20
320.614690213
 30
0.0
 10
100.7735750346
 20
320.6927189633
 30
0.0
  0
SPLINE
  5
54B
100
AcDbEntity
  8
00_COMPONENTS
100
AcDbSpline
 62
7
  6
CONTINUOUS
 70
0
 71
3
 72
11
 73
7
 74
0
 42
0.0000001
 43
0.0000001
 44
0.0000000001
 40
0.0
 40
0.0
 40
0.0
 40
0.0
 40
0.2207549075
 40
0.4588671878
 40
0.7183256032
 40
1.0
 40
1.0
 40
1.0
 40
1.0
 10
100.7735750346
 20
320.6927189633
 30
0.0
 10
101.1920835862
 20
320.7784677054
 30
0.0
 10
102.0864817104
 20
320.8484651569
 30
0.0
 10
103.4722084706
 20
320.6612108229
 30
0.0
 10
104.9134588896
 20
320.1956008376
 30
0.0
 10
105.8543070181
 20
319.727147244
 30
0.0
 10
106.3263746365
 20
319.4546050432
 30
0.0
  0
SPLINE
  5
54C
100
AcDbEntity
  8
00_COMPONENTS
100
AcDbSpline
 62
7
  6
CONTINUOUS
 70
0
 71
3
 72
8
 73
4
 74
0
 42
0.0000001
 43
0.0000001
 44
0.0000000001
 40
0.0
 40
0.0
 40
0.0
 40
0.0
 40
1.0
 40
1.0
 40
1.0
 40
1.0
 10
135.5771027417
 20
232.4307702878
 30
0.0
 10
135.5691933988
 20
232.3789910826
 30
0.0
 10
135.5657156361
 20
232.3264238074
 30
0.0
 10
135.5657156361
 20
232.2740440041
 30
0.0
  0
SPLINE
  5
54D
100
AcDbEntity
  8
00_COMPONENTS
100
AcDbSpline
 62
7
  6
CONTINUOUS
 70
0
 71
3
 72
11
 73
7
 74
0
 42
0.0000001
 43
0.0000001
 44
0.0000000001
 40
0.0
 40
0.0
 40
0.0
 40
0.0
 40
0.2177660095
 40
0.4508968553
 40
0.7103699668
 40
1.0
 40
1.0
 40
1.0
 40
1.0
 10
106.6666165666
 20
83.877486202
 30
0.0
 10
106.4605147562
 20
83.758384789
 30
0.0
 10
106.0745782694
 20
83.4344215742
 30
0.0
 10
105.6639799449
 20
82.7627702648
 30
0.0
 10
105.420225483
 20
81.9352858522
 30
0.0
 10
105.3721009327
 20
81.3330320266
 30
0.0
 10
105.3721009327
 20
81.0164372994
 30
0.0
  0
SPLINE
  5
54E
100
AcDbEntity
  8
00_COMPONENTS
100
AcDbSpline
 62
7
  6
CONTINUOUS
 70
0
 71
3
 72
15
 73
11
 74
0
 42
0.0000001
 43
0.0000001
 44
0.0000000001
 40
0.0
 40
0.0
 40
0.0
 40
0.0
 40
0.0917355107
 40
0.1984164307
 40
0.3207715357
 40
0.4556170716
 40
0.5974632872
 40
0.7397491017
 40
0.8758170725
 40
1.0
 40
1.0
 40
1.0
 40
1.0
 10
113.313074497
 20
70.0673275966
 30
0.0
 10
112.7920862537
 20
69.9838530192
 30
0.0
 10
111.6213572456
 20
70.0614258668
 30
0.0
 10
109.8948030602
 20
70.7662122909
 30
0.0
 10
108.1768434168
 20
71.9875029076
 30
0.0
 10
106.5745037695
 20
73.6459963244
 30
0.0
 10
105.1905443693
 20
75.6303226069
 30
0.0
 10
104.1188160493
 20
77.8074520894
 30
0.0
 10
103.4315132258
 20
80.028305869
 30
0.0
 10
103.2507717572
 20
81.5268992906
 30
0.0
 10
103.2507717572
 20
82.241159563
 30
0.0
  0
SPLINE
  5
54F
100
AcDbEntity
  8
00_COMPONENTS
100
AcDbSpline
 62
7
  6
CONTINUOUS
 70
0
 71
3
 72
11
 73
7
 74
0
 42
0.0000001
 43
0.0000001
 44
0.0000000001
 40
0.0
 40
0.0
 40
0.0
 40
0.0
 40
0.2177442009
 40
0.4514743988
 40
0.7111368981
 40
1.0
 40
1.0
 40
1.0
 40
1.0
 10
157.7681483505
 20
118.5452061651
 30
0.0
 10
157.6266171154
 20
118.4560678365
 30
0.0
 10
157.3631849136
 20
118.2195953811
 30
0.0
 10
157.083980865
 20
117.742074865
 30
0.0
 10
156.9180354837
 20
117.159408032
 30
0.0
 10
156.8851085881
 20
116.7367254923
 30
0.0
 10
156.8851085881
 20
116.5148323065
 30
0.0
  0
SPLINE
  5
550
100
AcDbEntity
  8
00_COMPONENTS
100
AcDbSpline
 62
7
  6
CONTINUOUS
 70
0
 71
3
 72
9
 73
5
 74
0
 42
0.0000001
 43
0.0000001
 44
0.0000000001
 40
0.0
 40
0.0
 40
0.0
 40
0.0
 40
0.27970541
 40
1.0
 40
1.0
 40
1.0
 40
1.0
 10
163.0955229845
 20
184.7285017568
 30
0.0
 10
163.0914920851
 20
184.58685924
 30
0.0
 10
163.0498277507
 20
184.0836924218
 30
0.0
 10
162.876691993
 20
183.5765396031
 30
0.0
 10
162.6536621318
 20
183.2877270964
 30
0.0
  0
SPLINE
  5
551
100
AcDbEntity
  8
00_COMPONENTS
100
AcDbSpline
 62
7
  6
CONTINUOUS
 70
0
 71
3
 72
9
 73
5
 74
0
 42
0.0000001
 43
0.0000001
 44
0.0000000001
 40
0.0
 40
0.0
 40
0.0
 40
0.0
 40
0.2561836683
 40
1.0
 40
1.0
 40
1.0
 40
1.0
 10
162.6536621318
 20
183.2877270964
 30
0.0
 10
162.6236400561
 20
183.248850011
 30
0.0
 10
162.4997413062
 20
183.1024371537
 30
0.0
 10
162.3475304498
 20
182.9796647504
 30
0.0
 10
162.2240564582
 20
182.9082944159
 30
0.0
  0
SPLINE
  5
552
100
AcDbEntity
  8
00_COMPONENTS
100
AcDbSpline
 62
7
  6
CONTINUOUS
 70
0
 71
3
 72
11
 73
7
 74
0
 42
0.0000001
 43
0.0000001
 44
0.0000000001
 40
0.0
 40
0.0
 40
0.0
 40
0.0
 40
0.2480369193
 40
0.510672088
 40
0.7676193625
 40
1.0
 40
1.0
 40
1.0
 40
1.0
 10
160.6810564684
 20
189.6119320467
 30
0.0
 10
161.0360646515
 20
189.3279071414
 30
0.0
 10
161.6921940036
 20
188.6472926212
 30
0.0
 10
162.4513755854
 20
187.4527990422
 30
0.0
 10
162.9568806223
 20
186.1615570984
 30
0.0
 10
163.0970671113
 20
185.2637502327
 30
0.0
 10
163.0970671113
 20
184.8378039291
 30
0.0
  0
SPLINE
  5
553
100
AcDbEntity
  8
00_COMPONENTS
100
AcDbSpline
 62
7
  6
CONTINUOUS
 70
0
 71
3
 72
11
 73
7
 74
0
 42
0.0000001
 43
0.0000001
 44
0.0000000001
 40
0.0
 40
0.0
 40
0.0
 40
0.0
 40
0.2372523758
 40
0.4999990758
 40
0.7627462798
 40
1.0
 40
1.0
 40
1.0
 40
1.0
 10
192.5939259665
 20
55.0728880147
 30
0.0
 10
192.2927420019
 20
55.246772724
 30
0.0
 10
191.7227779386
 20
55.7264001228
 30
0.0
 10
191.0578062385
 20
56.6354929768
 30
0.0
 10
190.6029893747
 20
57.6659216567
 30
0.0
 10
190.4725967911
 20
58.3993402398
 30
0.0
 10
190.4725967911
 20
58.7471175297
 30
0.0
  0
SPLINE
  5
554
100
AcDbEntity
  8
00_COMPONENTS
100
AcDbSpline
 62
7
  6
CONTINUOUS
 70
0
 71
3
 72
11
 73
7
 74
0
 42
0.0000001
 43
0.0000001
 44
0.0000000001
 40
0.0
 40
0.0
 40
0.0
 40
0.0
 40
0.2372531816
 40
0.5000006935
 40
0.7627478297
 40
1.0
 40
1.0
 40
1.0
 40
1.0
 10
156.8848813139
 20
267.2405026714
 30
0.0
 10
156.4833020328
 20
267.4723493324
 30
0.0
 10
155.5494943815
 20
267.8107217325
 30
0.0
 10
154.0564489226
 20
267.9724918941
 30
0.0
 10
152.563406232
 20
267.8107145986
 30
0.0
 10
151.6296029619
 20
267.4723376426
 30
0.0
 10
151.2280270644
 20
267.240489074
 30
0.0
  0
SPLINE
  5
555
100
AcDbEntity
  8
00_COMPONENTS
100
AcDbSpline
 62
7
  6
CONTINUOUS
 70
0
 71
3
 72
11
 73
7
 74
0
 42
0.0000001
 43
0.0000001
 44
0.0000000001
 40
0.0
 40
0.0
 40
0.0
 40
0.0
 40
0.2895416688
 40
0.549118971
 40
0.7822562702
 40
1.0
 40
1.0
 40
1.0
 40
1.0
 10
143.0963329365
 20
262.5456813044
 30
0.0
 10
142.9209207512
 20
262.4444076366
 30
0.0
 10
142.6026056351
 20
262.2249184862
 30
0.0
 10
142.2218378232
 20
261.8251755655
 30
0.0
 10
141.9809312161
 20
261.3826177056
 30
0.0
 10
141.9249956016
 20
261.065040439
 30
0.0
 10
141.9249956489
 20
260.912718288
 30
0.0
  0
SPLINE
  5
556
100
AcDbEntity
  8
00_COMPONENTS
100
AcDbSpline
 62
7
  6
CONTINUOUS
 70
0
 71
3
 72
9
 73
5
 74
0
 42
0.0000001
 43
0.0000001
 44
0.0000000001
 40
0.0
 40
0.0
 40
0.0
 40
0.0
 40
0.2383412729
 40
1.0
 40
1.0
 40
1.0
 40
1.0
 10
44.6720112202
 20
256.5974800947
 30
0.0
 10
44.7836065991
 20
256.5101559927
 30
0.0
 10
45.2361470833
 20
256.1239132344
 30
0.0
 10
45.6282228384
 20
255.6689496205
 30
0.0
 10
45.8904853524
 20
255.2998008087
 30
0.0
  0
SPLINE
  5
557
100
AcDbEntity
  8
00_COMPONENTS
100
AcDbSpline
 62
7
  6
CONTINUOUS
 70
0
 71
3
 72
13
 73
9
 74
0
 42
0.0000001
 43
0.0000001
 44
0.0000000001
 40
0.0
 40
0.0
 40
0.0
 40
0.0
 40
0.2699336621
 40
0.5613241335
 40
0.6954675297
 40
0.8131379116
 40
0.9128505993
 40
1.0
 40
1.0
 40
1.0
 40
1.0
 10
135.5657156361
 20
232.2740440041
 30
0.0
 10
135.5657156361
 20
232.0507268305
 30
0.0
 10
135.6885092438
 20
231.5878586581
 30
0.0
 10
136.0063694117
 20
231.0964925004
 30
0.0
 10
136.3447765393
 20
230.7963538585
 30
0.0
 10
136.6027910304
 20
230.6555187626
 30
0.0
 10
136.8552599472
 20
230.6049455079
 30
0.0
 10
137.0121337976
 20
230.645206137
 30
0.0
 10
137.0745898055
 20
230.6812272227
 30
0.0
  0
ELLIPSE
  5
558
100
AcDbEntity
  8
00_COMPONENTS
100
AcDbEllipse
 62
7
  6
CONTINUOUS
 10
128.2869503316
 20
69.3842656597
 30
0.0
 11
-3.6730991824
 21
4.7945007475
 31
0.0
 40
0.4694682735
 41
-2.41754961
 42
-0.9854117116
  0
ELLIPSE
  5
559
100
AcDbEntity
  8
00_COMPONENTS
100
AcDbEllipse
 62
7
  6
CONTINUOUS
 10
85.8603668228
 20
93.8787109309
 30
0.0
 11
-3.6730991824
 21
4.7945007475
 31
0.0
 40
0.4694682735
 41
-2.41754961
 42
-0.9854117116
  0
ELLIPSE
  5
55A
100
AcDbEntity
  8
00_COMPONENTS
100
AcDbEllipse
 62
7
  6
CONTINUOUS
 10
38.0201984987
 20
168.0755563665
 30
0.0
 11
-5.0001146967
 21
8.6602669594
 31
0.0
 40
0.5773567998
 41
0.7853930955
 42
2.3561894223
  0
ELLIPSE
  5
55B
100
AcDbEntity
  8
00_COMPONENTS
100
AcDbEllipse
 62
7
  6
CONTINUOUS
 10
136.4954154874
 20
68.8163104157
 30
0.0
 11
-0.6734015168
 21
0.8789918037
 31
0.0
 40
0.4694682735
 41
1.1179167576
 42
3.4717629635
  0
ELLIPSE
  5
55C
100
AcDbEntity
  8
00_COMPONENTS
100
AcDbEllipse
 62
7
  6
CONTINUOUS
 10
76.1082449599
 20
103.6800708518
 30
0.0
 11
-0.6734015168
 21
0.8789918037
 31
0.0
 40
0.4694682735
 41
1.1179167576
 42
3.4717629635
  0
ELLIPSE
  5
55D
100
AcDbEntity
  8
00_COMPONENTS
100
AcDbEllipse
 62
7
  6
CONTINUOUS
 10
170.6408495985
 20
217.9503431047
 30
0.0
 11
-1.0087671284
 21
2.8553399171
 31
0.0
 40
0.6665664847
 41
5.6195887797
 42
8.7644264707
  0
ELLIPSE
  5
55E
100
AcDbEntity
  8
00_COMPONENTS
100
AcDbEllipse
 62
7
  6
CONTINUOUS
 10
43.433783314
 20
118.3731562021
 30
0.0
 11
-1.8365495912
 21
2.3972503738
 31
0.0
 40
0.4694682735
 41
-3.9883459368
 42
-0.8467532832
  0
ELLIPSE
  5
55F
100
AcDbEntity
  8
00_COMPONENTS
100
AcDbEllipse
 62
7
  6
CONTINUOUS
 10
128.2869503316
 20
69.3842656597
 30
0.0
 11
-3.6730991824
 21
4.7945007475
 31
0.0
 40
0.4694682735
 41
5.5814665515
 42
7.0072283508
  0
ELLIPSE
  5
560
100
AcDbEntity
  8
00_COMPONENTS
100
AcDbEllipse
 62
7
  6
CONTINUOUS
 10
85.8603668228
 20
93.8787109309
 30
0.0
 11
-3.6730991824
 21
4.7945007475
 31
0.0
 40
0.4694682735
 41
5.5814665515
 42
7.0072283508
  0
ELLIPSE
  5
561
100
AcDbEntity
  8
00_COMPONENTS
100
AcDbEllipse
 62
7
  6
CONTINUOUS
 10
149.6884188586
 20
122.7110051052
 30
0.0
 11
-5.0001146967
 21
8.6602669594
 31
0.0
 40
0.5773567998
 41
-3.1442107076
 42
-2.3561995581
  0
ELLIPSE
  5
562
100
AcDbEntity
  8
00_COMPONENTS
100
AcDbEllipse
 62
7
  6
CONTINUOUS
 10
38.0201984987
 20
239.1112666567
 30
0.0
 11
-5.0001146967
 21
8.6602669594
 31
0.0
 40
0.5773567998
 41
-0.7854032313
 42
0.7853930955
  0
ELLIPSE
  5
563
100
AcDbEntity
  8
00_COMPONENTS
100
AcDbEllipse
 62
7
  6
CONTINUOUS
 10
76.0374856416
 20
266.6131006432
 30
0.0
 11
-0.4203196368
 21
1.1897249654
 31
0.0
 40
0.6665664847
 41
4.2111056245
 42
7.0313169722
  0
ELLIPSE
  5
564
100
AcDbEntity
  8
00_COMPONENTS
100
AcDbEllipse
 62
7
  6
CONTINUOUS
 10
85.7911244756
 20
266.9372465132
 30
0.0
 11
-2.0175342568
 21
5.7106798341
 31
0.0
 40
0.6665664847
 41
0.908822318
 42
4.0504149716
  0
ELLIPSE
  5
565
100
AcDbEntity
  8
00_COMPONENTS
100
AcDbEllipse
 62
7
  6
CONTINUOUS
 10
65.3012847992
 20
284.3378659269
 30
0.0
 11
-3.1103653126
 21
8.8039647443
 31
0.0
 40
0.6665664847
 41
0.0
 42
6.2831853072
  0
ELLIPSE
  5
566
100
AcDbEntity
  8
00_COMPONENTS
100
AcDbEllipse
 62
7
  6
CONTINUOUS
 10
150.1544518168
 20
235.3489753845
 30
0.0
 11
-3.1103653126
 21
8.8039647443
 31
0.0
 40
0.6665664847
 41
0.0
 42
6.2831853072
  0
ELLIPSE
  5
567
100
AcDbEntity
  8
00_COMPONENTS
100
AcDbEllipse
 62
7
  6
CONTINUOUS
 10
136.4246561692
 20
231.7493402072
 30
0.0
 11
-0.4203196368
 21
1.1897249654
 31
0.0
 40
0.6665664847
 41
4.2111056245
 42
7.0313169722
  0
ELLIPSE
  5
568
100
AcDbEntity
  8
00_COMPONENTS
100
AcDbEllipse
 62
7
  6
CONTINUOUS
 10
128.2177079845
 20
242.442801242
 30
0.0
 11
-2.0175342568
 21
5.7106798341
 31
0.0
 40
0.6665664847
 41
0.908822318
 42
4.0504149716
  0
ELLIPSE
  5
569
100
AcDbEntity
  8
00_COMPONENTS
100
AcDbEllipse
 62
7
  6
CONTINUOUS
 10
65.3691080443
 20
101.8070829918
 30
0.0
 11
-5.6626945728
 21
7.3915219857
 31
0.0
 40
0.4694682735
 41
0.0
 42
6.2831853072
  0
ELLIPSE
  5
56A
100
AcDbEntity
  8
00_COMPONENTS
100
AcDbEllipse
 62
7
  6
CONTINUOUS
 10
107.727868308
 20
259.8434206557
 30
0.0
 11
-3.1103653126
 21
8.8039647443
 31
0.0
 40
0.6665664847
 41
0.0
 42
6.2831853072
  0
ELLIPSE
  5
56B
100
AcDbEntity
  8
00_COMPONENTS
100
AcDbEllipse
 62
7
  6
CONTINUOUS
 10
149.6884188587
 20
193.7467153954
 30
0.0
 11
-5.0001146967
 21
8.6602669594
 31
0.0
 40
0.5773567998
 41
-2.3561995581
 42
-0.7854032313
  0
ELLIPSE
  5
56C
100
AcDbEntity
  8
00_COMPONENTS
100
AcDbEllipse
 62
7
  6
CONTINUOUS
 10
54.4797909198
 20
248.7141988345
 30
0.0
 11
-5.0001146967
 21
8.6602669594
 31
0.0
 40
0.5773567998
 41
-0.7854032313
 42
0.0026180536
  0
ELLIPSE
  5
56D
100
AcDbEntity
  8
00_COMPONENTS
100
AcDbEllipse
 62
7
  6
CONTINUOUS
 10
133.0555516981
 20
113.2081108817
 30
0.0
 11
-5.0001146967
 21
8.6602669594
 31
0.0
 40
0.5773567998
 41
2.3561894223
 42
3.9269857491
  0
ELLIPSE
  5
56E
100
AcDbEntity
  8
00_COMPONENTS
100
AcDbEllipse
 62
7
  6
CONTINUOUS
 10
133.0555516981
 20
184.243821172
 30
0.0
 11
-5.0001146967
 21
8.6602669594
 31
0.0
 40
0.5773567998
 41
-2.3561995581
 42
-0.7854032313
  0
ELLIPSE
  5
56F
100
AcDbEntity
  8
00_COMPONENTS
100
AcDbEllipse
 62
7
  6
CONTINUOUS
 10
107.7956915531
 20
77.3126377206
 30
0.0
 11
-5.6626945728
 21
7.3915219857
 31
0.0
 40
0.4694682735
 41
0.0
 42
6.2831853072
  0
ELLIPSE
  5
570
100
AcDbEntity
  8
00_COMPONENTS
100
AcDbEllipse
 62
7
  6
CONTINUOUS
 10
170.7135338404
 20
44.8898203885
 30
0.0
 11
-1.8365495912
 21
2.3972503738
 31
0.0
 40
0.4694682735
 41
5.436432024
 42
8.5780246776
  0
ELLIPSE
  5
571
100
AcDbEntity
  8
00_COMPONENTS
100
AcDbEllipse
 62
7
  6
CONTINUOUS
 10
150.222275062
 20
52.8181924494
 30
0.0
 11
-5.6626945728
 21
7.3915219857
 31
0.0
 40
0.4694682735
 41
0.0
 42
6.2831853072
  0
ENDSEC
  0
SECTION
  2
OBJECTS
  0
DICTIONARY
  5
C
100
AcDbDictionary
280
0
281
1
  3
ACAD_GROUP
350
D
  3
ACAD_MLINESTYLE
350
17
  3
ACAD_LAYOUT
350
1A
  3
ACAD_PLOTSETTINGS
350
19
  3
ACAD_PLOTSTYLENAME
350
E
  0
DICTIONARY
  5
D
102
{ACAD_REACTORS
330
C
102
}
100
AcDbDictionary
280
0
281
1
  0
ACDBDICTIONARYWDFLT
  5
E
102
{ACAD_REACTORS
330
C
102
}
100
AcDbDictionary
281
1
  3
Normal
350
F
100
AcDbDictionaryWithDefault
340
F
  0
DICTIONARY
  5
17
102
{ACAD_REACTORS
330
C
102
}
100
AcDbDictionary
280
0
281
1
  3
Standard
350
18
  0
DICTIONARY
  5
19
102
{ACAD_REACTORS
330
C
102
}
100
AcDbDictionary
281
1
  0
DICTIONARY
  5
1A
102
{ACAD_REACTORS
330
C
102
}
100
AcDbDictionary
281
1
  3
Model
350
572
  3
Layout1
350
573
  0
ACDBPLACEHOLDER
  5
F
102
{ACAD_REACTORS
330
E
102
}
  0
MLINESTYLE
  5
18
102
{ACAD_REACTORS
330
17
102
}
100
AcDbMlineStyle
  2
STANDARD
 70
0
  3

 62
256
 51
90.0
 52
90.0
 71
2
 49
0.5
 62
256
  6
BYLAYER
 49
-0.5
 62
256
  6
BYLAYER
  0
LAYOUT
  5
572
102
{ACAD_REACTORS
330
1A
102
}
100
AcDbPlotSettings
  1

  2
none_device
  4

  6

 40
0.0
 41
0.0
 42
0.0
 43
0.0
 44
210.0
 45
297.0
 46
0.0
 47
0.0
 48
0.0
 49
0.0
140
0.0
141
0.0
142
1.0
143
1.0
 70
1024
 72
1
 73
0
 74
0
  7

 75
0
147
1.0
148
0.0
149
0.0
100
AcDbLayout
  1
Model
 70
0
 71
0
 10
0.0
 20
0.0
 11
210.0
 21
297.0
 12
0.0
 22
0.0
 32
0.0
 14
0.0
 24
0.0
 34
0.0
 15
0.0
 25
0.0
 35
0.0
146
0.0
 13
0.0
 23
0.0
 33
0.0
 16
1.0
 26
0.0
 36
0.0
 17
0.0
 27
1.0
 37
0.0
 76
0
330
213
345
0
346
0
  0
LAYOUT
  5
573
102
{ACAD_REACTORS
330
1A
102
}
100
AcDbPlotSettings
  1

  2
none_device
  4

  6

 40
0.0
 41
0.0
 42
0.0
 43
0.0
 44
210.0
 45
297.0
 46
0.0
 47
0.0
 48
0.0
 49
0.0
140
0.0
141
0.0
142
1.0
143
1.0
 70
0
 72
1
 73
0
 74
0
  7

 75
0
147
1.0
148
0.0
149
0.0
100
AcDbLayout
  1
Layout1
 70
0
 71
1
 10
0.0
 20
0.0
 11
210.0
 21
297.0
 12
0.0
 22
0.0
 32
0.0
 14
0.0
 24
0.0
 34
0.0
 15
0.0
 25
0.0
 35
0.0
146
0.0
 13
0.0
 23
0.0
 33
0.0
 16
1.0
 26
0.0
 36
0.0
 17
0.0
 27
1.0
 37
0.0
 76
0
330
214
345
0
346
0
  0
ENDSEC
  0
EOF
