999
DXF file: C:\Users\SESA621925\Desktop\Projects\Drawing_creation_tool\Gen2D (3) (1)\CAD\G80N4TM500_3D-CAD\drw0001_1.dxf
999
Pro/ENGINEER 2019471 by Parametric Technology Corporation
  0
SECTION
  2
HEADER
  9
$ACADVER
  1
AC1024
  9
$DWGCODEPAGE
  3
ANSI_1252
  9
$EXTMAX
 10
311.3585207186
 20
440.3499078735
 30
0.0
  9
$EXTMIN
 10
0.0
 20
0.0
 30
0.0
  9
$LIMMIN
 10
0.0
 20
0.0
  9
$LIMMAX
 10
311.3585207186
 20
440.3499078735
  9
$VIEWCTR
 10
155.6792603593
 20
220.1749539367
  9
$VIEWSIZE
 40
440.3499078735
  9
$CLAYER
  8
0
  9
$LTSCALE
 40
28.704290291
  9
$CELTYPE
  6
BYLAYER
  9
$DIMSCALE
 40
1.0
  9
$DIMASZ
 40
3.7066490562
  9
$DIMEXO
 40
1.0
  9
$DIMDLI
 40
19.8320551102
  9
$DIMEXE
 40
1.0
  9
$DIMCEN
 40
4.697065684
  9
$DIMLFAC
 40
1.0
  9
$DIMBLK
  1
_FILLED
  9
$DIMALT
 70
0
  9
$DIMALTF
 40
0.0393700787
  9
$DIMTXT
 40
5.1893086786
  9
$DIMTOL
 70
1
  9
$DIMLIM
 70
0
  9
$DIMTFAC
 40
1.0
  9
$DIMTP
 40
0.01
  9
$DIMTM
 40
0.01
  9
$DIMGAP
 40
0.625
  9
$DIMDSEP
 70
46
  9
$AUNITS
 70
0
  9
$PDMODE
 70
3
  9
$PDSIZE
 40
0.3125
  9
$HANDSEED
  5
60E
  9
$TILEMODE
 70
1
  9
$MEASUREMENT
 70
1
  9
$INSUNITS
 70
4
  0
ENDSEC
  0
SECTION
  2
CLASSES
  0
CLASS
  1
ACDBDICTIONARYWDFLT
  2
AcDbDictionaryWithDefault
  3
AutoCAD 2000
 90
0
 91
1
280
0
281
0
  0
CLASS
  1
ACDBPLACEHOLDER
  2
AcDbPlaceHolder
  3
AutoCAD 2000
 90
0
 91
1
280
0
281
0
  0
CLASS
  1
LAYOUT
  2
AcDbLayout
  3
AutoCAD 2000
 90
0
 91
0
280
0
281
0
  0
ENDSEC
  0
SECTION
  2
TABLES
  0
TABLE
  2
VPORT
  5
8
100
AcDbSymbolTable
 70
2
  0
VPORT
  5
1F4
100
AcDbSymbolTableRecord
100
AcDbViewportTableRecord
  2
*ACTIVE
 70
0
 10
0.0
 20
0.0
 11
1.0
 21
1.0
 12
155.6792603593
 22
220.1749539367
 13
0.0
 23
0.0
 14
1.0
 24
1.0
 15
0.0
 25
0.0
 16
0.0
 26
0.0
 36
1.0
 17
0.0
 27
0.0
 37
0.0
 40
440.3499078735
 41
0.7070707071
 42
50.0
 43
0.0
 44
0.0
 50
0.0
 51
0.0
 71
0
 72
100
 73
1
 74
1
 75
0
 76
0
 77
0
 78
0
  0
ENDTAB
  0
TABLE
  2
LTYPE
  5
5
100
AcDbSymbolTable
 70
6
  0
LTYPE
  5
14
100
AcDbSymbolTableRecord
100
AcDbLinetypeTableRecord
  2
BYBLOCK
 70
0
  3

 72
65
 73
0
 40
0.0
  0
LTYPE
  5
15
100
AcDbSymbolTableRecord
100
AcDbLinetypeTableRecord
  2
BYLAYER
 70
0
  3

 72
65
 73
0
 40
0.0
  0
LTYPE
  5
16
100
AcDbSymbolTableRecord
100
AcDbLinetypeTableRecord
  2
CONTINUOUS
 70
64
  3
Solid line
 72
65
 73
0
 40
0.0
  0
LTYPE
  5
1F5
100
AcDbSymbolTableRecord
100
AcDbLinetypeTableRecord
  2
CENTER
 70
64
  3
____ _ ____ _ ____ _ ____ _ ____ _ ____ _ ____
 72
65
 73
4
 40
0.6
 49
0.375
 74
0
 49
-0.075
 74
0
 49
0.075
 74
0
 49
-0.075
 74
0
  0
LTYPE
  5
1F6
100
AcDbSymbolTableRecord
100
AcDbLinetypeTableRecord
  2
HIDDEN
 70
64
  3
- - - - - - - - - - - - - - - - - - - -
 72
65
 73
2
 40
0.2
 49
0.1
 74
0
 49
-0.1
 74
0
  0
LTYPE
  5
1F7
100
AcDbSymbolTableRecord
100
AcDbLinetypeTableRecord
  2
PHANTOM
 70
64
  3
_____ _ _ _____ _ _ _____ _ _ _____
 72
65
 73
6
 40
0.8
 49
0.45
 74
0
 49
-0.05
 74
0
 49
0.1
 74
0
 49
-0.05
 74
0
 49
0.1
 74
0
 49
-0.05
 74
0
  0
LTYPE
  5
1F8
100
AcDbSymbolTableRecord
100
AcDbLinetypeTableRecord
  2
DOT
 70
64
  3
. . . . . . . . . . . . . . . . . . . .
 72
65
 73
2
 40
0.2
 49
0.1
 74
0
 49
-0.1
 74
0
  0
LTYPE
  5
1F9
100
AcDbSymbolTableRecord
100
AcDbLinetypeTableRecord
  2
DASHED
 70
64
  3
- - - - - - - - - - - - - - - - - - - -
 72
65
 73
2
 40
0.2
 49
0.1
 74
0
 49
-0.1
 74
0
  0
ENDTAB
  0
TABLE
  2
LAYER
  5
2
100
AcDbSymbolTable
 70
36
  0
LAYER
  5
10
100
AcDbSymbolTableRecord
100
AcDbLayerTableRecord
  2
0
 70
0
 62
7
  6
CONTINUOUS
370
-3
390
F
  0
LAYER
  5
1FA
100
AcDbSymbolTableRecord
100
AcDbLayerTableRecord
  2
DEFAULT_1
 70
0
 62
7
  6
CENTER
370
-3
390
F
  0
LAYER
  5
1FB
100
AcDbSymbolTableRecord
100
AcDbLayerTableRecord
  2
DEFAULT_2
 70
0
 62
8
  6
HIDDEN
370
-3
390
F
  0
LAYER
  5
1FC
100
AcDbSymbolTableRecord
100
AcDbLayerTableRecord
  2
DEFAULT_3
 70
0
 62
7
  6
PHANTOM
370
-3
390
F
  0
LAYER
  5
1FD
100
AcDbSymbolTableRecord
100
AcDbLayerTableRecord
  2
00_COMPONENTS
 70
0
 62
7
  6
CONTINUOUS
370
-3
390
F
  0
LAYER
  5
1FE
100
AcDbSymbolTableRecord
100
AcDbLayerTableRecord
  2
00_COMPONENTS_1
 70
0
 62
7
  6
CONTINUOUS
370
-3
390
F
  0
LAYER
  5
1FF
100
AcDbSymbolTableRecord
100
AcDbLayerTableRecord
  2
00_COMPONENTS_2
 70
0
 62
7
  6
CONTINUOUS
370
-3
390
F
  0
LAYER
  5
200
100
AcDbSymbolTableRecord
100
AcDbLayerTableRecord
  2
00_COMPONENTS_4
 70
0
 62
7
  6
CONTINUOUS
370
-3
390
F
  0
LAYER
  5
201
100
AcDbSymbolTableRecord
100
AcDbLayerTableRecord
  2
01_1_DEFAULT_DATUMS
 70
0
 62
7
  6
CONTINUOUS
370
-3
390
F
  0
LAYER
  5
202
100
AcDbSymbolTableRecord
100
AcDbLayerTableRecord
  2
01_PLANES
 70
0
 62
7
  6
CONTINUOUS
370
-3
390
F
  0
LAYER
  5
203
100
AcDbSymbolTableRecord
100
AcDbLayerTableRecord
  2
02_COORD_SYS
 70
0
 62
7
  6
CONTINUOUS
370
-3
390
F
  0
LAYER
  5
204
100
AcDbSymbolTableRecord
100
AcDbLayerTableRecord
  2
03_AXES
 70
0
 62
7
  6
CONTINUOUS
370
-3
390
F
  0
LAYER
  5
205
100
AcDbSymbolTableRecord
100
AcDbLayerTableRecord
  2
04_POINTS
 70
0
 62
7
  6
CONTINUOUS
370
-3
390
F
  0
LAYER
  5
206
100
AcDbSymbolTableRecord
100
AcDbLayerTableRecord
  2
05_CURVES
 70
0
 62
7
  6
CONTINUOUS
370
-3
390
F
  0
LAYER
  5
207
100
AcDbSymbolTableRecord
100
AcDbLayerTableRecord
  2
06_SURFS
 70
0
 62
7
  6
CONTINUOUS
370
-3
390
F
  0
LAYER
  5
208
100
AcDbSymbolTableRecord
100
AcDbLayerTableRecord
  2
07_COSMETICS
 70
0
 62
7
  6
CONTINUOUS
370
-3
390
F
  0
LAYER
  5
209
100
AcDbSymbolTableRecord
100
AcDbLayerTableRecord
  2
10_NOTES
 70
0
 62
7
  6
CONTINUOUS
370
-3
390
F
  0
LAYER
  5
20A
100
AcDbSymbolTableRecord
100
AcDbLayerTableRecord
  2
11_NOTES_PUB
 70
0
 62
7
  6
CONTINUOUS
370
-3
390
F
  0
LAYER
  5
20B
100
AcDbSymbolTableRecord
100
AcDbLayerTableRecord
  2
13_REF_GTOL
 70
0
 62
7
  6
CONTINUOUS
370
-3
390
F
  0
LAYER
  5
20C
100
AcDbSymbolTableRecord
100
AcDbLayerTableRecord
  2
16_MISC
 70
0
 62
7
  6
CONTINUOUS
370
-3
390
F
  0
LAYER
  5
20D
100
AcDbSymbolTableRecord
100
AcDbLayerTableRecord
  2
17_NO_PRINT
 70
0
 62
7
  6
CONTINUOUS
370
-3
390
F
  0
LAYER
  5
20E
100
AcDbSymbolTableRecord
100
AcDbLayerTableRecord
  2
18_DATUM_CAMS_JOINTS
 70
0
 62
7
  6
CONTINUOUS
370
-3
390
F
  0
LAYER
  5
20F
100
AcDbSymbolTableRecord
100
AcDbLayerTableRecord
  2
19_DATUM_FUNCTIONAL
 70
0
 62
7
  6
CONTINUOUS
370
-3
390
F
  0
LAYER
  5
210
100
AcDbSymbolTableRecord
100
AcDbLayerTableRecord
  2
20_DATUM_KINEMATIC_SCHEME
 70
0
 62
7
  6
CONTINUOUS
370
-3
390
F
  0
ENDTAB
  0
TABLE
  2
STYLE
  5
3
100
AcDbSymbolTable
 70
1
  0
STYLE
  5
11
100
AcDbSymbolTableRecord
100
AcDbTextStyleTableRecord
  2
STANDARD
 70
0
 40
0.0
 41
0.8
 50
0.0
 71
0
 42
0.2
  3
txt
  4

  0
STYLE
  5
211
100
AcDbSymbolTableRecord
100
AcDbTextStyleTableRecord
  2
TEXTSTYLE_1
 70
0
 40
0.0
 41
0.8
 50
0.0
 71
0
 42
0.2
  3
gdt
  4

  0
ENDTAB
  0
TABLE
  2
VIEW
  5
6
100
AcDbSymbolTable
 70
0
  0
ENDTAB
  0
TABLE
  2
UCS
  5
7
100
AcDbSymbolTable
 70
0
  0
ENDTAB
  0
TABLE
  2
APPID
  5
9
100
AcDbSymbolTable
 70
1
  0
APPID
  5
212
100
AcDbSymbolTableRecord
100
AcDbRegAppTableRecord
  2
ACAD
 70
0
  0
ENDTAB
  0
TABLE
  2
BLOCK_RECORD
  5
1
100
AcDbSymbolTable
 70
0
  0
BLOCK_RECORD
  5
213
100
AcDbSymbolTableRecord
100
AcDbBlockTableRecord
  2
*Model_Space
  0
BLOCK_RECORD
  5
214
100
AcDbSymbolTableRecord
100
AcDbBlockTableRecord
  2
*Paper_Space
  0
BLOCK_RECORD
  5
215
100
AcDbSymbolTableRecord
100
AcDbBlockTableRecord
  2
_FILLED
  0
ENDTAB
  0
TABLE
  2
DIMSTYLE
  5
A
100
AcDbSymbolTable
 70
1
100
AcDbDimStyleTable
 71
0
  0
DIMSTYLE
105
216
100
AcDbSymbolTableRecord
100
AcDbDimStyleTableRecord
  2
STANDARD
 70
0
  3

  4

 40
1.0
 41
3.7066490562
 42
1.0
 43
0.38
 44
1.0
 45
0.0
 46
0.0
 47
0.01
 48
0.01
140
5.1893086786
141
0.09
142
0.0
143
25.4
144
1.0
145
0.0
146
1.0
147
0.625
 71
1
 72
0
 73
0
 74
0
 75
0
 76
0
 77
1
 78
8
 79
2
170
0
171
1
172
0
173
0
174
0
175
0
176
0
177
0
178
0
270
2
179
2
271
2
272
2
273
2
274
2
275
0
280
0
281
0
282
0
283
1
284
8
285
0
286
0
287
3
288
0
340
11
278
46
341
215
342
215
343
215
344
215
  0
ENDTAB
  0
ENDSEC
  0
SECTION
  2
BLOCKS
  0
BLOCK
  5
20
100
AcDbEntity
  8
0
100
AcDbBlockBegin
  2
*Model_Space
 70
0
 10
0.0
 20
0.0
 30
0.0
  3
*Model_Space
  1

  0
ENDBLK
  5
21
100
AcDbEntity
  8
0
100
AcDbBlockEnd
  0
BLOCK
  5
1C
100
AcDbEntity
  8
0
100
AcDbBlockBegin
  2
*Paper_Space
 70
0
 10
0.0
 20
0.0
 30
0.0
  3
*Paper_Space
  1

  0
ENDBLK
  5
1D
100
AcDbEntity
  8
0
100
AcDbBlockEnd
  0
BLOCK
  5
217
100
AcDbEntity
  8
0
100
AcDbBlockBegin
  2
_FILLED
 70
64
 10
0.0
 20
0.0
  3
_FILLED
  1

  0
SOLID
  5
218
100
AcDbEntity
  8
0
  6
BYBLOCK
 62
0
100
AcDbTrace
 10
0.0
 20
0.0
 11
-1.0
 21
0.25
 12
-1.0
 22
-0.25
 13
-1.0
 23
-0.25
  0
ENDBLK
  5
219
100
AcDbEntity
  8
0
  6
BYBLOCK
 62
0
100
AcDbBlockEnd
  0
ENDSEC
  0
SECTION
  2
ENTITIES
  0
LINE
  5
21A
100
AcDbEntity
  8
00_COMPONENTS
100
AcDbLine
 62
7
  6
CONTINUOUS
 10
44.4699259468
 20
352.1114604739
 11
111.4255882926
 21
390.768099404
  0
LINE
  5
21B
100
AcDbEntity
  8
00_COMPONENTS
100
AcDbLine
 62
7
  6
CONTINUOUS
 10
76.8503781874
 20
368.3542643541
 11
99.8312528969
 21
381.6221993549
  0
LINE
  5
21C
100
AcDbEntity
  8
00_COMPONENTS
100
AcDbLine
 62
7
  6
CONTINUOUS
 10
55.9201069611
 20
355.9436434362
 11
64.051801089
 21
360.6384512057
  0
LINE
  5
21D
100
AcDbEntity
  8
00_COMPONENTS
100
AcDbLine
 62
7
  6
CONTINUOUS
 10
71.5471170721
 20
362.8429784749
 11
78.9717073629
 21
367.1295420906
  0
LINE
  5
21E
100
AcDbEntity
  8
00_COMPONENTS
100
AcDbLine
 62
7
  6
CONTINUOUS
 10
44.4869582327
 20
344.6094717725
 11
42.0767668792
 21
343.2154518665
  0
LINE
  5
21F
100
AcDbEntity
  8
00_COMPONENTS
100
AcDbLine
 62
7
  6
CONTINUOUS
 10
102.8948505294
 20
373.5747257647
 11
108.2688396922
 21
376.6773813341
  0
LINE
  5
220
100
AcDbEntity
  8
00_COMPONENTS
100
AcDbLine
 62
7
  6
CONTINUOUS
 10
75.9312209198
 20
357.0459461633
 11
78.7596362686
 21
358.6789227788
  0
LINE
  5
221
100
AcDbEntity
  8
00_COMPONENTS
100
AcDbLine
 62
7
  6
CONTINUOUS
 10
63.7690484619
 20
348.1462314274
 11
62.2134200201
 21
347.2480942889
  0
LINE
  5
222
100
AcDbEntity
  8
00_COMPONENTS
100
AcDbLine
 62
7
  6
CONTINUOUS
 10
40.6548095327
 20
333.0863629722
 11
43.0926709769
 21
334.4938545317
  0
LINE
  5
223
100
AcDbEntity
  8
00_COMPONENTS
100
AcDbLine
 62
7
  6
CONTINUOUS
 10
97.0033470169
 20
364.5570165387
 11
98.4175546913
 21
365.3735048464
  0
LINE
  5
224
100
AcDbEntity
  8
00_COMPONENTS
100
AcDbLine
 62
7
  6
CONTINUOUS
 10
96.5785929095
 20
367.4967925164
 11
102.8948505294
 21
373.5747257647
  0
LINE
  5
225
100
AcDbEntity
  8
00_COMPONENTS
100
AcDbLine
 62
7
  6
CONTINUOUS
 10
92.4466689416
 20
351.739974381
 11
89.7436579346
 21
349.7677069926
  0
LINE
  5
226
100
AcDbEntity
  8
00_COMPONENTS
100
AcDbLine
 62
7
  6
CONTINUOUS
 10
97.2355784701
 20
360.0722993694
 11
99.0033380631
 21
361.0929097541
  0
LINE
  5
227
100
AcDbEntity
  8
00_COMPONENTS
100
AcDbLine
 62
7
  6
CONTINUOUS
 10
36.1211706682
 20
324.018510665
 11
40.4345076967
 21
326.5088020944
  0
LINE
  5
228
100
AcDbEntity
  8
00_COMPONENTS
100
AcDbLine
 62
7
  6
CONTINUOUS
 10
97.7355762317
 20
359.2062726733
 11
89.2503301851
 21
354.3073428268
  0
LINE
  5
229
100
AcDbEntity
  8
00_COMPONENTS
100
AcDbLine
 62
7
  6
CONTINUOUS
 10
75.9312209198
 20
346.2681142572
 11
78.7596362686
 21
347.9010908727
  0
LINE
  5
22A
100
AcDbEntity
  8
00_COMPONENTS
100
AcDbLine
 62
7
  6
CONTINUOUS
 10
79.3253049928
 20
345.3697332099
 11
87.4164694445
 21
350.0411412996
  0
LINE
  5
22B
100
AcDbEntity
  8
00_COMPONENTS
100
AcDbLine
 62
7
  6
CONTINUOUS
 10
109.4885751559
 20
362.527732816
 11
108.5877059032
 21
362.0076188151
  0
LINE
  5
22C
100
AcDbEntity
  8
00_COMPONENTS
100
AcDbLine
 62
7
  6
CONTINUOUS
 10
92.7431125785
 20
351.4994326016
 11
89.7436579346
 21
349.7677069926
  0
LINE
  5
22D
100
AcDbEntity
  8
00_COMPONENTS
100
AcDbLine
 62
7
  6
CONTINUOUS
 10
77.9112429649
 20
339.981416337
 11
76.355614523
 21
339.0832791985
  0
LINE
  5
22E
100
AcDbEntity
  8
00_COMPONENTS
100
AcDbLine
 62
7
  6
CONTINUOUS
 10
93.3261201584
 20
347.0032236021
 11
96.1545355072
 21
348.6362002176
  0
LINE
  5
22F
100
AcDbEntity
  8
00_COMPONENTS
100
AcDbLine
 62
7
  6
CONTINUOUS
 10
127.4562620841
 20
365.5997684602
 11
122.0822729212
 21
362.4971128907
  0
LINE
  5
230
100
AcDbEntity
  8
00_COMPONENTS
100
AcDbLine
 62
7
  6
CONTINUOUS
 10
93.3261201584
 20
345.8677090945
 11
91.0417566859
 21
344.5488391014
  0
LINE
  5
231
100
AcDbEntity
  8
00_COMPONENTS
100
AcDbLine
 62
7
  6
CONTINUOUS
 10
42.0767668792
 20
343.2154518665
 11
41.4281544855
 21
338.5951637752
  0
LINE
  5
232
100
AcDbEntity
  8
00_COMPONENTS
100
AcDbLine
 62
7
  6
CONTINUOUS
 10
40.6548095327
 20
333.0863629722
 11
40.2930833078
 21
330.5096632585
  0
LINE
  5
233
100
AcDbEntity
  8
00_COMPONENTS
100
AcDbLine
 62
7
  6
CONTINUOUS
 10
44.4699259468
 20
352.1114604739
 11
43.621740752
 21
346.06954701
  0
LINE
  5
234
100
AcDbEntity
  8
00_COMPONENTS
100
AcDbLine
 62
7
  6
CONTINUOUS
 10
43.3223812715
 20
343.9371069639
 11
43.1352815962
 21
342.6043319351
  0
LINE
  5
235
100
AcDbEntity
  8
00_COMPONENTS
100
AcDbLine
 62
7
  6
CONTINUOUS
 10
44.6116943672
 20
345.4980099537
 11
44.3123348867
 21
343.3655699076
  0
LINE
  5
236
100
AcDbEntity
  8
00_COMPONENTS
100
AcDbLine
 62
7
  6
CONTINUOUS
 10
115.4885482947
 20
352.1354124623
 11
114.5963687043
 21
351.6203154103
  0
LINE
  5
237
100
AcDbEntity
  8
00_COMPONENTS
100
AcDbLine
 62
7
  6
CONTINUOUS
 10
110.7916449945
 20
348.7587081371
 11
103.3670547037
 21
344.4721445215
  0
LINE
  5
238
100
AcDbEntity
  8
00_COMPONENTS
100
AcDbLine
 62
7
  6
CONTINUOUS
 10
84.1338391634
 20
332.1431761736
 11
81.5953363878
 21
330.6775796612
  0
LINE
  5
239
100
AcDbEntity
  8
00_COMPONENTS
100
AcDbLine
 62
7
  6
CONTINUOUS
 10
99.5487092914
 20
340.1447653288
 11
91.4170151635
 21
335.4499575592
  0
LINE
  5
23A
100
AcDbEntity
  8
00_COMPONENTS
100
AcDbLine
 62
7
  6
CONTINUOUS
 10
135.8938488794
 20
360.8019208744
 11
112.9129741699
 21
347.5339858736
  0
LINE
  5
23B
100
AcDbEntity
  8
00_COMPONENTS
100
AcDbLine
 62
7
  6
CONTINUOUS
 10
87.3158329266
 20
330.3060927783
 11
151.7329924968
 21
367.4971351959
  0
LINE
  5
23C
100
AcDbEntity
  8
00_COMPONENTS
100
AcDbLine
 62
7
  6
CONTINUOUS
 10
89.437162102
 20
329.0813705147
 11
153.8543216722
 21
366.2724129324
  0
LINE
  5
23D
100
AcDbEntity
  8
00_COMPONENTS
100
AcDbLine
 62
7
  6
CONTINUOUS
 10
43.8993758785
 20
302.6262570781
 11
43.6872447273
 21
302.5037838319
  0
LINE
  5
23E
100
AcDbEntity
  8
00_COMPONENTS
100
AcDbLine
 62
7
  6
CONTINUOUS
 10
119.2769616963
 20
343.8598190829
 11
142.2578364057
 21
357.1277540837
  0
LINE
  5
23F
100
AcDbEntity
  8
00_COMPONENTS
100
AcDbLine
 62
7
  6
CONTINUOUS
 10
98.3466904699
 20
331.4491981649
 11
106.4783845979
 21
336.1440059345
  0
LINE
  5
240
100
AcDbEntity
  8
00_COMPONENTS
100
AcDbLine
 62
7
  6
CONTINUOUS
 10
89.437162102
 20
325.9786190015
 11
87.3158329266
 21
324.7538763418
  0
LINE
  5
241
100
AcDbEntity
  8
00_COMPONENTS
100
AcDbLine
 62
7
  6
CONTINUOUS
 10
92.6191558652
 20
327.2442871194
 11
90.0806530896
 21
325.778690607
  0
LINE
  5
242
100
AcDbEntity
  8
00_COMPONENTS
100
AcDbLine
 62
7
  6
CONTINUOUS
 10
89.437162102
 20
325.1620968313
 11
86.3258793114
 21
323.365807597
  0
LINE
  5
243
100
AcDbEntity
  8
00_COMPONENTS
100
AcDbLine
 62
7
  6
CONTINUOUS
 10
113.973700581
 20
338.3485332037
 11
121.3982908717
 21
342.6350968193
  0
LINE
  5
244
100
AcDbEntity
  8
00_COMPONENTS
100
AcDbLine
 62
7
  6
CONTINUOUS
 10
89.437162102
 20
324.0190132004
 11
87.3158329266
 21
322.7942705407
  0
LINE
  5
245
100
AcDbEntity
  8
00_COMPONENTS
100
AcDbLine
 62
7
  6
CONTINUOUS
 10
40.545075214
 20
166.1656662277
 11
40.7372590239
 21
165.0161160197
  0
LINE
  5
246
100
AcDbEntity
  8
00_COMPONENTS
100
AcDbLine
 62
7
  6
CONTINUOUS
 10
41.4841896886
 20
160.5483395631
 11
42.1439784425
 21
156.6018036931
  0
LINE
  5
247
100
AcDbEntity
  8
00_COMPONENTS
100
AcDbLine
 62
7
  6
CONTINUOUS
 10
43.2046430302
 20
155.9894425614
 11
43.3913756964
 21
154.8724984472
  0
LINE
  5
248
100
AcDbEntity
  8
00_COMPONENTS
100
AcDbLine
 62
7
  6
CONTINUOUS
 10
43.6901479623
 20
153.0853878646
 11
44.5366693823
 21
148.0219078805
  0
LINE
  5
249
100
AcDbEntity
  8
00_COMPONENTS
100
AcDbLine
 62
7
  6
CONTINUOUS
 10
36.1211706682
 20
324.018510665
 11
36.1211706682
 21
168.7197509269
  0
LINE
  5
24A
100
AcDbEntity
  8
00_COMPONENTS
100
AcDbLine
 62
7
  6
CONTINUOUS
 10
40.2930833078
 20
326.5904516563
 11
40.2930833078
 21
330.5096632585
  0
LINE
  5
24B
100
AcDbEntity
  8
00_COMPONENTS
100
AcDbLine
 62
7
  6
CONTINUOUS
 10
42.9801350021
 20
216.9343200627
 11
42.9801350021
 21
308.3825907812
  0
LINE
  5
24C
100
AcDbEntity
  8
00_COMPONENTS
100
AcDbLine
 62
7
  6
CONTINUOUS
 10
43.1922661533
 20
217.0567933088
 11
43.1922661533
 21
308.2601195746
  0
LINE
  5
24D
100
AcDbEntity
  8
00_COMPONENTS
100
AcDbLine
 62
7
  6
CONTINUOUS
 10
43.6872447273
 20
302.5037838319
 11
43.6872447273
 21
220.8535421189
  0
LINE
  5
24E
100
AcDbEntity
  8
00_COMPONENTS
100
AcDbLine
 62
7
  6
CONTINUOUS
 10
89.6814909499
 20
322.9353220588
 11
87.3158329266
 21
321.569516915
  0
LINE
  5
24F
100
AcDbEntity
  8
00_COMPONENTS
100
AcDbLine
 62
7
  6
CONTINUOUS
 10
89.4943977409
 20
321.6025930913
 11
89.437162102
 21
321.5695482771
  0
LINE
  5
250
100
AcDbEntity
  8
00_COMPONENTS
100
AcDbLine
 62
7
  6
CONTINUOUS
 10
79.225407167
 20
313.7957626296
 11
84.1338391634
 21
316.6296302481
  0
LINE
  5
251
100
AcDbEntity
  8
00_COMPONENTS
100
AcDbLine
 62
7
  6
CONTINUOUS
 10
145.3214340382
 20
349.0802804934
 11
150.695423201
 21
352.1829360629
  0
LINE
  5
252
100
AcDbEntity
  8
00_COMPONENTS
100
AcDbLine
 62
7
  6
CONTINUOUS
 10
118.3578044286
 20
332.5515008921
 11
121.1862197775
 21
334.1844775076
  0
LINE
  5
253
100
AcDbEntity
  8
00_COMPONENTS
100
AcDbLine
 62
7
  6
CONTINUOUS
 10
106.1956319708
 20
323.6517861562
 11
104.6400035289
 21
322.7536490177
  0
LINE
  5
254
100
AcDbEntity
  8
00_COMPONENTS
100
AcDbLine
 62
7
  6
CONTINUOUS
 10
139.4299305257
 20
340.0625712675
 11
140.8441382001
 21
340.8790595752
  0
LINE
  5
255
100
AcDbEntity
  8
00_COMPONENTS
100
AcDbLine
 62
7
  6
CONTINUOUS
 10
152.970693477
 20
102.2121219738
 11
152.6260498741
 21
102.2937793879
  0
LINE
  5
256
100
AcDbEntity
  8
00_COMPONENTS
100
AcDbLine
 62
7
  6
CONTINUOUS
 10
213.1823388299
 20
50.6564879274
 11
174.9984136719
 21
72.7014886715
  0
LINE
  5
257
100
AcDbEntity
  8
00_COMPONENTS
100
AcDbLine
 62
7
  6
CONTINUOUS
 10
166.5130969702
 20
77.6003777257
 11
132.5718301631
 21
97.1959339427
  0
LINE
  5
258
100
AcDbEntity
  8
00_COMPONENTS
100
AcDbLine
 62
7
  6
CONTINUOUS
 10
44.5366693823
 20
148.0219078805
 11
81.6599299525
 21
126.5892682682
  0
LINE
  5
259
100
AcDbEntity
  8
00_COMPONENTS
100
AcDbLine
 62
7
  6
CONTINUOUS
 10
90.1452466543
 20
121.6903792139
 11
124.0865134614
 21
102.0948229969
  0
LINE
  5
25A
100
AcDbEntity
  8
00_COMPONENTS
100
AcDbLine
 62
7
  6
CONTINUOUS
 10
174.4698256171
 20
75.8632456832
 11
173.8943476736
 21
76.1954905124
  0
LINE
  5
25B
100
AcDbEntity
  8
00_COMPONENTS
100
AcDbLine
 62
7
  6
CONTINUOUS
 10
172.1689999442
 20
77.1915979534
 11
168.9870061811
 21
79.0286813488
  0
LINE
  5
25C
100
AcDbEntity
  8
00_COMPONENTS
100
AcDbLine
 62
7
  6
CONTINUOUS
 10
132.0432421083
 20
100.3576909544
 11
131.7930346383
 21
100.5021450365
  0
LINE
  5
25D
100
AcDbEntity
  8
00_COMPONENTS
100
AcDbLine
 62
7
  6
CONTINUOUS
 10
129.8131274079
 20
101.6452191492
 11
126.5604226723
 21
103.52312662
  0
LINE
  5
25E
100
AcDbEntity
  8
00_COMPONENTS
100
AcDbLine
 62
7
  6
CONTINUOUS
 10
89.6166585995
 20
124.8521362256
 11
89.3664511295
 21
124.9965903078
  0
LINE
  5
25F
100
AcDbEntity
  8
00_COMPONENTS
100
AcDbLine
 62
7
  6
CONTINUOUS
 10
87.3865438991
 20
126.1396644204
 11
84.1338391634
 21
128.0175718912
  0
LINE
  5
260
100
AcDbEntity
  8
00_COMPONENTS
100
AcDbLine
 62
7
  6
CONTINUOUS
 10
44.6801015775
 20
152.5138508083
 11
43.6901479623
 21
153.0853878646
  0
LINE
  5
261
100
AcDbEntity
  8
00_COMPONENTS
100
AcDbLine
 62
7
  6
CONTINUOUS
 10
43.3913756964
 20
154.8724984472
 11
44.3813293116
 21
154.3009613909
  0
LINE
  5
262
100
AcDbEntity
  8
00_COMPONENTS
100
AcDbLine
 62
7
  6
CONTINUOUS
 10
43.2046430302
 20
155.9894425614
 11
42.1439784425
 21
156.6018036931
  0
LINE
  5
263
100
AcDbEntity
  8
00_COMPONENTS
100
AcDbLine
 62
7
  6
CONTINUOUS
 10
172.1689999442
 20
82.7438143899
 11
171.179046329
 21
83.3153514462
  0
LINE
  5
264
100
AcDbEntity
  8
00_COMPONENTS
100
AcDbLine
 62
7
  6
CONTINUOUS
 10
129.8131274079
 20
107.1974355857
 11
128.7524628202
 21
107.8097967175
  0
LINE
  5
265
100
AcDbEntity
  8
00_COMPONENTS
100
AcDbLine
 62
7
  6
CONTINUOUS
 10
87.3865438991
 20
131.6918808569
 11
86.3258793114
 21
132.3042419887
  0
LINE
  5
266
100
AcDbEntity
  8
00_COMPONENTS
100
AcDbLine
 62
7
  6
CONTINUOUS
 10
86.3258793114
 20
134.2638477898
 11
87.3158329266
 21
133.6923107335
  0
LINE
  5
267
100
AcDbEntity
  8
00_COMPONENTS
100
AcDbLine
 62
7
  6
CONTINUOUS
 10
128.7524628202
 20
109.7694025186
 11
129.7424164354
 21
109.1978654622
  0
LINE
  5
268
100
AcDbEntity
  8
00_COMPONENTS
100
AcDbLine
 62
7
  6
CONTINUOUS
 10
171.179046329
 20
85.2749572473
 11
172.1689999442
 21
84.703420191
  0
LINE
  5
269
100
AcDbEntity
  8
00_COMPONENTS
100
AcDbLine
 62
7
  6
CONTINUOUS
 10
44.3813293116
 20
154.3009613909
 11
44.6801015775
 21
152.5138508083
  0
LINE
  5
26A
100
AcDbEntity
  8
00_COMPONENTS
100
AcDbLine
 62
7
  6
CONTINUOUS
 10
55.9201069611
 20
355.9436434362
 11
55.9201069611
 21
352.6777038026
  0
LINE
  5
26B
100
AcDbEntity
  8
00_COMPONENTS
100
AcDbLine
 62
7
  6
CONTINUOUS
 10
139.0051764183
 20
343.0023472452
 11
145.3214340382
 21
349.0802804934
  0
LINE
  5
26C
100
AcDbEntity
  8
00_COMPONENTS
100
AcDbLine
 62
7
  6
CONTINUOUS
 10
134.8766283483
 20
327.2419349133
 11
132.1736173413
 21
325.2696675249
  0
LINE
  5
26D
100
AcDbEntity
  8
00_COMPONENTS
100
AcDbLine
 62
7
  6
CONTINUOUS
 10
139.6621619789
 20
335.5778540982
 11
141.429921572
 21
336.5984644829
  0
LINE
  5
26E
100
AcDbEntity
  8
00_COMPONENTS
100
AcDbLine
 62
7
  6
CONTINUOUS
 10
140.1621597405
 20
334.7118274021
 11
131.6769136939
 21
329.8128975556
  0
LINE
  5
26F
100
AcDbEntity
  8
00_COMPONENTS
100
AcDbLine
 62
7
  6
CONTINUOUS
 10
118.3578044286
 20
321.773668986
 11
121.1862197775
 21
323.4066456015
  0
LINE
  5
270
100
AcDbEntity
  8
00_COMPONENTS
100
AcDbLine
 62
7
  6
CONTINUOUS
 10
121.7518885016
 20
320.8752879387
 11
129.8430529534
 21
325.5466960284
  0
LINE
  5
271
100
AcDbEntity
  8
00_COMPONENTS
100
AcDbLine
 62
7
  6
CONTINUOUS
 10
151.9151586648
 20
338.0332875448
 11
151.014289412
 21
337.5131735439
  0
LINE
  5
272
100
AcDbEntity
  8
00_COMPONENTS
100
AcDbLine
 62
7
  6
CONTINUOUS
 10
135.1730719852
 20
327.0013931339
 11
132.1736173413
 21
325.2696675249
  0
LINE
  5
273
100
AcDbEntity
  8
00_COMPONENTS
100
AcDbLine
 62
7
  6
CONTINUOUS
 10
120.3378264737
 20
315.4869710658
 11
118.7821980318
 21
314.5888339273
  0
LINE
  5
274
100
AcDbEntity
  8
00_COMPONENTS
100
AcDbLine
 62
7
  6
CONTINUOUS
 10
135.7527036672
 20
322.5087783309
 11
138.5811190161
 21
324.1417549464
  0
LINE
  5
275
100
AcDbEntity
  8
00_COMPONENTS
100
AcDbLine
 62
7
  6
CONTINUOUS
 10
73.1737184995
 20
285.7250898409
 11
72.9615873484
 21
285.6026165948
  0
LINE
  5
276
100
AcDbEntity
  8
00_COMPONENTS
100
AcDbLine
 62
7
  6
CONTINUOUS
 10
169.8828455929
 20
341.105323189
 11
164.5088564301
 21
338.0026676195
  0
LINE
  5
277
100
AcDbEntity
  8
00_COMPONENTS
100
AcDbLine
 62
7
  6
CONTINUOUS
 10
135.7527036672
 20
321.367720563
 11
133.4717160926
 21
320.0507996337
  0
LINE
  5
278
100
AcDbEntity
  8
00_COMPONENTS
100
AcDbLine
 62
7
  6
CONTINUOUS
 10
87.3158329266
 20
134.9170643591
 11
88.0000247059
 21
134.5220549875
  0
LINE
  5
279
100
AcDbEntity
  8
00_COMPONENTS
100
AcDbLine
 62
7
  6
CONTINUOUS
 10
129.7424164354
 20
110.4226190879
 11
130.4266082147
 21
110.0276097163
  0
LINE
  5
27A
100
AcDbEntity
  8
00_COMPONENTS
100
AcDbLine
 62
7
  6
CONTINUOUS
 10
172.1689999442
 20
85.9281738167
 11
172.8531917235
 21
85.5331644451
  0
LINE
  5
27B
100
AcDbEntity
  8
00_COMPONENTS
100
AcDbLine
 62
7
  6
CONTINUOUS
 10
205.8275047035
 20
70.7419698421
 11
204.2188300788
 21
71.6707175586
  0
LINE
  5
27C
100
AcDbEntity
  8
00_COMPONENTS
100
AcDbLine
 62
7
  6
CONTINUOUS
 10
80.1564288017
 20
143.2965579392
 11
36.1211706682
 21
168.7197509269
  0
LINE
  5
27D
100
AcDbEntity
  8
00_COMPONENTS
100
AcDbLine
 62
7
  6
CONTINUOUS
 10
205.1203949784
 20
71.885062772
 11
205.8275047035
 21
71.4768220175
  0
LINE
  5
27E
100
AcDbEntity
  8
00_COMPONENTS
100
AcDbLine
 62
7
  6
CONTINUOUS
 10
80.8543990987
 20
143.7301923216
 11
85.026346477
 21
141.3215718699
  0
LINE
  5
27F
100
AcDbEntity
  8
00_COMPONENTS
100
AcDbLine
 62
7
  6
CONTINUOUS
 10
87.5719414876
 20
139.8519051537
 11
152.6260362011
 21
102.2937557378
  0
LINE
  5
280
100
AcDbEntity
  8
00_COMPONENTS
100
AcDbLine
 62
7
  6
CONTINUOUS
 10
160.8285090128
 20
97.5581629854
 11
204.2188300788
 21
72.5073161636
  0
LINE
  5
281
100
AcDbEntity
  8
00_COMPONENTS
100
AcDbLine
 62
7
  6
CONTINUOUS
 10
210.0701277268
 20
69.2722231631
 11
206.6759423937
 21
71.231812647
  0
LINE
  5
282
100
AcDbEntity
  8
00_COMPONENTS
100
AcDbLine
 62
7
  6
CONTINUOUS
 10
160.6245792767
 20
97.818978057
 11
152.9818343962
 21
102.2314190484
  0
LINE
  5
283
100
AcDbEntity
  8
00_COMPONENTS
100
AcDbLine
 62
7
  6
CONTINUOUS
 10
87.3680117515
 20
140.1127202254
 11
85.3821446722
 21
141.2592351806
  0
LINE
  5
284
100
AcDbEntity
  8
00_COMPONENTS
100
AcDbLine
 62
7
  6
CONTINUOUS
 10
80.4919525374
 20
144.5313180803
 11
84.6638999158
 21
142.1226976286
  0
LINE
  5
285
100
AcDbEntity
  8
00_COMPONENTS
100
AcDbLine
 62
7
  6
CONTINUOUS
 10
87.2094949263
 20
140.6530309123
 11
152.2635896398
 21
103.0948814965
  0
LINE
  5
286
100
AcDbEntity
  8
00_COMPONENTS
100
AcDbLine
 62
7
  6
CONTINUOUS
 10
160.4660624515
 20
98.359288744
 11
203.9533105481
 21
73.252482341
  0
LINE
  5
287
100
AcDbEntity
  8
00_COMPONENTS
100
AcDbLine
 62
7
  6
CONTINUOUS
 10
206.0622244305
 20
72.8382325226
 11
206.334682597
 21
72.6809322854
  0
LINE
  5
288
100
AcDbEntity
  8
00_COMPONENTS
100
AcDbLine
 62
7
  6
CONTINUOUS
 10
205.1203949784
 20
74.0079690565
 11
205.8275047035
 21
73.599728302
  0
LINE
  5
289
100
AcDbEntity
  8
00_COMPONENTS_2
100
AcDbLine
 62
7
  6
CONTINUOUS
 10
110.8477001008
 20
128.9244874537
 11
90.0689487104
 21
140.9208337687
  0
LINE
  5
28A
100
AcDbEntity
  8
00_COMPONENTS
100
AcDbLine
 62
7
  6
CONTINUOUS
 10
160.4660624515
 20
101.054049887
 11
154.7067592769
 21
104.3791099023
  0
LINE
  5
28B
100
AcDbEntity
  8
00_COMPONENTS
100
AcDbLine
 62
7
  6
CONTINUOUS
 10
87.2094949263
 20
143.3477920553
 11
87.1070695529
 21
143.4069260344
  0
LINE
  5
28C
100
AcDbEntity
  8
00_COMPONENTS
100
AcDbLine
 62
7
  6
CONTINUOUS
 10
210.0701277268
 20
72.9464840402
 11
209.8579911435
 21
73.0689583829
  0
LINE
  5
28D
100
AcDbEntity
  8
00_COMPONENTS
100
AcDbLine
 62
7
  6
CONTINUOUS
 10
86.9623599063
 20
144.184604938
 11
84.8410307308
 21
145.4093272016
  0
LINE
  5
28E
100
AcDbEntity
  8
00_COMPONENTS
100
AcDbLine
 62
7
  6
CONTINUOUS
 10
152.2635896398
 20
106.5405216968
 11
160.4660624515
 21
101.8049289443
  0
LINE
  5
28F
100
AcDbEntity
  8
00_COMPONENTS_2
100
AcDbLine
 62
7
  6
CONTINUOUS
 10
107.4220216402
 20
134.0829140039
 11
86.6432702498
 21
146.0792603189
  0
LINE
  5
290
100
AcDbEntity
  8
00_COMPONENTS
100
AcDbLine
 62
7
  6
CONTINUOUS
 10
211.7671769361
 20
73.9262700095
 11
211.5550403528
 21
74.0487443522
  0
LINE
  5
291
100
AcDbEntity
  8
00_COMPONENTS
100
AcDbLine
 62
7
  6
CONTINUOUS
 10
84.8410307308
 20
148.6753368701
 11
86.9623599063
 21
147.4506146065
  0
LINE
  5
292
100
AcDbEntity
  8
00_COMPONENTS
100
AcDbLine
 62
7
  6
CONTINUOUS
 10
206.884271768
 20
72.7449932422
 11
207.4538435291
 21
72.4157835714
  0
LINE
  5
293
100
AcDbEntity
  8
00_COMPONENTS_2
100
AcDbLine
 62
7
  6
CONTINUOUS
 10
90.0689487104
 20
140.9208337687
 11
86.6432702498
 21
146.0792603189
  0
LINE
  5
294
100
AcDbEntity
  8
00_COMPONENTS
100
AcDbLine
 62
7
  6
CONTINUOUS
 10
63.7690484619
 20
346.3499721075
 11
63.7690484619
 21
348.1462314274
  0
LINE
  5
295
100
AcDbEntity
  8
00_COMPONENTS
100
AcDbLine
 62
7
  6
CONTINUOUS
 10
64.051801089
 20
346.1867284952
 11
64.051801089
 21
360.6384512057
  0
LINE
  5
296
100
AcDbEntity
  8
00_COMPONENTS
100
AcDbLine
 62
7
  6
CONTINUOUS
 10
69.7086553385
 20
360.6384648031
 11
69.7086553385
 21
342.9208160563
  0
LINE
  5
297
100
AcDbEntity
  8
00_COMPONENTS
100
AcDbLine
 62
7
  6
CONTINUOUS
 10
71.0525288681
 20
192.0726461911
 11
71.0525288681
 21
263.1083564814
  0
LINE
  5
298
100
AcDbEntity
  8
00_COMPONENTS
100
AcDbLine
 62
7
  6
CONTINUOUS
 10
72.9615873484
 20
267.6785723406
 11
72.9615873484
 21
285.6026165948
  0
LINE
  5
299
100
AcDbEntity
  8
00_COMPONENTS
100
AcDbLine
 62
7
  6
CONTINUOUS
 10
73.1737184995
 20
267.7154351068
 11
73.1737184995
 21
285.7250898409
  0
LINE
  5
29A
100
AcDbEntity
  8
00_COMPONENTS
100
AcDbLine
 62
7
  6
CONTINUOUS
 10
73.6686970735
 20
290.664942035
 11
73.6686970735
 21
268.004217815
  0
LINE
  5
29B
100
AcDbEntity
  8
00_COMPONENTS
100
AcDbLine
 62
7
  6
CONTINUOUS
 10
75.9312209198
 20
346.2681142572
 11
75.9312209198
 21
357.0459461633
  0
LINE
  5
29C
100
AcDbEntity
  8
00_COMPONENTS
100
AcDbLine
 62
7
  6
CONTINUOUS
 10
79.225407167
 20
313.7957626296
 11
81.5953363878
 21
330.6775796612
  0
LINE
  5
29D
100
AcDbEntity
  8
00_COMPONENTS
100
AcDbLine
 62
7
  6
CONTINUOUS
 10
90.0806530896
 20
325.778690607
 11
87.7107238688
 21
308.8968735754
  0
LINE
  5
29E
100
AcDbEntity
  8
00_COMPONENTS
100
AcDbLine
 62
7
  6
CONTINUOUS
 10
89.5701274995
 20
277.2815045183
 11
73.1105350784
 21
267.6785723406
  0
LINE
  5
29F
100
AcDbEntity
  8
00_COMPONENTS
100
AcDbLine
 62
7
  6
CONTINUOUS
 10
157.9151318035
 20
327.640967191
 11
157.0229522132
 21
327.1258701391
  0
LINE
  5
2A0
100
AcDbEntity
  8
00_COMPONENTS
100
AcDbLine
 62
7
  6
CONTINUOUS
 10
153.2182285033
 20
324.2642628659
 11
145.7936382126
 21
319.9776992503
  0
LINE
  5
2A1
100
AcDbEntity
  8
00_COMPONENTS
100
AcDbLine
 62
7
  6
CONTINUOUS
 10
126.5604226723
 20
307.6487309024
 11
124.0219198967
 21
306.18313439
  0
LINE
  5
2A2
100
AcDbEntity
  8
00_COMPONENTS
100
AcDbLine
 62
7
  6
CONTINUOUS
 10
141.9752928002
 20
315.6503200575
 11
133.8435986723
 21
310.955512288
  0
LINE
  5
2A3
100
AcDbEntity
  8
00_COMPONENTS
100
AcDbLine
 62
7
  6
CONTINUOUS
 10
178.3204323882
 20
336.3074756032
 11
155.3395576788
 21
323.0395406024
  0
LINE
  5
2A4
100
AcDbEntity
  8
00_COMPONENTS
100
AcDbLine
 62
7
  6
CONTINUOUS
 10
129.7424164354
 20
305.811647507
 11
194.1595760056
 21
343.0026899247
  0
LINE
  5
2A5
100
AcDbEntity
  8
00_COMPONENTS
100
AcDbLine
 62
7
  6
CONTINUOUS
 10
82.6840231244
 20
277.3852084936
 11
82.1607807586
 21
277.0831161761
  0
LINE
  5
2A6
100
AcDbEntity
  8
00_COMPONENTS
100
AcDbLine
 62
7
  6
CONTINUOUS
 10
131.8637456109
 20
304.5869252435
 11
196.280905181
 21
341.7779676612
  0
LINE
  5
2A7
100
AcDbEntity
  8
00_COMPONENTS
100
AcDbLine
 62
7
  6
CONTINUOUS
 10
161.7035452051
 20
319.3653738117
 11
184.6844199145
 21
332.6333088125
  0
LINE
  5
2A8
100
AcDbEntity
  8
00_COMPONENTS
100
AcDbLine
 62
7
  6
CONTINUOUS
 10
83.7291946929
 20
274.2543481937
 11
82.8629776427
 21
273.7542405318
  0
LINE
  5
2A9
100
AcDbEntity
  8
00_COMPONENTS
100
AcDbLine
 62
7
  6
CONTINUOUS
 10
84.789677848
 20
274.8258072899
 11
83.7468647991
 21
274.2237424892
  0
LINE
  5
2AA
100
AcDbEntity
  8
00_COMPONENTS
100
AcDbLine
 62
7
  6
CONTINUOUS
 10
140.7732739787
 20
306.9547528937
 11
148.9049681067
 21
311.6495606632
  0
LINE
  5
2AB
100
AcDbEntity
  8
00_COMPONENTS
100
AcDbLine
 62
7
  6
CONTINUOUS
 10
131.8637456109
 20
301.4841737303
 11
129.7424164354
 21
300.2594310706
  0
LINE
  5
2AC
100
AcDbEntity
  8
00_COMPONENTS
100
AcDbLine
 62
7
  6
CONTINUOUS
 10
135.045739374
 20
302.7498418481
 11
132.5072365984
 21
301.2842453357
  0
LINE
  5
2AD
100
AcDbEntity
  8
00_COMPONENTS
100
AcDbLine
 62
7
  6
CONTINUOUS
 10
131.8637456109
 20
300.6676515601
 11
128.7524628202
 21
298.8713623258
  0
LINE
  5
2AE
100
AcDbEntity
  8
00_COMPONENTS
100
AcDbLine
 62
7
  6
CONTINUOUS
 10
85.371003753
 20
141.2399381059
 11
85.02636015
 21
141.32159552
  0
LINE
  5
2AF
100
AcDbEntity
  8
00_COMPONENTS_2
100
AcDbLine
 62
7
  6
CONTINUOUS
 10
110.8477001008
 20
128.9244874537
 11
107.4220216402
 21
134.0829140039
  0
LINE
  5
2B0
100
AcDbEntity
  8
00_COMPONENTS
100
AcDbLine
 62
7
  6
CONTINUOUS
 10
81.6599299525
 20
126.5892682682
 11
79.2946495142
 21
140.7372270473
  0
LINE
  5
2B1
100
AcDbEntity
  8
00_COMPONENTS
100
AcDbLine
 62
7
  6
CONTINUOUS
 10
87.779966216
 20
135.838337993
 11
90.1452466543
 21
121.6903792139
  0
LINE
  5
2B2
100
AcDbEntity
  8
00_COMPONENTS
100
AcDbLine
 62
7
  6
CONTINUOUS
 10
78.7596362686
 20
347.9010908727
 11
78.7596362686
 21
358.6789227788
  0
LINE
  5
2B3
100
AcDbEntity
  8
00_COMPONENTS
100
AcDbLine
 62
7
  6
CONTINUOUS
 10
78.9717073629
 20
346.7929705297
 11
78.9717073629
 21
367.1295420906
  0
LINE
  5
2B4
100
AcDbEntity
  8
00_COMPONENTS
100
AcDbLine
 62
7
  6
CONTINUOUS
 10
80.1564288017
 20
178.6516018495
 11
80.1564288017
 21
143.2965579392
  0
LINE
  5
2B5
100
AcDbEntity
  8
00_COMPONENTS
100
AcDbLine
 62
7
  6
CONTINUOUS
 10
80.4919525374
 20
144.5313180803
 11
80.4919525374
 21
172.4557007461
  0
LINE
  5
2B6
100
AcDbEntity
  8
00_COMPONENTS
100
AcDbLine
 62
7
  6
CONTINUOUS
 10
81.5526171251
 20
177.845530381
 11
81.5526171251
 21
171.8433396143
  0
LINE
  5
2B7
100
AcDbEntity
  8
00_COMPONENTS
100
AcDbLine
 62
7
  6
CONTINUOUS
 10
82.8629776427
 20
273.7542405318
 11
82.8629776427
 21
274.7340434324
  0
LINE
  5
2B8
100
AcDbEntity
  8
00_COMPONENTS
100
AcDbLine
 62
7
  6
CONTINUOUS
 10
83.7468647991
 20
274.2237424892
 11
83.7468647991
 21
277.12232607
  0
LINE
  5
2B9
100
AcDbEntity
  8
00_COMPONENTS
100
AcDbLine
 62
7
  6
CONTINUOUS
 10
84.1338391634
 20
128.0175718912
 11
84.1338391634
 21
141.6582497912
  0
LINE
  5
2BA
100
AcDbEntity
  8
00_COMPONENTS
100
AcDbLine
 62
7
  6
CONTINUOUS
 10
84.1338391634
 20
316.6296302481
 11
84.1338391634
 21
332.1431761736
  0
LINE
  5
2BB
100
AcDbEntity
  8
00_COMPONENTS
100
AcDbLine
 62
7
  6
CONTINUOUS
 10
84.6638999158
 20
148.9976479809
 11
84.6638999158
 21
142.1226976286
  0
LINE
  5
2BC
100
AcDbEntity
  8
00_COMPONENTS
100
AcDbLine
 62
7
  6
CONTINUOUS
 10
84.789677848
 20
276.5202712958
 11
84.789677848
 21
274.4924722866
  0
LINE
  5
2BD
100
AcDbEntity
  8
00_COMPONENTS
100
AcDbLine
 62
7
  6
CONTINUOUS
 10
84.8410307308
 20
145.4093272016
 11
84.8410307308
 21
148.6753368701
  0
LINE
  5
2BE
100
AcDbEntity
  8
00_COMPONENTS
100
AcDbLine
 62
7
  6
CONTINUOUS
 10
86.3258793114
 20
132.3042419887
 11
86.3258793114
 21
134.2638477898
  0
LINE
  5
2BF
100
AcDbEntity
  8
00_COMPONENTS
100
AcDbLine
 62
7
  6
CONTINUOUS
 10
86.3258793114
 20
323.365807597
 11
86.3258793114
 21
325.3254133981
  0
LINE
  5
2C0
100
AcDbEntity
  8
00_COMPONENTS
100
AcDbLine
 62
7
  6
CONTINUOUS
 10
86.9623599063
 20
147.4506146065
 11
86.9623599063
 21
146.5299570576
  0
LINE
  5
2C1
100
AcDbEntity
  8
00_COMPONENTS
100
AcDbLine
 62
7
  6
CONTINUOUS
 10
86.9623599063
 20
145.5987713953
 11
86.9623599063
 21
144.184604938
  0
LINE
  5
2C2
100
AcDbEntity
  8
00_COMPONENTS
100
AcDbLine
 62
7
  6
CONTINUOUS
 10
87.138763346
 20
144.2864509035
 11
87.138763346
 21
143.5515521672
  0
LINE
  5
2C3
100
AcDbEntity
  8
00_COMPONENTS
100
AcDbLine
 62
7
  6
CONTINUOUS
 10
87.2094949263
 20
147.5279812646
 11
87.2094949263
 21
146.8790217962
  0
LINE
  5
2C4
100
AcDbEntity
  8
00_COMPONENTS
100
AcDbLine
 62
7
  6
CONTINUOUS
 10
87.2094949263
 20
145.226632602
 11
87.2094949263
 21
140.6530309123
  0
LINE
  5
2C5
100
AcDbEntity
  8
00_COMPONENTS
100
AcDbLine
 62
7
  6
CONTINUOUS
 10
87.3158329266
 20
133.6923107335
 11
87.3158329266
 21
134.9170643591
  0
LINE
  5
2C6
100
AcDbEntity
  8
00_COMPONENTS
100
AcDbLine
 62
7
  6
CONTINUOUS
 10
87.3158329266
 20
321.569516915
 11
87.3158329266
 21
322.7942705407
  0
LINE
  5
2C7
100
AcDbEntity
  8
00_COMPONENTS
100
AcDbLine
 62
7
  6
CONTINUOUS
 10
87.3158329266
 20
324.7538763418
 11
87.3158329266
 21
330.3060927783
  0
LINE
  5
2C8
100
AcDbEntity
  8
00_COMPONENTS
100
AcDbLine
 62
7
  6
CONTINUOUS
 10
87.3865438991
 20
126.1396644204
 11
87.3865438991
 21
131.6918808569
  0
LINE
  5
2C9
100
AcDbEntity
  8
00_COMPONENTS
100
AcDbLine
 62
7
  6
CONTINUOUS
 10
89.3664511295
 20
126.3487557867
 11
89.3664511295
 21
124.9965903078
  0
LINE
  5
2CA
100
AcDbEntity
  8
00_COMPONENTS
100
AcDbLine
 62
7
  6
CONTINUOUS
 10
89.437162102
 20
329.0813705147
 11
89.437162102
 21
323.5291540782
  0
LINE
  5
2CB
100
AcDbEntity
  8
00_COMPONENTS
100
AcDbLine
 62
7
  6
CONTINUOUS
 10
89.437162102
 20
321.5695482771
 11
89.437162102
 21
321.1948840451
  0
LINE
  5
2CC
100
AcDbEntity
  8
00_COMPONENTS
100
AcDbLine
 62
7
  6
CONTINUOUS
 10
78.1237230498
 20
267.1909171461
 11
94.5833154708
 21
276.7938493238
  0
LINE
  5
2CD
100
AcDbEntity
  8
00_COMPONENTS
100
AcDbLine
 62
7
  6
CONTINUOUS
 10
156.4002840898
 20
313.8540879325
 11
163.8248743805
 21
318.1406515481
  0
LINE
  5
2CE
100
AcDbEntity
  8
00_COMPONENTS
100
AcDbLine
 62
7
  6
CONTINUOUS
 10
131.8637456109
 20
299.5245679292
 11
129.7424164354
 21
298.2998252694
  0
LINE
  5
2CF
100
AcDbEntity
  8
00_COMPONENTS
100
AcDbLine
 62
7
  6
CONTINUOUS
 10
132.1080744587
 20
298.4408767876
 11
129.7424164354
 21
297.0750716437
  0
LINE
  5
2D0
100
AcDbEntity
  8
00_COMPONENTS
100
AcDbLine
 62
7
  6
CONTINUOUS
 10
131.9209812497
 20
297.1081478201
 11
131.8637456109
 21
297.0751030059
  0
LINE
  5
2D1
100
AcDbEntity
  8
00_COMPONENTS
100
AcDbLine
 62
7
  6
CONTINUOUS
 10
121.6519906758
 20
289.3013173584
 11
126.5604226723
 21
292.1351849769
  0
LINE
  5
2D2
100
AcDbEntity
  8
00_COMPONENTS
100
AcDbLine
 62
7
  6
CONTINUOUS
 10
187.748017547
 20
324.5858352222
 11
193.1220067098
 21
327.6884907916
  0
LINE
  5
2D3
100
AcDbEntity
  8
00_COMPONENTS
100
AcDbLine
 62
7
  6
CONTINUOUS
 10
160.7843879374
 20
308.0570556209
 11
163.6128032863
 21
309.6900322364
  0
LINE
  5
2D4
100
AcDbEntity
  8
00_COMPONENTS
100
AcDbLine
 62
7
  6
CONTINUOUS
 10
148.6222154796
 20
299.157340885
 11
147.0665870377
 21
298.2592037465
  0
LINE
  5
2D5
100
AcDbEntity
  8
00_COMPONENTS
100
AcDbLine
 62
7
  6
CONTINUOUS
 10
181.8565140345
 20
315.5681259963
 11
183.270721709
 21
316.384614304
  0
LINE
  5
2D6
100
AcDbEntity
  8
00_COMPONENTS
100
AcDbLine
 62
7
  6
CONTINUOUS
 10
133.3831048883
 20
145.1856801844
 11
140.9784956999
 21
143.1265762761
  0
LINE
  5
2D7
100
AcDbEntity
  8
00_COMPONENTS
100
AcDbLine
 62
7
  6
CONTINUOUS
 10
81.5526171251
 20
171.8433396143
 11
80.4919525374
 21
172.4557007461
  0
LINE
  5
2D8
100
AcDbEntity
  8
00_COMPONENTS
100
AcDbLine
 62
7
  6
CONTINUOUS
 10
202.8926459603
 20
101.7892261387
 11
203.9533105481
 21
101.1768650069
  0
LINE
  5
2D9
100
AcDbEntity
  8
00_COMPONENTS_2
100
AcDbLine
 62
7
  6
CONTINUOUS
 10
120.4318200194
 20
150.3913635013
 11
98.6141706293
 21
162.987504287
  0
LINE
  5
2DA
100
AcDbEntity
  8
00_COMPONENTS
100
AcDbLine
 62
7
  6
CONTINUOUS
 10
133.3831048883
 20
145.1856801844
 11
151.060848017
 21
134.9796613214
  0
LINE
  5
2DB
100
AcDbEntity
  8
00_COMPONENTS
100
AcDbLine
 62
7
  6
CONTINUOUS
 10
141.3947469522
 20
142.3629657179
 11
144.2231858527
 21
140.7300026998
  0
LINE
  5
2DC
100
AcDbEntity
  8
00_COMPONENTS
100
AcDbLine
 62
7
  6
CONTINUOUS
 10
173.1590762492
 20
124.9577130285
 11
130.3412734178
 21
149.6780237711
  0
LINE
  5
2DD
100
AcDbEntity
  8
00_COMPONENTS
100
AcDbLine
 62
7
  6
CONTINUOUS
 10
101.2130698257
 20
166.4948195093
 11
78.1237230498
 21
179.8251585132
  0
LINE
  5
2DE
100
AcDbEntity
  8
00_COMPONENTS
100
AcDbLine
 62
7
  6
CONTINUOUS
 10
202.8926459603
 20
109.95425031
 11
203.9533105481
 21
109.3418891782
  0
LINE
  5
2DF
100
AcDbEntity
  8
00_COMPONENTS
100
AcDbLine
 62
7
  6
CONTINUOUS
 10
203.9533105481
 20
112.6078988467
 11
180.8034441929
 21
125.9731780555
  0
LINE
  5
2E0
100
AcDbEntity
  8
00_COMPONENTS
100
AcDbLine
 62
7
  6
CONTINUOUS
 10
204.2188300788
 20
112.6591388985
 11
180.9815061639
 21
126.0749106107
  0
LINE
  5
2E1
100
AcDbEntity
  8
00_COMPONENTS
100
AcDbLine
 62
7
  6
CONTINUOUS
 10
133.9897760593
 20
153.6909714348
 11
141.5513684653
 21
149.3253827866
  0
LINE
  5
2E2
100
AcDbEntity
  8
00_COMPONENTS
100
AcDbLine
 62
7
  6
CONTINUOUS
 10
93.3261201584
 20
336.5521732626
 11
93.3261201584
 21
347.0032236021
  0
LINE
  5
2E3
100
AcDbEntity
  8
00_COMPONENTS
100
AcDbLine
 62
7
  6
CONTINUOUS
 10
96.5785929095
 20
364.2514775042
 11
96.5785929095
 21
367.4967925164
  0
LINE
  5
2E4
100
AcDbEntity
  8
00_COMPONENTS
100
AcDbLine
 62
7
  6
CONTINUOUS
 10
98.3466904699
 20
331.4491981649
 11
98.3466904699
 21
328.1832585314
  0
LINE
  5
2E5
100
AcDbEntity
  8
00_COMPONENTS
100
AcDbLine
 62
7
  6
CONTINUOUS
 10
99.5486857397
 20
340.1447653288
 11
99.5486857397
 21
343.4107049623
  0
LINE
  5
2E6
100
AcDbEntity
  8
00_COMPONENTS
100
AcDbLine
 62
7
  6
CONTINUOUS
 10
99.8312528969
 20
370.6267234775
 11
99.8312528969
 21
381.6221993549
  0
LINE
  5
2E7
100
AcDbEntity
  8
00_COMPONENTS
100
AcDbLine
 62
7
  6
CONTINUOUS
 10
116.7909342783
 20
285.459630525
 11
117.0498439725
 21
286.0318288719
  0
LINE
  5
2E8
100
AcDbEntity
  8
00_COMPONENTS
100
AcDbLine
 62
7
  6
CONTINUOUS
 10
181.4317599271
 20
318.507901974
 11
187.748017547
 21
324.5858352222
  0
LINE
  5
2E9
100
AcDbEntity
  8
00_COMPONENTS
100
AcDbLine
 62
7
  6
CONTINUOUS
 10
182.0887454877
 20
311.083408827
 11
183.8565050808
 21
312.1040192117
  0
LINE
  5
2EA
100
AcDbEntity
  8
00_COMPONENTS
100
AcDbLine
 62
7
  6
CONTINUOUS
 10
182.5887432493
 20
310.2173821309
 11
174.1034972027
 21
305.3184522844
  0
LINE
  5
2EB
100
AcDbEntity
  8
00_COMPONENTS
100
AcDbLine
 62
7
  6
CONTINUOUS
 10
160.7843879374
 20
297.2792237148
 11
163.6128032863
 21
298.9122003302
  0
LINE
  5
2EC
100
AcDbEntity
  8
00_COMPONENTS
100
AcDbLine
 62
7
  6
CONTINUOUS
 10
164.1784720104
 20
296.3808426675
 11
172.2696364622
 21
301.0522507572
  0
LINE
  5
2ED
100
AcDbEntity
  8
00_COMPONENTS
100
AcDbLine
 62
7
  6
CONTINUOUS
 10
194.3417421736
 20
313.5388422736
 11
193.4408729209
 21
313.0187282727
  0
LINE
  5
2EE
100
AcDbEntity
  8
00_COMPONENTS
100
AcDbLine
 62
7
  6
CONTINUOUS
 10
177.807822771
 20
302.1551086634
 11
174.5365609749
 21
300.2664560586
  0
LINE
  5
2EF
100
AcDbEntity
  8
00_COMPONENTS
100
AcDbLine
 62
7
  6
CONTINUOUS
 10
162.7644099825
 20
290.9925257946
 11
161.2087815407
 21
290.0943886561
  0
LINE
  5
2F0
100
AcDbEntity
  8
00_COMPONENTS
100
AcDbLine
 62
7
  6
CONTINUOUS
 10
178.179287176
 20
298.0143330597
 11
181.0077025249
 21
299.6473096752
  0
LINE
  5
2F1
100
AcDbEntity
  8
00_COMPONENTS
100
AcDbLine
 62
7
  6
CONTINUOUS
 10
212.3094291017
 20
316.6108779177
 11
206.9354399389
 21
313.5082223483
  0
LINE
  5
2F2
100
AcDbEntity
  8
00_COMPONENTS
100
AcDbLine
 62
7
  6
CONTINUOUS
 10
178.179287176
 20
296.0986018929
 11
176.2722255994
 21
294.9975659505
  0
LINE
  5
2F3
100
AcDbEntity
  8
00_COMPONENTS
100
AcDbLine
 62
7
  6
CONTINUOUS
 10
43.1922661533
 20
217.0567933088
 11
42.9801350021
 21
216.9343200627
  0
LINE
  5
2F4
100
AcDbEntity
  8
00_COMPONENTS
100
AcDbLine
 62
7
  6
CONTINUOUS
 10
71.0525288681
 20
200.7270825641
 11
42.9801350021
 21
216.9343200627
  0
LINE
  5
2F5
100
AcDbEntity
  8
00_COMPONENTS
100
AcDbLine
 62
7
  6
CONTINUOUS
 10
71.0525288681
 20
200.9720270168
 11
43.1922661533
 21
217.0567933088
  0
LINE
  5
2F6
100
AcDbEntity
  8
00_COMPONENTS
100
AcDbLine
 62
7
  6
CONTINUOUS
 10
43.6872447273
 20
220.8535421189
 11
71.0525288681
 21
205.0545453749
  0
LINE
  5
2F7
100
AcDbEntity
  8
00_COMPONENTS
100
AcDbLine
 62
7
  6
CONTINUOUS
 10
146.8664901423
 20
140.1374012845
 11
151.060848017
 21
134.9796613214
  0
LINE
  5
2F8
100
AcDbEntity
  8
00_COMPONENTS
100
AcDbLine
 62
7
  6
CONTINUOUS
 10
106.1956319708
 20
321.8555268362
 11
106.1956319708
 21
323.6517861562
  0
LINE
  5
2F9
100
AcDbEntity
  8
00_COMPONENTS
100
AcDbLine
 62
7
  6
CONTINUOUS
 10
106.4783845979
 20
321.6922832239
 11
106.4783845979
 21
336.1440059345
  0
LINE
  5
2FA
100
AcDbEntity
  8
00_COMPONENTS
100
AcDbLine
 62
7
  6
CONTINUOUS
 10
109.7314308337
 20
236.7732942348
 11
109.7314308337
 21
177.9906779378
  0
LINE
  5
2FB
100
AcDbEntity
  8
00_COMPONENTS
100
AcDbLine
 62
7
  6
CONTINUOUS
 10
110.0849827523
 20
231.1836802805
 11
110.0849827523
 21
221.9572029669
  0
LINE
  5
2FC
100
AcDbEntity
  8
00_COMPONENTS
100
AcDbLine
 62
7
  6
CONTINUOUS
 10
112.1352388473
 20
336.1440195319
 11
112.1352388473
 21
318.4263707851
  0
LINE
  5
2FD
100
AcDbEntity
  8
00_COMPONENTS
100
AcDbLine
 62
7
  6
CONTINUOUS
 10
113.620531378
 20
229.1424765079
 11
113.620531378
 21
219.9159991943
  0
LINE
  5
2FE
100
AcDbEntity
  8
00_COMPONENTS
100
AcDbLine
 62
7
  6
CONTINUOUS
 10
114.893318285
 20
223.1003459227
 11
114.893318285
 21
227.4278087335
  0
LINE
  5
2FF
100
AcDbEntity
  8
00_COMPONENTS
100
AcDbLine
 62
7
  6
CONTINUOUS
 10
121.6519906758
 20
289.3013173584
 11
124.0219198967
 21
306.18313439
  0
LINE
  5
300
100
AcDbEntity
  8
00_COMPONENTS
100
AcDbLine
 62
7
  6
CONTINUOUS
 10
176.8688388667
 20
302.7890282264
 11
174.5365609749
 21
300.2664560586
  0
LINE
  5
301
100
AcDbEntity
  8
00_COMPONENTS
100
AcDbLine
 62
7
  6
CONTINUOUS
 10
200.3417153123
 20
303.1465219198
 11
199.449535722
 21
302.6314248679
  0
LINE
  5
302
100
AcDbEntity
  8
00_COMPONENTS
100
AcDbLine
 62
7
  6
CONTINUOUS
 10
195.6448120121
 20
299.7698175947
 11
188.2202217214
 21
295.4832539791
  0
LINE
  5
303
100
AcDbEntity
  8
00_COMPONENTS
100
AcDbLine
 62
7
  6
CONTINUOUS
 10
168.9870061811
 20
283.1542856312
 11
166.4485034055
 21
281.6886891188
  0
LINE
  5
304
100
AcDbEntity
  8
00_COMPONENTS
100
AcDbLine
 62
7
  6
CONTINUOUS
 10
184.4018763091
 20
291.1558747863
 11
176.2701821811
 21
286.4610670168
  0
LINE
  5
305
100
AcDbEntity
  8
00_COMPONENTS
100
AcDbLine
 62
7
  6
CONTINUOUS
 10
220.747015897
 20
311.813030332
 11
197.7661411876
 21
298.5450953311
  0
LINE
  5
306
100
AcDbEntity
  8
00_COMPONENTS
100
AcDbLine
 62
7
  6
CONTINUOUS
 10
172.1689999442
 20
281.3172022358
 11
236.5861595144
 21
318.5082446535
  0
LINE
  5
307
100
AcDbEntity
  8
00_COMPONENTS
100
AcDbLine
 62
7
  6
CONTINUOUS
 10
174.2903291197
 20
280.0924799723
 11
238.7074886899
 21
317.2835223899
  0
LINE
  5
308
100
AcDbEntity
  8
00_COMPONENTS
100
AcDbLine
 62
7
  6
CONTINUOUS
 10
204.1301287139
 20
294.8709285405
 11
227.1110034233
 21
308.1388635413
  0
LINE
  5
309
100
AcDbEntity
  8
00_COMPONENTS
100
AcDbLine
 62
7
  6
CONTINUOUS
 10
183.1998574875
 20
282.4603076225
 11
191.3315516155
 21
287.155115392
  0
LINE
  5
30A
100
AcDbEntity
  8
00_COMPONENTS
100
AcDbLine
 62
7
  6
CONTINUOUS
 10
174.2903291197
 20
276.9897284591
 11
172.1689999442
 21
275.7649857993
  0
LINE
  5
30B
100
AcDbEntity
  8
00_COMPONENTS
100
AcDbLine
 62
7
  6
CONTINUOUS
 10
177.4723228828
 20
278.2553965769
 11
174.9338201072
 21
276.7898000645
  0
LINE
  5
30C
100
AcDbEntity
  8
00_COMPONENTS
100
AcDbLine
 62
7
  6
CONTINUOUS
 10
201.6826102526
 20
133.3030328687
 11
200.7987230962
 21
133.8133338118
  0
LINE
  5
30D
100
AcDbEntity
  8
00_COMPONENTS
100
AcDbLine
 62
7
  6
CONTINUOUS
 10
199.7162214762
 20
134.4383022749
 11
198.8323343197
 21
134.948603218
  0
LINE
  5
30E
100
AcDbEntity
  8
00_COMPONENTS
100
AcDbLine
 62
7
  6
CONTINUOUS
 10
198.8323343197
 20
135.9284061186
 11
199.7162214762
 21
135.4181051754
  0
LINE
  5
30F
100
AcDbEntity
  8
00_COMPONENTS
100
AcDbLine
 62
7
  6
CONTINUOUS
 10
200.7987230962
 20
134.7931367124
 11
201.6826102526
 21
134.2828357692
  0
LINE
  5
310
100
AcDbEntity
  8
00_COMPONENTS
100
AcDbLine
 62
7
  6
CONTINUOUS
 10
200.7987230962
 20
135.3891431243
 11
200.2323855487
 21
135.7161108628
  0
LINE
  5
311
100
AcDbEntity
  8
00_COMPONENTS_2
100
AcDbLine
 62
7
  6
CONTINUOUS
 10
138.3714804647
 20
178.999837654
 11
118.9361020567
 21
190.220604762
  0
LINE
  5
312
100
AcDbEntity
  8
00_COMPONENTS
100
AcDbLine
 62
7
  6
CONTINUOUS
 10
123.4555610468
 20
182.2169838505
 11
119.0987205148
 21
187.3715241292
  0
LINE
  5
313
100
AcDbEntity
  8
00_COMPONENTS_2
100
AcDbLine
 62
7
  6
CONTINUOUS
 10
141.5510905021
 20
170.9917036847
 11
139.8074045034
 21
173.6173663831
  0
LINE
  5
314
100
AcDbEntity
  8
00_COMPONENTS
100
AcDbLine
 62
7
  6
CONTINUOUS
 10
119.0987205148
 20
187.3715241292
 11
117.0958691113
 21
195.3479397667
  0
LINE
  5
315
100
AcDbEntity
  8
00_COMPONENTS
100
AcDbLine
 62
7
  6
CONTINUOUS
 10
124.0865134614
 20
102.0948229969
 11
121.721233023
 21
116.2427817761
  0
LINE
  5
316
100
AcDbEntity
  8
00_COMPONENTS
100
AcDbLine
 62
7
  6
CONTINUOUS
 10
130.2065497248
 20
111.3438927218
 11
132.5718301631
 21
97.1959339427
  0
LWPOLYLINE
  5
317
100
AcDbEntity
  8
00_COMPONENTS
100
AcDbPolyline
 62
7
  6
CONTINUOUS
 90
4
 70
0
 10
110.3116189612
 20
204.1426815418
 10
111.6280216014
 20
194.8014419335
 10
113.7912916272
 20
189.6745725618
 10
116.263202486
 20
186.9065708887
  0
LINE
  5
318
100
AcDbEntity
  8
00_COMPONENTS
100
AcDbLine
 62
7
  6
CONTINUOUS
 10
118.3578044286
 20
321.773668986
 11
118.3578044286
 21
332.5515008921
  0
LINE
  5
319
100
AcDbEntity
  8
00_COMPONENTS
100
AcDbLine
 62
7
  6
CONTINUOUS
 10
121.1862197775
 20
323.4066456015
 11
121.1862197775
 21
334.1844775076
  0
LINE
  5
31A
100
AcDbEntity
  8
00_COMPONENTS
100
AcDbLine
 62
7
  6
CONTINUOUS
 10
121.3982908717
 20
322.2985252584
 11
121.3982908717
 21
342.6350968193
  0
LINE
  5
31B
100
AcDbEntity
  8
00_COMPONENTS
100
AcDbLine
 62
7
  6
CONTINUOUS
 10
126.5604226723
 20
103.52312662
 11
126.5604226723
 21
117.16380452
  0
LINE
  5
31C
100
AcDbEntity
  8
00_COMPONENTS
100
AcDbLine
 62
7
  6
CONTINUOUS
 10
126.5604226723
 20
292.1351849769
 11
126.5604226723
 21
307.6487309024
  0
LINE
  5
31D
100
AcDbEntity
  8
00_COMPONENTS
100
AcDbLine
 62
7
  6
CONTINUOUS
 10
128.7524628202
 20
107.8097967175
 11
128.7524628202
 21
109.7694025186
  0
LINE
  5
31E
100
AcDbEntity
  8
00_COMPONENTS
100
AcDbLine
 62
7
  6
CONTINUOUS
 10
128.7524628202
 20
298.8713623258
 11
128.7524628202
 21
300.8309681269
  0
LINE
  5
31F
100
AcDbEntity
  8
00_COMPONENTS
100
AcDbLine
 62
7
  6
CONTINUOUS
 10
129.7424164354
 20
109.1978654622
 11
129.7424164354
 21
110.4226190879
  0
LINE
  5
320
100
AcDbEntity
  8
00_COMPONENTS
100
AcDbLine
 62
7
  6
CONTINUOUS
 10
129.7424164354
 20
297.0750716437
 11
129.7424164354
 21
298.2998252694
  0
LINE
  5
321
100
AcDbEntity
  8
00_COMPONENTS
100
AcDbLine
 62
7
  6
CONTINUOUS
 10
129.7424164354
 20
300.2594310706
 11
129.7424164354
 21
305.811647507
  0
LINE
  5
322
100
AcDbEntity
  8
00_COMPONENTS
100
AcDbLine
 62
7
  6
CONTINUOUS
 10
129.8131274079
 20
101.6452191492
 11
129.8131274079
 21
107.1974355857
  0
LINE
  5
323
100
AcDbEntity
  8
00_COMPONENTS
100
AcDbLine
 62
7
  6
CONTINUOUS
 10
131.7930346383
 20
101.8543105155
 11
131.7930346383
 21
100.5021450365
  0
LINE
  5
324
100
AcDbEntity
  8
00_COMPONENTS
100
AcDbLine
 62
7
  6
CONTINUOUS
 10
131.8637456109
 20
304.5869252435
 11
131.8637456109
 21
299.034708807
  0
LINE
  5
325
100
AcDbEntity
  8
00_COMPONENTS
100
AcDbLine
 62
7
  6
CONTINUOUS
 10
131.8637456109
 20
297.0751030059
 11
131.8637456109
 21
296.7004387739
  0
LINE
  5
326
100
AcDbEntity
  8
00_COMPONENTS
100
AcDbLine
 62
7
  6
CONTINUOUS
 10
132.5072365984
 20
301.2842453357
 11
130.1373073776
 21
284.4024283042
  0
LINE
  5
327
100
AcDbEntity
  8
00_COMPONENTS
100
AcDbLine
 62
7
  6
CONTINUOUS
 10
174.2903291197
 20
276.1732062889
 11
171.179046329
 21
274.3769170546
  0
LINE
  5
328
100
AcDbEntity
  8
00_COMPONENTS
100
AcDbLine
 62
7
  6
CONTINUOUS
 10
198.8268675986
 20
289.3596426612
 11
206.2514578893
 21
293.6462062769
  0
LINE
  5
329
100
AcDbEntity
  8
00_COMPONENTS
100
AcDbLine
 62
7
  6
CONTINUOUS
 10
174.2903291197
 20
275.030122658
 11
172.1689999442
 21
273.8053799982
  0
LINE
  5
32A
100
AcDbEntity
  8
00_COMPONENTS
100
AcDbLine
 62
7
  6
CONTINUOUS
 10
174.5346579676
 20
273.9464315164
 11
172.1689999442
 21
272.5806263725
  0
LINE
  5
32B
100
AcDbEntity
  8
00_COMPONENTS
100
AcDbLine
 62
7
  6
CONTINUOUS
 10
174.3475647585
 20
272.6137025489
 11
174.2903291197
 21
272.5806577347
  0
LINE
  5
32C
100
AcDbEntity
  8
00_COMPONENTS
100
AcDbLine
 62
7
  6
CONTINUOUS
 10
164.0785741847
 20
264.8068720872
 11
168.9870061811
 21
267.6407397057
  0
LINE
  5
32D
100
AcDbEntity
  8
00_COMPONENTS
100
AcDbLine
 62
7
  6
CONTINUOUS
 10
114.7490251502
 20
233.8764503408
 11
110.0849827523
 21
231.1836802805
  0
LINE
  5
32E
100
AcDbEntity
  8
00_COMPONENTS
100
AcDbLine
 62
7
  6
CONTINUOUS
 10
230.1746010558
 20
300.091389951
 11
235.5485902187
 21
303.1940455204
  0
LINE
  5
32F
100
AcDbEntity
  8
00_COMPONENTS
100
AcDbLine
 62
7
  6
CONTINUOUS
 10
203.2109714462
 20
283.5626103497
 11
206.0393867951
 21
285.1955869651
  0
LINE
  5
330
100
AcDbEntity
  8
00_COMPONENTS
100
AcDbLine
 62
7
  6
CONTINUOUS
 10
191.0487989884
 20
274.6628956138
 11
189.4931705465
 21
273.7647584752
  0
LINE
  5
331
100
AcDbEntity
  8
00_COMPONENTS
100
AcDbLine
 62
7
  6
CONTINUOUS
 10
118.284573776
 20
231.8352465682
 11
113.620531378
 21
229.1424765079
  0
LINE
  5
332
100
AcDbEntity
  8
00_COMPONENTS
100
AcDbLine
 62
7
  6
CONTINUOUS
 10
224.2830975434
 20
291.073680725
 11
225.6973052178
 21
291.8901690328
  0
LINE
  5
333
100
AcDbEntity
  8
00_COMPONENTS
100
AcDbLine
 62
7
  6
CONTINUOUS
 10
114.893318285
 20
227.4278087335
 11
117.9528249081
 21
229.1942051619
  0
LINE
  5
334
100
AcDbEntity
  8
00_COMPONENTS
100
AcDbLine
 62
7
  6
CONTINUOUS
 10
135.9517721075
 20
188.6365365807
 11
138.2852342004
 21
187.2893420908
  0
LWPOLYLINE
  5
335
100
AcDbEntity
  8
00_COMPONENTS
100
AcDbPolyline
 62
7
  6
CONTINUOUS
 90
3
 70
0
 10
135.9517721074
 20
188.6365365807
 10
139.1805414922
 20
175.7776817638
 10
141.5510884461
 20
172.973053882
  0
LINE
  5
336
100
AcDbEntity
  8
00_COMPONENTS
100
AcDbLine
 62
7
  6
CONTINUOUS
 10
89.7436579346
 20
349.7677069926
 11
91.0417566859
 21
344.5488391014
  0
LINE
  5
337
100
AcDbEntity
  8
00_COMPONENTS
100
AcDbLine
 62
7
  6
CONTINUOUS
 10
133.3831048883
 20
145.1856801844
 11
133.3831048883
 21
147.9218612825
  0
LINE
  5
338
100
AcDbEntity
  8
00_COMPONENTS
100
AcDbLine
 62
7
  6
CONTINUOUS
 10
135.7527036672
 20
312.0577279914
 11
135.7527036672
 21
322.5087783309
  0
LINE
  5
339
100
AcDbEntity
  8
00_COMPONENTS
100
AcDbLine
 62
7
  6
CONTINUOUS
 10
138.3693717581
 20
214.8540500997
 11
138.3693717581
 21
205.6275727861
  0
LINE
  5
33A
100
AcDbEntity
  8
00_COMPONENTS
100
AcDbLine
 62
7
  6
CONTINUOUS
 10
139.0051764183
 20
339.757032233
 11
139.0051764183
 21
343.0023472452
  0
LINE
  5
33B
100
AcDbEntity
  8
00_COMPONENTS
100
AcDbLine
 62
7
  6
CONTINUOUS
 10
140.7732739787
 20
306.9547528937
 11
140.7732739787
 21
303.6888132602
  0
LINE
  5
33C
100
AcDbEntity
  8
00_COMPONENTS
100
AcDbLine
 62
7
  6
CONTINUOUS
 10
141.5510413049
 20
218.4022713963
 11
141.551112985
 21
149.3252352859
  0
LINE
  5
33D
100
AcDbEntity
  8
00_COMPONENTS
100
AcDbLine
 62
7
  6
CONTINUOUS
 10
141.9752692485
 20
315.6503200575
 11
141.9752692485
 21
318.9162596911
  0
LINE
  5
33E
100
AcDbEntity
  8
00_COMPONENTS
100
AcDbLine
 62
7
  6
CONTINUOUS
 10
142.2578364057
 20
346.1322782063
 11
142.2578364057
 21
357.1277540837
  0
LINE
  5
33F
100
AcDbEntity
  8
00_COMPONENTS
100
AcDbLine
 62
7
  6
CONTINUOUS
 10
141.2420833688
 20
218.5791281105
 11
141.2237266994
 21
218.532195058
  0
LINE
  5
340
100
AcDbEntity
  8
00_COMPONENTS
100
AcDbLine
 62
7
  6
CONTINUOUS
 10
141.2460262645
 20
218.5787456951
 11
141.227303036
 21
218.5318532689
  0
LINE
  5
341
100
AcDbEntity
  8
00_COMPONENTS_2
100
AcDbLine
 62
7
  6
CONTINUOUS
 10
86.6432702498
 20
146.0792603189
 11
98.6141706293
 21
162.987504287
  0
LINE
  5
342
100
AcDbEntity
  8
00_COMPONENTS_2
100
AcDbLine
 62
7
  6
CONTINUOUS
 10
116.4844776698
 20
187.104176452
 11
98.6141706293
 21
162.987504287
  0
LINE
  5
343
100
AcDbEntity
  8
00_COMPONENTS
100
AcDbLine
 62
7
  6
CONTINUOUS
 10
120.286287001
 20
227.847010672
 11
121.4090370811
 21
228.4952268636
  0
LINE
  5
344
100
AcDbEntity
  8
00_COMPONENTS
100
AcDbLine
 62
7
  6
CONTINUOUS
 10
224.5153289966
 20
286.5889635558
 11
226.2830885896
 21
287.6095739405
  0
LINE
  5
345
100
AcDbEntity
  8
00_COMPONENTS
100
AcDbLine
 62
7
  6
CONTINUOUS
 10
117.2980989439
 20
224.4887383959
 11
114.893318285
 21
223.1003459227
  0
LINE
  5
346
100
AcDbEntity
  8
00_COMPONENTS
100
AcDbLine
 62
7
  6
CONTINUOUS
 10
225.0153267581
 20
285.7229368596
 11
216.5300807116
 21
280.8240070132
  0
LINE
  5
347
100
AcDbEntity
  8
00_COMPONENTS
100
AcDbLine
 62
7
  6
CONTINUOUS
 10
203.2109714462
 20
272.7847784435
 11
206.0393867951
 21
274.417755059
  0
LINE
  5
348
100
AcDbEntity
  8
00_COMPONENTS
100
AcDbLine
 62
7
  6
CONTINUOUS
 10
113.620531378
 20
219.9159991943
 11
115.4519303164
 21
220.9733515529
  0
LINE
  5
349
100
AcDbEntity
  8
00_COMPONENTS
100
AcDbLine
 62
7
  6
CONTINUOUS
 10
206.6050555192
 20
271.8863973962
 11
214.696219971
 21
276.557805486
  0
LINE
  5
34A
100
AcDbEntity
  8
00_COMPONENTS
100
AcDbLine
 62
7
  6
CONTINUOUS
 10
236.7683256824
 20
289.0443970023
 11
235.8674564297
 21
288.5242830014
  0
LINE
  5
34B
100
AcDbEntity
  8
00_COMPONENTS
100
AcDbLine
 62
7
  6
CONTINUOUS
 10
222.0904477924
 20
276.9548790014
 11
217.0904242342
 21
274.0681312857
  0
LINE
  5
34C
100
AcDbEntity
  8
00_COMPONENTS
100
AcDbLine
 62
7
  6
CONTINUOUS
 10
205.1909934913
 20
266.4980805234
 11
203.6353650495
 21
265.5999433848
  0
LINE
  5
34D
100
AcDbEntity
  8
00_COMPONENTS
100
AcDbLine
 62
7
  6
CONTINUOUS
 10
220.6058706849
 20
273.5198877885
 11
223.4342860337
 21
275.1528644039
  0
LINE
  5
34E
100
AcDbEntity
  8
00_COMPONENTS
100
AcDbLine
 62
7
  6
CONTINUOUS
 10
254.7360126105
 20
292.1164326465
 11
249.3620234477
 21
289.0137770771
  0
LINE
  5
34F
100
AcDbEntity
  8
00_COMPONENTS
100
AcDbLine
 62
7
  6
CONTINUOUS
 10
141.5510564671
 20
203.7906678193
 11
138.3693717581
 21
205.6275727861
  0
LINE
  5
350
100
AcDbEntity
  8
00_COMPONENTS
100
AcDbLine
 62
7
  6
CONTINUOUS
 10
113.620531378
 20
219.9159991943
 11
110.0849827523
 21
221.9572029669
  0
LINE
  5
351
100
AcDbEntity
  8
00_COMPONENTS
100
AcDbLine
 62
7
  6
CONTINUOUS
 10
117.2980989439
 20
224.4887383959
 11
114.893318285
 21
225.8771077476
  0
LINE
  5
352
100
AcDbEntity
  8
00_COMPONENTS
100
AcDbLine
 62
7
  6
CONTINUOUS
 10
141.551046893
 20
213.0171506604
 11
138.3693717581
 21
214.8540500997
  0
LINE
  5
353
100
AcDbEntity
  8
00_COMPONENTS
100
AcDbLine
 62
7
  6
CONTINUOUS
 10
113.620531378
 20
229.1424765079
 11
110.0849827523
 21
231.1836802805
  0
LINE
  5
354
100
AcDbEntity
  8
00_COMPONENTS
100
AcDbLine
 62
7
  6
CONTINUOUS
 10
140.580299455
 20
216.1305221811
 11
140.3682031952
 21
216.2529732436
  0
LINE
  5
355
100
AcDbEntity
  8
00_COMPONENTS
100
AcDbLine
 62
7
  6
CONTINUOUS
 10
120.286287001
 20
227.847010672
 11
117.9528249081
 21
229.1942051619
  0
LINE
  5
356
100
AcDbEntity
  8
00_COMPONENTS
100
AcDbLine
 62
7
  6
CONTINUOUS
 10
208.3730785175
 20
74.0079541137
 11
208.1038184004
 21
74.6030516831
  0
LINE
  5
357
100
AcDbEntity
  8
00_COMPONENTS
100
AcDbLine
 62
7
  6
CONTINUOUS
 10
166.5130969702
 20
77.6003777257
 11
164.1478165318
 21
91.7483365049
  0
LINE
  5
358
100
AcDbEntity
  8
00_COMPONENTS
100
AcDbLine
 62
7
  6
CONTINUOUS
 10
148.6222154796
 20
297.361081565
 11
148.6222154796
 21
299.157340885
  0
LINE
  5
359
100
AcDbEntity
  8
00_COMPONENTS
100
AcDbLine
 62
7
  6
CONTINUOUS
 10
148.9049681067
 20
297.1978379527
 11
148.9049681067
 21
311.6495606632
  0
LINE
  5
35A
100
AcDbEntity
  8
00_COMPONENTS
100
AcDbLine
 62
7
  6
CONTINUOUS
 10
151.060848017
 20
134.9796613214
 11
151.060848017
 21
137.7158424195
  0
LINE
  5
35B
100
AcDbEntity
  8
00_COMPONENTS
100
AcDbLine
 62
7
  6
CONTINUOUS
 10
151.7329924968
 20
365.0476702726
 11
151.7329924968
 21
367.4971351959
  0
LINE
  5
35C
100
AcDbEntity
  8
00_COMPONENTS
100
AcDbLine
 62
7
  6
CONTINUOUS
 10
152.2635896398
 20
106.5405216968
 11
152.2635896398
 21
103.0948814965
  0
LINE
  5
35D
100
AcDbEntity
  8
00_COMPONENTS
100
AcDbLine
 62
7
  6
CONTINUOUS
 10
154.5618223561
 20
311.6495742607
 11
154.5618223561
 21
293.9319255139
  0
LINE
  5
35E
100
AcDbEntity
  8
00_COMPONENTS
100
AcDbLine
 62
7
  6
CONTINUOUS
 10
154.7384530701
 20
105.1116909536
 11
154.7384530701
 21
104.523736035
  0
LINE
  5
35F
100
AcDbEntity
  8
00_COMPONENTS
100
AcDbLine
 62
7
  6
CONTINUOUS
 10
164.0785741847
 20
264.8068720872
 11
166.4485034055
 21
281.6886891188
  0
LINE
  5
360
100
AcDbEntity
  8
00_COMPONENTS
100
AcDbLine
 62
7
  6
CONTINUOUS
 10
223.858343436
 20
294.0134567027
 11
230.1746010558
 21
300.091389951
  0
LINE
  5
361
100
AcDbEntity
  8
00_COMPONENTS
100
AcDbLine
 62
7
  6
CONTINUOUS
 10
220.6058706849
 20
269.4311603524
 11
219.9887525196
 21
269.0748691404
  0
LINE
  5
362
100
AcDbEntity
  8
00_COMPONENTS
100
AcDbLine
 62
7
  6
CONTINUOUS
 10
242.7682988211
 20
278.6520766486
 11
241.8761192308
 21
278.1369795967
  0
LINE
  5
363
100
AcDbEntity
  8
00_COMPONENTS
100
AcDbLine
 62
7
  6
CONTINUOUS
 10
238.071395521
 20
275.2753723235
 11
230.6468052302
 21
270.9888087078
  0
LINE
  5
364
100
AcDbEntity
  8
00_COMPONENTS
100
AcDbLine
 62
7
  6
CONTINUOUS
 10
41.4841896886
 20
160.5483395631
 11
43.2320718602
 21
161.5574737817
  0
LINE
  5
365
100
AcDbEntity
  8
00_COMPONENTS
100
AcDbLine
 62
7
  6
CONTINUOUS
 10
114.5351044247
 20
202.1543708935
 11
113.5363938203
 21
201.577768499
  0
LINE
  5
366
100
AcDbEntity
  8
00_COMPONENTS
100
AcDbLine
 62
7
  6
CONTINUOUS
 10
226.8284598179
 20
266.6614295151
 11
218.6967656899
 21
261.9666217456
  0
LINE
  5
367
100
AcDbEntity
  8
00_COMPONENTS
100
AcDbLine
 62
7
  6
CONTINUOUS
 10
263.1735994058
 20
287.3185850607
 11
240.1927246964
 21
274.0506500599
  0
LINE
  5
368
100
AcDbEntity
  8
00_COMPONENTS
100
AcDbLine
 62
7
  6
CONTINUOUS
 10
141.5510430807
 20
216.6909779293
 11
138.3693717581
 21
214.8540500997
  0
LINE
  5
369
100
AcDbEntity
  8
00_COMPONENTS
100
AcDbLine
 62
7
  6
CONTINUOUS
 10
212.0570806775
 20
255.3571604522
 11
279.0127430232
 21
294.0137993823
  0
LINE
  5
36A
100
AcDbEntity
  8
00_COMPONENTS
100
AcDbLine
 62
7
  6
CONTINUOUS
 10
44.5058207674
 20
153.5563139671
 11
43.6901479623
 21
153.0853878646
  0
LINE
  5
36B
100
AcDbEntity
  8
00_COMPONENTS
100
AcDbLine
 62
7
  6
CONTINUOUS
 10
279.0127430232
 20
288.4615829458
 11
211.2088954826
 21
249.3152469883
  0
LINE
  5
36C
100
AcDbEntity
  8
00_COMPONENTS
100
AcDbLine
 62
7
  6
CONTINUOUS
 10
141.5513684653
 20
218.4024602814
 11
109.7314308337
 21
236.7732942348
  0
LINE
  5
36D
100
AcDbEntity
  8
00_COMPONENTS
100
AcDbLine
 62
7
  6
CONTINUOUS
 10
173.1590762492
 20
212.3234716613
 11
78.1237230498
 21
267.1909171461
  0
LINE
  5
36E
100
AcDbEntity
  8
00_COMPONENTS
100
AcDbLine
 62
7
  6
CONTINUOUS
 10
132.1736173413
 20
325.2696675249
 11
133.4717160926
 21
320.0507996337
  0
LINE
  5
36F
100
AcDbEntity
  8
00_COMPONENTS
100
AcDbLine
 62
7
  6
CONTINUOUS
 10
172.6331332336
 20
86.8494474506
 11
174.9984136719
 21
72.7014886715
  0
LINE
  5
370
100
AcDbEntity
  8
00_COMPONENTS
100
AcDbLine
 62
7
  6
CONTINUOUS
 10
160.4660624515
 20
101.8049289443
 11
160.4660624515
 21
98.359288744
  0
LINE
  5
371
100
AcDbEntity
  8
00_COMPONENTS
100
AcDbLine
 62
7
  6
CONTINUOUS
 10
160.7843879374
 20
297.2792237148
 11
160.7843879374
 21
308.0570556209
  0
LINE
  5
372
100
AcDbEntity
  8
00_COMPONENTS
100
AcDbLine
 62
7
  6
CONTINUOUS
 10
163.6128032863
 20
298.9122003302
 11
163.6128032863
 21
309.6900322364
  0
LINE
  5
373
100
AcDbEntity
  8
00_COMPONENTS
100
AcDbLine
 62
7
  6
CONTINUOUS
 10
163.8248743805
 20
297.8040799872
 11
163.8248743805
 21
318.1406515481
  0
LINE
  5
374
100
AcDbEntity
  8
00_COMPONENTS
100
AcDbLine
 62
7
  6
CONTINUOUS
 10
168.9870061811
 20
79.0286813488
 11
168.9870061811
 21
92.6693592487
  0
LINE
  5
375
100
AcDbEntity
  8
00_COMPONENTS
100
AcDbLine
 62
7
  6
CONTINUOUS
 10
168.9870061811
 20
267.6407397057
 11
168.9870061811
 21
283.1542856312
  0
LINE
  5
376
100
AcDbEntity
  8
00_COMPONENTS
100
AcDbLine
 62
7
  6
CONTINUOUS
 10
171.179046329
 20
83.3153514462
 11
171.179046329
 21
85.2749572473
  0
LINE
  5
377
100
AcDbEntity
  8
00_COMPONENTS
100
AcDbLine
 62
7
  6
CONTINUOUS
 10
171.179046329
 20
274.3769170546
 11
171.179046329
 21
276.3365228557
  0
LINE
  5
378
100
AcDbEntity
  8
00_COMPONENTS
100
AcDbLine
 62
7
  6
CONTINUOUS
 10
172.1689999442
 20
77.1915979534
 11
172.1689999442
 21
82.7438143899
  0
LINE
  5
379
100
AcDbEntity
  8
00_COMPONENTS
100
AcDbLine
 62
7
  6
CONTINUOUS
 10
172.1689999442
 20
84.703420191
 11
172.1689999442
 21
85.9281738167
  0
LINE
  5
37A
100
AcDbEntity
  8
00_COMPONENTS
100
AcDbLine
 62
7
  6
CONTINUOUS
 10
172.1689999442
 20
272.5806263725
 11
172.1689999442
 21
273.8053799982
  0
LINE
  5
37B
100
AcDbEntity
  8
00_COMPONENTS
100
AcDbLine
 62
7
  6
CONTINUOUS
 10
172.1689999442
 20
275.7649857993
 11
172.1689999442
 21
281.3172022358
  0
LINE
  5
37C
100
AcDbEntity
  8
00_COMPONENTS
100
AcDbLine
 62
7
  6
CONTINUOUS
 10
173.8943476736
 20
79.3054752351
 11
173.8943476736
 21
76.1954905124
  0
LINE
  5
37D
100
AcDbEntity
  8
00_COMPONENTS
100
AcDbLine
 62
7
  6
CONTINUOUS
 10
174.9338201072
 20
276.7898000645
 11
172.5638908864
 21
259.9079830329
  0
LINE
  5
37E
100
AcDbEntity
  8
00_COMPONENTS
100
AcDbLine
 62
7
  6
CONTINUOUS
 10
177.1781048058
 20
250.595870089
 11
177.4370145
 21
251.1680684358
  0
LINE
  5
37F
100
AcDbEntity
  8
00_COMPONENTS_2
100
AcDbLine
 62
7
  6
CONTINUOUS
 10
139.8074045034
 20
173.6173663831
 11
141.5510854774
 21
175.8338791492
  0
LINE
  5
380
100
AcDbEntity
  8
00_COMPONENTS_2
100
AcDbLine
 62
7
  6
CONTINUOUS
 10
107.4220216402
 20
134.0829140039
 11
120.4318200194
 21
150.3913635013
  0
LINE
  5
381
100
AcDbEntity
  8
00_COMPONENTS
100
AcDbLine
 62
7
  6
CONTINUOUS
 10
278.022789408
 20
287.073514201
 11
209.9195823869
 21
247.7543439985
  0
LINE
  5
382
100
AcDbEntity
  8
00_COMPONENTS
100
AcDbLine
 62
7
  6
CONTINUOUS
 10
81.5526171251
 20
173.068072076
 11
80.4919525374
 21
172.4557007461
  0
LINE
  5
383
100
AcDbEntity
  8
00_COMPONENTS
100
AcDbLine
 62
7
  6
CONTINUOUS
 10
279.0127430232
 20
286.5019771447
 11
210.9095360021
 21
247.1828069422
  0
LINE
  5
384
100
AcDbEntity
  8
00_COMPONENTS
100
AcDbLine
 62
7
  6
CONTINUOUS
 10
279.0127430232
 20
285.277223519
 11
210.7224363268
 21
245.8500319134
  0
LINE
  5
385
100
AcDbEntity
  8
00_COMPONENTS
100
AcDbLine
 62
7
  6
CONTINUOUS
 10
280.073407611
 20
284.6648623872
 11
211.7831009145
 21
245.2376707816
  0
LINE
  5
386
100
AcDbEntity
  8
00_COMPONENTS
100
AcDbLine
 62
7
  6
CONTINUOUS
 10
211.1220153256
 20
240.5285318521
 11
280.073407611
 21
280.3373991221
  0
LINE
  5
387
100
AcDbEntity
  8
00_COMPONENTS
100
AcDbLine
 62
7
  6
CONTINUOUS
 10
280.073407611
 20
275.438385528
 11
210.3736167631
 21
235.1974327256
  0
LINE
  5
388
100
AcDbEntity
  8
00_COMPONENTS
100
AcDbLine
 62
7
  6
CONTINUOUS
 10
189.7919434097
 20
221.8263658848
 11
173.1590762492
 21
212.3234716613
  0
LINE
  5
389
100
AcDbEntity
  8
00_COMPONENTS
100
AcDbLine
 62
7
  6
CONTINUOUS
 10
201.6826102526
 20
205.1552455761
 11
200.7987230962
 21
205.6655465192
  0
LINE
  5
38A
100
AcDbEntity
  8
00_COMPONENTS
100
AcDbLine
 62
7
  6
CONTINUOUS
 10
199.7162214762
 20
206.2905149823
 11
198.8323343197
 21
206.8008159254
  0
LINE
  5
38B
100
AcDbEntity
  8
00_COMPONENTS
100
AcDbLine
 62
7
  6
CONTINUOUS
 10
83.195390926
 20
273.5623259749
 11
82.8629776427
 21
273.7542405318
  0
LINE
  5
38C
100
AcDbEntity
  8
00_COMPONENTS
100
AcDbLine
 62
7
  6
CONTINUOUS
 10
82.8629776427
 20
274.7340434324
 11
83.7468647991
 21
274.2237424892
  0
LINE
  5
38D
100
AcDbEntity
  8
00_COMPONENTS
100
AcDbLine
 62
7
  6
CONTINUOUS
 10
198.8323343197
 20
207.780618826
 11
199.7162214762
 21
207.2703178828
  0
LINE
  5
38E
100
AcDbEntity
  8
00_COMPONENTS
100
AcDbLine
 62
7
  6
CONTINUOUS
 10
200.7987230962
 20
206.6453494198
 11
201.6826102526
 21
206.1350484766
  0
LINE
  5
38F
100
AcDbEntity
  8
00_COMPONENTS
100
AcDbLine
 62
7
  6
CONTINUOUS
 10
200.7987230962
 20
207.2413558317
 11
200.2323855487
 21
207.5683235702
  0
LINE
  5
390
100
AcDbEntity
  8
00_COMPONENTS
100
AcDbLine
 62
7
  6
CONTINUOUS
 10
84.5529556001
 20
274.3543626887
 11
84.2630288717
 21
274.5217481766
  0
LINE
  5
391
100
AcDbEntity
  8
00_COMPONENTS
100
AcDbLine
 62
7
  6
CONTINUOUS
 10
72.9615873484
 20
285.6026165948
 11
43.6872447273
 21
302.5037838319
  0
LINE
  5
392
100
AcDbEntity
  8
00_COMPONENTS
100
AcDbLine
 62
7
  6
CONTINUOUS
 10
73.1737184995
 20
285.7250898409
 11
43.8993758785
 21
302.6262570781
  0
LINE
  5
393
100
AcDbEntity
  8
00_COMPONENTS
100
AcDbLine
 62
7
  6
CONTINUOUS
 10
174.2903291197
 20
280.0924799723
 11
174.2903291197
 21
274.5402635358
  0
LINE
  5
394
100
AcDbEntity
  8
00_COMPONENTS
100
AcDbLine
 62
7
  6
CONTINUOUS
 10
174.2903291197
 20
272.5806577347
 11
174.2903291197
 21
272.2059935026
  0
LINE
  5
395
100
AcDbEntity
  8
00_COMPONENTS
100
AcDbLine
 62
7
  6
CONTINUOUS
 10
178.179287176
 20
287.5632827202
 11
178.179287176
 21
298.0143330597
  0
LINE
  5
396
100
AcDbEntity
  8
00_COMPONENTS
100
AcDbLine
 62
7
  6
CONTINUOUS
 10
180.2302704308
 20
129.0402736932
 11
180.2302704308
 21
200.0759839835
  0
LINE
  5
397
100
AcDbEntity
  8
00_COMPONENTS
100
AcDbLine
 62
7
  6
CONTINUOUS
 10
181.4317599271
 20
315.2625869618
 11
181.4317599271
 21
318.507901974
  0
LINE
  5
398
100
AcDbEntity
  8
00_COMPONENTS
100
AcDbLine
 62
7
  6
CONTINUOUS
 10
183.1998574875
 20
282.4603076225
 11
183.1998574875
 21
279.1943679889
  0
LINE
  5
399
100
AcDbEntity
  8
00_COMPONENTS
100
AcDbLine
 62
7
  6
CONTINUOUS
 10
184.4018527573
 20
291.1558747863
 11
184.4018527573
 21
294.4218144199
  0
LINE
  5
39A
100
AcDbEntity
  8
00_COMPONENTS
100
AcDbLine
 62
7
  6
CONTINUOUS
 10
184.6844199145
 20
321.637832935
 11
184.6844199145
 21
332.6333088125
  0
LINE
  5
39B
100
AcDbEntity
  8
00_COMPONENTS_2
100
AcDbLine
 62
7
  6
CONTINUOUS
 10
139.8074045034
 20
173.617366383
 11
120.4318200194
 21
150.3913635013
  0
LINE
  5
39C
100
AcDbEntity
  8
00_COMPONENTS_2
100
AcDbLine
 62
7
  6
CONTINUOUS
 10
141.5510998248
 20
162.0075877348
 11
124.8888534782
 21
143.680967442
  0
LINE
  5
39D
100
AcDbEntity
  8
00_COMPONENTS_2
100
AcDbLine
 62
7
  6
CONTINUOUS
 10
124.8888534782
 20
143.680967442
 11
110.8477001008
 21
128.9244874537
  0
LINE
  5
39E
100
AcDbEntity
  8
00_COMPONENTS
100
AcDbLine
 62
7
  6
CONTINUOUS
 10
138.164912193
 20
189.9142859777
 11
135.9517721074
 21
188.6365365807
  0
LINE
  5
39F
100
AcDbEntity
  8
00_COMPONENTS
100
AcDbLine
 62
7
  6
CONTINUOUS
 10
211.1307834826
 20
229.2658612176
 11
209.9994173431
 21
228.6126705714
  0
LINE
  5
3A0
100
AcDbEntity
  8
00_COMPONENTS
100
AcDbLine
 62
7
  6
CONTINUOUS
 10
205.8275047035
 20
226.0407295801
 11
210.9893627152
 21
229.0209119034
  0
LINE
  5
3A1
100
AcDbEntity
  8
00_COMPONENTS
100
AcDbLine
 62
7
  6
CONTINUOUS
 10
68.0634726442
 20
146.4999993028
 11
65.3749666304
 21
144.9477988974
  0
LINE
  5
3A2
100
AcDbEntity
  8
00_COMPONENTS
100
AcDbLine
 62
7
  6
CONTINUOUS
 10
210.9893627152
 20
227.3879070691
 11
211.1307834826
 21
227.4695558999
  0
LINE
  5
3A3
100
AcDbEntity
  8
00_COMPONENTS
100
AcDbLine
 62
7
  6
CONTINUOUS
 10
85.8749297995
 20
149.6968322367
 11
84.6638999158
 21
148.9976479809
  0
LINE
  5
3A4
100
AcDbEntity
  8
00_COMPONENTS
100
AcDbLine
 62
7
  6
CONTINUOUS
 10
84.8410307308
 20
148.6753368701
 11
86.241150702
 21
149.4836916871
  0
LINE
  5
3A5
100
AcDbEntity
  8
00_COMPONENTS
100
AcDbLine
 62
7
  6
CONTINUOUS
 10
86.9623599063
 20
147.4506146065
 11
87.1812123701
 21
147.5769683812
  0
LINE
  5
3A6
100
AcDbEntity
  8
00_COMPONENTS
100
AcDbLine
 62
7
  6
CONTINUOUS
 10
80.8676767219
 20
143.7071946662
 11
80.1564288017
 21
143.2965579392
  0
LINE
  5
3A7
100
AcDbEntity
  8
00_COMPONENTS
100
AcDbLine
 62
7
  6
CONTINUOUS
 10
198.6500180485
 20
210.4337247522
 11
198.1267756827
 21
210.1316324347
  0
LINE
  5
3A8
100
AcDbEntity
  8
00_COMPONENTS
100
AcDbLine
 62
7
  6
CONTINUOUS
 10
196.8631375914
 20
209.5788782069
 11
180.2302704308
 21
200.0759839835
  0
LINE
  5
3A9
100
AcDbEntity
  8
00_COMPONENTS
100
AcDbLine
 62
7
  6
CONTINUOUS
 10
189.7919434097
 20
221.8263658848
 11
94.5833154708
 21
276.7938493238
  0
LINE
  5
3AA
100
AcDbEntity
  8
00_COMPONENTS
100
AcDbLine
 62
7
  6
CONTINUOUS
 10
42.9801350021
 20
308.3825907812
 11
73.6686970735
 21
290.664942035
  0
LINE
  5
3AB
100
AcDbEntity
  8
00_COMPONENTS
100
AcDbLine
 62
7
  6
CONTINUOUS
 10
205.8275047035
 20
226.0407295801
 11
36.1211706682
 21
324.018510665
  0
LINE
  5
3AC
100
AcDbEntity
  8
00_COMPONENTS
100
AcDbLine
 62
7
  6
CONTINUOUS
 10
122.0822729212
 20
362.4971128907
 11
125.6710714063
 21
354.8998327792
  0
LINE
  5
3AD
100
AcDbEntity
  8
00_COMPONENTS
100
AcDbLine
 62
7
  6
CONTINUOUS
 10
213.1823388299
 20
50.6564879274
 11
211.1905237239
 21
62.5705584782
  0
LINE
  5
3AE
100
AcDbEntity
  8
00_COMPONENTS
100
AcDbLine
 62
7
  6
CONTINUOUS
 10
210.4435930592
 20
67.0383349348
 11
210.0701277268
 21
69.2722231631
  0
LINE
  5
3AF
100
AcDbEntity
  8
00_COMPONENTS
100
AcDbLine
 62
7
  6
CONTINUOUS
 10
191.0487989884
 20
272.8666362938
 11
191.0487989884
 21
274.6628956138
  0
LINE
  5
3B0
100
AcDbEntity
  8
00_COMPONENTS
100
AcDbLine
 62
7
  6
CONTINUOUS
 10
191.3315516155
 20
272.7033926815
 11
191.3315516155
 21
287.155115392
  0
LINE
  5
3B1
100
AcDbEntity
  8
00_COMPONENTS
100
AcDbLine
 62
7
  6
CONTINUOUS
 10
194.1595760056
 20
340.5532250014
 11
194.1595760056
 21
343.0026899247
  0
LINE
  5
3B2
100
AcDbEntity
  8
00_COMPONENTS
100
AcDbLine
 62
7
  6
CONTINUOUS
 10
196.8631375914
 20
209.5788782069
 11
196.8631375914
 21
138.5431679166
  0
LINE
  5
3B3
100
AcDbEntity
  8
00_COMPONENTS
100
AcDbLine
 62
7
  6
CONTINUOUS
 10
196.9884058649
 20
287.1551289894
 11
196.9884058649
 21
269.4374802426
  0
LINE
  5
3B4
100
AcDbEntity
  8
00_COMPONENTS
100
AcDbLine
 62
7
  6
CONTINUOUS
 10
198.8323343197
 20
134.948603218
 11
198.8323343197
 21
135.9284061186
  0
LINE
  5
3B5
100
AcDbEntity
  8
00_COMPONENTS
100
AcDbLine
 62
7
  6
CONTINUOUS
 10
198.8323343197
 20
206.8008159254
 11
198.8323343197
 21
207.780618826
  0
LINE
  5
3B6
100
AcDbEntity
  8
00_COMPONENTS
100
AcDbLine
 62
7
  6
CONTINUOUS
 10
199.7162214762
 20
131.539031259
 11
199.7162214762
 21
134.4383022749
  0
LINE
  5
3B7
100
AcDbEntity
  8
00_COMPONENTS
100
AcDbLine
 62
7
  6
CONTINUOUS
 10
199.7162214762
 20
135.4181051754
 11
199.7162214762
 21
138.3173761913
  0
LINE
  5
3B8
100
AcDbEntity
  8
00_COMPONENTS
100
AcDbLine
 62
7
  6
CONTINUOUS
 10
199.7162214762
 20
203.3912439664
 11
199.7162214762
 21
206.2905149823
  0
LINE
  5
3B9
100
AcDbEntity
  8
00_COMPONENTS
100
AcDbLine
 62
7
  6
CONTINUOUS
 10
199.7162214762
 20
207.2703178828
 11
199.7162214762
 21
210.1695888987
  0
LINE
  5
3BA
100
AcDbEntity
  8
00_COMPONENTS
100
AcDbLine
 62
7
  6
CONTINUOUS
 10
200.7987230962
 20
209.5347232478
 11
200.7987230962
 21
206.6453494198
  0
LINE
  5
3BB
100
AcDbEntity
  8
00_COMPONENTS
100
AcDbLine
 62
7
  6
CONTINUOUS
 10
200.7987230962
 20
205.6655465192
 11
200.7987230962
 21
202.7761726911
  0
LINE
  5
3BC
100
AcDbEntity
  8
00_COMPONENTS
100
AcDbLine
 62
7
  6
CONTINUOUS
 10
200.7987230962
 20
137.6825105404
 11
200.7987230962
 21
134.7931367124
  0
LINE
  5
3BD
100
AcDbEntity
  8
00_COMPONENTS
100
AcDbLine
 62
7
  6
CONTINUOUS
 10
200.7987230962
 20
133.8133338118
 11
200.7987230962
 21
130.9239599837
  0
LINE
  5
3BE
100
AcDbEntity
  8
00_COMPONENTS
100
AcDbLine
 62
7
  6
CONTINUOUS
 10
201.080931882
 20
133.9762661577
 11
201.080931882
 21
134.6302070799
  0
LINE
  5
3BF
100
AcDbEntity
  8
00_COMPONENTS
100
AcDbLine
 62
7
  6
CONTINUOUS
 10
201.080931882
 20
205.8284788651
 11
201.080931882
 21
206.4824197873
  0
LINE
  5
3C0
100
AcDbEntity
  8
00_COMPONENTS
100
AcDbLine
 62
7
  6
CONTINUOUS
 10
201.6826102526
 20
206.1350484766
 11
201.6826102526
 21
205.1552455761
  0
LINE
  5
3C1
100
AcDbEntity
  8
00_COMPONENTS
100
AcDbLine
 62
7
  6
CONTINUOUS
 10
201.6826102526
 20
134.2828357692
 11
201.6826102526
 21
133.3030328687
  0
LINE
  5
3C2
100
AcDbEntity
  8
00_COMPONENTS
100
AcDbLine
 62
7
  6
CONTINUOUS
 10
218.1312146991
 20
278.0255558522
 11
217.0904242342
 21
274.0681312856
  0
LINE
  5
3C3
100
AcDbEntity
  8
00_COMPONENTS
100
AcDbLine
 62
7
  6
CONTINUOUS
 10
82.6665388279
 20
142.6839766297
 11
79.2946495142
 21
140.7372270473
  0
LINE
  5
3C4
100
AcDbEntity
  8
00_COMPONENTS
100
AcDbLine
 62
7
  6
CONTINUOUS
 10
86.9623599063
 20
144.184604938
 11
87.2094949263
 21
144.3272875566
  0
LINE
  5
3C5
100
AcDbEntity
  8
00_COMPONENTS
100
AcDbLine
 62
7
  6
CONTINUOUS
 10
200.7987230962
 20
209.5347232478
 11
200.8327809671
 21
209.5543864514
  0
LINE
  5
3C6
100
AcDbEntity
  8
00_COMPONENTS
100
AcDbLine
 62
7
  6
CONTINUOUS
 10
199.6985513699
 20
207.3009235873
 11
198.8323343197
 21
206.8008159254
  0
LINE
  5
3C7
100
AcDbEntity
  8
00_COMPONENTS
100
AcDbLine
 62
7
  6
CONTINUOUS
 10
200.7987230962
 20
207.8952967539
 11
199.7162214762
 21
207.2703178828
  0
LINE
  5
3C8
100
AcDbEntity
  8
00_COMPONENTS
100
AcDbLine
 62
7
  6
CONTINUOUS
 10
86.4316595088
 20
141.8523043367
 11
85.371003753
 21
141.2399381059
  0
LINE
  5
3C9
100
AcDbEntity
  8
00_COMPONENTS
100
AcDbLine
 62
7
  6
CONTINUOUS
 10
200.7987230962
 20
206.9154938534
 11
199.7162214762
 21
206.2905149823
  0
LINE
  5
3CA
100
AcDbEntity
  8
00_COMPONENTS
100
AcDbLine
 62
7
  6
CONTINUOUS
 10
201.6649401464
 20
206.1656541811
 11
200.7987230962
 21
205.6655465192
  0
LINE
  5
3CB
100
AcDbEntity
  8
00_COMPONENTS
100
AcDbLine
 62
7
  6
CONTINUOUS
 10
199.7162214762
 20
203.3912439664
 11
200.7987230962
 21
204.0162228375
  0
LINE
  5
3CC
100
AcDbEntity
  8
00_COMPONENTS
100
AcDbLine
 62
7
  6
CONTINUOUS
 10
202.8454730479
 20
203.1218463543
 11
202.3417568126
 21
202.8310273863
  0
LINE
  5
3CD
100
AcDbEntity
  8
00_COMPONENTS
100
AcDbLine
 62
7
  6
CONTINUOUS
 10
88.0663057714
 20
134.125593846
 11
87.3158329266
 21
133.6923107335
  0
LINE
  5
3CE
100
AcDbEntity
  8
00_COMPONENTS
100
AcDbLine
 62
7
  6
CONTINUOUS
 10
88.1907972272
 20
133.3809464223
 11
86.3258793114
 21
132.3042419887
  0
LINE
  5
3CF
100
AcDbEntity
  8
00_COMPONENTS
100
AcDbLine
 62
7
  6
CONTINUOUS
 10
88.3775266666
 20
132.2640216092
 11
87.3865438991
 21
131.6918808569
  0
LINE
  5
3D0
100
AcDbEntity
  8
00_COMPONENTS
100
AcDbLine
 62
7
  6
CONTINUOUS
 10
81.6599299525
 20
126.5892682682
 11
84.1338391634
 21
128.0175718912
  0
LINE
  5
3D1
100
AcDbEntity
  8
00_COMPONENTS
100
AcDbLine
 62
7
  6
CONTINUOUS
 10
211.1307834826
 20
227.4695558999
 11
210.9893627152
 21
227.5512033709
  0
LINE
  5
3D2
100
AcDbEntity
  8
00_COMPONENTS
100
AcDbLine
 62
7
  6
CONTINUOUS
 10
209.9994173431
 20
228.6126705714
 11
40.2930833078
 21
326.5904516563
  0
LINE
  5
3D3
100
AcDbEntity
  8
00_COMPONENTS
100
AcDbLine
 62
7
  6
CONTINUOUS
 10
210.9893627152
 20
229.0209119034
 11
210.8479383263
 21
229.1025614652
  0
LINE
  5
3D4
100
AcDbEntity
  8
00_COMPONENTS
100
AcDbLine
 62
7
  6
CONTINUOUS
 10
209.9994173431
 20
232.5318821736
 11
177.4256273945
 21
251.337943119
  0
LINE
  5
3D5
100
AcDbEntity
  8
00_COMPONENTS
100
AcDbLine
 62
7
  6
CONTINUOUS
 10
175.6806272928
 20
252.3453966058
 11
117.0384568669
 21
286.201703555
  0
LINE
  5
3D6
100
AcDbEntity
  8
00_COMPONENTS
100
AcDbLine
 62
7
  6
CONTINUOUS
 10
115.2934567652
 20
287.2091570419
 11
40.2930833078
 21
330.5096632585
  0
LINE
  5
3D7
100
AcDbEntity
  8
00_COMPONENTS
100
AcDbLine
 62
7
  6
CONTINUOUS
 10
131.0450605691
 20
358.0024883486
 11
127.4562620841
 21
365.5997684602
  0
LINE
  5
3D8
100
AcDbEntity
  8
00_COMPONENTS
100
AcDbLine
 62
7
  6
CONTINUOUS
 10
174.5365609749
 20
300.2664560586
 11
176.2722255994
 21
294.9975659505
  0
LINE
  5
3D9
100
AcDbEntity
  8
00_COMPONENTS
100
AcDbLine
 62
7
  6
CONTINUOUS
 10
202.8926459603
 20
101.7892261387
 11
202.8926459603
 21
109.95425031
  0
LINE
  5
3DA
100
AcDbEntity
  8
00_COMPONENTS
100
AcDbLine
 62
7
  6
CONTINUOUS
 10
203.2109714462
 20
272.7847784435
 11
203.2109714462
 21
283.5626103497
  0
LINE
  5
3DB
100
AcDbEntity
  8
00_COMPONENTS
100
AcDbLine
 62
7
  6
CONTINUOUS
 10
203.9533105481
 20
73.252482341
 11
203.9533105481
 21
101.1768650069
  0
LINE
  5
3DC
100
AcDbEntity
  8
00_COMPONENTS
100
AcDbLine
 62
7
  6
CONTINUOUS
 10
203.9533105481
 20
109.3418891782
 11
203.9533105481
 21
112.6078988467
  0
LINE
  5
3DD
100
AcDbEntity
  8
00_COMPONENTS
100
AcDbLine
 62
7
  6
CONTINUOUS
 10
204.2188300788
 20
112.6591388985
 11
204.2188300788
 21
71.6707175586
  0
LINE
  5
3DE
100
AcDbEntity
  8
00_COMPONENTS
100
AcDbLine
 62
7
  6
CONTINUOUS
 10
205.1203949784
 20
74.0079690565
 11
205.1203949784
 21
71.885062772
  0
LINE
  5
3DF
100
AcDbEntity
  8
00_COMPONENTS
100
AcDbLine
 62
7
  6
CONTINUOUS
 10
205.8275047035
 20
70.7419698421
 11
205.8275047035
 21
71.4768220175
  0
LINE
  5
3E0
100
AcDbEntity
  8
00_COMPONENTS
100
AcDbLine
 62
7
  6
CONTINUOUS
 10
205.8275047035
 20
73.599728302
 11
205.8275047035
 21
226.0407295801
  0
LINE
  5
3E1
100
AcDbEntity
  8
00_COMPONENTS
100
AcDbLine
 62
7
  6
CONTINUOUS
 10
206.0393867951
 20
274.417755059
 11
206.0393867951
 21
285.1955869651
  0
LINE
  5
3E2
100
AcDbEntity
  8
00_COMPONENTS
100
AcDbLine
 62
7
  6
CONTINUOUS
 10
206.2514578893
 20
273.309634716
 11
206.2514578893
 21
293.6462062769
  0
LINE
  5
3E3
100
AcDbEntity
  8
00_COMPONENTS
100
AcDbLine
 62
7
  6
CONTINUOUS
 10
207.6939016228
 20
74.5792631798
 11
207.6939016228
 21
73.790578428
  0
LINE
  5
3E4
100
AcDbEntity
  8
00_COMPONENTS
100
AcDbLine
 62
7
  6
CONTINUOUS
 10
209.9994173431
 20
228.6126705714
 11
209.9994173431
 21
232.5318821736
  0
LINE
  5
3E5
100
AcDbEntity
  8
00_COMPONENTS
100
AcDbLine
 62
7
  6
CONTINUOUS
 10
210.0701277268
 20
69.2722231631
 11
210.0701277268
 21
72.9464840402
  0
LINE
  5
3E6
100
AcDbEntity
  8
00_COMPONENTS
100
AcDbLine
 62
7
  6
CONTINUOUS
 10
210.9893627152
 20
229.0209119034
 11
210.9893627152
 21
227.3879070691
  0
LINE
  5
3E7
100
AcDbEntity
  8
00_COMPONENTS
100
AcDbLine
 62
7
  6
CONTINUOUS
 10
211.1307834826
 20
227.4695558999
 11
211.1307834826
 21
229.2658612176
  0
LINE
  5
3E8
100
AcDbEntity
  8
00_COMPONENTS
100
AcDbLine
 62
7
  6
CONTINUOUS
 10
211.7671769361
 20
73.9262700095
 11
211.7671769361
 21
74.1712207346
  0
LINE
  5
3E9
100
AcDbEntity
  8
00_COMPONENTS
100
AcDbLine
 62
7
  6
CONTINUOUS
 10
209.9195823869
 20
247.7543439985
 11
210.2189418674
 21
249.8867840446
  0
LINE
  5
3EA
100
AcDbEntity
  8
00_COMPONENTS
100
AcDbLine
 62
7
  6
CONTINUOUS
 10
210.7224363268
 20
245.8500319134
 11
210.9095360021
 21
247.1828069422
  0
LINE
  5
3EB
100
AcDbEntity
  8
00_COMPONENTS
100
AcDbLine
 62
7
  6
CONTINUOUS
 10
211.2088954826
 20
249.3152469883
 11
212.0570806775
 21
255.3571604522
  0
LINE
  5
3EC
100
AcDbEntity
  8
00_COMPONENTS
100
AcDbLine
 62
7
  6
CONTINUOUS
 10
209.9994173431
 20
232.5318821736
 11
210.3736167631
 21
235.1974327256
  0
LINE
  5
3ED
100
AcDbEntity
  8
00_COMPONENTS
100
AcDbLine
 62
7
  6
CONTINUOUS
 10
211.1220153256
 20
240.5285318521
 11
211.7831009145
 21
245.2376707816
  0
LINE
  5
3EE
100
AcDbEntity
  8
00_COMPONENTS
100
AcDbLine
 62
7
  6
CONTINUOUS
 10
89.2240480866
 20
127.2005416251
 11
87.3865438991
 21
126.1396644204
  0
LINE
  5
3EF
100
AcDbEntity
  8
00_COMPONENTS
100
AcDbLine
 62
7
  6
CONTINUOUS
 10
43.1352815962
 20
342.6043319351
 11
42.0767668792
 21
343.2154518665
  0
LINE
  5
3F0
100
AcDbEntity
  8
00_COMPONENTS
100
AcDbLine
 62
7
  6
CONTINUOUS
 10
210.7224363268
 20
245.8500319134
 11
211.7831009145
 21
245.2376707816
  0
LINE
  5
3F1
100
AcDbEntity
  8
00_COMPONENTS
100
AcDbLine
 62
7
  6
CONTINUOUS
 10
210.9095360021
 20
247.1828069422
 11
209.9195823869
 21
247.7543439985
  0
LINE
  5
3F2
100
AcDbEntity
  8
00_COMPONENTS
100
AcDbLine
 62
7
  6
CONTINUOUS
 10
44.3123348867
 20
343.3655699076
 11
43.3223812715
 21
343.9371069639
  0
LINE
  5
3F3
100
AcDbEntity
  8
00_COMPONENTS
100
AcDbLine
 62
7
  6
CONTINUOUS
 10
43.621740752
 20
346.06954701
 11
44.6116943672
 21
345.4980099537
  0
LINE
  5
3F4
100
AcDbEntity
  8
00_COMPONENTS
100
AcDbLine
 62
7
  6
CONTINUOUS
 10
210.2189418674
 20
249.8867840446
 11
211.2088954826
 21
249.3152469883
  0
LINE
  5
3F5
100
AcDbEntity
  8
00_COMPONENTS
100
AcDbLine
 62
7
  6
CONTINUOUS
 10
174.1799376413
 20
271.4196372169
 11
172.1689999442
 21
272.5806263725
  0
LINE
  5
3F6
100
AcDbEntity
  8
00_COMPONENTS
100
AcDbLine
 62
7
  6
CONTINUOUS
 10
131.7533541325
 20
295.9140824881
 11
129.7424164354
 21
297.0750716437
  0
LINE
  5
3F7
100
AcDbEntity
  8
00_COMPONENTS
100
AcDbLine
 62
7
  6
CONTINUOUS
 10
89.3267706237
 20
320.4085277593
 11
87.3158329266
 21
321.569516915
  0
LINE
  5
3F8
100
AcDbEntity
  8
00_COMPONENTS
100
AcDbLine
 62
7
  6
CONTINUOUS
 10
174.3389825187
 20
272.5525683171
 11
174.2903291197
 21
272.5806577347
  0
LINE
  5
3F9
100
AcDbEntity
  8
00_COMPONENTS
100
AcDbLine
 62
7
  6
CONTINUOUS
 10
172.1689999442
 20
273.8053799982
 11
171.179046329
 21
274.3769170546
  0
LINE
  5
3FA
100
AcDbEntity
  8
00_COMPONENTS
100
AcDbLine
 62
7
  6
CONTINUOUS
 10
131.9123990099
 20
297.0470135883
 11
131.8637456109
 21
297.0751030059
  0
LINE
  5
3FB
100
AcDbEntity
  8
00_COMPONENTS
100
AcDbLine
 62
7
  6
CONTINUOUS
 10
129.7424164354
 20
298.2998252694
 11
128.7524628202
 21
298.8713623258
  0
LINE
  5
3FC
100
AcDbEntity
  8
00_COMPONENTS
100
AcDbLine
 62
7
  6
CONTINUOUS
 10
89.485815501
 20
321.5414588596
 11
89.437162102
 21
321.5695482771
  0
LINE
  5
3FD
100
AcDbEntity
  8
00_COMPONENTS
100
AcDbLine
 62
7
  6
CONTINUOUS
 10
87.3158329266
 20
322.7942705407
 11
86.3258793114
 21
323.365807597
  0
LINE
  5
3FE
100
AcDbEntity
  8
00_COMPONENTS
100
AcDbLine
 62
7
  6
CONTINUOUS
 10
86.3258793114
 20
325.3254133981
 11
87.3158329266
 21
324.7538763418
  0
LINE
  5
3FF
100
AcDbEntity
  8
00_COMPONENTS
100
AcDbLine
 62
7
  6
CONTINUOUS
 10
89.437162102
 20
323.5291540782
 11
89.7402873048
 21
323.3541486199
  0
LINE
  5
400
100
AcDbEntity
  8
00_COMPONENTS
100
AcDbLine
 62
7
  6
CONTINUOUS
 10
128.7524628202
 20
300.8309681269
 11
129.7424164354
 21
300.2594310706
  0
LINE
  5
401
100
AcDbEntity
  8
00_COMPONENTS
100
AcDbLine
 62
7
  6
CONTINUOUS
 10
131.8637456109
 20
299.034708807
 11
132.1668708137
 21
298.8597033487
  0
LINE
  5
402
100
AcDbEntity
  8
00_COMPONENTS
100
AcDbLine
 62
7
  6
CONTINUOUS
 10
171.179046329
 20
276.3365228557
 11
172.1689999442
 21
275.7649857993
  0
LINE
  5
403
100
AcDbEntity
  8
00_COMPONENTS
100
AcDbLine
 62
7
  6
CONTINUOUS
 10
174.2903291197
 20
274.5402635358
 11
174.5934543225
 21
274.3652580775
  0
LINE
  5
404
100
AcDbEntity
  8
00_COMPONENTS
100
AcDbLine
 62
7
  6
CONTINUOUS
 10
212.0570806775
 20
255.3571604522
 11
174.9338201072
 21
276.7898000645
  0
LINE
  5
405
100
AcDbEntity
  8
00_COMPONENTS
100
AcDbLine
 62
7
  6
CONTINUOUS
 10
166.4485034055
 20
281.6886891188
 11
132.5072365984
 21
301.2842453357
  0
LINE
  5
406
100
AcDbEntity
  8
00_COMPONENTS
100
AcDbLine
 62
7
  6
CONTINUOUS
 10
124.0219198967
 20
306.18313439
 11
90.0806530896
 21
325.778690607
  0
LINE
  5
407
100
AcDbEntity
  8
00_COMPONENTS
100
AcDbLine
 62
7
  6
CONTINUOUS
 10
81.5953363878
 20
330.6775796612
 11
44.4699259468
 21
352.1114604739
  0
LINE
  5
408
100
AcDbEntity
  8
00_COMPONENTS
100
AcDbLine
 62
7
  6
CONTINUOUS
 10
91.0417566859
 20
344.5488391014
 11
93.3261201584
 21
342.695249461
  0
LINE
  5
409
100
AcDbEntity
  8
00_COMPONENTS
100
AcDbLine
 62
7
  6
CONTINUOUS
 10
164.5088564301
 20
338.0026676195
 11
168.0976549151
 21
330.405387508
  0
LINE
  5
40A
100
AcDbEntity
  8
00_COMPONENTS
100
AcDbLine
 62
7
  6
CONTINUOUS
 10
181.0612252039
 20
299.6649409824
 11
180.9367813831
 21
300.0427102861
  0
LINE
  5
40B
100
AcDbEntity
  8
00_COMPONENTS
100
AcDbLine
 62
7
  6
CONTINUOUS
 10
220.6058706849
 20
263.068837449
 11
220.6058706849
 21
273.5198877885
  0
LINE
  5
40C
100
AcDbEntity
  8
00_COMPONENTS
100
AcDbLine
 62
7
  6
CONTINUOUS
 10
223.858343436
 20
290.7681416905
 11
223.858343436
 21
294.0134567027
  0
LINE
  5
40D
100
AcDbEntity
  8
00_COMPONENTS
100
AcDbLine
 62
7
  6
CONTINUOUS
 10
226.8284362661
 20
266.6614295151
 11
226.8284362661
 21
269.9273691487
  0
LINE
  5
40E
100
AcDbEntity
  8
00_COMPONENTS
100
AcDbLine
 62
7
  6
CONTINUOUS
 10
227.1110034233
 20
297.1433876638
 11
227.1110034233
 21
308.1388635413
  0
LINE
  5
40F
100
AcDbEntity
  8
00_COMPONENTS
100
AcDbLine
 62
7
  6
CONTINUOUS
 10
110.490056153
 20
122.0055540316
 11
107.8015501392
 21
120.4533536262
  0
LINE
  5
410
100
AcDbEntity
  8
00_COMPONENTS
100
AcDbLine
 62
7
  6
CONTINUOUS
 10
219.9887525196
 20
269.0748691403
 11
220.6058706849
 21
268.9125906647
  0
LINE
  5
411
100
AcDbEntity
  8
00_COMPONENTS
100
AcDbLine
 62
7
  6
CONTINUOUS
 10
222.0703334493
 20
276.9897182735
 11
218.1312146991
 21
278.0255558522
  0
LINE
  5
412
100
AcDbEntity
  8
00_COMPONENTS
100
AcDbLine
 62
7
  6
CONTINUOUS
 10
177.4723228828
 20
278.2553965769
 11
174.2903291197
 21
280.0924799723
  0
LINE
  5
413
100
AcDbEntity
  8
00_COMPONENTS
100
AcDbLine
 62
7
  6
CONTINUOUS
 10
172.1689999442
 20
281.3172022358
 11
168.9870061811
 21
283.1542856312
  0
LINE
  5
414
100
AcDbEntity
  8
00_COMPONENTS
100
AcDbLine
 62
7
  6
CONTINUOUS
 10
135.045739374
 20
302.7498418481
 11
131.8637456109
 21
304.5869252435
  0
LINE
  5
415
100
AcDbEntity
  8
00_COMPONENTS
100
AcDbLine
 62
7
  6
CONTINUOUS
 10
129.7424164354
 20
305.811647507
 11
126.5604226723
 21
307.6487309024
  0
LINE
  5
416
100
AcDbEntity
  8
00_COMPONENTS
100
AcDbLine
 62
7
  6
CONTINUOUS
 10
92.6191558652
 20
327.2442871194
 11
89.437162102
 21
329.0813705147
  0
LINE
  5
417
100
AcDbEntity
  8
00_COMPONENTS
100
AcDbLine
 62
7
  6
CONTINUOUS
 10
87.3158329266
 20
330.3060927783
 11
84.1338391634
 21
332.1431761736
  0
LINE
  5
418
100
AcDbEntity
  8
00_COMPONENTS
100
AcDbLine
 62
7
  6
CONTINUOUS
 10
62.2134200201
 20
347.2480942889
 11
76.355614523
 21
339.0832791985
  0
LINE
  5
419
100
AcDbEntity
  8
00_COMPONENTS
100
AcDbLine
 62
7
  6
CONTINUOUS
 10
104.6400035289
 20
322.7536490177
 11
118.7821980318
 21
314.5888339273
  0
LINE
  5
41A
100
AcDbEntity
  8
00_COMPONENTS
100
AcDbLine
 62
7
  6
CONTINUOUS
 10
147.0665870377
 20
298.2592037465
 11
161.2087815407
 21
290.0943886561
  0
LINE
  5
41B
100
AcDbEntity
  8
00_COMPONENTS
100
AcDbLine
 62
7
  6
CONTINUOUS
 10
189.4931705465
 20
273.7647584752
 11
203.6353650495
 21
265.5999433848
  0
LINE
  5
41C
100
AcDbEntity
  8
00_COMPONENTS
100
AcDbLine
 62
7
  6
CONTINUOUS
 10
213.0399114405
 20
261.9666081482
 11
205.1909934913
 21
266.4980805234
  0
LINE
  5
41D
100
AcDbEntity
  8
00_COMPONENTS
100
AcDbLine
 62
7
  6
CONTINUOUS
 10
191.0487989884
 20
274.6628956138
 11
183.1998810393
 21
279.1943679889
  0
LINE
  5
41E
100
AcDbEntity
  8
00_COMPONENTS
100
AcDbLine
 62
7
  6
CONTINUOUS
 10
170.6133279317
 20
286.4610534194
 11
162.7644099825
 21
290.9925257946
  0
LINE
  5
41F
100
AcDbEntity
  8
00_COMPONENTS
100
AcDbLine
 62
7
  6
CONTINUOUS
 10
148.6222154796
 20
299.157340885
 11
140.7732975305
 21
303.6888132602
  0
LINE
  5
420
100
AcDbEntity
  8
00_COMPONENTS
100
AcDbLine
 62
7
  6
CONTINUOUS
 10
128.1867444228
 20
310.9554986906
 11
120.3378264737
 21
315.4869710658
  0
LINE
  5
421
100
AcDbEntity
  8
00_COMPONENTS
100
AcDbLine
 62
7
  6
CONTINUOUS
 10
106.1956319708
 20
323.6517861562
 11
98.3467140216
 21
328.1832585314
  0
LINE
  5
422
100
AcDbEntity
  8
00_COMPONENTS
100
AcDbLine
 62
7
  6
CONTINUOUS
 10
85.760160914
 20
335.4499439618
 11
77.9112429649
 21
339.981416337
  0
LINE
  5
423
100
AcDbEntity
  8
00_COMPONENTS
100
AcDbLine
 62
7
  6
CONTINUOUS
 10
63.7690484619
 20
348.1462314274
 11
55.9201305128
 21
352.6777038026
  0
LINE
  5
424
100
AcDbEntity
  8
00_COMPONENTS
100
AcDbLine
 62
7
  6
CONTINUOUS
 10
220.6058706849
 20
263.8032058577
 11
206.5137470993
 21
271.9391131445
  0
LINE
  5
425
100
AcDbEntity
  8
00_COMPONENTS
100
AcDbLine
 62
7
  6
CONTINUOUS
 10
178.179287176
 20
288.297651129
 11
164.0871635905
 21
296.4335584157
  0
LINE
  5
426
100
AcDbEntity
  8
00_COMPONENTS
100
AcDbLine
 62
7
  6
CONTINUOUS
 10
79.2339965729
 20
345.4224489581
 11
93.3261201584
 21
337.2865416714
  0
LINE
  5
427
100
AcDbEntity
  8
00_COMPONENTS
100
AcDbLine
 62
7
  6
CONTINUOUS
 10
121.6605800817
 20
320.9280036869
 11
135.7527036672
 21
312.7920964002
  0
LINE
  5
428
100
AcDbEntity
  8
00_COMPONENTS
100
AcDbLine
 62
7
  6
CONTINUOUS
 10
96.4477786999
 20
348.4933738782
 11
92.4466689416
 21
351.739974381
  0
LINE
  5
429
100
AcDbEntity
  8
00_COMPONENTS
100
AcDbLine
 62
7
  6
CONTINUOUS
 10
133.4717160926
 20
320.0507996337
 11
135.7527036672
 21
318.1999492813
  0
LINE
  5
42A
100
AcDbEntity
  8
00_COMPONENTS
100
AcDbLine
 62
7
  6
CONTINUOUS
 10
138.8777381066
 20
323.9953344106
 11
134.8766283483
 21
327.2419349133
  0
LINE
  5
42B
100
AcDbEntity
  8
00_COMPONENTS
100
AcDbLine
 62
7
  6
CONTINUOUS
 10
173.471644078
 20
333.5080430774
 11
169.8828455929
 21
341.105323189
  0
LINE
  5
42C
100
AcDbEntity
  8
00_COMPONENTS
100
AcDbLine
 62
7
  6
CONTINUOUS
 10
232.6974505176
 20
79.8865288356
 11
232.6974505176
 21
74.9875143328
  0
LINE
  5
42D
100
AcDbEntity
  8
00_COMPONENTS
100
AcDbLine
 62
7
  6
CONTINUOUS
 10
236.5861595144
 20
316.0587797302
 11
236.5861595144
 21
318.5082446535
  0
LINE
  5
42E
100
AcDbEntity
  8
00_COMPONENTS
100
AcDbLine
 62
7
  6
CONTINUOUS
 10
125.0931223367
 20
118.1895313585
 11
121.721233023
 21
116.2427817761
  0
LINE
  5
42F
100
AcDbEntity
  8
00_COMPONENTS
100
AcDbLine
 62
7
  6
CONTINUOUS
 10
130.4928892802
 20
109.6311485748
 11
129.7424164354
 21
109.1978654622
  0
LINE
  5
430
100
AcDbEntity
  8
00_COMPONENTS
100
AcDbLine
 62
7
  6
CONTINUOUS
 10
130.617380736
 20
108.8865011511
 11
128.7524628202
 21
107.8097967175
  0
LINE
  5
431
100
AcDbEntity
  8
00_COMPONENTS
100
AcDbLine
 62
7
  6
CONTINUOUS
 10
130.8041101754
 20
107.769576338
 11
129.8131274079
 21
107.1974355857
  0
LINE
  5
432
100
AcDbEntity
  8
00_COMPONENTS
100
AcDbLine
 62
7
  6
CONTINUOUS
 10
69.7086553385
 20
360.6384648031
 11
75.9312209198
 21
357.0459461633
  0
LINE
  5
433
100
AcDbEntity
  8
00_COMPONENTS
100
AcDbLine
 62
7
  6
CONTINUOUS
 10
93.3261201584
 20
347.0032236021
 11
99.5486857397
 21
343.4107049623
  0
LINE
  5
434
100
AcDbEntity
  8
00_COMPONENTS
100
AcDbLine
 62
7
  6
CONTINUOUS
 10
112.1352388473
 20
336.1440195319
 11
118.3578044286
 21
332.5515008921
  0
LINE
  5
435
100
AcDbEntity
  8
00_COMPONENTS
100
AcDbLine
 62
7
  6
CONTINUOUS
 10
135.7527036672
 20
322.5087783309
 11
141.9752692485
 21
318.9162596911
  0
LINE
  5
436
100
AcDbEntity
  8
00_COMPONENTS
100
AcDbLine
 62
7
  6
CONTINUOUS
 10
154.5618223561
 20
311.6495742607
 11
160.7843879374
 21
308.0570556209
  0
LINE
  5
437
100
AcDbEntity
  8
00_COMPONENTS
100
AcDbLine
 62
7
  6
CONTINUOUS
 10
178.179287176
 20
298.0143330597
 11
184.4018527573
 21
294.4218144199
  0
LINE
  5
438
100
AcDbEntity
  8
00_COMPONENTS
100
AcDbLine
 62
7
  6
CONTINUOUS
 10
196.9884058649
 20
287.1551289894
 11
203.2109714462
 21
283.5626103497
  0
LINE
  5
439
100
AcDbEntity
  8
00_COMPONENTS
100
AcDbLine
 62
7
  6
CONTINUOUS
 10
220.6058706849
 20
273.5198877885
 11
226.8284362661
 21
269.9273691487
  0
LINE
  5
43A
100
AcDbEntity
  8
00_COMPONENTS
100
AcDbLine
 62
7
  6
CONTINUOUS
 10
230.6468052302
 20
270.9888087078
 11
223.4342860337
 21
275.1528644039
  0
LINE
  5
43B
100
AcDbEntity
  8
00_COMPONENTS
100
AcDbLine
 62
7
  6
CONTINUOUS
 10
206.0393867951
 20
285.1955869651
 11
198.8268675986
 21
289.3596426612
  0
LINE
  5
43C
100
AcDbEntity
  8
00_COMPONENTS
100
AcDbLine
 62
7
  6
CONTINUOUS
 10
188.2202217214
 20
295.4832539791
 11
181.0077025249
 21
299.6473096752
  0
LINE
  5
43D
100
AcDbEntity
  8
00_COMPONENTS
100
AcDbLine
 62
7
  6
CONTINUOUS
 10
163.6128032863
 20
309.6900322364
 11
156.4002840898
 21
313.8540879325
  0
LINE
  5
43E
100
AcDbEntity
  8
00_COMPONENTS
100
AcDbLine
 62
7
  6
CONTINUOUS
 10
145.7936382126
 20
319.9776992503
 11
138.5811190161
 21
324.1417549464
  0
LINE
  5
43F
100
AcDbEntity
  8
00_COMPONENTS
100
AcDbLine
 62
7
  6
CONTINUOUS
 10
121.1862197775
 20
334.1844775076
 11
113.973700581
 21
338.3485332037
  0
LINE
  5
440
100
AcDbEntity
  8
00_COMPONENTS
100
AcDbLine
 62
7
  6
CONTINUOUS
 10
103.3670547037
 20
344.4721445215
 11
96.1545355072
 21
348.6362002176
  0
LINE
  5
441
100
AcDbEntity
  8
00_COMPONENTS
100
AcDbLine
 62
7
  6
CONTINUOUS
 10
78.7596362686
 20
358.6789227788
 11
71.5471170721
 21
362.8429784749
  0
LINE
  5
442
100
AcDbEntity
  8
00_COMPONENTS
100
AcDbLine
 62
7
  6
CONTINUOUS
 10
176.2722255994
 20
294.9975659505
 11
178.179287176
 21
293.7100852646
  0
LINE
  5
443
100
AcDbEntity
  8
00_COMPONENTS
100
AcDbLine
 62
7
  6
CONTINUOUS
 10
180.9367813831
 20
300.0427102861
 11
176.8688388667
 21
302.7890282264
  0
LINE
  5
444
100
AcDbEntity
  8
00_COMPONENTS
100
AcDbLine
 62
7
  6
CONTINUOUS
 10
217.0904242342
 20
274.0681312856
 11
219.9887525196
 21
269.0748691403
  0
LINE
  5
445
100
AcDbEntity
  8
00_COMPONENTS
100
AcDbLine
 62
7
  6
CONTINUOUS
 10
223.2115690673
 20
275.0235888192
 11
222.0703334493
 21
276.9897182735
  0
LINE
  5
446
100
AcDbEntity
  8
00_COMPONENTS
100
AcDbLine
 62
7
  6
CONTINUOUS
 10
206.9354399389
 20
313.5082223483
 11
210.5242384239
 21
305.9109422367
  0
LINE
  5
447
100
AcDbEntity
  8
00_COMPONENTS
100
AcDbLine
 62
7
  6
CONTINUOUS
 10
124.0865134614
 20
102.0948229969
 11
126.5604226723
 21
103.52312662
  0
LINE
  5
448
100
AcDbEntity
  8
00_COMPONENTS
100
AcDbLine
 62
7
  6
CONTINUOUS
 10
131.6506315954
 20
102.7060963539
 11
129.8131274079
 21
101.6452191492
  0
LINE
  5
449
100
AcDbEntity
  8
00_COMPONENTS
100
AcDbLine
 62
7
  6
CONTINUOUS
 10
198.6500180485
 20
138.5815120448
 11
198.1267756827
 21
138.2794197273
  0
LINE
  5
44A
100
AcDbEntity
  8
00_COMPONENTS
100
AcDbLine
 62
7
  6
CONTINUOUS
 10
200.7987230962
 20
137.6825105404
 11
200.8327809671
 21
137.702173744
  0
LINE
  5
44B
100
AcDbEntity
  8
00_COMPONENTS
100
AcDbLine
 62
7
  6
CONTINUOUS
 10
199.6985513699
 20
135.4487108799
 11
198.8323343197
 21
134.948603218
  0
LINE
  5
44C
100
AcDbEntity
  8
00_COMPONENTS
100
AcDbLine
 62
7
  6
CONTINUOUS
 10
200.7987230962
 20
136.0430840465
 11
199.7162214762
 21
135.4181051754
  0
LINE
  5
44D
100
AcDbEntity
  8
00_COMPONENTS
100
AcDbLine
 62
7
  6
CONTINUOUS
 10
200.7987230962
 20
135.063281146
 11
199.7162214762
 21
134.4383022749
  0
LINE
  5
44E
100
AcDbEntity
  8
00_COMPONENTS
100
AcDbLine
 62
7
  6
CONTINUOUS
 10
201.6649401464
 20
134.3134414737
 11
200.7987230962
 21
133.8133338118
  0
LINE
  5
44F
100
AcDbEntity
  8
00_COMPONENTS
100
AcDbLine
 62
7
  6
CONTINUOUS
 10
199.7162214762
 20
131.539031259
 11
200.7987230962
 21
132.1640101302
  0
LINE
  5
450
100
AcDbEntity
  8
00_COMPONENTS
100
AcDbLine
 62
7
  6
CONTINUOUS
 10
180.2302704308
 20
129.0402736932
 11
196.8631375914
 21
138.5431679166
  0
LINE
  5
451
100
AcDbEntity
  8
00_COMPONENTS
100
AcDbLine
 62
7
  6
CONTINUOUS
 10
194.7789505601
 20
133.9578362293
 11
178.1460833995
 21
124.4549420058
  0
LINE
  5
452
100
AcDbEntity
  8
00_COMPONENTS
100
AcDbLine
 62
7
  6
CONTINUOUS
 10
240.1927246964
 20
274.0506500599
 11
238.071395521
 21
275.2753723235
  0
LINE
  5
453
100
AcDbEntity
  8
00_COMPONENTS
100
AcDbLine
 62
7
  6
CONTINUOUS
 10
206.2514578893
 20
293.6462062769
 11
204.1301287139
 21
294.8709285405
  0
LINE
  5
454
100
AcDbEntity
  8
00_COMPONENTS
100
AcDbLine
 62
7
  6
CONTINUOUS
 10
197.7661411876
 20
298.5450953311
 11
195.6448120121
 21
299.7698175947
  0
LINE
  5
455
100
AcDbEntity
  8
00_COMPONENTS
100
AcDbLine
 62
7
  6
CONTINUOUS
 10
163.8248743805
 20
318.1406515481
 11
161.7035452051
 21
319.3653738117
  0
LINE
  5
456
100
AcDbEntity
  8
00_COMPONENTS
100
AcDbLine
 62
7
  6
CONTINUOUS
 10
155.3395576788
 20
323.0395406024
 11
153.2182285033
 21
324.2642628659
  0
LINE
  5
457
100
AcDbEntity
  8
00_COMPONENTS
100
AcDbLine
 62
7
  6
CONTINUOUS
 10
121.3982908717
 20
342.6350968193
 11
119.2769616963
 21
343.8598190829
  0
LINE
  5
458
100
AcDbEntity
  8
00_COMPONENTS
100
AcDbLine
 62
7
  6
CONTINUOUS
 10
112.9129741699
 20
347.5339858736
 11
110.7916449945
 21
348.7587081371
  0
LINE
  5
459
100
AcDbEntity
  8
00_COMPONENTS
100
AcDbLine
 62
7
  6
CONTINUOUS
 10
78.9717073629
 20
367.1295420906
 11
76.8503781874
 21
368.3542643541
  0
LINE
  5
45A
100
AcDbEntity
  8
00_COMPONENTS
100
AcDbLine
 62
7
  6
CONTINUOUS
 10
215.8982275868
 20
309.0135978062
 11
212.3094291017
 21
316.6108779177
  0
LINE
  5
45B
100
AcDbEntity
  8
00_COMPONENTS
100
AcDbLine
 62
7
  6
CONTINUOUS
 10
202.8454730479
 20
131.2696336469
 11
202.3417568126
 21
130.9788146788
  0
LINE
  5
45C
100
AcDbEntity
  8
00_COMPONENTS
100
AcDbLine
 62
7
  6
CONTINUOUS
 10
154.0313492329
 20
102.8244882046
 11
152.970693477
 21
102.2121219738
  0
LINE
  5
45D
100
AcDbEntity
  8
00_COMPONENTS
100
AcDbLine
 62
7
  6
CONTINUOUS
 10
152.9166396618
 20
97.5111087604
 11
150.228133648
 21
95.958908355
  0
LINE
  5
45E
100
AcDbEntity
  8
00_COMPONENTS
100
AcDbLine
 62
7
  6
CONTINUOUS
 10
249.3620234477
 20
289.0137770771
 11
230.1746010558
 21
300.091389951
  0
LINE
  5
45F
100
AcDbEntity
  8
00_COMPONENTS
100
AcDbLine
 62
7
  6
CONTINUOUS
 10
102.8948505294
 20
373.5747257647
 11
122.0822729212
 21
362.4971128907
  0
LINE
  5
460
100
AcDbEntity
  8
00_COMPONENTS
100
AcDbLine
 62
7
  6
CONTINUOUS
 10
145.3214340382
 20
349.0802804934
 11
164.5088564301
 21
338.0026676195
  0
LINE
  5
461
100
AcDbEntity
  8
00_COMPONENTS
100
AcDbLine
 62
7
  6
CONTINUOUS
 10
187.748017547
 20
324.5858352222
 11
206.9354399389
 21
313.5082223483
  0
LINE
  5
462
100
AcDbEntity
  8
00_COMPONENTS
100
AcDbLine
 62
7
  6
CONTINUOUS
 10
108.2688396922
 20
376.6773813341
 11
127.4562620841
 21
365.5997684602
  0
LINE
  5
463
100
AcDbEntity
  8
00_COMPONENTS
100
AcDbLine
 62
7
  6
CONTINUOUS
 10
150.695423201
 20
352.1829360629
 11
169.8828455929
 21
341.105323189
  0
LINE
  5
464
100
AcDbEntity
  8
00_COMPONENTS
100
AcDbLine
 62
7
  6
CONTINUOUS
 10
193.1220067098
 20
327.6884907916
 11
212.3094291017
 21
316.6108779177
  0
LINE
  5
465
100
AcDbEntity
  8
00_COMPONENTS
100
AcDbLine
 62
7
  6
CONTINUOUS
 10
235.5485902187
 20
303.1940455204
 11
254.7360126105
 21
292.1164326465
  0
LINE
  5
466
100
AcDbEntity
  8
00_COMPONENTS
100
AcDbLine
 62
7
  6
CONTINUOUS
 10
263.1735994058
 20
287.3185850607
 11
227.1110034233
 21
308.1388635413
  0
LINE
  5
467
100
AcDbEntity
  8
00_COMPONENTS
100
AcDbLine
 62
7
  6
CONTINUOUS
 10
220.747015897
 20
311.813030332
 11
184.6844199145
 21
332.6333088125
  0
LINE
  5
468
100
AcDbEntity
  8
00_COMPONENTS
100
AcDbLine
 62
7
  6
CONTINUOUS
 10
178.3204323882
 20
336.3074756032
 11
142.2578364057
 21
357.1277540837
  0
LINE
  5
469
100
AcDbEntity
  8
00_COMPONENTS
100
AcDbLine
 62
7
  6
CONTINUOUS
 10
135.8938488794
 20
360.8019208744
 11
99.8312528969
 21
381.6221993549
  0
LINE
  5
46A
100
AcDbEntity
  8
00_COMPONENTS
100
AcDbLine
 62
7
  6
CONTINUOUS
 10
249.3620234477
 20
289.0137770771
 11
252.9508219328
 21
281.4164969655
  0
LINE
  5
46B
100
AcDbEntity
  8
00_COMPONENTS
100
AcDbLine
 62
7
  6
CONTINUOUS
 10
278.022789408
 20
287.073514201
 11
278.022789408
 21
287.8900363713
  0
LINE
  5
46C
100
AcDbEntity
  8
00_COMPONENTS
100
AcDbLine
 62
7
  6
CONTINUOUS
 10
279.0127430232
 20
285.277223519
 11
279.0127430232
 21
286.5019771447
  0
LINE
  5
46D
100
AcDbEntity
  8
00_COMPONENTS
100
AcDbLine
 62
7
  6
CONTINUOUS
 10
279.0127430232
 20
288.4615829458
 11
279.0127430232
 21
294.0137993823
  0
LINE
  5
46E
100
AcDbEntity
  8
00_COMPONENTS
100
AcDbLine
 62
7
  6
CONTINUOUS
 10
280.073407611
 20
284.6648623872
 11
280.073407611
 21
280.3373991221
  0
LINE
  5
46F
100
AcDbEntity
  8
00_COMPONENTS
100
AcDbLine
 62
7
  6
CONTINUOUS
 10
280.073407611
 20
275.438385528
 11
280.073407611
 21
89.2758339681
  0
LINE
  5
470
100
AcDbEntity
  8
00_COMPONENTS
100
AcDbLine
 62
7
  6
CONTINUOUS
 10
167.5197058455
 20
93.6950860873
 11
164.1478165318
 21
91.7483365049
  0
LINE
  5
471
100
AcDbEntity
  8
00_COMPONENTS
100
AcDbLine
 62
7
  6
CONTINUOUS
 10
203.9533105481
 20
112.6078988467
 11
204.1304450289
 21
112.7101668764
  0
LINE
  5
472
100
AcDbEntity
  8
00_COMPONENTS
100
AcDbLine
 62
7
  6
CONTINUOUS
 10
204.2188300788
 20
109.4951860357
 11
203.9533105481
 21
109.3418891782
  0
LINE
  5
473
100
AcDbEntity
  8
00_COMPONENTS
100
AcDbLine
 62
7
  6
CONTINUOUS
 10
172.919472789
 20
85.1367033036
 11
172.1689999442
 21
84.703420191
  0
LINE
  5
474
100
AcDbEntity
  8
00_COMPONENTS
100
AcDbLine
 62
7
  6
CONTINUOUS
 10
204.2188300788
 20
102.554894326
 11
202.8926459603
 21
101.7892261387
  0
LINE
  5
475
100
AcDbEntity
  8
00_COMPONENTS
100
AcDbLine
 62
7
  6
CONTINUOUS
 10
173.0439642448
 20
84.3920558799
 11
171.179046329
 21
83.3153514462
  0
LINE
  5
476
100
AcDbEntity
  8
00_COMPONENTS
100
AcDbLine
 62
7
  6
CONTINUOUS
 10
204.2188300788
 20
101.3301618644
 11
203.9533105481
 21
101.1768650069
  0
LINE
  5
477
100
AcDbEntity
  8
00_COMPONENTS
100
AcDbLine
 62
7
  6
CONTINUOUS
 10
173.2182450549
 20
83.349592721
 11
172.1689999442
 21
82.7438143899
  0
LINE
  5
478
100
AcDbEntity
  8
00_COMPONENTS
100
AcDbLine
 62
7
  6
CONTINUOUS
 10
279.0127430232
 20
285.277223519
 11
280.073407611
 21
284.6648623872
  0
LINE
  5
479
100
AcDbEntity
  8
00_COMPONENTS
100
AcDbLine
 62
7
  6
CONTINUOUS
 10
279.0127430232
 20
286.5019771447
 11
278.022789408
 21
287.073514201
  0
LINE
  5
47A
100
AcDbEntity
  8
00_COMPONENTS
100
AcDbLine
 62
7
  6
CONTINUOUS
 10
279.0127430232
 20
294.0137993823
 11
238.7074886899
 21
317.2835223899
  0
LINE
  5
47B
100
AcDbEntity
  8
00_COMPONENTS
100
AcDbLine
 62
7
  6
CONTINUOUS
 10
236.5861595144
 20
318.5082446535
 11
196.280905181
 21
341.7779676612
  0
LINE
  5
47C
100
AcDbEntity
  8
00_COMPONENTS
100
AcDbLine
 62
7
  6
CONTINUOUS
 10
194.1595760056
 20
343.0026899247
 11
153.8543216722
 21
366.2724129324
  0
LINE
  5
47D
100
AcDbEntity
  8
00_COMPONENTS
100
AcDbLine
 62
7
  6
CONTINUOUS
 10
151.7329924968
 20
367.4971351959
 11
111.4255882926
 21
390.768099404
  0
LINE
  5
47E
100
AcDbEntity
  8
00_COMPONENTS
100
AcDbLine
 62
7
  6
CONTINUOUS
 10
258.3248110956
 20
284.5191525349
 11
254.7360126105
 21
292.1164326465
  0
LINE
  5
47F
100
AcDbEntity
  8
00_COMPONENTS
100
AcDbLine
 62
7
  6
CONTINUOUS
 10
168.9870061811
 20
79.0286813488
 11
166.5130969702
 21
77.6003777257
  0
LINE
  5
480
100
AcDbEntity
  8
00_COMPONENTS
100
AcDbLine
 62
7
  6
CONTINUOUS
 10
173.8943476736
 20
78.1877219834
 11
172.1689999442
 21
77.1915979534
  0
LINE
  5
481
100
AcDbEntity
  8
00_COMPONENTS
100
AcDbLine
 62
7
  6
CONTINUOUS
 10
195.3432231707
 20
73.0166634891
 11
192.6547171568
 21
71.4644630837
  0
LINE
  5
482
100
AcDbEntity
  8
00_COMPONENTS
100
AcDbLine
 62
7
  6
CONTINUOUS
 10
207.4538435291
 20
74.5386898559
 11
205.8275047035
 21
73.599728302
  0
LINE
  5
483
100
AcDbEntity
  8
00_COMPONENTS
100
AcDbLine
 62
7
  6
CONTINUOUS
 10
206.4354726195
 20
72.64431867
 11
205.1203949784
 21
71.885062772
  0
LINE
  5
484
100
AcDbEntity
  8
00_COMPONENTS
100
AcDbLine
 62
7
  6
CONTINUOUS
 10
207.4538435291
 20
72.4157835714
 11
205.8275047035
 21
71.4768220175
  0
LINE
  5
485
100
AcDbEntity
  8
00_COMPONENTS
100
AcDbLine
 62
7
  6
CONTINUOUS
 10
211.7671769361
 20
74.1712207346
 11
205.8275047035
 21
70.7419698421
  0
LINE
  5
486
100
AcDbEntity
  8
00_COMPONENTS
100
AcDbLine
 62
7
  6
CONTINUOUS
 10
210.0701277268
 20
72.9464840402
 11
211.7671769361
 21
73.9262700095
  0
LINE
  5
487
100
AcDbEntity
  8
00_COMPONENTS
100
AcDbLine
 62
7
  6
CONTINUOUS
 10
210.4435930592
 20
67.0383349348
 11
232.6974505176
 21
79.8865288356
  0
LINE
  5
488
100
AcDbEntity
  8
00_COMPONENTS
100
AcDbLine
 62
7
  6
CONTINUOUS
 10
232.6974505176
 20
74.9875143328
 11
211.1905237239
 21
62.5705584782
  0
LINE
  5
489
100
AcDbEntity
  8
00_COMPONENTS
100
AcDbLine
 62
7
  6
CONTINUOUS
 10
213.1823388299
 20
50.6564879274
 11
280.073407611
 21
89.2758339681
  0
ARC
  5
48A
100
AcDbEntity
  8
00_COMPONENTS
100
AcDbCircle
 62
7
  6
CONTINUOUS
 10
67.986580793
 20
142.5894371739
 40
3.6643492215
100
AcDbArc
 50
275.2286489088
 51
276.5075950534
  0
ARC
  5
48B
100
AcDbEntity
  8
00_COMPONENTS
100
AcDbCircle
 62
7
  6
CONTINUOUS
 10
110.4131643018
 20
118.0949919027
 40
3.6643492215
100
AcDbArc
 50
275.2286489088
 51
276.5075950534
  0
ARC
  5
48C
100
AcDbEntity
  8
00_COMPONENTS
100
AcDbCircle
 62
7
  6
CONTINUOUS
 10
62.9633688664
 20
150.96965757
 40
2.0918686623
100
AcDbArc
 50
112.8189463371
 51
120.0145632382
  0
ARC
  5
48D
100
AcDbEntity
  8
00_COMPONENTS
100
AcDbCircle
 62
7
  6
CONTINUOUS
 10
105.3899523752
 20
126.4752122988
 40
2.0918686623
100
AcDbArc
 50
112.8189463371
 51
120.0145632382
  0
ARC
  5
48E
100
AcDbEntity
  8
00_COMPONENTS
100
AcDbCircle
 62
7
  6
CONTINUOUS
 10
143.5191560906
 20
323.8456538686
 40
9.9819071619
100
AcDbArc
 50
1.4889142836
 51
2.356169367
  0
ARC
  5
48F
100
AcDbEntity
  8
00_COMPONENTS
100
AcDbCircle
 62
7
  6
CONTINUOUS
 10
101.0925725827
 20
348.3400991399
 40
9.981907161
100
AcDbArc
 50
1.4889142835
 51
2.356169367
  0
ARC
  5
490
100
AcDbEntity
  8
00_COMPONENTS
100
AcDbCircle
 62
7
  6
CONTINUOUS
 10
142.8887837369
 20
323.2417091613
 40
8.1373435638
100
AcDbArc
 50
357.6499022699
 51
0.0120486085
  0
ARC
  5
491
100
AcDbEntity
  8
00_COMPONENTS
100
AcDbCircle
 62
7
  6
CONTINUOUS
 10
100.4622002282
 20
347.7361544325
 40
8.1373435638
100
AcDbArc
 50
357.6499022699
 51
0.0120486085
  0
ARC
  5
492
100
AcDbEntity
  8
00_COMPONENTS
100
AcDbCircle
 62
7
  6
CONTINUOUS
 10
80.1566024534
 20
271.0657716671
 40
7.1777285524
100
AcDbArc
 50
33.1493032807
 51
35.3898297787
  0
ARC
  5
493
100
AcDbEntity
  8
00_COMPONENTS
100
AcDbCircle
 62
7
  6
CONTINUOUS
 10
91.8207295126
 20
315.1246274051
 40
6.7848414901
100
AcDbArc
 50
233.5677238614
 51
233.8273615591
  0
ARC
  5
494
100
AcDbEntity
  8
00_COMPONENTS
100
AcDbCircle
 62
7
  6
CONTINUOUS
 10
134.2473130212
 20
290.6301821336
 40
6.7848414897
100
AcDbArc
 50
233.5677238614
 51
233.8273615591
  0
ARC
  5
495
100
AcDbEntity
  8
00_COMPONENTS
100
AcDbCircle
 62
7
  6
CONTINUOUS
 10
91.6726448343
 20
314.9191772341
 40
6.5315910817
100
AcDbArc
 50
233.8122679504
 51
236.4201770823
  0
ARC
  5
496
100
AcDbEntity
  8
00_COMPONENTS
100
AcDbCircle
 62
7
  6
CONTINUOUS
 10
134.0992283431
 20
290.4247319629
 40
6.5315910817
100
AcDbArc
 50
233.8122679504
 51
236.4201770823
  0
ARC
  5
497
100
AcDbEntity
  8
00_COMPONENTS
100
AcDbCircle
 62
7
  6
CONTINUOUS
 10
81.0874686174
 20
272.0200446758
 40
5.9436711655
100
AcDbArc
 50
46.2429244801
 51
51.0726341519
  0
ARC
  5
498
100
AcDbEntity
  8
00_COMPONENTS
100
AcDbCircle
 62
7
  6
CONTINUOUS
 10
70.5660916616
 20
334.9398540561
 40
5.7010101937
100
AcDbArc
 50
178.4693822297
 51
180.004969807
  0
ARC
  5
499
100
AcDbEntity
  8
00_COMPONENTS
100
AcDbCircle
 62
7
  6
CONTINUOUS
 10
112.9926751701
 20
310.4454087849
 40
5.7010101934
100
AcDbArc
 50
178.4693822296
 51
180.0049698071
  0
ARC
  5
49A
100
AcDbEntity
  8
00_COMPONENTS
100
AcDbCircle
 62
7
  6
CONTINUOUS
 10
85.3156027022
 20
275.2337203638
 40
4.2929645244
100
AcDbArc
 50
180.0075446131
 51
181.5972092833
  0
ARC
  5
49B
100
AcDbEntity
  8
00_COMPONENTS
100
AcDbCircle
 62
7
  6
CONTINUOUS
 10
98.8974246591
 20
357.1933377875
 40
3.3241309907
100
AcDbArc
 50
119.9951796956
 51
123.8341074968
  0
ARC
  5
49C
100
AcDbEntity
  8
00_COMPONENTS
100
AcDbCircle
 62
7
  6
CONTINUOUS
 10
141.3240081679
 20
332.6988925163
 40
3.3241309907
100
AcDbArc
 50
119.9951796956
 51
123.8341074968
  0
ARC
  5
49D
100
AcDbEntity
  8
00_COMPONENTS
100
AcDbCircle
 62
7
  6
CONTINUOUS
 10
82.7114583278
 20
275.9818173511
 40
1.5138951359
100
AcDbArc
 50
113.6883535305
 51
119.9899788884
  0
ARC
  5
49E
100
AcDbEntity
  8
00_COMPONENTS
100
AcDbCircle
 62
7
  6
CONTINUOUS
 10
82.8643786678
 20
275.8658076927
 40
1.4059384555
100
AcDbArc
 50
114.9423649927
 51
120.0276826624
  0
ARC
  5
49F
100
AcDbEntity
  8
00_COMPONENTS
100
AcDbCircle
 62
7
  6
CONTINUOUS
 10
225.9060227083
 20
185.437756487
 40
90.9193770418
100
AcDbArc
 50
158.6540912961
 51
158.88633886
  0
ARC
  5
4A0
100
AcDbEntity
  8
00_COMPONENTS
100
AcDbCircle
 62
7
  6
CONTINUOUS
 10
202.8252273907
 20
198.6369124654
 40
90.2057250962
100
AcDbArc
 50
158.6201012297
 51
160.1991946413
  0
ARC
  5
4A1
100
AcDbEntity
  8
00_COMPONENTS
100
AcDbCircle
 62
7
  6
CONTINUOUS
 10
224.8861898637
 20
185.8277347163
 40
89.8275303565
100
AcDbArc
 50
158.8840647409
 51
160.2018658197
  0
ARC
  5
4A2
100
AcDbEntity
  8
00_COMPONENTS
100
AcDbCircle
 62
7
  6
CONTINUOUS
 10
204.8041011243
 20
197.422910318
 40
89.8269825082
100
AcDbArc
 50
158.6174862734
 51
160.2025116104
  0
ARC
  5
4A3
100
AcDbEntity
  8
00_COMPONENTS
100
AcDbCircle
 62
7
  6
CONTINUOUS
 10
203.9041465649
 20
198.0430676992
 40
87.9362103261
100
AcDbArc
 50
158.8616927338
 51
159.7389316968
  0
ARC
  5
4A4
100
AcDbEntity
  8
00_COMPONENTS_2
100
AcDbCircle
 62
7
  6
CONTINUOUS
 10
193.4411477662
 20
202.7443947278
 40
81.6872397313
100
AcDbArc
 50
162.6060227657
 51
163.6374757757
  0
ARC
  5
4A5
100
AcDbEntity
  8
00_COMPONENTS
100
AcDbCircle
 62
7
  6
CONTINUOUS
 10
160.3613606627
 20
207.2749241995
 40
50.4932695359
100
AcDbArc
 50
179.9829444172
 51
183.8072290118
  0
ARC
  5
4A6
100
AcDbEntity
  8
00_COMPONENTS
100
AcDbCircle
 62
7
  6
CONTINUOUS
 10
188.4465803072
 20
190.9411923254
 40
50.2941015765
100
AcDbArc
 50
179.9782041665
 51
184.1639057496
  0
ARC
  5
4A7
100
AcDbEntity
  8
00_COMPONENTS
100
AcDbCircle
 62
7
  6
CONTINUOUS
 10
162.6413387649
 20
205.1914166486
 40
49.2377301565
100
AcDbArc
 50
179.9332824481
 51
184.2088274681
  0
ARC
  5
4A8
100
AcDbEntity
  8
00_COMPONENTS
100
AcDbCircle
 62
7
  6
CONTINUOUS
 10
163.366880466
 20
205.8116163194
 40
48.9685388331
100
AcDbArc
 50
179.9769401067
 51
184.2831586941
  0
ARC
  5
4A9
100
AcDbEntity
  8
00_COMPONENTS
100
AcDbCircle
 62
7
  6
CONTINUOUS
 10
196.0595377785
 20
132.2207981748
 40
7.25309814
100
AcDbArc
 50
30.4950544535
 51
32.768187088
  0
ARC
  5
4AA
100
AcDbEntity
  8
00_COMPONENTS
100
AcDbCircle
 62
7
  6
CONTINUOUS
 10
196.0595377784
 20
204.0730108821
 40
7.2530981401
100
AcDbArc
 50
30.4950544535
 51
32.768187088
  0
ARC
  5
4AB
100
AcDbEntity
  8
00_COMPONENTS
100
AcDbCircle
 62
7
  6
CONTINUOUS
 10
197.0636910339
 20
205.0811930265
 40
5.927474073
100
AcDbArc
 50
46.2298821068
 51
50.4934393637
  0
ARC
  5
4AC
100
AcDbEntity
  8
00_COMPONENTS
100
AcDbCircle
 62
7
  6
CONTINUOUS
 10
197.0636910339
 20
133.2289803191
 40
5.9274740729
100
AcDbArc
 50
46.2298821068
 51
50.4934393637
  0
ARC
  5
4AD
100
AcDbEntity
  8
00_COMPONENTS
100
AcDbCircle
 62
7
  6
CONTINUOUS
 10
201.2815976259
 20
208.2822366224
 40
4.2929645239
100
AcDbArc
 50
180.007544613
 51
181.5972092834
  0
ARC
  5
4AE
100
AcDbEntity
  8
00_COMPONENTS
100
AcDbCircle
 62
7
  6
CONTINUOUS
 10
201.2815976259
 20
136.430023915
 40
4.2929645239
100
AcDbArc
 50
180.007544613
 51
181.5972092834
  0
ARC
  5
4AF
100
AcDbEntity
  8
00_COMPONENTS
100
AcDbCircle
 62
7
  6
CONTINUOUS
 10
199.3820495368
 20
132.9079058863
 40
3.832684232
100
AcDbArc
 50
358.1761861777
 51
0.007123866
  0
ARC
  5
4B0
100
AcDbEntity
  8
00_COMPONENTS
100
AcDbCircle
 62
7
  6
CONTINUOUS
 10
199.3820495368
 20
204.7601185937
 40
3.832684232
100
AcDbArc
 50
358.1761861777
 51
0.007123866
  0
ARC
  5
4B1
100
AcDbEntity
  8
00_COMPONENTS
100
AcDbCircle
 62
7
  6
CONTINUOUS
 10
195.2663313194
 20
69.1061013602
 40
3.6643492215
100
AcDbArc
 50
275.2286489088
 51
276.5075950534
  0
ARC
  5
4B2
100
AcDbEntity
  8
00_COMPONENTS
100
AcDbCircle
 62
7
  6
CONTINUOUS
 10
152.8397478107
 20
93.6005466312
 40
3.6643492212
100
AcDbArc
 50
275.2286489087
 51
276.5075950534
  0
ARC
  5
4B3
100
AcDbEntity
  8
00_COMPONENTS
100
AcDbCircle
 62
7
  6
CONTINUOUS
 10
147.816535884
 20
101.9807670276
 40
2.0918686623
100
AcDbArc
 50
112.8189463371
 51
120.0145632382
  0
ARC
  5
4B4
100
AcDbEntity
  8
00_COMPONENTS
100
AcDbCircle
 62
7
  6
CONTINUOUS
 10
190.2431193928
 20
77.4863217563
 40
2.0918686623
100
AcDbArc
 50
112.818946337
 51
120.0145632382
  0
ARC
  5
4B5
100
AcDbEntity
  8
00_COMPONENTS
100
AcDbCircle
 62
7
  6
CONTINUOUS
 10
201.6433485338
 20
132.0333570924
 40
1.5474664892
100
AcDbArc
 50
304.1674601316
 51
314.6115395062
  0
ARC
  5
4B6
100
AcDbEntity
  8
00_COMPONENTS
100
AcDbCircle
 62
7
  6
CONTINUOUS
 10
201.6433485338
 20
203.8855697998
 40
1.5474664892
100
AcDbArc
 50
304.1674601316
 51
314.6115395062
  0
ARC
  5
4B7
100
AcDbEntity
  8
00_COMPONENTS
100
AcDbCircle
 62
7
  6
CONTINUOUS
 10
198.6774532519
 20
209.0303336098
 40
1.513895136
100
AcDbArc
 50
113.6883535306
 51
119.9899788883
  0
ARC
  5
4B8
100
AcDbEntity
  8
00_COMPONENTS
100
AcDbCircle
 62
7
  6
CONTINUOUS
 10
198.6774532519
 20
137.1781209024
 40
1.513895136
100
AcDbArc
 50
113.6883535306
 51
119.9899788883
  0
ARC
  5
4B9
100
AcDbEntity
  8
00_COMPONENTS
100
AcDbCircle
 62
7
  6
CONTINUOUS
 10
201.6665636824
 20
203.8536561861
 40
1.5080222746
100
AcDbArc
 50
298.5084997335
 51
304.114854025
  0
ARC
  5
4BA
100
AcDbEntity
  8
00_COMPONENTS
100
AcDbCircle
 62
7
  6
CONTINUOUS
 10
201.6665636828
 20
132.001443478
 40
1.5080222738
100
AcDbArc
 50
298.5084997331
 51
304.114854025
  0
ARC
  5
4BB
100
AcDbEntity
  8
00_COMPONENTS
100
AcDbCircle
 62
7
  6
CONTINUOUS
 10
198.8304539777
 20
208.9141808163
 40
1.4061015302
100
AcDbArc
 50
114.8746220082
 51
120.0275997855
  0
ARC
  5
4BC
100
AcDbEntity
  8
00_COMPONENTS
100
AcDbCircle
 62
7
  6
CONTINUOUS
 10
198.8304539777
 20
137.0619681089
 40
1.4061015302
100
AcDbArc
 50
114.8746220081
 51
120.0275997855
  0
ARC
  5
4BD
100
AcDbEntity
  8
00_COMPONENTS
100
AcDbCircle
 62
7
  6
CONTINUOUS
 10
201.6391409169
 20
132.1944067925
 40
1.4039744744
100
AcDbArc
 50
295.8118144928
 51
300.0280389342
  0
ARC
  5
4BE
100
AcDbEntity
  8
00_COMPONENTS
100
AcDbCircle
 62
7
  6
CONTINUOUS
 10
201.6391409169
 20
204.0466194998
 40
1.4039744744
100
AcDbArc
 50
295.8118144929
 51
300.0280389343
  0
ARC
  5
4BF
100
AcDbEntity
  8
00_COMPONENTS
100
AcDbCircle
 62
7
  6
CONTINUOUS
 10
207.9271601792
 20
73.7745934227
 40
0.8966450529
100
AcDbArc
 50
106.972550102
 51
110.8899762555
  0
ARC
  5
4C0
100
AcDbEntity
  8
00_COMPONENTS
100
AcDbCircle
 62
7
  6
CONTINUOUS
 10
207.9013530764
 20
73.8588090922
 40
0.8085639846
100
AcDbArc
 50
103.4038649323
 51
106.9655082627
  0
ARC
  5
4C1
100
AcDbEntity
  8
00_COMPONENTS
100
AcDbCircle
 62
7
  6
CONTINUOUS
 10
206.3162985961
 20
73.1384486669
 40
0.4370031388
100
AcDbArc
 50
230.4662510224
 51
249.5505713103
  0
ARC
  5
4C2
100
AcDbEntity
  8
00_COMPONENTS
100
AcDbCircle
 62
7
  6
CONTINUOUS
 10
185.9457395988
 20
299.3512085974
 40
9.9819071625
100
AcDbArc
 50
1.4889142836
 51
2.3561693669
  0
ARC
  5
4C3
100
AcDbEntity
  8
00_COMPONENTS
100
AcDbCircle
 62
7
  6
CONTINUOUS
 10
228.3723231076
 20
274.8567633262
 40
9.9819071625
100
AcDbArc
 50
1.4889142836
 51
2.3561693669
  0
ARC
  5
4C4
100
AcDbEntity
  8
00_COMPONENTS
100
AcDbCircle
 62
7
  6
CONTINUOUS
 10
227.7419507545
 20
274.2528186189
 40
8.1373435639
100
AcDbArc
 50
357.6499022699
 51
0.0120486085
  0
ARC
  5
4C5
100
AcDbEntity
  8
00_COMPONENTS
100
AcDbCircle
 62
7
  6
CONTINUOUS
 10
185.3153672458
 20
298.7472638901
 40
8.1373435638
100
AcDbArc
 50
357.6499022699
 51
0.0120486085
  0
ARC
  5
4C6
100
AcDbEntity
  8
00_COMPONENTS
100
AcDbCircle
 62
7
  6
CONTINUOUS
 10
176.673896541
 20
266.1357368773
 40
6.7848415083
100
AcDbArc
 50
233.5677238619
 51
233.8273615589
  0
ARC
  5
4C7
100
AcDbEntity
  8
00_COMPONENTS
100
AcDbCircle
 62
7
  6
CONTINUOUS
 10
176.5258118519
 20
265.9302866916
 40
6.5315910816
100
AcDbArc
 50
233.8122679504
 51
236.4201770823
  0
ARC
  5
4C8
100
AcDbEntity
  8
00_COMPONENTS
100
AcDbCircle
 62
7
  6
CONTINUOUS
 10
155.4192586793
 20
285.9509635137
 40
5.7010101937
100
AcDbArc
 50
178.4693822297
 51
180.004969807
  0
ARC
  5
4C9
100
AcDbEntity
  8
00_COMPONENTS
100
AcDbCircle
 62
7
  6
CONTINUOUS
 10
197.8458421883
 20
261.4565182424
 40
5.7010101939
100
AcDbArc
 50
178.4693822297
 51
180.004969807
  0
ARC
  5
4CA
100
AcDbEntity
  8
00_COMPONENTS
100
AcDbCircle
 62
7
  6
CONTINUOUS
 10
183.7505916768
 20
308.2044472451
 40
3.3241309908
100
AcDbArc
 50
119.9951796956
 51
123.8341074968
  0
ARC
  5
4CB
100
AcDbEntity
  8
00_COMPONENTS
100
AcDbCircle
 62
7
  6
CONTINUOUS
 10
226.1771751856
 20
283.7100019739
 40
3.3241309908
100
AcDbArc
 50
119.9951796956
 51
123.8341074968
  0
SPLINE
  5
4CC
100
AcDbEntity
  8
00_COMPONENTS
100
AcDbSpline
 62
7
  6
CONTINUOUS
 70
0
 71
3
 72
9
 73
5
 74
0
 42
0.0000001
 43
0.0000001
 44
0.0000000001
 40
0.0
 40
0.0
 40
0.0
 40
0.0
 40
0.4753229516
 40
1.0
 40
1.0
 40
1.0
 40
1.0
 10
207.6939016228
 20
73.790578428
 30
0.0
 10
207.6939016228
 20
73.7157590392
 30
0.0
 10
207.6619231003
 20
73.5586157067
 30
0.0
 10
207.5941186141
 20
73.4150800863
 30
0.0
 10
207.5502624561
 20
73.3450984424
 30
0.0
  0
SPLINE
  5
4CD
100
AcDbEntity
  8
00_COMPONENTS
100
AcDbSpline
 62
7
  6
CONTINUOUS
 70
0
 71
3
 72
15
 73
11
 74
0
 42
0.0000001
 43
0.0000001
 44
0.0000000001
 40
0.0
 40
0.0
 40
0.0
 40
0.0
 40
0.1288248732
 40
0.2705977602
 40
0.4178979
 40
0.5623932695
 40
0.696206034
 40
0.8135977194
 40
0.9130663632
 40
1.0
 40
1.0
 40
1.0
 40
1.0
 10
87.2094949263
 20
147.5279812646
 30
0.0
 10
87.2094949263
 20
147.6818299591
 30
0.0
 10
87.1664199259
 20
148.0053545552
 30
0.0
 10
87.0058184086
 20
148.4803651393
 30
0.0
 10
86.7581829842
 20
148.9379349192
 30
0.0
 10
86.443767527
 20
149.3404673094
 30
0.0
 10
86.0875761826
 20
149.6558553007
 30
0.0
 10
85.7161251573
 20
149.8587404188
 30
0.0
 10
85.352529252
 20
149.9315900083
 30
0.0
 10
85.1266537412
 20
149.8735009145
 30
0.0
 10
85.0367406616
 20
149.821594499
 30
0.0
  0
SPLINE
  5
4CE
100
AcDbEntity
  8
00_COMPONENTS
100
AcDbSpline
 62
7
  6
CONTINUOUS
 70
0
 71
3
 72
9
 73
5
 74
0
 42
0.0000001
 43
0.0000001
 44
0.0000000001
 40
0.0
 40
0.0
 40
0.0
 40
0.0
 40
0.2534391757
 40
1.0
 40
1.0
 40
1.0
 40
1.0
 10
207.5502624561
 20
73.3450984424
 30
0.0
 10
207.5321422869
 20
73.3158455207
 30
0.0
 10
207.4578424734
 20
73.2021946772
 30
0.0
 10
207.3727417676
 20
73.0955000915
 30
0.0
 10
207.3033658678
 20
73.0215980689
 30
0.0
  0
SPLINE
  5
4CF
100
AcDbEntity
  8
00_COMPONENTS
100
AcDbSpline
 62
7
  6
CONTINUOUS
 70
0
 71
3
 72
11
 73
7
 74
0
 42
0.0000001
 43
0.0000001
 44
0.0000000001
 40
0.0
 40
0.0
 40
0.0
 40
0.0
 40
0.3059636579
 40
0.5743528596
 40
0.801615934
 40
1.0
 40
1.0
 40
1.0
 40
1.0
 10
207.3033658678
 20
73.0215980689
 30
0.0
 10
207.2268170126
 20
72.9400551233
 30
0.0
 10
207.0689488043
 20
72.7990927606
 30
0.0
 10
206.8096449756
 20
72.6562419332
 30
0.0
 10
206.5555223908
 20
72.6043482401
 30
0.0
 10
206.3975304699
 20
72.6447517282
 30
0.0
 10
206.3347147643
 20
72.6809884132
 30
0.0
  0
SPLINE
  5
4D0
100
AcDbEntity
  8
00_COMPONENTS
100
AcDbSpline
 62
7
  6
CONTINUOUS
 70
0
 71
3
 72
11
 73
7
 74
0
 42
0.0000001
 43
0.0000001
 44
0.0000000001
 40
0.0
 40
0.0
 40
0.0
 40
0.0
 40
0.2896646106
 40
0.5491299737
 40
0.7822463998
 40
1.0
 40
1.0
 40
1.0
 40
1.0
 10
160.4660624515
 20
98.359288744
 30
0.0
 10
160.4660624515
 20
98.2706312809
 30
0.0
 10
160.4795268201
 20
98.1019895044
 30
0.0
 10
160.5478148487
 20
97.8702952547
 30
0.0
 10
160.6627781975
 20
97.682257101
 30
0.0
 10
160.7707986349
 20
97.5915010587
 30
0.0
 10
160.8285114251
 20
97.5581671337
 30
0.0
  0
SPLINE
  5
4D1
100
AcDbEntity
  8
00_COMPONENTS
100
AcDbSpline
 62
7
  6
CONTINUOUS
 70
0
 71
3
 72
11
 73
7
 74
0
 42
0.0000001
 43
0.0000001
 44
0.0000000001
 40
0.0
 40
0.0
 40
0.0
 40
0.0
 40
0.2896646106
 40
0.5491299737
 40
0.7822463998
 40
1.0
 40
1.0
 40
1.0
 40
1.0
 10
80.4919525374
 20
144.5313180803
 30
0.0
 10
80.4919525374
 20
144.4426606171
 30
0.0
 10
80.505416906
 20
144.2740188407
 30
0.0
 10
80.5737049345
 20
144.0423245909
 30
0.0
 10
80.6886682834
 20
143.8542864373
 30
0.0
 10
80.7966887208
 20
143.763530395
 30
0.0
 10
80.8544015109
 20
143.7301964699
 30
0.0
  0
SPLINE
  5
4D2
100
AcDbEntity
  8
00_COMPONENTS
100
AcDbSpline
 62
7
  6
CONTINUOUS
 70
0
 71
3
 72
9
 73
5
 74
0
 42
0.0000001
 43
0.0000001
 44
0.0000000001
 40
0.0
 40
0.0
 40
0.0
 40
0.0
 40
0.4792432307
 40
1.0
 40
1.0
 40
1.0
 40
1.0
 10
154.7384530701
 20
104.523736035
 30
0.0
 10
154.7384530701
 20
104.2253551214
 30
0.0
 10
154.5808118691
 20
103.6044286646
 30
0.0
 10
154.2467462398
 20
103.0668261162
 30
0.0
 10
154.0313492329
 20
102.8244882046
 30
0.0
  0
SPLINE
  5
4D3
100
AcDbEntity
  8
00_COMPONENTS
100
AcDbSpline
 62
7
  6
CONTINUOUS
 70
0
 71
3
 72
11
 73
7
 74
0
 42
0.0000001
 43
0.0000001
 44
0.0000000001
 40
0.0
 40
0.0
 40
0.0
 40
0.0
 40
0.2896646106
 40
0.5491299737
 40
0.7822463998
 40
1.0
 40
1.0
 40
1.0
 40
1.0
 10
87.2094949263
 20
140.6530309123
 30
0.0
 10
87.2094949263
 20
140.5643734492
 30
0.0
 10
87.2229592949
 20
140.3957316728
 30
0.0
 10
87.2912473234
 20
140.164037423
 30
0.0
 10
87.4062106723
 20
139.9759992693
 30
0.0
 10
87.5142311097
 20
139.8852432271
 30
0.0
 10
87.5719438998
 20
139.851909302
 30
0.0
  0
SPLINE
  5
4D4
100
AcDbEntity
  8
00_COMPONENTS
100
AcDbSpline
 62
7
  6
CONTINUOUS
 70
0
 71
3
 72
9
 73
5
 74
0
 42
0.0000001
 43
0.0000001
 44
0.0000000001
 40
0.0
 40
0.0
 40
0.0
 40
0.0
 40
0.4792432307
 40
1.0
 40
1.0
 40
1.0
 40
1.0
 10
87.138763346
 20
143.5515521672
 30
0.0
 10
87.138763346
 20
143.2531712535
 30
0.0
 10
86.9811221451
 20
142.6322447967
 30
0.0
 10
86.6470565158
 20
142.0946422484
 30
0.0
 10
86.4316595088
 20
141.8523043367
 30
0.0
  0
SPLINE
  5
4D5
100
AcDbEntity
  8
00_COMPONENTS
100
AcDbSpline
 62
7
  6
CONTINUOUS
 70
0
 71
3
 72
9
 73
5
 74
0
 42
0.0000001
 43
0.0000001
 44
0.0000000001
 40
0.0
 40
0.0
 40
0.0
 40
0.0
 40
0.2320320858
 40
1.0
 40
1.0
 40
1.0
 40
1.0
 10
206.0757921961
 20
73.2531649702
 30
0.0
 10
206.0757921961
 20
73.2992715943
 30
0.0
 10
206.0876121195
 20
73.4979415635
 30
0.0
 10
206.1400535264
 20
73.6929838836
 30
0.0
 10
206.1955030593
 20
73.8351546235
 30
0.0
  0
SPLINE
  5
4D6
100
AcDbEntity
  8
00_COMPONENTS
100
AcDbSpline
 62
7
  6
CONTINUOUS
 70
0
 71
3
 72
11
 73
7
 74
0
 42
0.0000001
 43
0.0000001
 44
0.0000000001
 40
0.0
 40
0.0
 40
0.0
 40
0.0
 40
0.2177536002
 40
0.4508700263
 40
0.7103353894
 40
1.0
 40
1.0
 40
1.0
 40
1.0
 10
152.6260386134
 20
102.2937598861
 30
0.0
 10
152.5683258232
 20
102.3270938112
 30
0.0
 10
152.4603053858
 20
102.4178498535
 30
0.0
 10
152.345342037
 20
102.6058880071
 30
0.0
 10
152.2770540084
 20
102.8375822569
 30
0.0
 10
152.2635896398
 20
103.0062240333
 30
0.0
 10
152.2635896398
 20
103.0948814965
 30
0.0
  0
SPLINE
  5
4D7
100
AcDbEntity
  8
00_COMPONENTS
100
AcDbSpline
 62
7
  6
CONTINUOUS
 70
0
 71
3
 72
11
 73
7
 74
0
 42
0.0000001
 43
0.0000001
 44
0.0000000001
 40
0.0
 40
0.0
 40
0.0
 40
0.0
 40
0.2177536002
 40
0.4508700263
 40
0.7103353894
 40
1.0
 40
1.0
 40
1.0
 40
1.0
 10
85.0263488893
 20
141.3215760183
 30
0.0
 10
84.9686360991
 20
141.3549099433
 30
0.0
 10
84.8606156618
 20
141.4456659856
 30
0.0
 10
84.7456523129
 20
141.6337041392
 30
0.0
 10
84.6773642843
 20
141.865398389
 30
0.0
 10
84.6638999158
 20
142.0340401655
 30
0.0
 10
84.6638999158
 20
142.1226976286
 30
0.0
  0
SPLINE
  5
4D8
100
AcDbEntity
  8
00_COMPONENTS
100
AcDbSpline
 62
7
  6
CONTINUOUS
 70
0
 71
3
 72
9
 73
5
 74
0
 42
0.0000001
 43
0.0000001
 44
0.0000000001
 40
0.0
 40
0.0
 40
0.0
 40
0.0
 40
0.454486056
 40
1.0
 40
1.0
 40
1.0
 40
1.0
 10
204.2129530453
 20
72.5266840251
 30
0.0
 10
204.1247798077
 20
72.6070396327
 30
0.0
 10
203.9849795975
 20
72.8436896037
 30
0.0
 10
203.9533105481
 20
73.1092928006
 30
0.0
 10
203.9533105481
 20
73.252482341
 30
0.0
  0
SPLINE
  5
4D9
100
AcDbEntity
  8
00_COMPONENTS
100
AcDbSpline
 62
7
  6
CONTINUOUS
 70
0
 71
3
 72
9
 73
5
 74
0
 42
0.0000001
 43
0.0000001
 44
0.0000000001
 40
0.0
 40
0.0
 40
0.0
 40
0.0
 40
0.4779663271
 40
1.0
 40
1.0
 40
1.0
 40
1.0
 10
206.3347147643
 20
72.6809884132
 30
0.0
 10
206.2870314986
 20
72.7084956021
 30
0.0
 10
206.1985096412
 20
72.7872374966
 30
0.0
 10
206.1445731118
 20
72.8915185969
 30
0.0
 10
206.1241710663
 20
72.9480750719
 30
0.0
  0
SPLINE
  5
4DA
100
AcDbEntity
  8
00_COMPONENTS
100
AcDbSpline
 62
7
  6
CONTINUOUS
 70
0
 71
3
 72
9
 73
5
 74
0
 42
0.0000001
 43
0.0000001
 44
0.0000000001
 40
0.0
 40
0.0
 40
0.0
 40
0.0
 40
0.233487357
 40
1.0
 40
1.0
 40
1.0
 40
1.0
 10
206.1241710663
 20
72.9480750719
 30
0.0
 10
206.115989339
 20
72.970755624
 30
0.0
 10
206.086194285
 20
73.0697805494
 30
0.0
 10
206.0757921961
 20
73.1740107483
 30
0.0
 10
206.0757921961
 20
73.2531649702
 30
0.0
  0
SPLINE
  5
4DB
100
AcDbEntity
  8
00_COMPONENTS
100
AcDbSpline
 62
7
  6
CONTINUOUS
 70
0
 71
3
 72
11
 73
7
 74
0
 42
0.0000001
 43
0.0000001
 44
0.0000000001
 40
0.0
 40
0.0
 40
0.0
 40
0.0
 40
0.2177239861
 40
0.4508730345
 40
0.7104683317
 40
1.0
 40
1.0
 40
1.0
 40
1.0
 10
85.0367406616
 20
149.821594499
 30
0.0
 10
84.9773806068
 20
149.7873262069
 30
0.0
 10
84.8662220405
 20
149.6940444792
 30
0.0
 10
84.7479322997
 20
149.5005909598
 30
0.0
 10
84.677819309
 20
149.2622392923
 30
0.0
 10
84.6638999158
 20
149.088795144
 30
0.0
 10
84.6638999158
 20
148.9976479809
 30
0.0
  0
SPLINE
  5
4DC
100
AcDbEntity
  8
00_COMPONENTS
100
AcDbSpline
 62
7
  6
CONTINUOUS
 70
0
 71
3
 72
13
 73
9
 74
0
 42
0.0000001
 43
0.0000001
 44
0.0000000001
 40
0.0
 40
0.0
 40
0.0
 40
0.0
 40
0.2550461533
 40
0.5350965354
 40
0.6692502355
 40
0.792089592
 40
0.9015734242
 40
1.0
 40
1.0
 40
1.0
 40
1.0
 10
41.428159224
 20
338.5951975292
 30
0.0
 10
41.905307601
 20
338.3190862229
 30
0.0
 10
42.7177548744
 20
337.4221400608
 30
0.0
 10
43.2239386982
 20
336.0325564345
 30
0.0
 10
43.2914566457
 20
334.8657279362
 30
0.0
 10
43.1552906998
 20
334.0767840703
 30
0.0
 10
42.8393962483
 20
333.4227332652
 30
0.0
 10
42.5001637564
 20
333.1058407626
 30
0.0
 10
42.3158724932
 20
332.9995474195
 30
0.0
  0
SPLINE
  5
4DD
100
AcDbEntity
  8
00_COMPONENTS
100
AcDbSpline
 62
7
  6
CONTINUOUS
 70
0
 71
3
 72
8
 73
4
 74
0
 42
0.0000001
 43
0.0000001
 44
0.0000000001
 40
0.0
 40
0.0
 40
0.0
 40
0.0
 40
1.0
 40
1.0
 40
1.0
 40
1.0
 10
177.4370145
 20
251.1680684358
 30
0.0
 10
177.4370145
 20
251.2248204051
 30
0.0
 10
177.4329352223
 20
251.281663623
 30
0.0
 10
177.4256273945
 20
251.337943119
 30
0.0
  0
SPLINE
  5
4DE
100
AcDbEntity
  8
00_COMPONENTS
100
AcDbSpline
 62
7
  6
CONTINUOUS
 70
0
 71
3
 72
8
 73
4
 74
0
 42
0.0000001
 43
0.0000001
 44
0.0000000001
 40
0.0
 40
0.0
 40
0.0
 40
0.0
 40
1.0
 40
1.0
 40
1.0
 40
1.0
 10
117.0498439725
 20
286.0318288719
 30
0.0
 10
117.0498439725
 20
286.0885808412
 30
0.0
 10
117.0457646948
 20
286.145424059
 30
0.0
 10
117.0384568669
 20
286.201703555
 30
0.0
  0
SPLINE
  5
4DF
100
AcDbEntity
  8
00_COMPONENTS
100
AcDbSpline
 62
7
  6
CONTINUOUS
 70
0
 71
3
 72
11
 73
7
 74
0
 42
0.0000001
 43
0.0000001
 44
0.0000000001
 40
0.0
 40
0.0
 40
0.0
 40
0.0
 40
0.2372531816
 40
0.5000006935
 40
0.7627478297
 40
1.0
 40
1.0
 40
1.0
 40
1.0
 10
85.760160914
 20
335.4499439618
 30
0.0
 10
86.1617401951
 20
335.2180973009
 30
0.0
 10
87.0955478463
 20
334.8797249007
 30
0.0
 10
88.5885933052
 20
334.7179547391
 30
0.0
 10
90.0816359959
 20
334.8797320346
 30
0.0
 10
91.0154392659
 20
335.2181089907
 30
0.0
 10
91.4170151635
 20
335.4499575592
 30
0.0
  0
SPLINE
  5
4E0
100
AcDbEntity
  8
00_COMPONENTS
100
AcDbSpline
 62
7
  6
CONTINUOUS
 70
0
 71
3
 72
11
 73
7
 74
0
 42
0.0000001
 43
0.0000001
 44
0.0000000001
 40
0.0
 40
0.0
 40
0.0
 40
0.0
 40
0.2895416688
 40
0.549118971
 40
0.7822562702
 40
1.0
 40
1.0
 40
1.0
 40
1.0
 10
99.5487092914
 20
340.1447653288
 30
0.0
 10
99.7241214767
 20
340.2460389966
 30
0.0
 10
100.0424365928
 20
340.465528147
 30
0.0
 10
100.4232044047
 20
340.8652710677
 30
0.0
 10
100.6641110118
 20
341.3078289276
 30
0.0
 10
100.7200466263
 20
341.6254061942
 30
0.0
 10
100.720046579
 20
341.7777283452
 30
0.0
  0
SPLINE
  5
4E1
100
AcDbEntity
  8
00_COMPONENTS
100
AcDbSpline
 62
7
  6
CONTINUOUS
 70
0
 71
3
 72
11
 73
7
 74
0
 42
0.0000001
 43
0.0000001
 44
0.0000000001
 40
0.0
 40
0.0
 40
0.0
 40
0.0
 40
0.2988478067
 40
0.5621040227
 40
0.7917478462
 40
1.0
 40
1.0
 40
1.0
 40
1.0
 10
88.7701213211
 20
316.4429035805
 30
0.0
 10
88.6058084194
 20
316.5724002597
 30
0.0
 10
88.2753596118
 20
316.7912506513
 30
0.0
 10
87.7529716485
 20
316.9922822785
 30
0.0
 10
87.2549003822
 20
317.0328777929
 30
0.0
 10
86.9528813545
 20
316.9375506318
 30
0.0
 10
86.8265708946
 20
316.8647531362
 30
0.0
  0
SPLINE
  5
4E2
100
AcDbEntity
  8
00_COMPONENTS
100
AcDbSpline
 62
7
  6
CONTINUOUS
 70
0
 71
3
 72
11
 73
7
 74
0
 42
0.0000001
 43
0.0000001
 44
0.0000000001
 40
0.0
 40
0.0
 40
0.0
 40
0.0
 40
0.2412907572
 40
0.504094698
 40
0.7646755241
 40
1.0
 40
1.0
 40
1.0
 40
1.0
 10
93.3190950152
 20
339.4305251123
 30
0.0
 10
92.4655688439
 20
339.9903636584
 30
0.0
 10
90.865671512
 20
341.44387073
 30
0.0
 10
89.0037532081
 20
344.1163118927
 30
0.0
 10
87.7435806718
 20
347.0922566062
 30
0.0
 10
87.3863225128
 20
349.1917610709
 30
0.0
 10
87.3863225128
 20
350.1872693522
 30
0.0
  0
SPLINE
  5
4E3
100
AcDbEntity
  8
00_COMPONENTS
100
AcDbSpline
 62
7
  6
CONTINUOUS
 70
0
 71
3
 72
11
 73
7
 74
0
 42
0.0000001
 43
0.0000001
 44
0.0000000001
 40
0.0
 40
0.0
 40
0.0
 40
0.0
 40
0.2348281261
 40
0.4880500763
 40
0.7474977787
 40
1.0
 40
1.0
 40
1.0
 40
1.0
 10
115.2687620136
 20
348.6882852493
 30
0.0
 10
115.1734980723
 20
349.8536662434
 30
0.0
 10
114.7003322376
 20
352.2562016208
 30
0.0
 10
113.35119169
 20
355.7416166608
 30
0.0
 10
111.4247021017
 20
359.0461202776
 30
0.0
 10
109.7988057792
 20
361.0280009618
 30
0.0
 10
108.9157702371
 20
361.9229763559
 30
0.0
  0
SPLINE
  5
4E4
100
AcDbEntity
  8
00_COMPONENTS
100
AcDbSpline
 62
7
  6
CONTINUOUS
 70
0
 71
3
 72
9
 73
5
 74
0
 42
0.0000001
 43
0.0000001
 44
0.0000000001
 40
0.0
 40
0.0
 40
0.0
 40
0.0
 40
0.2632169224
 40
1.0
 40
1.0
 40
1.0
 40
1.0
 10
108.9157702371
 20
361.9229763559
 30
0.0
 10
108.6408489596
 20
362.2016149463
 30
0.0
 10
107.5663388164
 20
363.2292928113
 30
0.0
 10
106.3664186949
 20
364.1323323529
 30
0.0
 10
105.4175233532
 20
364.6801649402
 30
0.0
  0
SPLINE
  5
4E5
100
AcDbEntity
  8
00_COMPONENTS
100
AcDbSpline
 62
7
  6
CONTINUOUS
 70
0
 71
3
 72
11
 73
7
 74
0
 42
0.0000001
 43
0.0000001
 44
0.0000000001
 40
0.0
 40
0.0
 40
0.0
 40
0.0
 40
0.2177434119
 40
0.4508805377
 40
0.710457812
 40
1.0
 40
1.0
 40
1.0
 40
1.0
 10
54.7487696735
 20
354.3106804197
 30
0.0
 10
54.7487697208
 20
354.1583565265
 30
0.0
 10
54.8047065099
 20
353.8407754588
 30
0.0
 10
55.0456185447
 20
353.3982134449
 30
0.0
 10
55.4263937942
 20
352.9984674382
 30
0.0
 10
55.7447150203
 20
352.7789776933
 30
0.0
 10
55.9201305128
 20
352.6777038026
 30
0.0
  0
SPLINE
  5
4E6
100
AcDbEntity
  8
00_COMPONENTS
100
AcDbSpline
 62
7
  6
CONTINUOUS
 70
0
 71
3
 72
11
 73
7
 74
0
 42
0.0000001
 43
0.0000001
 44
0.0000000001
 40
0.0
 40
0.0
 40
0.0
 40
0.0
 40
0.2372633455
 40
0.4999836989
 40
0.7627408825
 40
1.0
 40
1.0
 40
1.0
 40
1.0
 10
280.073407611
 20
275.4379096364
 30
0.0
 10
279.7719970494
 20
275.61171319
 30
0.0
 10
279.2020400839
 20
276.0918231541
 30
0.0
 10
278.536360352
 20
277.0008676403
 30
0.0
 10
278.0813054023
 20
278.0317177257
 30
0.0
 10
277.9507864116
 20
278.7654356918
 30
0.0
 10
277.9507864116
 20
279.1133605221
 30
0.0
  0
SPLINE
  5
4E7
100
AcDbEntity
  8
00_COMPONENTS
100
AcDbSpline
 62
7
  6
CONTINUOUS
 70
0
 71
3
 72
9
 73
5
 74
0
 42
0.0000001
 43
0.0000001
 44
0.0000000001
 40
0.0
 40
0.0
 40
0.0
 40
0.0
 40
0.244136501
 40
1.0
 40
1.0
 40
1.0
 40
1.0
 10
68.1668143964
 20
324.5258362961
 30
0.0
 10
68.2469896198
 20
324.5721676814
 30
0.0
 10
68.5628959435
 20
324.7835088766
 30
0.0
 10
68.817749014
 20
325.0805192012
 30
0.0
 10
68.9661939652
 20
325.3257900187
 30
0.0
  0
SPLINE
  5
4E8
100
AcDbEntity
  8
00_COMPONENTS
100
AcDbSpline
 62
7
  6
CONTINUOUS
 70
0
 71
3
 72
9
 73
5
 74
0
 42
0.0000001
 43
0.0000001
 44
0.0000000001
 40
0.0
 40
0.0
 40
0.0
 40
0.0
 40
0.2319356943
 40
1.0
 40
1.0
 40
1.0
 40
1.0
 10
68.9661939652
 20
325.3257900187
 30
0.0
 10
69.028240518
 20
325.428307542
 30
0.0
 10
69.2662274948
 20
325.8882883964
 30
0.0
 10
69.3860293657
 20
326.4029320875
 30
0.0
 10
69.4297077217
 20
326.7973481399
 30
0.0
  0
SPLINE
  5
4E9
100
AcDbEntity
  8
00_COMPONENTS
100
AcDbSpline
 62
7
  6
CONTINUOUS
 70
0
 71
3
 72
9
 73
5
 74
0
 42
0.0000001
 43
0.0000001
 44
0.0000000001
 40
0.0
 40
0.0
 40
0.0
 40
0.0
 40
0.2432770585
 40
1.0
 40
1.0
 40
1.0
 40
1.0
 10
69.3528940121
 20
327.2459738933
 30
0.0
 10
69.2957047041
 20
327.2779721899
 30
0.0
 10
69.0628737201
 20
327.4134997412
 30
0.0
 10
68.8390442721
 20
327.5643347132
 30
0.0
 10
68.675041432
 20
327.6853900539
 30
0.0
  0
SPLINE
  5
4EA
100
AcDbEntity
  8
00_COMPONENTS
100
AcDbSpline
 62
7
  6
CONTINUOUS
 70
0
 71
3
 72
11
 73
7
 74
0
 42
0.0000001
 43
0.0000001
 44
0.0000000001
 40
0.0
 40
0.0
 40
0.0
 40
0.0
 40
0.2452607182
 40
0.5080142437
 40
0.7664464242
 40
1.0
 40
1.0
 40
1.0
 40
1.0
 10
68.675041432
 20
327.6853900539
 30
0.0
 10
68.1199860839
 20
328.0950928015
 30
0.0
 10
67.0884661214
 20
329.107329985
 30
0.0
 10
65.8918447108
 20
330.9169944989
 30
0.0
 10
65.089622179
 20
332.8972518462
 30
0.0
 10
64.8650814894
 20
334.2824041376
 30
0.0
 10
64.8650814894
 20
334.9393595533
 30
0.0
  0
SPLINE
  5
4EB
100
AcDbEntity
  8
00_COMPONENTS
100
AcDbSpline
 62
7
  6
CONTINUOUS
 70
0
 71
3
 72
9
 73
5
 74
0
 42
0.0000001
 43
0.0000001
 44
0.0000000001
 40
0.0
 40
0.0
 40
0.0
 40
0.0
 40
0.5117842018
 40
1.0
 40
1.0
 40
1.0
 40
1.0
 10
82.7853030223
 20
337.1058352998
 30
0.0
 10
81.8056346198
 20
338.3916410035
 30
0.0
 10
80.1815086897
 20
341.1340051325
 30
0.0
 10
79.2038398247
 20
344.1775195854
 30
0.0
 10
78.9505386085
 20
345.6986235964
 30
0.0
  0
SPLINE
  5
4EC
100
AcDbEntity
  8
00_COMPONENTS
100
AcDbSpline
 62
7
  6
CONTINUOUS
 70
0
 71
3
 72
9
 73
5
 74
0
 42
0.0000001
 43
0.0000001
 44
0.0000000001
 40
0.0
 40
0.0
 40
0.0
 40
0.0
 40
0.2588988965
 40
1.0
 40
1.0
 40
1.0
 40
1.0
 10
78.9505386085
 20
345.6986235964
 30
0.0
 10
78.9191804257
 20
345.8869332237
 30
0.0
 10
78.8117141518
 20
346.6164151937
 30
0.0
 10
78.7596362686
 20
347.354629594
 30
0.0
 10
78.7596362686
 20
347.9010908727
 30
0.0
  0
SPLINE
  5
4ED
100
AcDbEntity
  8
00_COMPONENTS
100
AcDbSpline
 62
7
  6
CONTINUOUS
 70
0
 71
3
 72
9
 73
5
 74
0
 42
0.0000001
 43
0.0000001
 44
0.0000000001
 40
0.0
 40
0.0
 40
0.0
 40
0.0
 40
0.4667816408
 40
1.0
 40
1.0
 40
1.0
 40
1.0
 10
202.250454902
 20
130.9305082458
 30
0.0
 10
202.0430120152
 20
130.8301769259
 30
0.0
 10
201.5397478447
 20
130.729624127
 30
0.0
 10
201.0468145557
 20
130.8359811199
 30
0.0
 10
200.7987230962
 20
130.9239599837
 30
0.0
  0
SPLINE
  5
4EE
100
AcDbEntity
  8
00_COMPONENTS
100
AcDbSpline
 62
7
  6
CONTINUOUS
 70
0
 71
3
 72
9
 73
5
 74
0
 42
0.0000001
 43
0.0000001
 44
0.0000000001
 40
0.0
 40
0.0
 40
0.0
 40
0.0
 40
0.455848626
 40
1.0
 40
1.0
 40
1.0
 40
1.0
 10
202.7301287441
 20
130.9317395045
 30
0.0
 10
202.9427385553
 20
131.1412546131
 30
0.0
 10
203.2754883207
 20
131.7373436737
 30
0.0
 10
203.3526206655
 20
132.3989746691
 30
0.0
 10
203.3526206655
 20
132.7552918339
 30
0.0
  0
SPLINE
  5
4EF
100
AcDbEntity
  8
00_COMPONENTS
100
AcDbSpline
 62
7
  6
CONTINUOUS
 70
0
 71
3
 72
9
 73
5
 74
0
 42
0.0000001
 43
0.0000001
 44
0.0000000001
 40
0.0
 40
0.0
 40
0.0
 40
0.0
 40
0.2557322793
 40
1.0
 40
1.0
 40
1.0
 40
1.0
 10
86.0791756805
 20
275.2827877862
 30
0.0
 10
86.0125613604
 20
275.3773329668
 30
0.0
 10
85.7436153206
 20
275.7409476305
 30
0.0
 10
85.4413308196
 20
276.0803318762
 30
0.0
 10
85.1981250046
 20
276.3130309313
 30
0.0
  0
SPLINE
  5
4F0
100
AcDbEntity
  8
00_COMPONENTS
100
AcDbSpline
 62
7
  6
CONTINUOUS
 70
0
 71
3
 72
11
 73
7
 74
0
 42
0.0000001
 43
0.0000001
 44
0.0000000001
 40
0.0
 40
0.0
 40
0.0
 40
0.0
 40
0.2967190063
 40
0.5604757815
 40
0.7918833591
 40
1.0
 40
1.0
 40
1.0
 40
1.0
 10
84.8220834188
 20
276.6438828227
 30
0.0
 10
84.5953881061
 20
276.8265044884
 30
0.0
 10
84.138962081
 20
277.1392707841
 30
0.0
 10
83.4170641965
 20
277.4437042327
 30
0.0
 10
82.7240979489
 20
277.5409995545
 30
0.0
 10
82.2902041972
 20
277.450198575
 30
0.0
 10
82.1032333317
 20
277.3681581594
 30
0.0
  0
SPLINE
  5
4F1
100
AcDbEntity
  8
00_COMPONENTS
100
AcDbSpline
 62
7
  6
CONTINUOUS
 70
0
 71
3
 72
10
 73
6
 74
0
 42
0.0000001
 43
0.0000001
 44
0.0000000001
 40
0.0
 40
0.0
 40
0.0
 40
0.0
 40
0.2305864899
 40
0.4848833802
 40
1.0
 40
1.0
 40
1.0
 40
1.0
 10
203.3526206655
 20
204.6075045413
 30
0.0
 10
203.3526206655
 20
205.0180983063
 30
0.0
 10
203.2299757254
 20
205.8831159492
 30
0.0
 10
202.6278001401
 20
207.5638963573
 30
0.0
 10
201.8268658182
 20
208.7274326551
 30
0.0
 10
201.1641199287
 20
209.3615471899
 30
0.0
  0
SPLINE
  5
4F2
100
AcDbEntity
  8
00_COMPONENTS
100
AcDbSpline
 62
7
  6
CONTINUOUS
 70
0
 71
3
 72
11
 73
7
 74
0
 42
0.0000001
 43
0.0000001
 44
0.0000000001
 40
0.0
 40
0.0
 40
0.0
 40
0.0
 40
0.2972953697
 40
0.5613745649
 40
0.7925811483
 40
1.0
 40
1.0
 40
1.0
 40
1.0
 10
200.8345518881
 20
209.6545459873
 30
0.0
 10
200.6048393271
 20
209.8437060136
 30
0.0
 10
200.1417747331
 20
210.1681964567
 30
0.0
 10
199.4075801512
 20
210.4861416399
 30
0.0
 10
198.7018064795
 20
210.5910255108
 30
0.0
 10
198.259343708
 20
210.500094638
 30
0.0
 10
198.0692282558
 20
210.4166744181
 30
0.0
  0
SPLINE
  5
4F3
100
AcDbEntity
  8
00_COMPONENTS
100
AcDbSpline
 62
7
  6
CONTINUOUS
 70
0
 71
3
 72
10
 73
6
 74
0
 42
0.0000001
 43
0.0000001
 44
0.0000000001
 40
0.0
 40
0.0
 40
0.0
 40
0.0
 40
0.2305864899
 40
0.4848833802
 40
1.0
 40
1.0
 40
1.0
 40
1.0
 10
203.3526206655
 20
132.7552918339
 30
0.0
 10
203.3526206655
 20
133.1658855989
 30
0.0
 10
203.2299757254
 20
134.0309032418
 30
0.0
 10
202.6278001401
 20
135.7116836499
 30
0.0
 10
201.8268658182
 20
136.8752199477
 30
0.0
 10
201.1641199287
 20
137.5093344825
 30
0.0
  0
SPLINE
  5
4F4
100
AcDbEntity
  8
00_COMPONENTS
100
AcDbSpline
 62
7
  6
CONTINUOUS
 70
0
 71
3
 72
11
 73
7
 74
0
 42
0.0000001
 43
0.0000001
 44
0.0000000001
 40
0.0
 40
0.0
 40
0.0
 40
0.0
 40
0.2972953697
 40
0.5613745649
 40
0.7925811483
 40
1.0
 40
1.0
 40
1.0
 40
1.0
 10
200.8345518881
 20
137.8023332799
 30
0.0
 10
200.6048393271
 20
137.9914933062
 30
0.0
 10
200.1417747331
 20
138.3159837493
 30
0.0
 10
199.4075801512
 20
138.6339289325
 30
0.0
 10
198.7018064795
 20
138.7388128034
 30
0.0
 10
198.259343708
 20
138.6478819306
 30
0.0
 10
198.0692282558
 20
138.5644617107
 30
0.0
  0
SPLINE
  5
4F5
100
AcDbEntity
  8
00_COMPONENTS
100
AcDbSpline
 62
7
  6
CONTINUOUS
 70
0
 71
3
 72
9
 73
5
 74
0
 42
0.0000001
 43
0.0000001
 44
0.0000000001
 40
0.0
 40
0.0
 40
0.0
 40
0.0
 40
0.4667816408
 40
1.0
 40
1.0
 40
1.0
 40
1.0
 10
202.250454902
 20
202.7827209532
 30
0.0
 10
202.0430120152
 20
202.6823896333
 30
0.0
 10
201.5397478447
 20
202.5818368344
 30
0.0
 10
201.0468145557
 20
202.6881938274
 30
0.0
 10
200.7987230962
 20
202.7761726911
 30
0.0
  0
SPLINE
  5
4F6
100
AcDbEntity
  8
00_COMPONENTS
100
AcDbSpline
 62
7
  6
CONTINUOUS
 70
0
 71
3
 72
9
 73
5
 74
0
 42
0.0000001
 43
0.0000001
 44
0.0000000001
 40
0.0
 40
0.0
 40
0.0
 40
0.0
 40
0.455848626
 40
1.0
 40
1.0
 40
1.0
 40
1.0
 10
202.7301287441
 20
202.7839522119
 30
0.0
 10
202.9427385553
 20
202.9934673205
 30
0.0
 10
203.2754883207
 20
203.5895563811
 30
0.0
 10
203.3526206655
 20
204.2511873765
 30
0.0
 10
203.3526206655
 20
204.6075045413
 30
0.0
  0
SPLINE
  5
4F7
100
AcDbEntity
  8
00_COMPONENTS
100
AcDbSpline
 62
7
  6
CONTINUOUS
 70
0
 71
3
 72
11
 73
7
 74
0
 42
0.0000001
 43
0.0000001
 44
0.0000000001
 40
0.0
 40
0.0
 40
0.0
 40
0.0
 40
0.2412907572
 40
0.504094698
 40
0.7646755241
 40
1.0
 40
1.0
 40
1.0
 40
1.0
 10
220.5988455417
 20
265.9471892987
 30
0.0
 10
219.7453193704
 20
266.5070278448
 30
0.0
 10
218.1454220384
 20
267.9605349163
 30
0.0
 10
216.2835037346
 20
270.632976079
 30
0.0
 10
215.0233311983
 20
273.6089207926
 30
0.0
 10
214.6660730393
 20
275.7084252572
 30
0.0
 10
214.6660730393
 20
276.7039335386
 30
0.0
  0
SPLINE
  5
4F8
100
AcDbEntity
  8
00_COMPONENTS
100
AcDbSpline
 62
7
  6
CONTINUOUS
 70
0
 71
3
 72
11
 73
7
 74
0
 42
0.0000001
 43
0.0000001
 44
0.0000000001
 40
0.0
 40
0.0
 40
0.0
 40
0.0
 40
0.2348281261
 40
0.4880500763
 40
0.7474977787
 40
1.0
 40
1.0
 40
1.0
 40
1.0
 10
242.5485125401
 20
275.2049494357
 30
0.0
 10
242.4532485988
 20
276.3703304298
 30
0.0
 10
241.980082764
 20
278.7728658072
 30
0.0
 10
240.6309422165
 20
282.2582808471
 30
0.0
 10
238.7044526282
 20
285.5627844639
 30
0.0
 10
237.0785563057
 20
287.5446651481
 30
0.0
 10
236.1955207635
 20
288.4396405423
 30
0.0
  0
SPLINE
  5
4F9
100
AcDbEntity
  8
00_COMPONENTS
100
AcDbSpline
 62
7
  6
CONTINUOUS
 70
0
 71
3
 72
9
 73
5
 74
0
 42
0.0000001
 43
0.0000001
 44
0.0000000001
 40
0.0
 40
0.0
 40
0.0
 40
0.0
 40
0.2632169224
 40
1.0
 40
1.0
 40
1.0
 40
1.0
 10
236.1955207635
 20
288.4396405423
 30
0.0
 10
235.920599486
 20
288.7182791326
 30
0.0
 10
234.8460893429
 20
289.7459569976
 30
0.0
 10
233.6461692213
 20
290.6489965393
 30
0.0
 10
232.6972738796
 20
291.1968291266
 30
0.0
  0
SPLINE
  5
4FA
100
AcDbEntity
  8
00_COMPONENTS
100
AcDbSpline
 62
7
  6
CONTINUOUS
 70
0
 71
3
 72
11
 73
7
 74
0
 42
0.0000001
 43
0.0000001
 44
0.0000000001
 40
0.0
 40
0.0
 40
0.0
 40
0.0
 40
0.2177434119
 40
0.4508805377
 40
0.710457812
 40
1.0
 40
1.0
 40
1.0
 40
1.0
 10
182.0285201999
 20
280.827344606
 30
0.0
 10
182.0285202472
 20
280.6750207128
 30
0.0
 10
182.0844570363
 20
280.3574396452
 30
0.0
 10
182.3253690712
 20
279.9148776313
 30
0.0
 10
182.7061443207
 20
279.5151316245
 30
0.0
 10
183.0244655467
 20
279.2956418797
 30
0.0
 10
183.1998810393
 20
279.1943679889
 30
0.0
  0
SPLINE
  5
4FB
100
AcDbEntity
  8
00_COMPONENTS
100
AcDbSpline
 62
7
  6
CONTINUOUS
 70
0
 71
3
 72
9
 73
5
 74
0
 42
0.0000001
 43
0.0000001
 44
0.0000000001
 40
0.0
 40
0.0
 40
0.0
 40
0.0
 40
0.244136501
 40
1.0
 40
1.0
 40
1.0
 40
1.0
 10
195.4465649229
 20
251.0425004824
 30
0.0
 10
195.5267401463
 20
251.0888318677
 30
0.0
 10
195.8426464699
 20
251.3001730629
 30
0.0
 10
196.0974995404
 20
251.5971833875
 30
0.0
 10
196.2459444916
 20
251.842454205
 30
0.0
  0
SPLINE
  5
4FC
100
AcDbEntity
  8
00_COMPONENTS
100
AcDbSpline
 62
7
  6
CONTINUOUS
 70
0
 71
3
 72
9
 73
5
 74
0
 42
0.0000001
 43
0.0000001
 44
0.0000000001
 40
0.0
 40
0.0
 40
0.0
 40
0.0
 40
0.2319356943
 40
1.0
 40
1.0
 40
1.0
 40
1.0
 10
196.2459444916
 20
251.842454205
 30
0.0
 10
196.3079910445
 20
251.9449717284
 30
0.0
 10
196.5459780213
 20
252.4049525828
 30
0.0
 10
196.6657798922
 20
252.9195962739
 30
0.0
 10
196.7094582482
 20
253.3140123263
 30
0.0
  0
SPLINE
  5
4FD
100
AcDbEntity
  8
00_COMPONENTS
100
AcDbSpline
 62
7
  6
CONTINUOUS
 70
0
 71
3
 72
9
 73
5
 74
0
 42
0.0000001
 43
0.0000001
 44
0.0000000001
 40
0.0
 40
0.0
 40
0.0
 40
0.0
 40
0.2432770585
 40
1.0
 40
1.0
 40
1.0
 40
1.0
 10
196.6326445386
 20
253.7626380796
 30
0.0
 10
196.5754552305
 20
253.7946363762
 30
0.0
 10
196.3426242466
 20
253.9301639276
 30
0.0
 10
196.1187947986
 20
254.0809988996
 30
0.0
 10
195.9547919584
 20
254.2020542402
 30
0.0
  0
SPLINE
  5
4FE
100
AcDbEntity
  8
00_COMPONENTS
100
AcDbSpline
 62
7
  6
CONTINUOUS
 70
0
 71
3
 72
11
 73
7
 74
0
 42
0.0000001
 43
0.0000001
 44
0.0000000001
 40
0.0
 40
0.0
 40
0.0
 40
0.0
 40
0.2452607182
 40
0.5080142437
 40
0.7664464242
 40
1.0
 40
1.0
 40
1.0
 40
1.0
 10
195.9547919584
 20
254.2020542402
 30
0.0
 10
195.3997366104
 20
254.6117569879
 30
0.0
 10
194.3682166479
 20
255.6239941714
 30
0.0
 10
193.1715952373
 20
257.4336586852
 30
0.0
 10
192.3693727055
 20
259.4139160325
 30
0.0
 10
192.1448320158
 20
260.7990683239
 30
0.0
 10
192.1448320158
 20
261.4560237397
 30
0.0
  0
SPLINE
  5
4FF
100
AcDbEntity
  8
00_COMPONENTS
100
AcDbSpline
 62
7
  6
CONTINUOUS
 70
0
 71
3
 72
9
 73
5
 74
0
 42
0.0000001
 43
0.0000001
 44
0.0000000001
 40
0.0
 40
0.0
 40
0.0
 40
0.0
 40
0.2606806551
 40
1.0
 40
1.0
 40
1.0
 40
1.0
 10
205.8569616832
 20
73.6341477707
 30
0.0
 10
205.8522805398
 20
73.6102167186
 30
0.0
 10
205.836297373
 20
73.5180559797
 30
0.0
 10
205.8283040867
 20
73.424382407
 30
0.0
 10
205.8283040867
 20
73.3552249889
 30
0.0
  0
SPLINE
  5
500
100
AcDbEntity
  8
00_COMPONENTS
100
AcDbSpline
 62
7
  6
CONTINUOUS
 70
0
 71
3
 72
9
 73
5
 74
0
 42
0.0000001
 43
0.0000001
 44
0.0000000001
 40
0.0
 40
0.0
 40
0.0
 40
0.0
 40
0.5467575826
 40
1.0
 40
1.0
 40
1.0
 40
1.0
 10
205.8283040867
 20
73.3552249889
 30
0.0
 10
205.8283040867
 20
73.2446649164
 30
0.0
 10
205.8534613871
 20
73.0396545084
 30
0.0
 10
205.967424157
 20
72.8597213836
 30
0.0
 10
206.038131843
 20
72.8014100923
 30
0.0
  0
SPLINE
  5
501
100
AcDbEntity
  8
00_COMPONENTS
100
AcDbSpline
 62
7
  6
CONTINUOUS
 70
0
 71
3
 72
9
 73
5
 74
0
 42
0.0000001
 43
0.0000001
 44
0.0000000001
 40
0.0
 40
0.0
 40
0.0
 40
0.0
 40
0.5117842018
 40
1.0
 40
1.0
 40
1.0
 40
1.0
 10
210.0650535488
 20
263.6224994862
 30
0.0
 10
209.0853851463
 20
264.9083051899
 30
0.0
 10
207.4612592162
 20
267.6506693188
 30
0.0
 10
206.4835903512
 20
270.6941837718
 30
0.0
 10
206.2302891349
 20
272.2152877827
 30
0.0
  0
SPLINE
  5
502
100
AcDbEntity
  8
00_COMPONENTS
100
AcDbSpline
 62
7
  6
CONTINUOUS
 70
0
 71
3
 72
9
 73
5
 74
0
 42
0.0000001
 43
0.0000001
 44
0.0000000001
 40
0.0
 40
0.0
 40
0.0
 40
0.0
 40
0.2588988965
 40
1.0
 40
1.0
 40
1.0
 40
1.0
 10
206.2302891349
 20
272.2152877827
 30
0.0
 10
206.1989309521
 20
272.4035974101
 30
0.0
 10
206.0914646782
 20
273.1330793801
 30
0.0
 10
206.0393867951
 20
273.8712937804
 30
0.0
 10
206.0393867951
 20
274.417755059
 30
0.0
  0
SPLINE
  5
503
100
AcDbEntity
  8
00_COMPONENTS
100
AcDbSpline
 62
7
  6
CONTINUOUS
 70
0
 71
3
 72
11
 73
7
 74
0
 42
0.0000001
 43
0.0000001
 44
0.0000000001
 40
0.0
 40
0.0
 40
0.0
 40
0.0
 40
0.2412907572
 40
0.504094698
 40
0.7646755241
 40
1.0
 40
1.0
 40
1.0
 40
1.0
 10
178.1722620329
 20
290.4416345699
 30
0.0
 10
177.3187358615
 20
291.001473116
 30
0.0
 10
175.7188385296
 20
292.4549801876
 30
0.0
 10
173.8569202257
 20
295.1274213502
 30
0.0
 10
172.5967476894
 20
298.1033660638
 30
0.0
 10
172.2394895305
 20
300.2028705285
 30
0.0
 10
172.2394895305
 20
301.1983788098
 30
0.0
  0
SPLINE
  5
504
100
AcDbEntity
  8
00_COMPONENTS
100
AcDbSpline
 62
7
  6
CONTINUOUS
 70
0
 71
3
 72
10
 73
6
 74
0
 42
0.0000001
 43
0.0000001
 44
0.0000000001
 40
0.0
 40
0.0
 40
0.0
 40
0.0
 40
0.5439444712
 40
0.7788854073
 40
1.0
 40
1.0
 40
1.0
 40
1.0
 10
140.7760795358
 20
143.6157710217
 30
0.0
 10
140.7878441261
 20
143.3531342685
 30
0.0
 10
140.8609226268
 20
142.9683087149
 30
0.0
 10
141.1283264692
 20
142.5589854146
 30
0.0
 10
141.3022786821
 20
142.4165449002
 30
0.0
 10
141.3948308793
 20
142.3631110893
 30
0.0
  0
SPLINE
  5
505
100
AcDbEntity
  8
00_COMPONENTS
100
AcDbSpline
 62
7
  6
CONTINUOUS
 70
0
 71
3
 72
10
 73
6
 74
0
 42
0.0000001
 43
0.0000001
 44
0.0000000001
 40
0.0
 40
0.0
 40
0.0
 40
0.0
 40
0.5439452877
 40
0.7788860056
 40
1.0
 40
1.0
 40
1.0
 40
1.0
 10
145.6175022029
 20
140.8206629811
 30
0.0
 10
145.3841688948
 20
140.6995237614
 30
0.0
 10
145.0143576661
 20
140.5703854795
 30
0.0
 10
144.5261618356
 20
140.597289992
 30
0.0
 10
144.3158233511
 20
140.6767134012
 30
0.0
 10
144.2232697819
 20
140.73014807
 30
0.0
  0
SPLINE
  5
506
100
AcDbEntity
  8
00_COMPONENTS
100
AcDbSpline
 62
7
  6
CONTINUOUS
 70
0
 71
3
 72
11
 73
7
 74
0
 42
0.0000001
 43
0.0000001
 44
0.0000000001
 40
0.0
 40
0.0
 40
0.0
 40
0.0
 40
0.2348281261
 40
0.4880500763
 40
0.7474977787
 40
1.0
 40
1.0
 40
1.0
 40
1.0
 10
200.1219290313
 20
299.6993947069
 30
0.0
 10
200.0266650899
 20
300.864775701
 30
0.0
 10
199.5534992552
 20
303.2673110784
 30
0.0
 10
198.2043587077
 20
306.7527261183
 30
0.0
 10
196.2778691194
 20
310.0572297351
 30
0.0
 10
194.6519727969
 20
312.0391104193
 30
0.0
 10
193.7689372547
 20
312.9340858135
 30
0.0
  0
SPLINE
  5
507
100
AcDbEntity
  8
00_COMPONENTS
100
AcDbSpline
 62
7
  6
CONTINUOUS
 70
0
 71
3
 72
9
 73
5
 74
0
 42
0.0000001
 43
0.0000001
 44
0.0000000001
 40
0.0
 40
0.0
 40
0.0
 40
0.0
 40
0.2632169224
 40
1.0
 40
1.0
 40
1.0
 40
1.0
 10
193.7689372547
 20
312.9340858135
 30
0.0
 10
193.4940159772
 20
313.2127244038
 30
0.0
 10
192.4195058341
 20
314.2404022689
 30
0.0
 10
191.2195857125
 20
315.1434418105
 30
0.0
 10
190.2706903708
 20
315.6912743978
 30
0.0
  0
SPLINE
  5
508
100
AcDbEntity
  8
00_COMPONENTS
100
AcDbSpline
 62
7
  6
CONTINUOUS
 70
0
 71
3
 72
11
 73
7
 74
0
 42
0.0000001
 43
0.0000001
 44
0.0000000001
 40
0.0
 40
0.0
 40
0.0
 40
0.0
 40
0.2177434119
 40
0.4508805377
 40
0.710457812
 40
1.0
 40
1.0
 40
1.0
 40
1.0
 10
139.6019366911
 20
305.3217898773
 30
0.0
 10
139.6019367384
 20
305.169465984
 30
0.0
 10
139.6578735275
 20
304.8518849164
 30
0.0
 10
139.8987855624
 20
304.4093229025
 30
0.0
 10
140.2795608118
 20
304.0095768958
 30
0.0
 10
140.5978820379
 20
303.7900871509
 30
0.0
 10
140.7732975305
 20
303.6888132602
 30
0.0
  0
SPLINE
  5
509
100
AcDbEntity
  8
00_COMPONENTS
100
AcDbSpline
 62
7
  6
CONTINUOUS
 70
0
 71
3
 72
9
 73
5
 74
0
 42
0.0000001
 43
0.0000001
 44
0.0000000001
 40
0.0
 40
0.0
 40
0.0
 40
0.0
 40
0.244136501
 40
1.0
 40
1.0
 40
1.0
 40
1.0
 10
153.0199814141
 20
275.5369457536
 30
0.0
 10
153.1001566375
 20
275.5832771389
 30
0.0
 10
153.4160629611
 20
275.7946183341
 30
0.0
 10
153.6709160316
 20
276.0916286588
 30
0.0
 10
153.8193609828
 20
276.3368994762
 30
0.0
  0
SPLINE
  5
50A
100
AcDbEntity
  8
00_COMPONENTS
100
AcDbSpline
 62
7
  6
CONTINUOUS
 70
0
 71
3
 72
9
 73
5
 74
0
 42
0.0000001
 43
0.0000001
 44
0.0000000001
 40
0.0
 40
0.0
 40
0.0
 40
0.0
 40
0.2319356943
 40
1.0
 40
1.0
 40
1.0
 40
1.0
 10
153.8193609828
 20
276.3368994762
 30
0.0
 10
153.8814075357
 20
276.4394169996
 30
0.0
 10
154.1193945124
 20
276.899397854
 30
0.0
 10
154.2391963834
 20
277.4140415451
 30
0.0
 10
154.2828747393
 20
277.8084575975
 30
0.0
  0
SPLINE
  5
50B
100
AcDbEntity
  8
00_COMPONENTS
100
AcDbSpline
 62
7
  6
CONTINUOUS
 70
0
 71
3
 72
9
 73
5
 74
0
 42
0.0000001
 43
0.0000001
 44
0.0000000001
 40
0.0
 40
0.0
 40
0.0
 40
0.0
 40
0.2432770585
 40
1.0
 40
1.0
 40
1.0
 40
1.0
 10
154.2060610298
 20
278.2570833509
 30
0.0
 10
154.1488717217
 20
278.2890816474
 30
0.0
 10
153.9160407377
 20
278.4246091988
 30
0.0
 10
153.6922112898
 20
278.5754441708
 30
0.0
 10
153.5282084496
 20
278.6964995114
 30
0.0
  0
SPLINE
  5
50C
100
AcDbEntity
  8
00_COMPONENTS
100
AcDbSpline
 62
7
  6
CONTINUOUS
 70
0
 71
3
 72
11
 73
7
 74
0
 42
0.0000001
 43
0.0000001
 44
0.0000000001
 40
0.0
 40
0.0
 40
0.0
 40
0.0
 40
0.2452607182
 40
0.5080142437
 40
0.7664464242
 40
1.0
 40
1.0
 40
1.0
 40
1.0
 10
153.5282084496
 20
278.6964995114
 30
0.0
 10
152.9731531016
 20
279.1062022591
 30
0.0
 10
151.9416331391
 20
280.1184394426
 30
0.0
 10
150.7450117285
 20
281.9281039565
 30
0.0
 10
149.9427891966
 20
283.9083613038
 30
0.0
 10
149.718248507
 20
285.2935135951
 30
0.0
 10
149.718248507
 20
285.9504690109
 30
0.0
  0
SPLINE
  5
50D
100
AcDbEntity
  8
00_COMPONENTS
100
AcDbSpline
 62
7
  6
CONTINUOUS
 70
0
 71
3
 72
9
 73
5
 74
0
 42
0.0000001
 43
0.0000001
 44
0.0000000001
 40
0.0
 40
0.0
 40
0.0
 40
0.0
 40
0.5117842018
 40
1.0
 40
1.0
 40
1.0
 40
1.0
 10
167.63847004
 20
288.1169447574
 30
0.0
 10
166.6588016375
 20
289.4027504611
 30
0.0
 10
165.0346757074
 20
292.14511459
 30
0.0
 10
164.0570068424
 20
295.188629043
 30
0.0
 10
163.8037056261
 20
296.7097330539
 30
0.0
  0
SPLINE
  5
50E
100
AcDbEntity
  8
00_COMPONENTS
100
AcDbSpline
 62
7
  6
CONTINUOUS
 70
0
 71
3
 72
9
 73
5
 74
0
 42
0.0000001
 43
0.0000001
 44
0.0000000001
 40
0.0
 40
0.0
 40
0.0
 40
0.0
 40
0.2588988965
 40
1.0
 40
1.0
 40
1.0
 40
1.0
 10
163.8037056261
 20
296.7097330539
 30
0.0
 10
163.7723474433
 20
296.8980426813
 30
0.0
 10
163.6648811694
 20
297.6275246513
 30
0.0
 10
163.6128032863
 20
298.3657390516
 30
0.0
 10
163.6128032863
 20
298.9122003302
 30
0.0
  0
SPLINE
  5
50F
100
AcDbEntity
  8
00_COMPONENTS
100
AcDbSpline
 62
7
  6
CONTINUOUS
 70
0
 71
3
 72
11
 73
7
 74
0
 42
0.0000001
 43
0.0000001
 44
0.0000000001
 40
0.0
 40
0.0
 40
0.0
 40
0.0
 40
0.2412907572
 40
0.504094698
 40
0.7646755241
 40
1.0
 40
1.0
 40
1.0
 40
1.0
 10
135.745678524
 20
314.9360798411
 30
0.0
 10
134.8921523527
 20
315.4959183872
 30
0.0
 10
133.2922550208
 20
316.9494254588
 30
0.0
 10
131.4303367169
 20
319.6218666215
 30
0.0
 10
130.1701641806
 20
322.597811335
 30
0.0
 10
129.8129060216
 20
324.6973157997
 30
0.0
 10
129.8129060216
 20
325.692824081
 30
0.0
  0
SPLINE
  5
510
100
AcDbEntity
  8
00_COMPONENTS
100
AcDbSpline
 62
7
  6
CONTINUOUS
 70
0
 71
3
 72
11
 73
7
 74
0
 42
0.0000001
 43
0.0000001
 44
0.0000000001
 40
0.0
 40
0.0
 40
0.0
 40
0.0
 40
0.2348281261
 40
0.4880500763
 40
0.7474977787
 40
1.0
 40
1.0
 40
1.0
 40
1.0
 10
157.6953455225
 20
324.1938399781
 30
0.0
 10
157.6000815811
 20
325.3592209722
 30
0.0
 10
157.1269157464
 20
327.7617563496
 30
0.0
 10
155.7777751988
 20
331.2471713895
 30
0.0
 10
153.8512856106
 20
334.5516750063
 30
0.0
 10
152.225389288
 20
336.5335556905
 30
0.0
 10
151.3423537459
 20
337.4285310847
 30
0.0
  0
SPLINE
  5
511
100
AcDbEntity
  8
00_COMPONENTS
100
AcDbSpline
 62
7
  6
CONTINUOUS
 70
0
 71
3
 72
9
 73
5
 74
0
 42
0.0000001
 43
0.0000001
 44
0.0000000001
 40
0.0
 40
0.0
 40
0.0
 40
0.0
 40
0.2632169224
 40
1.0
 40
1.0
 40
1.0
 40
1.0
 10
151.3423537459
 20
337.4285310847
 30
0.0
 10
151.0674324684
 20
337.7071696751
 30
0.0
 10
149.9929223253
 20
338.7348475401
 30
0.0
 10
148.7930022037
 20
339.6378870817
 30
0.0
 10
147.844106862
 20
340.185719669
 30
0.0
  0
SPLINE
  5
512
100
AcDbEntity
  8
00_COMPONENTS
100
AcDbSpline
 62
7
  6
CONTINUOUS
 70
0
 71
3
 72
11
 73
7
 74
0
 42
0.0000001
 43
0.0000001
 44
0.0000000001
 40
0.0
 40
0.0
 40
0.0
 40
0.0
 40
0.2177434119
 40
0.4508805377
 40
0.710457812
 40
1.0
 40
1.0
 40
1.0
 40
1.0
 10
97.1753531823
 20
329.8162351485
 30
0.0
 10
97.1753532296
 20
329.6639112552
 30
0.0
 10
97.2312900187
 20
329.3463301876
 30
0.0
 10
97.4722020535
 20
328.9037681737
 30
0.0
 10
97.852977303
 20
328.504022167
 30
0.0
 10
98.1712985291
 20
328.2845324221
 30
0.0
 10
98.3467140216
 20
328.1832585314
 30
0.0
  0
SPLINE
  5
513
100
AcDbEntity
  8
00_COMPONENTS
100
AcDbSpline
 62
7
  6
CONTINUOUS
 70
0
 71
3
 72
9
 73
5
 74
0
 42
0.0000001
 43
0.0000001
 44
0.0000000001
 40
0.0
 40
0.0
 40
0.0
 40
0.0
 40
0.244136501
 40
1.0
 40
1.0
 40
1.0
 40
1.0
 10
110.5933979053
 20
300.0313910248
 30
0.0
 10
110.6735731287
 20
300.0777224101
 30
0.0
 10
110.9894794523
 20
300.2890636054
 30
0.0
 10
111.2443325228
 20
300.58607393
 30
0.0
 10
111.392777474
 20
300.8313447475
 30
0.0
  0
SPLINE
  5
514
100
AcDbEntity
  8
00_COMPONENTS
100
AcDbSpline
 62
7
  6
CONTINUOUS
 70
0
 71
3
 72
9
 73
5
 74
0
 42
0.0000001
 43
0.0000001
 44
0.0000000001
 40
0.0
 40
0.0
 40
0.0
 40
0.0
 40
0.2319356943
 40
1.0
 40
1.0
 40
1.0
 40
1.0
 10
111.392777474
 20
300.8313447475
 30
0.0
 10
111.4548240269
 20
300.9338622708
 30
0.0
 10
111.6928110036
 20
301.3938431252
 30
0.0
 10
111.8126128745
 20
301.9084868163
 30
0.0
 10
111.8562912305
 20
302.3029028687
 30
0.0
  0
SPLINE
  5
515
100
AcDbEntity
  8
00_COMPONENTS
100
AcDbSpline
 62
7
  6
CONTINUOUS
 70
0
 71
3
 72
9
 73
5
 74
0
 42
0.0000001
 43
0.0000001
 44
0.0000000001
 40
0.0
 40
0.0
 40
0.0
 40
0.0
 40
0.2432770585
 40
1.0
 40
1.0
 40
1.0
 40
1.0
 10
111.7794775209
 20
302.7515286221
 30
0.0
 10
111.7222882129
 20
302.7835269186
 30
0.0
 10
111.4894572289
 20
302.91905447
 30
0.0
 10
111.265627781
 20
303.069889442
 30
0.0
 10
111.1016249408
 20
303.1909447827
 30
0.0
  0
SPLINE
  5
516
100
AcDbEntity
  8
00_COMPONENTS
100
AcDbSpline
 62
7
  6
CONTINUOUS
 70
0
 71
3
 72
11
 73
7
 74
0
 42
0.0000001
 43
0.0000001
 44
0.0000000001
 40
0.0
 40
0.0
 40
0.0
 40
0.0
 40
0.2452607182
 40
0.5080142437
 40
0.7664464242
 40
1.0
 40
1.0
 40
1.0
 40
1.0
 10
111.1016249408
 20
303.1909447827
 30
0.0
 10
110.5465695928
 20
303.6006475303
 30
0.0
 10
109.5150496302
 20
304.6128847138
 30
0.0
 10
108.3184282197
 20
306.4225492277
 30
0.0
 10
107.5162056878
 20
308.402806575
 30
0.0
 10
107.2916649982
 20
309.7879588664
 30
0.0
 10
107.2916649982
 20
310.4449142821
 30
0.0
  0
SPLINE
  5
517
100
AcDbEntity
  8
00_COMPONENTS
100
AcDbSpline
 62
7
  6
CONTINUOUS
 70
0
 71
3
 72
9
 73
5
 74
0
 42
0.0000001
 43
0.0000001
 44
0.0000000001
 40
0.0
 40
0.0
 40
0.0
 40
0.0
 40
0.5117842018
 40
1.0
 40
1.0
 40
1.0
 40
1.0
 10
125.2118865311
 20
312.6113900286
 30
0.0
 10
124.2322181286
 20
313.8971957323
 30
0.0
 10
122.6080921985
 20
316.6395598612
 30
0.0
 10
121.6304233336
 20
319.6830743142
 30
0.0
 10
121.3771221173
 20
321.2041783252
 30
0.0
  0
SPLINE
  5
518
100
AcDbEntity
  8
00_COMPONENTS
100
AcDbSpline
 62
7
  6
CONTINUOUS
 70
0
 71
3
 72
9
 73
5
 74
0
 42
0.0000001
 43
0.0000001
 44
0.0000000001
 40
0.0
 40
0.0
 40
0.0
 40
0.0
 40
0.2588988965
 40
1.0
 40
1.0
 40
1.0
 40
1.0
 10
121.3771221173
 20
321.2041783252
 30
0.0
 10
121.3457639345
 20
321.3924879525
 30
0.0
 10
121.2382976606
 20
322.1219699225
 30
0.0
 10
121.1862197775
 20
322.8601843228
 30
0.0
 10
121.1862197775
 20
323.4066456015
 30
0.0
  0
SPLINE
  5
519
100
AcDbEntity
  8
00_COMPONENTS
100
AcDbSpline
 62
7
  6
CONTINUOUS
 70
0
 71
3
 72
9
 73
5
 74
0
 42
0.0000001
 43
0.0000001
 44
0.0000000001
 40
0.0
 40
0.0
 40
0.0
 40
0.0
 40
0.4878058362
 40
1.0
 40
1.0
 40
1.0
 40
1.0
 10
195.4465649229
 20
68.4725600122
 30
0.0
 10
195.617685988
 20
68.5714468711
 30
0.0
 10
195.9406871018
 20
68.8260500071
 30
0.0
 10
196.1819227835
 20
69.1576089988
 30
0.0
 10
196.2843778953
 20
69.3380734138
 30
0.0
  0
SPLINE
  5
51A
100
AcDbEntity
  8
00_COMPONENTS
100
AcDbSpline
 62
7
  6
CONTINUOUS
 70
0
 71
3
 72
9
 73
5
 74
0
 42
0.0000001
 43
0.0000001
 44
0.0000000001
 40
0.0
 40
0.0
 40
0.0
 40
0.0
 40
0.2426030137
 40
1.0
 40
1.0
 40
1.0
 40
1.0
 10
196.2843778953
 20
69.3380734138
 30
0.0
 10
196.3087032901
 20
69.3809201598
 30
0.0
 10
196.4042453476
 20
69.5601988804
 30
0.0
 10
196.4810172882
 20
69.7492806331
 30
0.0
 10
196.5293853527
 20
69.8952982943
 30
0.0
  0
SPLINE
  5
51B
100
AcDbEntity
  8
00_COMPONENTS
100
AcDbSpline
 62
7
  6
CONTINUOUS
 70
0
 71
3
 72
13
 73
9
 74
0
 42
0.0000001
 43
0.0000001
 44
0.0000000001
 40
0.0
 40
0.0
 40
0.0
 40
0.0
 40
0.203436789
 40
0.3278978996
 40
0.4631466585
 40
0.7435283982
 40
0.8775099875
 40
1.0
 40
1.0
 40
1.0
 40
1.0
 10
196.3138995457
 20
69.3230341825
 30
0.0
 10
195.5502015837
 20
69.3127722711
 30
0.0
 10
194.3279586473
 20
69.8042104797
 30
0.0
 10
192.9668816135
 20
70.8782354209
 30
0.0
 10
191.5987502763
 20
72.3891844541
 30
0.0
 10
190.5687825175
 20
74.2177771988
 30
0.0
 10
189.9930913804
 20
76.1555964649
 30
0.0
 10
189.8820997367
 20
77.1198352142
 30
0.0
 10
189.8820997367
 20
77.5797019771
 30
0.0
  0
SPLINE
  5
51C
100
AcDbEntity
  8
00_COMPONENTS
100
AcDbSpline
 62
7
  6
CONTINUOUS
 70
0
 71
3
 72
9
 73
5
 74
0
 42
0.0000001
 43
0.0000001
 44
0.0000000001
 40
0.0
 40
0.0
 40
0.0
 40
0.0
 40
0.2644958062
 40
1.0
 40
1.0
 40
1.0
 40
1.0
 10
62.6023492103
 20
151.0630377908
 30
0.0
 10
62.6023492103
 20
151.1810819867
 30
0.0
 10
62.6159480746
 20
151.6270604366
 30
0.0
 10
62.6857357957
 20
152.0729639689
 30
0.0
 10
62.7785373949
 20
152.3878274873
 30
0.0
  0
SPLINE
  5
51D
100
AcDbEntity
  8
00_COMPONENTS
100
AcDbSpline
 62
7
  6
CONTINUOUS
 70
0
 71
3
 72
9
 73
5
 74
0
 42
0.0000001
 43
0.0000001
 44
0.0000000001
 40
0.0
 40
0.0
 40
0.0
 40
0.0
 40
0.4878058362
 40
1.0
 40
1.0
 40
1.0
 40
1.0
 10
153.0199814141
 20
92.9670052834
 30
0.0
 10
153.1911024792
 20
93.0658921423
 30
0.0
 10
153.514103593
 20
93.3204952783
 30
0.0
 10
153.7553392747
 20
93.65205427
 30
0.0
 10
153.8577943865
 20
93.8325186851
 30
0.0
  0
SPLINE
  5
51E
100
AcDbEntity
  8
00_COMPONENTS
100
AcDbSpline
 62
7
  6
CONTINUOUS
 70
0
 71
3
 72
9
 73
5
 74
0
 42
0.0000001
 43
0.0000001
 44
0.0000000001
 40
0.0
 40
0.0
 40
0.0
 40
0.0
 40
0.2426030137
 40
1.0
 40
1.0
 40
1.0
 40
1.0
 10
153.8577943865
 20
93.8325186851
 30
0.0
 10
153.8821197813
 20
93.875365431
 30
0.0
 10
153.9776618388
 20
94.0546441516
 30
0.0
 10
154.0544337793
 20
94.2437259043
 30
0.0
 10
154.1028018439
 20
94.3897435655
 30
0.0
  0
SPLINE
  5
51F
100
AcDbEntity
  8
00_COMPONENTS
100
AcDbSpline
 62
7
  6
CONTINUOUS
 70
0
 71
3
 72
13
 73
9
 74
0
 42
0.0000001
 43
0.0000001
 44
0.0000000001
 40
0.0
 40
0.0
 40
0.0
 40
0.0
 40
0.203436789
 40
0.3278978996
 40
0.4631466585
 40
0.7435283982
 40
0.8775099875
 40
1.0
 40
1.0
 40
1.0
 40
1.0
 10
153.8873160368
 20
93.8174794537
 30
0.0
 10
153.1236180748
 20
93.8072175423
 30
0.0
 10
151.9013751385
 20
94.2986557509
 30
0.0
 10
150.5402981047
 20
95.3726806921
 30
0.0
 10
149.1721667675
 20
96.8836297254
 30
0.0
 10
148.1421990087
 20
98.71222247
 30
0.0
 10
147.5665078716
 20
100.6500417361
 30
0.0
 10
147.4555162279
 20
101.6142804854
 30
0.0
 10
147.4555162279
 20
102.0741472483
 30
0.0
  0
SPLINE
  5
520
100
AcDbEntity
  8
00_COMPONENTS
100
AcDbSpline
 62
7
  6
CONTINUOUS
 70
0
 71
3
 72
9
 73
5
 74
0
 42
0.0000001
 43
0.0000001
 44
0.0000000001
 40
0.0
 40
0.0
 40
0.0
 40
0.0
 40
0.4878058362
 40
1.0
 40
1.0
 40
1.0
 40
1.0
 10
110.5933979053
 20
117.4614505547
 30
0.0
 10
110.7645189703
 20
117.5603374135
 30
0.0
 10
111.0875200842
 20
117.8149405496
 30
0.0
 10
111.3287557659
 20
118.1464995413
 30
0.0
 10
111.4312108777
 20
118.3269639563
 30
0.0
  0
SPLINE
  5
521
100
AcDbEntity
  8
00_COMPONENTS
100
AcDbSpline
 62
7
  6
CONTINUOUS
 70
0
 71
3
 72
9
 73
5
 74
0
 42
0.0000001
 43
0.0000001
 44
0.0000000001
 40
0.0
 40
0.0
 40
0.0
 40
0.0
 40
0.2426030137
 40
1.0
 40
1.0
 40
1.0
 40
1.0
 10
111.4312108777
 20
118.3269639563
 30
0.0
 10
111.4555362725
 20
118.3698107022
 30
0.0
 10
111.5510783299
 20
118.5490894228
 30
0.0
 10
111.6278502705
 20
118.7381711755
 30
0.0
 10
111.6762183351
 20
118.8841888367
 30
0.0
  0
SPLINE
  5
522
100
AcDbEntity
  8
00_COMPONENTS
100
AcDbSpline
 62
7
  6
CONTINUOUS
 70
0
 71
3
 72
13
 73
9
 74
0
 42
0.0000001
 43
0.0000001
 44
0.0000000001
 40
0.0
 40
0.0
 40
0.0
 40
0.0
 40
0.203436789
 40
0.3278978996
 40
0.4631466585
 40
0.7435283982
 40
0.8775099875
 40
1.0
 40
1.0
 40
1.0
 40
1.0
 10
111.460732528
 20
118.3119247249
 30
0.0
 10
110.697034566
 20
118.3016628135
 30
0.0
 10
109.4747916297
 20
118.7931010222
 30
0.0
 10
108.1137145958
 20
119.8671259633
 30
0.0
 10
106.7455832587
 20
121.3780749966
 30
0.0
 10
105.7156154998
 20
123.2066677412
 30
0.0
 10
105.1399243628
 20
125.1444870073
 30
0.0
 10
105.0289327191
 20
126.1087257567
 30
0.0
 10
105.0289327191
 20
126.5685925196
 30
0.0
  0
SPLINE
  5
523
100
AcDbEntity
  8
00_COMPONENTS
100
AcDbSpline
 62
7
  6
CONTINUOUS
 70
0
 71
3
 72
9
 73
5
 74
0
 42
0.0000001
 43
0.0000001
 44
0.0000000001
 40
0.0
 40
0.0
 40
0.0
 40
0.0
 40
0.4878058362
 40
1.0
 40
1.0
 40
1.0
 40
1.0
 10
68.1668143964
 20
141.9558958259
 30
0.0
 10
68.3379354615
 20
142.0547826847
 30
0.0
 10
68.6609365753
 20
142.3093858208
 30
0.0
 10
68.9021722571
 20
142.6409448125
 30
0.0
 10
69.0046273689
 20
142.8214092275
 30
0.0
  0
SPLINE
  5
524
100
AcDbEntity
  8
00_COMPONENTS
100
AcDbSpline
 62
7
  6
CONTINUOUS
 70
0
 71
3
 72
9
 73
5
 74
0
 42
0.0000001
 43
0.0000001
 44
0.0000000001
 40
0.0
 40
0.0
 40
0.0
 40
0.0
 40
0.2426030137
 40
1.0
 40
1.0
 40
1.0
 40
1.0
 10
69.0046273689
 20
142.8214092275
 30
0.0
 10
69.0289527637
 20
142.8642559734
 30
0.0
 10
69.1244948211
 20
143.043534694
 30
0.0
 10
69.2012667617
 20
143.2326164468
 30
0.0
 10
69.2496348262
 20
143.3786341079
 30
0.0
  0
SPLINE
  5
525
100
AcDbEntity
  8
00_COMPONENTS
100
AcDbSpline
 62
7
  6
CONTINUOUS
 70
0
 71
3
 72
13
 73
9
 74
0
 42
0.0000001
 43
0.0000001
 44
0.0000000001
 40
0.0
 40
0.0
 40
0.0
 40
0.0
 40
0.203436789
 40
0.3278978996
 40
0.4631466585
 40
0.7435283982
 40
0.8775099875
 40
1.0
 40
1.0
 40
1.0
 40
1.0
 10
69.0341490192
 20
142.8063699961
 30
0.0
 10
68.2704510572
 20
142.7961080847
 30
0.0
 10
67.0482081209
 20
143.2875462934
 30
0.0
 10
65.687131087
 20
144.3615712345
 30
0.0
 10
64.3189997499
 20
145.8725202678
 30
0.0
 10
63.289031991
 20
147.7011130124
 30
0.0
 10
62.713340854
 20
149.6389322785
 30
0.0
 10
62.6023492103
 20
150.6031710279
 30
0.0
 10
62.6023492103
 20
151.0630377908
 30
0.0
  0
SPLINE
  5
526
100
AcDbEntity
  8
00_COMPONENTS
100
AcDbSpline
 62
7
  6
CONTINUOUS
 70
0
 71
3
 72
9
 73
5
 74
0
 42
0.0000001
 43
0.0000001
 44
0.0000000001
 40
0.0
 40
0.0
 40
0.0
 40
0.0
 40
0.2644958062
 40
1.0
 40
1.0
 40
1.0
 40
1.0
 10
105.0289327191
 20
126.5685925196
 30
0.0
 10
105.0289327191
 20
126.6866367155
 30
0.0
 10
105.0425315835
 20
127.1326151654
 30
0.0
 10
105.1123193045
 20
127.5785186977
 30
0.0
 10
105.2051209037
 20
127.8933822161
 30
0.0
  0
SPLINE
  5
527
100
AcDbEntity
  8
00_COMPONENTS
100
AcDbSpline
 62
7
  6
CONTINUOUS
 70
0
 71
3
 72
9
 73
5
 74
0
 42
0.0000001
 43
0.0000001
 44
0.0000000001
 40
0.0
 40
0.0
 40
0.0
 40
0.0
 40
0.2355515468
 40
1.0
 40
1.0
 40
1.0
 40
1.0
 10
208.1038184004
 20
74.6030516831
 30
0.0
 10
208.0767606733
 20
74.6186731092
 30
0.0
 10
207.9545020425
 20
74.672685087
 30
0.0
 10
207.8125630545
 20
74.6688019477
 30
0.0
 10
207.7139170111
 20
74.6453479905
 30
0.0
  0
SPLINE
  5
528
100
AcDbEntity
  8
00_COMPONENTS
100
AcDbSpline
 62
7
  6
CONTINUOUS
 70
0
 71
3
 72
8
 73
4
 74
0
 42
0.0000001
 43
0.0000001
 44
0.0000000001
 40
0.0
 40
0.0
 40
0.0
 40
0.0
 40
1.0
 40
1.0
 40
1.0
 40
1.0
 10
207.6074393664
 20
74.6122991901
 30
0.0
 10
207.5543846714
 20
74.592086957
 30
0.0
 10
207.5030116945
 20
74.56707694
 30
0.0
 10
207.4538435291
 20
74.5386898559
 30
0.0
  0
SPLINE
  5
529
100
AcDbEntity
  8
00_COMPONENTS
100
AcDbSpline
 62
7
  6
CONTINUOUS
 70
0
 71
3
 72
9
 73
5
 74
0
 42
0.0000001
 43
0.0000001
 44
0.0000000001
 40
0.0
 40
0.0
 40
0.0
 40
0.0
 40
0.2644958062
 40
1.0
 40
1.0
 40
1.0
 40
1.0
 10
147.4555162279
 20
102.0741472483
 30
0.0
 10
147.4555162279
 20
102.1921914443
 30
0.0
 10
147.4691150923
 20
102.6381698942
 30
0.0
 10
147.5389028134
 20
103.0840734265
 30
0.0
 10
147.6317044125
 20
103.3989369449
 30
0.0
  0
SPLINE
  5
52A
100
AcDbEntity
  8
00_COMPONENTS
100
AcDbSpline
 62
7
  6
CONTINUOUS
 70
0
 71
3
 72
11
 73
7
 74
0
 42
0.0000001
 43
0.0000001
 44
0.0000000001
 40
0.0
 40
0.0
 40
0.0
 40
0.0
 40
0.2897016594
 40
0.5490895814
 40
0.7822189142
 40
1.0
 40
1.0
 40
1.0
 40
1.0
 10
87.3863225128
 20
350.1872693522
 30
0.0
 10
87.3863225128
 20
350.6432810457
 30
0.0
 10
87.4554601069
 20
351.5105230914
 30
0.0
 10
87.8066643579
 20
352.7020769997
 30
0.0
 10
88.3980187602
 20
353.668954774
 30
0.0
 10
88.953481571
 20
354.13589289
 30
0.0
 10
89.2503455382
 20
354.3073162688
 30
0.0
  0
SPLINE
  5
52B
100
AcDbEntity
  8
00_COMPONENTS
100
AcDbSpline
 62
7
  6
CONTINUOUS
 70
0
 71
3
 72
9
 73
5
 74
0
 42
0.0000001
 43
0.0000001
 44
0.0000000001
 40
0.0
 40
0.0
 40
0.0
 40
0.0
 40
0.5168198508
 40
1.0
 40
1.0
 40
1.0
 40
1.0
 10
95.697238665
 20
358.2957603983
 30
0.0
 10
95.8496479226
 20
358.6351587288
 30
0.0
 10
96.2209647101
 20
359.2624621177
 30
0.0
 10
96.7576466833
 20
359.7608789953
 30
0.0
 10
97.0465811263
 20
359.9545377188
 30
0.0
  0
SPLINE
  5
52C
100
AcDbEntity
  8
00_COMPONENTS
100
AcDbSpline
 62
7
  6
CONTINUOUS
 70
0
 71
3
 72
11
 73
7
 74
0
 42
0.0000001
 43
0.0000001
 44
0.0000000001
 40
0.0
 40
0.0
 40
0.0
 40
0.0
 40
0.2934809892
 40
0.5541861797
 40
0.7858895498
 40
1.0
 40
1.0
 40
1.0
 40
1.0
 10
94.1261576046
 20
357.3682299779
 30
0.0
 10
94.0814180969
 20
358.1614322839
 30
0.0
 10
94.1178750651
 20
359.6714708026
 30
0.0
 10
94.6204074131
 20
361.7592238953
 30
0.0
 10
95.5661452196
 20
363.4552785977
 30
0.0
 10
96.5014530337
 20
364.2671138343
 30
0.0
 10
97.0033983466
 20
364.5569276212
 30
0.0
  0
SPLINE
  5
52D
100
AcDbEntity
  8
00_COMPONENTS
100
AcDbSpline
 62
7
  6
CONTINUOUS
 70
0
 71
3
 72
11
 73
7
 74
0
 42
0.0000001
 43
0.0000001
 44
0.0000000001
 40
0.0
 40
0.0
 40
0.0
 40
0.0
 40
0.2897757213
 40
0.5490696528
 40
0.7822276822
 40
1.0
 40
1.0
 40
1.0
 40
1.0
 10
105.4175233532
 20
364.6801649402
 30
0.0
 10
104.8030588626
 20
365.0349181537
 30
0.0
 10
103.5811312342
 20
365.6165099182
 30
0.0
 10
101.7026981355
 20
366.069715539
 30
0.0
 10
99.9404487608
 20
366.0252751043
 30
0.0
 10
98.8793803729
 20
365.6400342554
 30
0.0
 10
98.4176019513
 20
365.3734229776
 30
0.0
  0
SPLINE
  5
52E
100
AcDbEntity
  8
00_COMPONENTS
100
AcDbSpline
 62
7
  6
CONTINUOUS
 70
0
 71
3
 72
14
 73
10
 74
0
 42
0.0000001
 43
0.0000001
 44
0.0000000001
 40
0.0
 40
0.0
 40
0.0
 40
0.0
 40
0.2895067499
 40
0.4365230165
 40
0.576421192
 40
0.7039839009
 40
0.8160630593
 40
0.9129735169
 40
1.0
 40
1.0
 40
1.0
 40
1.0
 10
69.2519222422
 20
329.0600703552
 30
0.0
 10
69.0113010541
 20
330.0694105568
 30
0.0
 10
68.3812250022
 20
331.5371155087
 30
0.0
 10
67.1848685494
 20
333.2262927519
 30
0.0
 10
66.1460475398
 20
334.2982630873
 30
0.0
 10
65.0363268244
 20
335.0993974633
 30
0.0
 10
63.9163848878
 20
335.5803612695
 30
0.0
 10
62.8421262474
 20
335.7027048904
 30
0.0
 10
62.1870369892
 20
335.5070065562
 30
0.0
 10
61.9169741001
 20
335.3509435327
 30
0.0
  0
SPLINE
  5
52F
100
AcDbEntity
  8
00_COMPONENTS
100
AcDbSpline
 62
7
  6
CONTINUOUS
 70
0
 71
3
 72
9
 73
5
 74
0
 42
0.0000001
 43
0.0000001
 44
0.0000000001
 40
0.0
 40
0.0
 40
0.0
 40
0.0
 40
0.2644958062
 40
1.0
 40
1.0
 40
1.0
 40
1.0
 10
189.8820997367
 20
77.5797019771
 30
0.0
 10
189.8820997367
 20
77.6977461731
 30
0.0
 10
189.8956986011
 20
78.143724623
 30
0.0
 10
189.9654863222
 20
78.5896281553
 30
0.0
 10
190.0582879213
 20
78.9044916736
 30
0.0
  0
SPLINE
  5
530
100
AcDbEntity
  8
00_COMPONENTS
100
AcDbSpline
 62
7
  6
CONTINUOUS
 70
0
 71
3
 72
11
 73
7
 74
0
 42
0.0000001
 43
0.0000001
 44
0.0000000001
 40
0.0
 40
0.0
 40
0.0
 40
0.0
 40
0.2372531816
 40
0.5000006935
 40
0.7627478297
 40
1.0
 40
1.0
 40
1.0
 40
1.0
 10
213.0399114405
 20
261.9666081482
 30
0.0
 10
213.4414907216
 20
261.7347614872
 30
0.0
 10
214.3752983728
 20
261.396389087
 30
0.0
 10
215.8683438317
 20
261.2346189255
 30
0.0
 10
217.3613865224
 20
261.3963962209
 30
0.0
 10
218.2951897924
 20
261.734773177
 30
0.0
 10
218.6967656899
 20
261.9666217456
 30
0.0
  0
SPLINE
  5
531
100
AcDbEntity
  8
00_COMPONENTS
100
AcDbSpline
 62
7
  6
CONTINUOUS
 70
0
 71
3
 72
11
 73
7
 74
0
 42
0.0000001
 43
0.0000001
 44
0.0000000001
 40
0.0
 40
0.0
 40
0.0
 40
0.0
 40
0.2895416688
 40
0.549118971
 40
0.7822562702
 40
1.0
 40
1.0
 40
1.0
 40
1.0
 10
226.8284598179
 20
266.6614295151
 30
0.0
 10
227.0038720031
 20
266.762703183
 30
0.0
 10
227.3221871192
 20
266.9821923334
 30
0.0
 10
227.7029549312
 20
267.381935254
 30
0.0
 10
227.9438615383
 20
267.824493114
 30
0.0
 10
227.9997971528
 20
268.1420703806
 30
0.0
 10
227.9997971055
 20
268.2943925316
 30
0.0
  0
SPLINE
  5
532
100
AcDbEntity
  8
00_COMPONENTS
100
AcDbSpline
 62
7
  6
CONTINUOUS
 70
0
 71
3
 72
11
 73
7
 74
0
 42
0.0000001
 43
0.0000001
 44
0.0000000001
 40
0.0
 40
0.0
 40
0.0
 40
0.0
 40
0.2988478067
 40
0.5621040227
 40
0.7917478462
 40
1.0
 40
1.0
 40
1.0
 40
1.0
 10
173.6232883388
 20
267.4540130381
 30
0.0
 10
173.4589754371
 20
267.5835097172
 30
0.0
 10
173.1285266295
 20
267.8023601089
 30
0.0
 10
172.6061386661
 20
268.003391736
 30
0.0
 10
172.1080673998
 20
268.0439872504
 30
0.0
 10
171.8060483721
 20
267.9486600894
 30
0.0
 10
171.6797379123
 20
267.8758625937
 30
0.0
  0
SPLINE
  5
533
100
AcDbEntity
  8
00_COMPONENTS
100
AcDbSpline
 62
7
  6
CONTINUOUS
 70
0
 71
3
 72
11
 73
7
 74
0
 42
0.0000001
 43
0.0000001
 44
0.0000000001
 40
0.0
 40
0.0
 40
0.0
 40
0.0
 40
0.2372531816
 40
0.5000006935
 40
0.7627478297
 40
1.0
 40
1.0
 40
1.0
 40
1.0
 10
170.6133279317
 20
286.4610534194
 30
0.0
 10
171.0149072128
 20
286.2292067584
 30
0.0
 10
171.948714864
 20
285.8908343582
 30
0.0
 10
173.4417603229
 20
285.7290641967
 30
0.0
 10
174.9348030136
 20
285.8908414921
 30
0.0
 10
175.8686062836
 20
286.2292184482
 30
0.0
 10
176.2701821811
 20
286.4610670168
 30
0.0
  0
SPLINE
  5
534
100
AcDbEntity
  8
00_COMPONENTS
100
AcDbSpline
 62
7
  6
CONTINUOUS
 70
0
 71
3
 72
11
 73
7
 74
0
 42
0.0000001
 43
0.0000001
 44
0.0000000001
 40
0.0
 40
0.0
 40
0.0
 40
0.0
 40
0.2895416688
 40
0.549118971
 40
0.7822562702
 40
1.0
 40
1.0
 40
1.0
 40
1.0
 10
184.4018763091
 20
291.1558747863
 30
0.0
 10
184.5772884943
 20
291.2571484542
 30
0.0
 10
184.8956036104
 20
291.4766376046
 30
0.0
 10
185.2763714224
 20
291.8763805252
 30
0.0
 10
185.5172780294
 20
292.3189383852
 30
0.0
 10
185.573213644
 20
292.6365156518
 30
0.0
 10
185.5732135967
 20
292.7888378028
 30
0.0
  0
SPLINE
  5
535
100
AcDbEntity
  8
00_COMPONENTS
100
AcDbSpline
 62
7
  6
CONTINUOUS
 70
0
 71
3
 72
11
 73
7
 74
0
 42
0.0000001
 43
0.0000001
 44
0.0000000001
 40
0.0
 40
0.0
 40
0.0
 40
0.0
 40
0.2988478067
 40
0.5621040227
 40
0.7917478462
 40
1.0
 40
1.0
 40
1.0
 40
1.0
 10
131.1967048299
 20
291.9484583093
 30
0.0
 10
131.0323919283
 20
292.0779549884
 30
0.0
 10
130.7019431207
 20
292.2968053801
 30
0.0
 10
130.1795551573
 20
292.4978370073
 30
0.0
 10
129.681483891
 20
292.5384325216
 30
0.0
 10
129.3794648633
 20
292.4431053606
 30
0.0
 10
129.2531544034
 20
292.370307865
 30
0.0
  0
SPLINE
  5
536
100
AcDbEntity
  8
00_COMPONENTS
100
AcDbSpline
 62
7
  6
CONTINUOUS
 70
0
 71
3
 72
11
 73
7
 74
0
 42
0.0000001
 43
0.0000001
 44
0.0000000001
 40
0.0
 40
0.0
 40
0.0
 40
0.0
 40
0.2372531816
 40
0.5000006935
 40
0.7627478297
 40
1.0
 40
1.0
 40
1.0
 40
1.0
 10
128.1867444228
 20
310.9554986906
 30
0.0
 10
128.5883237039
 20
310.7236520296
 30
0.0
 10
129.5221313552
 20
310.3852796295
 30
0.0
 10
131.0151768141
 20
310.2235094679
 30
0.0
 10
132.5082195047
 20
310.3852867634
 30
0.0
 10
133.4420227748
 20
310.7236637194
 30
0.0
 10
133.8435986723
 20
310.955512288
 30
0.0
  0
SPLINE
  5
537
100
AcDbEntity
  8
00_COMPONENTS
100
AcDbSpline
 62
7
  6
CONTINUOUS
 70
0
 71
3
 72
11
 73
7
 74
0
 42
0.0000001
 43
0.0000001
 44
0.0000000001
 40
0.0
 40
0.0
 40
0.0
 40
0.0
 40
0.2895416688
 40
0.549118971
 40
0.7822562702
 40
1.0
 40
1.0
 40
1.0
 40
1.0
 10
141.9752928002
 20
315.6503200575
 30
0.0
 10
142.1507049855
 20
315.7515937254
 30
0.0
 10
142.4690201016
 20
315.9710828758
 30
0.0
 10
142.8497879135
 20
316.3708257964
 30
0.0
 10
143.0906945206
 20
316.8133836564
 30
0.0
 10
143.1466301351
 20
317.130960923
 30
0.0
 10
143.1466300878
 20
317.283283074
 30
0.0
  0
SPLINE
  5
538
100
AcDbEntity
  8
00_COMPONENTS
100
AcDbSpline
 62
7
  6
CONTINUOUS
 70
0
 71
3
 72
9
 73
5
 74
0
 42
0.0000001
 43
0.0000001
 44
0.0000000001
 40
0.0
 40
0.0
 40
0.0
 40
0.0
 40
0.2817628316
 40
1.0
 40
1.0
 40
1.0
 40
1.0
 10
197.2537987562
 20
136.3498519834
 30
0.0
 10
197.2537987562
 20
136.504137568
 30
0.0
 10
197.2844984279
 20
137.0485515676
 30
0.0
 10
197.4637133911
 20
137.6038588736
 30
0.0
 10
197.7071822045
 20
137.9127238163
 30
0.0
  0
SPLINE
  5
539
100
AcDbEntity
  8
00_COMPONENTS
100
AcDbSpline
 62
7
  6
CONTINUOUS
 70
0
 71
3
 72
9
 73
5
 74
0
 42
0.0000001
 43
0.0000001
 44
0.0000000001
 40
0.0
 40
0.0
 40
0.0
 40
0.0
 40
0.255863866
 40
1.0
 40
1.0
 40
1.0
 40
1.0
 10
197.7071822045
 20
137.9127238163
 30
0.0
 10
197.7367023515
 20
137.950173124
 30
0.0
 10
197.8584142479
 20
138.0913935611
 30
0.0
 10
198.0067481674
 20
138.2099446671
 30
0.0
 10
198.12681671
 20
138.2793489485
 30
0.0
  0
SPLINE
  5
53A
100
AcDbEntity
  8
00_COMPONENTS
100
AcDbSpline
 62
7
  6
CONTINUOUS
 70
0
 71
3
 72
11
 73
7
 74
0
 42
0.0000001
 43
0.0000001
 44
0.0000000001
 40
0.0
 40
0.0
 40
0.0
 40
0.0
 40
0.2472240044
 40
0.5098912547
 40
0.7672787411
 40
1.0
 40
1.0
 40
1.0
 40
1.0
 10
199.7162214762
 20
131.539031259
 30
0.0
 10
199.3552916583
 20
131.8209687942
 30
0.0
 10
198.6871673819
 20
132.5025016482
 30
0.0
 10
197.9135495847
 20
133.7051596532
 30
0.0
 10
197.3973468927
 20
135.0098959198
 30
0.0
 10
197.2537987562
 20
135.9187243762
 30
0.0
 10
197.2537987562
 20
136.3498519834
 30
0.0
  0
SPLINE
  5
53B
100
AcDbEntity
  8
00_COMPONENTS
100
AcDbSpline
 62
7
  6
CONTINUOUS
 70
0
 71
3
 72
14
 73
10
 74
0
 42
0.0000001
 43
0.0000001
 44
0.0000000001
 40
0.0
 40
0.0
 40
0.0
 40
0.0
 40
0.2895067499
 40
0.4365230165
 40
0.576421192
 40
0.7039839009
 40
0.8160630593
 40
0.9129735169
 40
1.0
 40
1.0
 40
1.0
 40
1.0
 10
111.678505751
 20
304.565625084
 30
0.0
 10
111.4378845629
 20
305.5749652856
 30
0.0
 10
110.807808511
 20
307.0426702375
 30
0.0
 10
109.6114520582
 20
308.7318474807
 30
0.0
 10
108.5726310486
 20
309.8038178161
 30
0.0
 10
107.4629103332
 20
310.6049521921
 30
0.0
 10
106.3429683967
 20
311.0859159983
 30
0.0
 10
105.2687097563
 20
311.2082596192
 30
0.0
 10
104.613620498
 20
311.0125612849
 30
0.0
 10
104.3435576089
 20
310.8564982614
 30
0.0
  0
SPLINE
  5
53C
100
AcDbEntity
  8
00_COMPONENTS
100
AcDbSpline
 62
7
  6
CONTINUOUS
 70
0
 71
3
 72
11
 73
7
 74
0
 42
0.0000001
 43
0.0000001
 44
0.0000000001
 40
0.0
 40
0.0
 40
0.0
 40
0.0
 40
0.2897757213
 40
0.5490696528
 40
0.7822276822
 40
1.0
 40
1.0
 40
1.0
 40
1.0
 10
147.844106862
 20
340.185719669
 30
0.0
 10
147.2296423714
 20
340.5404728825
 30
0.0
 10
146.007714743
 20
341.122064647
 30
0.0
 10
144.1292816443
 20
341.5752702678
 30
0.0
 10
142.3670322696
 20
341.5308298331
 30
0.0
 10
141.3059638817
 20
341.1455889842
 30
0.0
 10
140.8441854601
 20
340.8789777064
 30
0.0
  0
SPLINE
  5
53D
100
AcDbEntity
  8
00_COMPONENTS
100
AcDbSpline
 62
7
  6
CONTINUOUS
 70
0
 71
3
 72
11
 73
7
 74
0
 42
0.0000001
 43
0.0000001
 44
0.0000000001
 40
0.0
 40
0.0
 40
0.0
 40
0.0
 40
0.2934809892
 40
0.5541861797
 40
0.7858895498
 40
1.0
 40
1.0
 40
1.0
 40
1.0
 10
136.5527411134
 20
332.8737847067
 30
0.0
 10
136.5080016057
 20
333.6669870127
 30
0.0
 10
136.5444585739
 20
335.1770255314
 30
0.0
 10
137.046990922
 20
337.2647786241
 30
0.0
 10
137.9927287284
 20
338.9608333265
 30
0.0
 10
138.9280365425
 20
339.7726685631
 30
0.0
 10
139.4299818554
 20
340.06248235
 30
0.0
  0
SPLINE
  5
53E
100
AcDbEntity
  8
00_COMPONENTS
100
AcDbSpline
 62
7
  6
CONTINUOUS
 70
0
 71
3
 72
9
 73
5
 74
0
 42
0.0000001
 43
0.0000001
 44
0.0000000001
 40
0.0
 40
0.0
 40
0.0
 40
0.0
 40
0.5168198508
 40
1.0
 40
1.0
 40
1.0
 40
1.0
 10
138.1238221738
 20
333.8013151271
 30
0.0
 10
138.2762314314
 20
334.1407134576
 30
0.0
 10
138.6475482189
 20
334.7680168465
 30
0.0
 10
139.1842301921
 20
335.2664337241
 30
0.0
 10
139.4731646351
 20
335.4600924476
 30
0.0
  0
SPLINE
  5
53F
100
AcDbEntity
  8
00_COMPONENTS
100
AcDbSpline
 62
7
  6
CONTINUOUS
 70
0
 71
3
 72
11
 73
7
 74
0
 42
0.0000001
 43
0.0000001
 44
0.0000000001
 40
0.0
 40
0.0
 40
0.0
 40
0.0
 40
0.2897016594
 40
0.5490895814
 40
0.7822189142
 40
1.0
 40
1.0
 40
1.0
 40
1.0
 10
129.8129060216
 20
325.692824081
 30
0.0
 10
129.8129060216
 20
326.1488357745
 30
0.0
 10
129.8820436158
 20
327.0160778201
 30
0.0
 10
130.2332478667
 20
328.2076317285
 30
0.0
 10
130.824602269
 20
329.1745095028
 30
0.0
 10
131.3800650798
 20
329.6414476187
 30
0.0
 10
131.676929047
 20
329.8128709976
 30
0.0
  0
SPLINE
  5
540
100
AcDbEntity
  8
00_COMPONENTS
100
AcDbSpline
 62
7
  6
CONTINUOUS
 70
0
 71
3
 72
9
 73
5
 74
0
 42
0.0000001
 43
0.0000001
 44
0.0000000001
 40
0.0
 40
0.0
 40
0.0
 40
0.0
 40
0.2817628316
 40
1.0
 40
1.0
 40
1.0
 40
1.0
 10
197.2537987562
 20
208.2020646908
 30
0.0
 10
197.2537987562
 20
208.3563502754
 30
0.0
 10
197.2844984279
 20
208.900764275
 30
0.0
 10
197.4637133911
 20
209.456071581
 30
0.0
 10
197.7071822045
 20
209.7649365237
 30
0.0
  0
SPLINE
  5
541
100
AcDbEntity
  8
00_COMPONENTS
100
AcDbSpline
 62
7
  6
CONTINUOUS
 70
0
 71
3
 72
9
 73
5
 74
0
 42
0.0000001
 43
0.0000001
 44
0.0000000001
 40
0.0
 40
0.0
 40
0.0
 40
0.0
 40
0.255863866
 40
1.0
 40
1.0
 40
1.0
 40
1.0
 10
197.7071822045
 20
209.7649365237
 30
0.0
 10
197.7367023515
 20
209.8023858315
 30
0.0
 10
197.8584142479
 20
209.9436062685
 30
0.0
 10
198.0067481674
 20
210.0621573745
 30
0.0
 10
198.12681671
 20
210.131561656
 30
0.0
  0
SPLINE
  5
542
100
AcDbEntity
  8
00_COMPONENTS
100
AcDbSpline
 62
7
  6
CONTINUOUS
 70
0
 71
3
 72
11
 73
7
 74
0
 42
0.0000001
 43
0.0000001
 44
0.0000000001
 40
0.0
 40
0.0
 40
0.0
 40
0.0
 40
0.2472240044
 40
0.5098912547
 40
0.7672787411
 40
1.0
 40
1.0
 40
1.0
 40
1.0
 10
199.7162214762
 20
203.3912439664
 30
0.0
 10
199.3552916583
 20
203.6731815016
 30
0.0
 10
198.6871673819
 20
204.3547143556
 30
0.0
 10
197.9135495847
 20
205.5573723606
 30
0.0
 10
197.3973468927
 20
206.8621086272
 30
0.0
 10
197.2537987562
 20
207.7709370836
 30
0.0
 10
197.2537987562
 20
208.2020646908
 30
0.0
  0
SPLINE
  5
543
100
AcDbEntity
  8
00_COMPONENTS
100
AcDbSpline
 62
7
  6
CONTINUOUS
 70
0
 71
3
 72
14
 73
10
 74
0
 42
0.0000001
 43
0.0000001
 44
0.0000000001
 40
0.0
 40
0.0
 40
0.0
 40
0.0
 40
0.2895067499
 40
0.4365230165
 40
0.576421192
 40
0.7039839009
 40
0.8160630593
 40
0.9129735169
 40
1.0
 40
1.0
 40
1.0
 40
1.0
 10
154.1050892599
 20
280.0711798128
 30
0.0
 10
153.8644680717
 20
281.0805200144
 30
0.0
 10
153.2343920198
 20
282.5482249663
 30
0.0
 10
152.038035567
 20
284.2374022095
 30
0.0
 10
150.9992145574
 20
285.3093725449
 30
0.0
 10
149.8894938421
 20
286.1105069208
 30
0.0
 10
148.7695519055
 20
286.5914707271
 30
0.0
 10
147.6952932651
 20
286.713814348
 30
0.0
 10
147.0402040068
 20
286.5181160137
 30
0.0
 10
146.7701411177
 20
286.3620529902
 30
0.0
  0
SPLINE
  5
544
100
AcDbEntity
  8
00_COMPONENTS
100
AcDbSpline
 62
7
  6
CONTINUOUS
 70
0
 71
3
 72
11
 73
7
 74
0
 42
0.0000001
 43
0.0000001
 44
0.0000000001
 40
0.0
 40
0.0
 40
0.0
 40
0.0
 40
0.2897757213
 40
0.5490696528
 40
0.7822276822
 40
1.0
 40
1.0
 40
1.0
 40
1.0
 10
190.2706903708
 20
315.6912743978
 30
0.0
 10
189.6562258803
 20
316.0460276112
 30
0.0
 10
188.4342982518
 20
316.6276193758
 30
0.0
 10
186.5558651532
 20
317.0808249966
 30
0.0
 10
184.7936157784
 20
317.0363845618
 30
0.0
 10
183.7325473905
 20
316.6511437129
 30
0.0
 10
183.2707689689
 20
316.3845324352
 30
0.0
  0
SPLINE
  5
545
100
AcDbEntity
  8
00_COMPONENTS
100
AcDbSpline
 62
7
  6
CONTINUOUS
 70
0
 71
3
 72
11
 73
7
 74
0
 42
0.0000001
 43
0.0000001
 44
0.0000000001
 40
0.0
 40
0.0
 40
0.0
 40
0.0
 40
0.2934809892
 40
0.5541861797
 40
0.7858895498
 40
1.0
 40
1.0
 40
1.0
 40
1.0
 10
178.9793246223
 20
308.3793394354
 30
0.0
 10
178.9345851145
 20
309.1725417414
 30
0.0
 10
178.9710420827
 20
310.6825802602
 30
0.0
 10
179.4735744308
 20
312.7703333529
 30
0.0
 10
180.4193122373
 20
314.4663880552
 30
0.0
 10
181.3546200513
 20
315.2782232919
 30
0.0
 10
181.8565653642
 20
315.5680370788
 30
0.0
  0
SPLINE
  5
546
100
AcDbEntity
  8
00_COMPONENTS
100
AcDbSpline
 62
7
  6
CONTINUOUS
 70
0
 71
3
 72
9
 73
5
 74
0
 42
0.0000001
 43
0.0000001
 44
0.0000000001
 40
0.0
 40
0.0
 40
0.0
 40
0.0
 40
0.5168198508
 40
1.0
 40
1.0
 40
1.0
 40
1.0
 10
180.5504056826
 20
309.3068698559
 30
0.0
 10
180.7028149403
 20
309.6462681864
 30
0.0
 10
181.0741317277
 20
310.2735715752
 30
0.0
 10
181.6108137009
 20
310.7719884529
 30
0.0
 10
181.8997481439
 20
310.9656471764
 30
0.0
  0
SPLINE
  5
547
100
AcDbEntity
  8
00_COMPONENTS
100
AcDbSpline
 62
7
  6
CONTINUOUS
 70
0
 71
3
 72
11
 73
7
 74
0
 42
0.0000001
 43
0.0000001
 44
0.0000000001
 40
0.0
 40
0.0
 40
0.0
 40
0.0
 40
0.2897016594
 40
0.5490895814
 40
0.7822189142
 40
1.0
 40
1.0
 40
1.0
 40
1.0
 10
172.2394895305
 20
301.1983788098
 30
0.0
 10
172.2394895305
 20
301.6543905033
 30
0.0
 10
172.3086271246
 20
302.5216325489
 30
0.0
 10
172.6598313755
 20
303.7131864573
 30
0.0
 10
173.2511857778
 20
304.6800642316
 30
0.0
 10
173.8066485886
 20
305.1470023475
 30
0.0
 10
174.1035125558
 20
305.3184257264
 30
0.0
  0
SPLINE
  5
548
100
AcDbEntity
  8
00_COMPONENTS
100
AcDbSpline
 62
7
  6
CONTINUOUS
 70
0
 71
3
 72
9
 73
5
 74
0
 42
0.0000001
 43
0.0000001
 44
0.0000000001
 40
0.0
 40
0.0
 40
0.0
 40
0.0
 40
0.2817345892
 40
1.0
 40
1.0
 40
1.0
 40
1.0
 10
81.2878038321
 20
275.1535484321
 30
0.0
 10
81.2878038321
 20
275.3077124727
 30
0.0
 10
81.3184630439
 20
275.851759921
 30
0.0
 10
81.4973742699
 20
276.4066586402
 30
0.0
 10
81.7404620444
 20
276.7154991424
 30
0.0
  0
SPLINE
  5
549
100
AcDbEntity
  8
00_COMPONENTS
100
AcDbSpline
 62
7
  6
CONTINUOUS
 70
0
 71
3
 72
9
 73
5
 74
0
 42
0.0000001
 43
0.0000001
 44
0.0000000001
 40
0.0
 40
0.0
 40
0.0
 40
0.0
 40
0.2558867558
 40
1.0
 40
1.0
 40
1.0
 40
1.0
 10
81.7404620444
 20
276.7154991424
 30
0.0
 10
81.7700191296
 20
276.7530511133
 30
0.0
 10
81.8918916354
 20
276.8946452704
 30
0.0
 10
82.0405065047
 20
277.0134998321
 30
0.0
 10
82.1608212447
 20
277.0830463271
 30
0.0
  0
SPLINE
  5
54A
100
AcDbEntity
  8
00_COMPONENTS
100
AcDbSpline
 62
7
  6
CONTINUOUS
 70
0
 71
3
 72
9
 73
5
 74
0
 42
0.0000001
 43
0.0000001
 44
0.0000000001
 40
0.0
 40
0.0
 40
0.0
 40
0.0
 40
0.2672584041
 40
1.0
 40
1.0
 40
1.0
 40
1.0
 10
81.8624856168
 20
272.7903602231
 30
0.0
 10
81.7709354011
 20
272.9876993099
 30
0.0
 10
81.4630265798
 20
273.7403351983
 30
0.0
 10
81.2878038321
 20
274.5571164554
 30
0.0
 10
81.2878038321
 20
275.1535484321
 30
0.0
  0
SPLINE
  5
54B
100
AcDbEntity
  8
00_COMPONENTS
100
AcDbSpline
 62
7
  6
CONTINUOUS
 70
0
 71
3
 72
14
 73
10
 74
0
 42
0.0000001
 43
0.0000001
 44
0.0000000001
 40
0.0
 40
0.0
 40
0.0
 40
0.0
 40
0.2895067499
 40
0.4365230165
 40
0.576421192
 40
0.7039839009
 40
0.8160630593
 40
0.9129735169
 40
1.0
 40
1.0
 40
1.0
 40
1.0
 10
196.5316727687
 20
255.5767345415
 30
0.0
 10
196.2910515805
 20
256.5860747432
 30
0.0
 10
195.6609755286
 20
258.0537796951
 30
0.0
 10
194.4646190758
 20
259.7429569383
 30
0.0
 10
193.4257980663
 20
260.8149272737
 30
0.0
 10
192.3160773509
 20
261.6160616496
 30
0.0
 10
191.1961354143
 20
262.0970254558
 30
0.0
 10
190.1218767739
 20
262.2193690768
 30
0.0
 10
189.4667875156
 20
262.0236707425
 30
0.0
 10
189.1967246265
 20
261.867607719
 30
0.0
  0
SPLINE
  5
54C
100
AcDbEntity
  8
00_COMPONENTS
100
AcDbSpline
 62
7
  6
CONTINUOUS
 70
0
 71
3
 72
11
 73
7
 74
0
 42
0.0000001
 43
0.0000001
 44
0.0000000001
 40
0.0
 40
0.0
 40
0.0
 40
0.0
 40
0.2897757213
 40
0.5490696528
 40
0.7822276822
 40
1.0
 40
1.0
 40
1.0
 40
1.0
 10
232.6972738796
 20
291.1968291266
 30
0.0
 10
232.0828093891
 20
291.55158234
 30
0.0
 10
230.8608817606
 20
292.1331741046
 30
0.0
 10
228.982448662
 20
292.5863797254
 30
0.0
 10
227.2201992873
 20
292.5419392906
 30
0.0
 10
226.1591308993
 20
292.1566984417
 30
0.0
 10
225.6973524777
 20
291.890087164
 30
0.0
  0
SPLINE
  5
54D
100
AcDbEntity
  8
00_COMPONENTS
100
AcDbSpline
 62
7
  6
CONTINUOUS
 70
0
 71
3
 72
11
 73
7
 74
0
 42
0.0000001
 43
0.0000001
 44
0.0000000001
 40
0.0
 40
0.0
 40
0.0
 40
0.0
 40
0.2934809892
 40
0.5541861797
 40
0.7858895498
 40
1.0
 40
1.0
 40
1.0
 40
1.0
 10
221.4059081311
 20
283.8848941642
 30
0.0
 10
221.3611686233
 20
284.6780964702
 30
0.0
 10
221.3976255916
 20
286.188134989
 30
0.0
 10
221.9001579396
 20
288.2758880817
 30
0.0
 10
222.8458957461
 20
289.971942784
 30
0.0
 10
223.7812035602
 20
290.7837780206
 30
0.0
 10
224.283148873
 20
291.0735918076
 30
0.0
  0
SPLINE
  5
54E
100
AcDbEntity
  8
00_COMPONENTS
100
AcDbSpline
 62
7
  6
CONTINUOUS
 70
0
 71
3
 72
9
 73
5
 74
0
 42
0.0000001
 43
0.0000001
 44
0.0000000001
 40
0.0
 40
0.0
 40
0.0
 40
0.0
 40
0.5168198508
 40
1.0
 40
1.0
 40
1.0
 40
1.0
 10
222.9769891915
 20
284.8124245847
 30
0.0
 10
223.1293984491
 20
285.1518229152
 30
0.0
 10
223.5007152365
 20
285.779126304
 30
0.0
 10
224.0373972097
 20
286.2775431816
 30
0.0
 10
224.3263316527
 20
286.4712019052
 30
0.0
  0
SPLINE
  5
54F
100
AcDbEntity
  8
00_COMPONENTS
100
AcDbSpline
 62
7
  6
CONTINUOUS
 70
0
 71
3
 72
11
 73
7
 74
0
 42
0.0000001
 43
0.0000001
 44
0.0000000001
 40
0.0
 40
0.0
 40
0.0
 40
0.0
 40
0.2897016594
 40
0.5490895814
 40
0.7822189142
 40
1.0
 40
1.0
 40
1.0
 40
1.0
 10
214.6660730393
 20
276.7039335386
 30
0.0
 10
214.6660730393
 20
277.1599452321
 30
0.0
 10
214.7352106334
 20
278.0271872777
 30
0.0
 10
215.0864148843
 20
279.218741186
 30
0.0
 10
215.6777692867
 20
280.1856189604
 30
0.0
 10
216.2332320974
 20
280.6525570763
 30
0.0
 10
216.5300960647
 20
280.8239804552
 30
0.0
  0
SPLINE
  5
550
100
AcDbEntity
  8
00_COMPONENTS
100
AcDbSpline
 62
7
  6
CONTINUOUS
 70
0
 71
3
 72
9
 73
5
 74
0
 42
0.0000001
 43
0.0000001
 44
0.0000000001
 40
0.0
 40
0.0
 40
0.0
 40
0.0
 40
0.5188854277
 40
1.0
 40
1.0
 40
1.0
 40
1.0
 10
117.2980989439
 20
224.4887383959
 30
0.0
 10
116.3722560506
 20
221.3483608242
 30
0.0
 10
114.9489850423
 20
215.1817313467
 30
0.0
 10
114.3983455989
 20
208.8670141799
 30
0.0
 10
114.3983455989
 20
205.8313247387
 30
0.0
  0
SPLINE
  5
551
100
AcDbEntity
  8
00_COMPONENTS
100
AcDbSpline
 62
7
  6
CONTINUOUS
 70
0
 71
3
 72
9
 73
5
 74
0
 42
0.0000001
 43
0.0000001
 44
0.0000000001
 40
0.0
 40
0.0
 40
0.0
 40
0.0
 40
0.2611530219
 40
1.0
 40
1.0
 40
1.0
 40
1.0
 10
139.7553382041
 20
204.7865795554
 30
0.0
 10
139.4932799522
 20
203.6022808444
 30
0.0
 10
138.5989166135
 20
199.0449603559
 30
0.0
 10
138.1524823698
 20
194.3919582241
 30
0.0
 10
138.1524823698
 20
190.9603246567
 30
0.0
  0
SPLINE
  5
552
100
AcDbEntity
  8
00_COMPONENTS
100
AcDbSpline
 62
7
  6
CONTINUOUS
 70
0
 71
3
 72
9
 73
5
 74
0
 42
0.0000001
 43
0.0000001
 44
0.0000000001
 40
0.0
 40
0.0
 40
0.0
 40
0.0
 40
0.7463418244
 40
1.0
 40
1.0
 40
1.0
 40
1.0
 10
68.9648393482
 20
139.0602879502
 30
0.0
 10
68.8275566181
 20
139.0207199785
 30
0.0
 10
68.6398594302
 20
138.9797063672
 30
0.0
 10
68.4501239075
 20
138.9542027359
 30
0.0
 10
68.4018795165
 20
138.9486979375
 30
0.0
  0
SPLINE
  5
553
100
AcDbEntity
  8
00_COMPONENTS
100
AcDbSpline
 62
7
  6
CONTINUOUS
 70
0
 71
3
 72
14
 73
10
 74
0
 42
0.0000001
 43
0.0000001
 44
0.0000000001
 40
0.0
 40
0.0
 40
0.0
 40
0.0
 40
0.1994475485
 40
0.3229161317
 40
0.4581136146
 40
0.5996518553
 40
0.7412119897
 40
0.876462996
 40
1.0
 40
1.0
 40
1.0
 40
1.0
 10
68.3205148751
 20
138.9403354699
 30
0.0
 10
67.1967411378
 20
138.8374619395
 30
0.0
 10
65.3319666763
 20
139.4906691709
 30
0.0
 10
63.2663832235
 20
141.0395200467
 30
0.0
 10
61.7042039509
 20
142.7011342293
 30
0.0
 10
60.368319349
 20
144.6635493746
 30
0.0
 10
59.3349180523
 20
146.803751649
 30
0.0
 10
58.6743265884
 20
148.9798164307
 30
0.0
 10
58.5011292907
 20
150.4457050731
 30
0.0
 10
58.5011292907
 20
151.1446764235
 30
0.0
  0
SPLINE
  5
554
100
AcDbEntity
  8
00_COMPONENTS
100
AcDbSpline
 62
7
  6
CONTINUOUS
 70
0
 71
3
 72
11
 73
7
 74
0
 42
0.0000001
 43
0.0000001
 44
0.0000000001
 40
0.0
 40
0.0
 40
0.0
 40
0.0
 40
0.2401528821
 40
0.5029565013
 40
0.7641495046
 40
1.0
 40
1.0
 40
1.0
 40
1.0
 10
195.9192077791
 20
299.7615780141
 30
0.0
 10
195.87231028
 20
300.9023256159
 30
0.0
 10
195.3829013009
 20
303.2778292502
 30
0.0
 10
193.8510720363
 20
306.6000641837
 30
0.0
 10
191.6716765147
 20
309.5127969904
 30
0.0
 10
189.8275254226
 20
311.0481573251
 30
0.0
 10
188.8564826964
 20
311.6087764215
 30
0.0
  0
SPLINE
  5
555
100
AcDbEntity
  8
00_COMPONENTS
100
AcDbSpline
 62
7
  6
CONTINUOUS
 70
0
 71
3
 72
8
 73
4
 74
0
 42
0.0000001
 43
0.0000001
 44
0.0000000001
 40
0.0
 40
0.0
 40
0.0
 40
0.0
 40
1.0
 40
1.0
 40
1.0
 40
1.0
 10
81.9547400796
 20
277.2930213686
 30
0.0
 10
81.84230128
 20
277.2281109564
 30
0.0
 10
81.7376044052
 20
277.147835636
 30
0.0
 10
81.6451301365
 20
277.0567074027
 30
0.0
  0
SPLINE
  5
556
100
AcDbEntity
  8
00_COMPONENTS
100
AcDbSpline
 62
7
  6
CONTINUOUS
 70
0
 71
3
 72
9
 73
5
 74
0
 42
0.0000001
 43
0.0000001
 44
0.0000000001
 40
0.0
 40
0.0
 40
0.0
 40
0.0
 40
0.455848626
 40
1.0
 40
1.0
 40
1.0
 40
1.0
 10
81.6451301365
 20
277.0567074027
 30
0.0
 10
81.4325203252
 20
276.8471922941
 30
0.0
 10
81.0997705599
 20
276.2511032335
 30
0.0
 10
81.0226382151
 20
275.5894722381
 30
0.0
 10
81.0226382151
 20
275.2331550733
 30
0.0
  0
SPLINE
  5
557
100
AcDbEntity
  8
00_COMPONENTS
100
AcDbSpline
 62
7
  6
CONTINUOUS
 70
0
 71
3
 72
9
 73
5
 74
0
 42
0.0000001
 43
0.0000001
 44
0.0000000001
 40
0.0
 40
0.0
 40
0.0
 40
0.0
 40
0.2746710385
 40
1.0
 40
1.0
 40
1.0
 40
1.0
 10
100.9277127995
 20
126.6502311523
 30
0.0
 10
100.9277127995
 20
126.922772992
 30
0.0
 10
100.9738562644
 20
127.9121661105
 30
0.0
 10
101.2243493322
 20
128.9088695795
 30
0.0
 10
101.5686918169
 20
129.5408549261
 30
0.0
  0
SPLINE
  5
558
100
AcDbEntity
  8
00_COMPONENTS
100
AcDbSpline
 62
7
  6
CONTINUOUS
 70
0
 71
3
 72
15
 73
11
 74
0
 42
0.0000001
 43
0.0000001
 44
0.0000000001
 40
0.0
 40
0.0
 40
0.0
 40
0.0
 40
0.1288285297
 40
0.2705731043
 40
0.4178848725
 40
0.5623830488
 40
0.6962002801
 40
0.8135916328
 40
0.9130641676
 40
1.0
 40
1.0
 40
1.0
 40
1.0
 10
103.0490419749
 20
125.4255088887
 30
0.0
 10
103.0490419749
 20
124.8912906989
 30
0.0
 10
103.1985033346
 20
123.7680119637
 30
0.0
 10
103.7562715701
 20
122.1187508481
 30
0.0
 10
104.6159278792
 20
120.5299119423
 30
0.0
 10
105.7077677373
 20
119.1321836334
 30
0.0
 10
106.9445183552
 20
118.0370168424
 30
0.0
 10
108.2343416222
 20
117.3324695876
 30
0.0
 10
109.4968034002
 20
117.0796484388
 30
0.0
 10
110.2812667869
 20
117.281077286
 30
0.0
 10
110.5933979053
 20
117.4614505547
 30
0.0
  0
SPLINE
  5
559
100
AcDbEntity
  8
00_COMPONENTS
100
AcDbSpline
 62
7
  6
CONTINUOUS
 70
0
 71
3
 72
11
 73
7
 74
0
 42
0.0000001
 43
0.0000001
 44
0.0000000001
 40
0.0
 40
0.0
 40
0.0
 40
0.0
 40
0.2177849011
 40
0.4509184398
 40
0.7103088704
 40
1.0
 40
1.0
 40
1.0
 40
1.0
 10
97.2356013621
 20
360.0722594907
 30
0.0
 10
97.5654873101
 20
360.2626579846
 30
0.0
 10
98.3233596218
 20
360.5377830972
 30
0.0
 10
99.5822623354
 20
360.5696301061
 30
0.0
 10
100.9239027205
 20
360.2456251581
 30
0.0
 10
101.7967842014
 20
359.830375914
 30
0.0
 10
102.2355560857
 20
359.5770565793
 30
0.0
  0
SPLINE
  5
55A
100
AcDbEntity
  8
00_COMPONENTS
100
AcDbSpline
 62
7
  6
CONTINUOUS
 70
0
 71
3
 72
11
 73
7
 74
0
 42
0.0000001
 43
0.0000001
 44
0.0000000001
 40
0.0
 40
0.0
 40
0.0
 40
0.0
 40
0.2177660095
 40
0.4508968553
 40
0.7103699668
 40
1.0
 40
1.0
 40
1.0
 40
1.0
 10
61.9169741001
 20
335.3509435327
 30
0.0
 10
61.7108722896
 20
335.2318421197
 30
0.0
 10
61.3249358029
 20
334.9078789049
 30
0.0
 10
60.9143374784
 20
334.2362275954
 30
0.0
 10
60.6705830164
 20
333.4087431828
 30
0.0
 10
60.6224584661
 20
332.8064893572
 30
0.0
 10
60.6224584661
 20
332.4898946301
 30
0.0
  0
SPLINE
  5
55B
100
AcDbEntity
  8
00_COMPONENTS
100
AcDbSpline
 62
7
  6
CONTINUOUS
 70
0
 71
3
 72
9
 73
5
 74
0
 42
0.0000001
 43
0.0000001
 44
0.0000000001
 40
0.0
 40
0.0
 40
0.0
 40
0.0
 40
0.2476504
 40
1.0
 40
1.0
 40
1.0
 40
1.0
 10
181.8565653642
 20
315.5680370788
 30
0.0
 10
181.9674071404
 20
315.6320350365
 30
0.0
 10
182.4254029113
 20
315.8721606995
 30
0.0
 10
182.9231042592
 20
316.0349463433
 30
0.0
 10
183.3040256736
 20
316.1129677285
 30
0.0
  0
SPLINE
  5
55C
100
AcDbEntity
  8
00_COMPONENTS
100
AcDbSpline
 62
7
  6
CONTINUOUS
 70
0
 71
3
 72
10
 73
6
 74
0
 42
0.0000001
 43
0.0000001
 44
0.0000000001
 40
0.0
 40
0.0
 40
0.0
 40
0.0
 40
0.4574830301
 40
0.717606743
 40
1.0
 40
1.0
 40
1.0
 40
1.0
 10
183.3040256736
 20
316.1129677285
 30
0.0
 10
184.1690716932
 20
316.290148864
 30
0.0
 10
185.6052060707
 20
316.2123664138
 30
0.0
 10
187.442179481
 20
315.6155831762
 30
0.0
 10
188.3844462116
 20
315.1473103163
 30
0.0
 10
188.8564826964
 20
314.8747860901
 30
0.0
  0
SPLINE
  5
55D
100
AcDbEntity
  8
00_COMPONENTS
100
AcDbSpline
 62
7
  6
CONTINUOUS
 70
0
 71
3
 72
9
 73
5
 74
0
 42
0.0000001
 43
0.0000001
 44
0.0000000001
 40
0.0
 40
0.0
 40
0.0
 40
0.0
 40
0.4997671378
 40
1.0
 40
1.0
 40
1.0
 40
1.0
 10
115.2820696596
 20
287.0524307582
 30
0.0
 10
115.2820696596
 20
286.7502780563
 30
0.0
 10
115.4882188794
 20
286.1532879186
 30
0.0
 10
115.9010970176
 20
285.6756321342
 30
0.0
 10
116.1625012063
 20
285.5235323661
 30
0.0
  0
SPLINE
  5
55E
100
AcDbEntity
  8
00_COMPONENTS
100
AcDbSpline
 62
7
  6
CONTINUOUS
 70
0
 71
3
 72
9
 73
5
 74
0
 42
0.0000001
 43
0.0000001
 44
0.0000000001
 40
0.0
 40
0.0
 40
0.0
 40
0.0
 40
0.5510840199
 40
1.0
 40
1.0
 40
1.0
 40
1.0
 10
116.1625012063
 20
285.5235323661
 30
0.0
 10
116.2663549898
 20
285.4631043506
 30
0.0
 10
116.4738891426
 20
285.3760033014
 30
0.0
 10
116.7061561448
 20
285.4107132459
 30
0.0
 10
116.790943829
 20
285.4596139768
 30
0.0
  0
SPLINE
  5
55F
100
AcDbEntity
  8
00_COMPONENTS
100
AcDbSpline
 62
7
  6
CONTINUOUS
 70
0
 71
3
 72
10
 73
6
 74
0
 42
0.0000001
 43
0.0000001
 44
0.0000000001
 40
0.0
 40
0.0
 40
0.0
 40
0.0
 40
0.2211146094
 40
0.4560555392
 40
1.0
 40
1.0
 40
1.0
 40
1.0
 10
144.2232697819
 20
140.73014807
 30
0.0
 10
144.130717229
 20
140.7835821521
 30
0.0
 10
143.9567643264
 20
140.9260233158
 30
0.0
 10
143.6893601466
 20
141.3353488292
 30
0.0
 10
143.6162821476
 20
141.7201761108
 30
0.0
 10
143.6045181579
 20
141.9828139586
 30
0.0
  0
SPLINE
  5
560
100
AcDbEntity
  8
00_COMPONENTS
100
AcDbSpline
 62
7
  6
CONTINUOUS
 70
0
 71
3
 72
11
 73
7
 74
0
 42
0.0000001
 43
0.0000001
 44
0.0000000001
 40
0.0
 40
0.0
 40
0.0
 40
0.0
 40
0.2177434119
 40
0.4508805377
 40
0.710457812
 40
1.0
 40
1.0
 40
1.0
 40
1.0
 10
100.720046579
 20
341.7777283452
 30
0.0
 10
100.7200465317
 20
341.9300522385
 30
0.0
 10
100.6641097426
 20
342.2476333061
 30
0.0
 10
100.4231977078
 20
342.69019532
 30
0.0
 10
100.0424224583
 20
343.0899413267
 30
0.0
 10
99.7241012322
 20
343.3094310716
 30
0.0
 10
99.5486857397
 20
343.4107049623
 30
0.0
  0
SPLINE
  5
561
100
AcDbEntity
  8
00_COMPONENTS
100
AcDbSpline
 62
7
  6
CONTINUOUS
 70
0
 71
3
 72
8
 73
4
 74
0
 42
0.0000001
 43
0.0000001
 44
0.0000000001
 40
0.0
 40
0.0
 40
0.0
 40
0.0
 40
1.0
 40
1.0
 40
1.0
 40
1.0
 10
206.1631227804
 20
72.7292724034
 30
0.0
 10
206.2047607225
 20
72.7137281826
 30
0.0
 10
206.2491007303
 20
72.7044287155
 30
0.0
 10
206.2934062117
 20
72.7009122778
 30
0.0
  0
SPLINE
  5
562
100
AcDbEntity
  8
00_COMPONENTS
100
AcDbSpline
 62
7
  6
CONTINUOUS
 70
0
 71
3
 72
9
 73
5
 74
0
 42
0.0000001
 43
0.0000001
 44
0.0000000001
 40
0.0
 40
0.0
 40
0.0
 40
0.0
 40
0.2254718586
 40
1.0
 40
1.0
 40
1.0
 40
1.0
 10
153.0164523835
 20
272.5102878321
 30
0.0
 10
152.7708957677
 20
272.4980752003
 30
0.0
 10
151.6760127307
 20
272.54874907
 30
0.0
 10
150.6264799313
 20
272.9745768032
 30
0.0
 10
149.8950612659
 20
273.3968520135
 30
0.0
  0
SPLINE
  5
563
100
AcDbEntity
  8
00_COMPONENTS
100
AcDbSpline
 62
7
  6
CONTINUOUS
 70
0
 71
3
 72
11
 73
7
 74
0
 42
0.0000001
 43
0.0000001
 44
0.0000000001
 40
0.0
 40
0.0
 40
0.0
 40
0.0
 40
0.2177660095
 40
0.4508968553
 40
0.7103699668
 40
1.0
 40
1.0
 40
1.0
 40
1.0
 10
146.7701411177
 20
286.3620529902
 30
0.0
 10
146.5640393072
 20
286.2429515772
 30
0.0
 10
146.1781028205
 20
285.9189883624
 30
0.0
 10
145.767504496
 20
285.247337053
 30
0.0
 10
145.5237500341
 20
284.4198526404
 30
0.0
 10
145.4756254837
 20
283.8175988148
 30
0.0
 10
145.4756254837
 20
283.5010040877
 30
0.0
  0
SPLINE
  5
564
100
AcDbEntity
  8
00_COMPONENTS
100
AcDbSpline
 62
7
  6
CONTINUOUS
 70
0
 71
3
 72
11
 73
7
 74
0
 42
0.0000001
 43
0.0000001
 44
0.0000000001
 40
0.0
 40
0.0
 40
0.0
 40
0.0
 40
0.2177434119
 40
0.4508805377
 40
0.710457812
 40
1.0
 40
1.0
 40
1.0
 40
1.0
 10
185.5732135967
 20
292.7888378028
 30
0.0
 10
185.5732135494
 20
292.941161696
 30
0.0
 10
185.5172767603
 20
293.2587427637
 30
0.0
 10
185.2763647254
 20
293.7013047776
 30
0.0
 10
184.8955894759
 20
294.1010507843
 30
0.0
 10
184.5772682499
 20
294.3205405292
 30
0.0
 10
184.4018527573
 20
294.4218144199
 30
0.0
  0
SPLINE
  5
565
100
AcDbEntity
  8
00_COMPONENTS
100
AcDbSpline
 62
7
  6
CONTINUOUS
 70
0
 71
3
 72
9
 73
5
 74
0
 42
0.0000001
 43
0.0000001
 44
0.0000000001
 40
0.0
 40
0.0
 40
0.0
 40
0.0
 40
0.2320134895
 40
1.0
 40
1.0
 40
1.0
 40
1.0
 10
81.0243061069
 20
275.1140627761
 30
0.0
 10
81.02975077
 20
274.917882312
 30
0.0
 10
81.1091450401
 20
274.0740968485
 30
0.0
 10
81.3792908179
 20
273.2544961112
 30
0.0
 10
81.6563534106
 20
272.6669162607
 30
0.0
  0
SPLINE
  5
566
100
AcDbEntity
  8
00_COMPONENTS
100
AcDbSpline
 62
7
  6
CONTINUOUS
 70
0
 71
3
 72
11
 73
7
 74
0
 42
0.0000001
 43
0.0000001
 44
0.0000000001
 40
0.0
 40
0.0
 40
0.0
 40
0.0
 40
0.2176907916
 40
0.4508868986
 40
0.7106214304
 40
1.0
 40
1.0
 40
1.0
 40
1.0
 10
129.2531544034
 20
292.370307865
 30
0.0
 10
129.1508978206
 20
292.3113735284
 30
0.0
 10
128.959560199
 20
292.1505753687
 30
0.0
 10
128.7556591424
 20
291.8174430376
 30
0.0
 10
128.635158178
 20
291.4068431345
 30
0.0
 10
128.6110408752
 20
291.1081772859
 30
0.0
 10
128.6110408752
 20
290.9512867888
 30
0.0
  0
SPLINE
  5
567
100
AcDbEntity
  8
00_COMPONENTS
100
AcDbSpline
 62
7
  6
CONTINUOUS
 70
0
 71
3
 72
11
 73
7
 74
0
 42
0.0000001
 43
0.0000001
 44
0.0000000001
 40
0.0
 40
0.0
 40
0.0
 40
0.0
 40
0.2177660095
 40
0.4508968553
 40
0.7103699668
 40
1.0
 40
1.0
 40
1.0
 40
1.0
 10
157.9150685764
 20
327.6410758943
 30
0.0
 10
158.1129263144
 20
327.7554132508
 30
0.0
 10
158.4834253417
 20
328.066417937
 30
0.0
 10
158.8775997332
 20
328.7112031941
 30
0.0
 10
159.1116040167
 20
329.5055882302
 30
0.0
 10
159.157803585
 20
330.0837519028
 30
0.0
 10
159.157803585
 20
330.3876828408
 30
0.0
  0
SPLINE
  5
568
100
AcDbEntity
  8
00_COMPONENTS
100
AcDbSpline
 62
7
  6
CONTINUOUS
 70
0
 71
3
 72
11
 73
7
 74
0
 42
0.0000001
 43
0.0000001
 44
0.0000000001
 40
0.0
 40
0.0
 40
0.0
 40
0.0
 40
0.2401528821
 40
0.5029565013
 40
0.7641495046
 40
1.0
 40
1.0
 40
1.0
 40
1.0
 10
111.0660407615
 20
348.7504685565
 30
0.0
 10
111.0191432624
 20
349.8912161584
 30
0.0
 10
110.5297342832
 20
352.2667197927
 30
0.0
 10
108.9979050187
 20
355.5889547261
 30
0.0
 10
106.8185094971
 20
358.5016875329
 30
0.0
 10
104.9743584049
 20
360.0370478675
 30
0.0
 10
104.0033156787
 20
360.597666964
 30
0.0
  0
SPLINE
  5
569
100
AcDbEntity
  8
00_COMPONENTS
100
AcDbSpline
 62
7
  6
CONTINUOUS
 70
0
 71
3
 72
11
 73
7
 74
0
 42
0.0000001
 43
0.0000001
 44
0.0000000001
 40
0.0
 40
0.0
 40
0.0
 40
0.0
 40
0.2452607182
 40
0.5080142437
 40
0.7664464242
 40
1.0
 40
1.0
 40
1.0
 40
1.0
 10
87.7914007083
 20
309.6658195287
 30
0.0
 10
87.2585475742
 20
310.0591341664
 30
0.0
 10
86.2682884102
 20
311.0308818625
 30
0.0
 10
85.119531856
 20
312.7681597959
 30
0.0
 10
84.3493982255
 20
314.6692068493
 30
0.0
 10
84.1338391634
 20
315.998953049
 30
0.0
 10
84.1338391634
 20
316.6296302481
 30
0.0
  0
SPLINE
  5
56A
100
AcDbEntity
  8
00_COMPONENTS
100
AcDbSpline
 62
7
  6
CONTINUOUS
 70
0
 71
3
 72
11
 73
7
 74
0
 42
0.0000001
 43
0.0000001
 44
0.0000000001
 40
0.0
 40
0.0
 40
0.0
 40
0.0
 40
0.2452607182
 40
0.5080142437
 40
0.7664464242
 40
1.0
 40
1.0
 40
1.0
 40
1.0
 10
130.2179842171
 20
285.1713742574
 30
0.0
 10
129.685131083
 20
285.5646888952
 30
0.0
 10
128.694871919
 20
286.5364365913
 30
0.0
 10
127.5461153649
 20
288.2737145246
 30
0.0
 10
126.7759817343
 20
290.1747615781
 30
0.0
 10
126.5604226723
 20
291.5045077778
 30
0.0
 10
126.5604226723
 20
292.1351849769
 30
0.0
  0
SPLINE
  5
56B
100
AcDbEntity
  8
00_COMPONENTS
100
AcDbSpline
 62
7
  6
CONTINUOUS
 70
0
 71
3
 72
14
 73
10
 74
0
 42
0.0000001
 43
0.0000001
 44
0.0000000001
 40
0.0
 40
0.0
 40
0.0
 40
0.0
 40
0.0879622287
 40
0.1843256117
 40
0.2941220311
 40
0.4184640461
 40
0.5555223859
 40
0.7015535184
 40
1.0
 40
1.0
 40
1.0
 40
1.0
 10
131.676929047
 20
329.8128709976
 30
0.0
 10
132.0284269967
 20
330.0158426373
 30
0.0
 10
132.8622442486
 20
330.2868274642
 30
0.0
 10
134.2401730528
 20
330.206073204
 30
0.0
 10
135.6919202893
 20
329.6909857885
 30
0.0
 10
137.1548006887
 20
328.7805622948
 30
0.0
 10
138.5632645007
 20
327.5226814959
 30
0.0
 10
140.2844370487
 20
325.4564809893
 30
0.0
 10
141.2749987643
 20
323.6228565257
 30
0.0
 10
141.7561687204
 20
322.3325027545
 30
0.0
  0
SPLINE
  5
56C
100
AcDbEntity
  8
00_COMPONENTS
100
AcDbSpline
 62
7
  6
CONTINUOUS
 70
0
 71
3
 72
11
 73
7
 74
0
 42
0.0000001
 43
0.0000001
 44
0.0000000001
 40
0.0
 40
0.0
 40
0.0
 40
0.0
 40
0.2177660095
 40
0.4508968553
 40
0.7103699668
 40
1.0
 40
1.0
 40
1.0
 40
1.0
 10
242.768235594
 20
278.6521853519
 30
0.0
 10
242.9660933321
 20
278.7665227084
 30
0.0
 10
243.3365923593
 20
279.0775273946
 30
0.0
 10
243.7307667509
 20
279.7223126517
 30
0.0
 10
243.9647710343
 20
280.5166976877
 30
0.0
 10
244.0109706027
 20
281.0948613603
 30
0.0
 10
244.0109706027
 20
281.3987922984
 30
0.0
  0
SPLINE
  5
56D
100
AcDbEntity
  8
00_COMPONENTS
100
AcDbSpline
 62
7
  6
CONTINUOUS
 70
0
 71
3
 72
11
 73
7
 74
0
 42
0.0000001
 43
0.0000001
 44
0.0000000001
 40
0.0
 40
0.0
 40
0.0
 40
0.0
 40
0.2452607182
 40
0.5080142437
 40
0.7664464242
 40
1.0
 40
1.0
 40
1.0
 40
1.0
 10
172.6445677259
 20
260.6769289862
 30
0.0
 10
172.1117145918
 20
261.070243624
 30
0.0
 10
171.1214554278
 20
262.0419913201
 30
0.0
 10
169.9726988737
 20
263.7792692534
 30
0.0
 10
169.2025652431
 20
265.6803163068
 30
0.0
 10
168.9870061811
 20
267.0100625066
 30
0.0
 10
168.9870061811
 20
267.6407397057
 30
0.0
  0
SPLINE
  5
56E
100
AcDbEntity
  8
00_COMPONENTS
100
AcDbSpline
 62
7
  6
CONTINUOUS
 70
0
 71
3
 72
11
 73
7
 74
0
 42
0.0000001
 43
0.0000001
 44
0.0000000001
 40
0.0
 40
0.0
 40
0.0
 40
0.0
 40
0.2177849011
 40
0.4509184398
 40
0.7103088704
 40
1.0
 40
1.0
 40
1.0
 40
1.0
 10
139.6621848709
 20
335.5778142195
 30
0.0
 10
139.9920708189
 20
335.7682127133
 30
0.0
 10
140.7499431306
 20
336.043337826
 30
0.0
 10
142.0088458442
 20
336.0751848349
 30
0.0
 10
143.3504862293
 20
335.7511798869
 30
0.0
 10
144.2233677102
 20
335.3359306427
 30
0.0
 10
144.6621395945
 20
335.0826113081
 30
0.0
  0
SPLINE
  5
56F
100
AcDbEntity
  8
00_COMPONENTS
100
AcDbSpline
 62
7
  6
CONTINUOUS
 70
0
 71
3
 72
10
 73
6
 74
0
 42
0.0000001
 43
0.0000001
 44
0.0000000001
 40
0.0
 40
0.0
 40
0.0
 40
0.0
 40
0.2324735795
 40
0.4868670864
 40
1.0
 40
1.0
 40
1.0
 40
1.0
 10
196.990301031
 20
208.1625790348
 30
0.0
 10
197.0015326868
 20
207.7578833922
 30
0.0
 10
197.137943077
 20
206.9117892737
 30
0.0
 10
197.746039356
 20
205.2752284933
 30
0.0
 10
198.531457377
 20
204.1454112441
 30
0.0
 10
199.1771338759
 20
203.5276286834
 30
0.0
  0
SPLINE
  5
570
100
AcDbEntity
  8
00_COMPONENTS
100
AcDbSpline
 62
7
  6
CONTINUOUS
 70
0
 71
3
 72
9
 73
5
 74
0
 42
0.0000001
 43
0.0000001
 44
0.0000000001
 40
0.0
 40
0.0
 40
0.0
 40
0.0
 40
0.2547497578
 40
1.0
 40
1.0
 40
1.0
 40
1.0
 10
199.1771338759
 20
203.5276286834
 30
0.0
 10
199.2130960263
 20
203.4932201376
 30
0.0
 10
199.3558785532
 20
203.3598561825
 30
0.0
 10
199.5051491488
 20
203.2333992314
 30
0.0
 10
199.619947888
 20
203.1438361242
 30
0.0
  0
SPLINE
  5
571
100
AcDbEntity
  8
00_COMPONENTS
100
AcDbSpline
 62
7
  6
CONTINUOUS
 70
0
 71
3
 72
9
 73
5
 74
0
 42
0.0000001
 43
0.0000001
 44
0.0000000001
 40
0.0
 40
0.0
 40
0.0
 40
0.0
 40
0.2665892333
 40
1.0
 40
1.0
 40
1.0
 40
1.0
 10
199.619947888
 20
203.1438361242
 30
0.0
 10
199.7101411436
 20
203.0734696004
 30
0.0
 10
200.056522265
 20
202.8204595786
 30
0.0
 10
200.4383821683
 20
202.6126048918
 30
0.0
 10
200.7335477679
 20
202.503423367
 30
0.0
  0
SPLINE
  5
572
100
AcDbEntity
  8
00_COMPONENTS
100
AcDbSpline
 62
7
  6
CONTINUOUS
 70
0
 71
3
 72
9
 73
5
 74
0
 42
0.0000001
 43
0.0000001
 44
0.0000000001
 40
0.0
 40
0.0
 40
0.0
 40
0.0
 40
0.2572365717
 40
1.0
 40
1.0
 40
1.0
 40
1.0
 10
200.7335477679
 20
202.503423367
 30
0.0
 10
200.7675755002
 20
202.4908365354
 30
0.0
 10
200.9006716692
 20
202.4441627948
 30
0.0
 10
201.0371035772
 20
202.4067867284
 30
0.0
 10
201.1396652405
 20
202.385435513
 30
0.0
  0
SPLINE
  5
573
100
AcDbEntity
  8
00_COMPONENTS
100
AcDbSpline
 62
7
  6
CONTINUOUS
 70
0
 71
3
 72
9
 73
5
 74
0
 42
0.0000001
 43
0.0000001
 44
0.0000000001
 40
0.0
 40
0.0
 40
0.0
 40
0.0
 40
0.5236320144
 40
1.0
 40
1.0
 40
1.0
 40
1.0
 10
201.1396652405
 20
202.385435513
 30
0.0
 10
201.3575207736
 20
202.3400825005
 30
0.0
 10
201.7892829457
 20
202.3068766719
 30
0.0
 10
202.2084324544
 20
202.4318643428
 30
0.0
 10
202.3863263159
 20
202.5284871659
 30
0.0
  0
SPLINE
  5
574
100
AcDbEntity
  8
00_COMPONENTS
100
AcDbSpline
 62
7
  6
CONTINUOUS
 70
0
 71
3
 72
10
 73
6
 74
0
 42
0.0000001
 43
0.0000001
 44
0.0000000001
 40
0.0
 40
0.0
 40
0.0
 40
0.0
 40
0.2350351555
 40
0.4746819156
 40
1.0
 40
1.0
 40
1.0
 40
1.0
 10
42.3158724932
 20
332.9995474195
 30
0.0
 10
42.1982286487
 20
332.9316941892
 30
0.0
 10
41.9389945511
 20
332.8283148716
 30
0.0
 10
41.3561689639
 20
332.7804605357
 30
0.0
 10
40.9178328697
 20
332.9348236895
 30
0.0
 10
40.6548047949
 20
333.0863292234
 30
0.0
  0
SPLINE
  5
575
100
AcDbEntity
  8
00_COMPONENTS
100
AcDbSpline
 62
7
  6
CONTINUOUS
 70
0
 71
3
 72
11
 73
7
 74
0
 42
0.0000001
 43
0.0000001
 44
0.0000000001
 40
0.0
 40
0.0
 40
0.0
 40
0.0
 40
0.2401528821
 40
0.5029565013
 40
0.7641495046
 40
1.0
 40
1.0
 40
1.0
 40
1.0
 10
153.4926242703
 20
324.2560232853
 30
0.0
 10
153.4457267712
 20
325.3967708872
 30
0.0
 10
152.9563177921
 20
327.7722745214
 30
0.0
 10
151.4244885275
 20
331.0945094549
 30
0.0
 10
149.2450930059
 20
334.0072422616
 30
0.0
 10
147.4009419137
 20
335.5426025963
 30
0.0
 10
146.4298991876
 20
336.1032216928
 30
0.0
  0
SPLINE
  5
576
100
AcDbEntity
  8
00_COMPONENTS
100
AcDbSpline
 62
7
  6
CONTINUOUS
 70
0
 71
3
 72
9
 73
5
 74
0
 42
0.0000001
 43
0.0000001
 44
0.0000000001
 40
0.0
 40
0.0
 40
0.0
 40
0.0
 40
0.2746710385
 40
1.0
 40
1.0
 40
1.0
 40
1.0
 10
143.3542963083
 20
102.1557858811
 30
0.0
 10
143.3542963083
 20
102.4283277208
 30
0.0
 10
143.4004397733
 20
103.4177208393
 30
0.0
 10
143.650932841
 20
104.4144243083
 30
0.0
 10
143.9952753257
 20
105.0464096548
 30
0.0
  0
SPLINE
  5
577
100
AcDbEntity
  8
00_COMPONENTS
100
AcDbSpline
 62
7
  6
CONTINUOUS
 70
0
 71
3
 72
10
 73
6
 74
0
 42
0.0000001
 43
0.0000001
 44
0.0000000001
 40
0.0
 40
0.0
 40
0.0
 40
0.0
 40
0.2324735795
 40
0.4868670864
 40
1.0
 40
1.0
 40
1.0
 40
1.0
 10
196.990301031
 20
136.3103663274
 30
0.0
 10
197.0015326868
 20
135.9056706848
 30
0.0
 10
197.137943077
 20
135.0595765663
 30
0.0
 10
197.746039356
 20
133.4230157859
 30
0.0
 10
198.531457377
 20
132.2931985367
 30
0.0
 10
199.1771338759
 20
131.675415976
 30
0.0
  0
SPLINE
  5
578
100
AcDbEntity
  8
00_COMPONENTS
100
AcDbSpline
 62
7
  6
CONTINUOUS
 70
0
 71
3
 72
9
 73
5
 74
0
 42
0.0000001
 43
0.0000001
 44
0.0000000001
 40
0.0
 40
0.0
 40
0.0
 40
0.0
 40
0.2547497578
 40
1.0
 40
1.0
 40
1.0
 40
1.0
 10
199.1771338759
 20
131.675415976
 30
0.0
 10
199.2130960263
 20
131.6410074302
 30
0.0
 10
199.3558785532
 20
131.5076434751
 30
0.0
 10
199.5051491488
 20
131.381186524
 30
0.0
 10
199.619947888
 20
131.2916234168
 30
0.0
  0
SPLINE
  5
579
100
AcDbEntity
  8
00_COMPONENTS
100
AcDbSpline
 62
7
  6
CONTINUOUS
 70
0
 71
3
 72
9
 73
5
 74
0
 42
0.0000001
 43
0.0000001
 44
0.0000000001
 40
0.0
 40
0.0
 40
0.0
 40
0.0
 40
0.2665892333
 40
1.0
 40
1.0
 40
1.0
 40
1.0
 10
199.619947888
 20
131.2916234168
 30
0.0
 10
199.7101411436
 20
131.221256893
 30
0.0
 10
200.056522265
 20
130.9682468712
 30
0.0
 10
200.4383821683
 20
130.7603921844
 30
0.0
 10
200.7335477679
 20
130.6512106596
 30
0.0
  0
SPLINE
  5
57A
100
AcDbEntity
  8
00_COMPONENTS
100
AcDbSpline
 62
7
  6
CONTINUOUS
 70
0
 71
3
 72
9
 73
5
 74
0
 42
0.0000001
 43
0.0000001
 44
0.0000000001
 40
0.0
 40
0.0
 40
0.0
 40
0.0
 40
0.2572365717
 40
1.0
 40
1.0
 40
1.0
 40
1.0
 10
200.7335477679
 20
130.6512106596
 30
0.0
 10
200.7675755002
 20
130.638623828
 30
0.0
 10
200.9006716692
 20
130.5919500874
 30
0.0
 10
201.0371035772
 20
130.554574021
 30
0.0
 10
201.1396652405
 20
130.5332228056
 30
0.0
  0
SPLINE
  5
57B
100
AcDbEntity
  8
00_COMPONENTS
100
AcDbSpline
 62
7
  6
CONTINUOUS
 70
0
 71
3
 72
9
 73
5
 74
0
 42
0.0000001
 43
0.0000001
 44
0.0000000001
 40
0.0
 40
0.0
 40
0.0
 40
0.0
 40
0.5236320144
 40
1.0
 40
1.0
 40
1.0
 40
1.0
 10
201.1396652405
 20
130.5332228056
 30
0.0
 10
201.3575207736
 20
130.4878697931
 30
0.0
 10
201.7892829457
 20
130.4546639645
 30
0.0
 10
202.2084324544
 20
130.5796516354
 30
0.0
 10
202.3863263159
 20
130.6762744585
 30
0.0
  0
SPLINE
  5
57C
100
AcDbEntity
  8
00_COMPONENTS
100
AcDbSpline
 62
7
  6
CONTINUOUS
 70
0
 71
3
 72
15
 73
11
 74
0
 42
0.0000001
 43
0.0000001
 44
0.0000000001
 40
0.0
 40
0.0
 40
0.0
 40
0.0
 40
0.1288285297
 40
0.2705731043
 40
0.4178848725
 40
0.5623830488
 40
0.6962002801
 40
0.8135916328
 40
0.9130641676
 40
1.0
 40
1.0
 40
1.0
 40
1.0
 10
145.4756254837
 20
100.9310636175
 30
0.0
 10
145.4756254837
 20
100.3968454277
 30
0.0
 10
145.6250868434
 20
99.2735666925
 30
0.0
 10
146.1828550789
 20
97.6243055769
 30
0.0
 10
147.042511388
 20
96.0354666711
 30
0.0
 10
148.1343512461
 20
94.6377383622
 30
0.0
 10
149.371101864
 20
93.5425715712
 30
0.0
 10
150.660925131
 20
92.8380243164
 30
0.0
 10
151.9233869091
 20
92.5852031676
 30
0.0
 10
152.7078502957
 20
92.7866320147
 30
0.0
 10
153.0199814141
 20
92.9670052834
 30
0.0
  0
SPLINE
  5
57D
100
AcDbEntity
  8
00_COMPONENTS
100
AcDbSpline
 62
7
  6
CONTINUOUS
 70
0
 71
3
 72
9
 73
5
 74
0
 42
0.0000001
 43
0.0000001
 44
0.0000000001
 40
0.0
 40
0.0
 40
0.0
 40
0.0
 40
0.2476504
 40
1.0
 40
1.0
 40
1.0
 40
1.0
 10
139.4299818554
 20
340.06248235
 30
0.0
 10
139.5408236316
 20
340.1264803077
 30
0.0
 10
139.9988194025
 20
340.3666059707
 30
0.0
 10
140.4965207504
 20
340.5293916145
 30
0.0
 10
140.8774421648
 20
340.6074129998
 30
0.0
  0
SPLINE
  5
57E
100
AcDbEntity
  8
00_COMPONENTS
100
AcDbSpline
 62
7
  6
CONTINUOUS
 70
0
 71
3
 72
10
 73
6
 74
0
 42
0.0000001
 43
0.0000001
 44
0.0000000001
 40
0.0
 40
0.0
 40
0.0
 40
0.0
 40
0.4574830301
 40
0.717606743
 40
1.0
 40
1.0
 40
1.0
 40
1.0
 10
140.8774421648
 20
340.6074129998
 30
0.0
 10
141.7424881843
 20
340.7845941352
 30
0.0
 10
143.1786225619
 20
340.706811685
 30
0.0
 10
145.0155959721
 20
340.1100284474
 30
0.0
 10
145.9578627027
 20
339.6417555875
 30
0.0
 10
146.4298991876
 20
339.3692313613
 30
0.0
  0
SPLINE
  5
57F
100
AcDbEntity
  8
00_COMPONENTS
100
AcDbSpline
 62
7
  6
CONTINUOUS
 70
0
 71
3
 72
14
 73
10
 74
0
 42
0.0000001
 43
0.0000001
 44
0.0000000001
 40
0.0
 40
0.0
 40
0.0
 40
0.0
 40
0.0879622287
 40
0.1843256117
 40
0.2941220311
 40
0.4184640461
 40
0.5555223859
 40
0.7015535184
 40
1.0
 40
1.0
 40
1.0
 40
1.0
 10
216.5300960647
 20
280.8239804552
 30
0.0
 10
216.8815940144
 20
281.0269520949
 30
0.0
 10
217.7154112662
 20
281.2979369218
 30
0.0
 10
219.0933400704
 20
281.2171826615
 30
0.0
 10
220.5450873069
 20
280.7020952461
 30
0.0
 10
222.0079677063
 20
279.7916717524
 30
0.0
 10
223.4164315183
 20
278.5337909535
 30
0.0
 10
225.1376040663
 20
276.4675904468
 30
0.0
 10
226.1281657819
 20
274.6339659832
 30
0.0
 10
226.609335738
 20
273.343612212
 30
0.0
  0
SPLINE
  5
580
100
AcDbEntity
  8
00_COMPONENTS
100
AcDbSpline
 62
7
  6
CONTINUOUS
 70
0
 71
3
 72
16
 73
12
 74
0
 42
0.0000001
 43
0.0000001
 44
0.0000000001
 40
0.0
 40
0.0
 40
0.0
 40
0.0
 40
0.1287489314
 40
0.2703969846
 40
0.4176188959
 40
0.5620226724
 40
0.6957498727
 40
0.8130640984
 40
0.9124718534
 40
0.9571193875
 40
1.0
 40
1.0
 40
1.0
 40
1.0
 10
108.599543612
 20
347.7378656173
 30
0.0
 10
108.599543612
 20
348.5071656852
 30
0.0
 10
108.3843414419
 20
350.1246928842
 30
0.0
 10
107.5810659501
 20
352.4996464232
 30
0.0
 10
106.3430949998
 20
354.787533281
 30
0.0
 10
104.7711346292
 20
356.8004820561
 30
0.0
 10
102.9891187658
 20
358.3767411536
 30
0.0
 10
101.1352365324
 20
359.3936489842
 30
0.0
 10
99.5614135205
 20
359.7011105687
 30
0.0
 10
98.4466660493
 20
359.5374694185
 30
0.0
 10
97.957472922
 20
359.3343766396
 30
0.0
 10
97.7355970062
 20
359.2062368958
 30
0.0
  0
SPLINE
  5
581
100
AcDbEntity
  8
00_COMPONENTS
100
AcDbSpline
 62
7
  6
CONTINUOUS
 70
0
 71
3
 72
11
 73
7
 74
0
 42
0.0000001
 43
0.0000001
 44
0.0000000001
 40
0.0
 40
0.0
 40
0.0
 40
0.0
 40
0.235624153
 40
0.496548231
 40
0.7593519974
 40
1.0
 40
1.0
 40
1.0
 40
1.0
 10
102.2355560857
 20
359.5770565793
 30
0.0
 10
103.2010282049
 20
359.0196536015
 30
0.0
 10
105.0356606719
 20
357.4950371865
 30
0.0
 10
107.2083657946
 20
354.6022474756
 30
0.0
 10
108.7425501076
 20
351.2994512684
 30
0.0
 10
109.240763917
 20
348.9359507372
 30
0.0
 10
109.2952270528
 20
347.7986595103
 30
0.0
  0
SPLINE
  5
582
100
AcDbEntity
  8
00_COMPONENTS
100
AcDbSpline
 62
7
  6
CONTINUOUS
 70
0
 71
3
 72
11
 73
7
 74
0
 42
0.0000001
 43
0.0000001
 44
0.0000000001
 40
0.0
 40
0.0
 40
0.0
 40
0.0
 40
0.28970066
 40
0.5490882258
 40
0.7822179595
 40
1.0
 40
1.0
 40
1.0
 40
1.0
 10
104.0033156787
 20
360.597666964
 30
0.0
 10
103.5645289839
 20
360.8509948493
 30
0.0
 10
102.6916367463
 20
361.2662478337
 30
0.0
 10
101.3499850424
 20
361.5902556631
 30
0.0
 10
100.0911087926
 20
361.5583732811
 30
0.0
 10
99.3332253887
 20
361.2832964744
 30
0.0
 10
99.0033550927
 20
361.0928802195
 30
0.0
  0
SPLINE
  5
583
100
AcDbEntity
  8
00_COMPONENTS
100
AcDbSpline
 62
7
  6
CONTINUOUS
 70
0
 71
3
 72
11
 73
7
 74
0
 42
0.0000001
 43
0.0000001
 44
0.0000000001
 40
0.0
 40
0.0
 40
0.0
 40
0.0
 40
0.2345160231
 40
0.4941557823
 40
0.7569481612
 40
1.0
 40
1.0
 40
1.0
 40
1.0
 10
104.0033156787
 20
363.8636766325
 30
0.0
 10
105.3155515448
 20
363.1060740413
 30
0.0
 10
107.8165773901
 20
361.0470491474
 30
0.0
 10
110.8095373452
 20
357.1378159828
 30
0.0
 10
112.9712372683
 20
352.6529361763
 30
0.0
 10
113.7276954841
 20
349.4310763539
 30
0.0
 10
113.8550400922
 20
347.8658665243
 30
0.0
  0
SPLINE
  5
584
100
AcDbEntity
  8
00_COMPONENTS
100
AcDbSpline
 62
7
  6
CONTINUOUS
 70
0
 71
3
 72
11
 73
7
 74
0
 42
0.0000001
 43
0.0000001
 44
0.0000000001
 40
0.0
 40
0.0
 40
0.0
 40
0.0
 40
0.2177849011
 40
0.4509184398
 40
0.7103088704
 40
1.0
 40
1.0
 40
1.0
 40
1.0
 10
224.5153518885
 20
286.5889236771
 30
0.0
 10
224.8452378365
 20
286.7793221709
 30
0.0
 10
225.6031101483
 20
287.0544472835
 30
0.0
 10
226.8620128619
 20
287.0862942924
 30
0.0
 10
228.2036532469
 20
286.7622893444
 30
0.0
 10
229.0765347279
 20
286.3470401003
 30
0.0
 10
229.5153066122
 20
286.0937207656
 30
0.0
  0
SPLINE
  5
585
100
AcDbEntity
  8
00_COMPONENTS
100
AcDbSpline
 62
7
  6
CONTINUOUS
 70
0
 71
3
 72
8
 73
4
 74
0
 42
0.0000001
 43
0.0000001
 44
0.0000000001
 40
0.0
 40
0.0
 40
0.0
 40
0.0
 40
1.0
 40
1.0
 40
1.0
 40
1.0
 10
175.6806272927
 20
252.3453966058
 30
0.0
 10
175.6727179498
 20
252.2936174006
 30
0.0
 10
175.6692401872
 20
252.2410501255
 30
0.0
 10
175.6692401872
 20
252.1886703221
 30
0.0
  0
SPLINE
  5
586
100
AcDbEntity
  8
00_COMPONENTS
100
AcDbSpline
 62
7
  6
CONTINUOUS
 70
0
 71
3
 72
9
 73
5
 74
0
 42
0.0000001
 43
0.0000001
 44
0.0000000001
 40
0.0
 40
0.0
 40
0.0
 40
0.0
 40
0.2254718586
 40
1.0
 40
1.0
 40
1.0
 40
1.0
 10
110.5898688747
 20
297.0047331033
 30
0.0
 10
110.3443122589
 20
296.9925204715
 30
0.0
 10
109.2494292219
 20
297.0431943412
 30
0.0
 10
108.1998964225
 20
297.4690220745
 30
0.0
 10
107.4684777571
 20
297.8912972847
 30
0.0
  0
SPLINE
  5
587
100
AcDbEntity
  8
00_COMPONENTS
100
AcDbSpline
 62
7
  6
CONTINUOUS
 70
0
 71
3
 72
11
 73
7
 74
0
 42
0.0000001
 43
0.0000001
 44
0.0000000001
 40
0.0
 40
0.0
 40
0.0
 40
0.0
 40
0.2177660095
 40
0.4508968553
 40
0.7103699668
 40
1.0
 40
1.0
 40
1.0
 40
1.0
 10
104.3435576089
 20
310.8564982614
 30
0.0
 10
104.1374557984
 20
310.7373968485
 30
0.0
 10
103.7515193117
 20
310.4134336336
 30
0.0
 10
103.3409209872
 20
309.7417823242
 30
0.0
 10
103.0971665253
 20
308.9142979116
 30
0.0
 10
103.0490419749
 20
308.312044086
 30
0.0
 10
103.0490419749
 20
307.9954493589
 30
0.0
  0
SPLINE
  5
588
100
AcDbEntity
  8
00_COMPONENTS
100
AcDbSpline
 62
7
  6
CONTINUOUS
 70
0
 71
3
 72
11
 73
7
 74
0
 42
0.0000001
 43
0.0000001
 44
0.0000000001
 40
0.0
 40
0.0
 40
0.0
 40
0.0
 40
0.2177434119
 40
0.4508805377
 40
0.710457812
 40
1.0
 40
1.0
 40
1.0
 40
1.0
 10
143.1466300878
 20
317.283283074
 30
0.0
 10
143.1466300405
 20
317.4356069672
 30
0.0
 10
143.0906932515
 20
317.7531880349
 30
0.0
 10
142.8497812166
 20
318.1957500488
 30
0.0
 10
142.4690059671
 20
318.5954960555
 30
0.0
 10
142.1506847411
 20
318.8149858004
 30
0.0
 10
141.9752692485
 20
318.9162596911
 30
0.0
  0
SPLINE
  5
589
100
AcDbEntity
  8
00_COMPONENTS
100
AcDbSpline
 62
7
  6
CONTINUOUS
 70
0
 71
3
 72
15
 73
11
 74
0
 42
0.0000001
 43
0.0000001
 44
0.0000000001
 40
0.0
 40
0.0
 40
0.0
 40
0.0
 40
0.1288285297
 40
0.2705731043
 40
0.4178848725
 40
0.5623830488
 40
0.6962002801
 40
0.8135916328
 40
0.9130641676
 40
1.0
 40
1.0
 40
1.0
 40
1.0
 10
60.6224584661
 20
332.4898946301
 30
0.0
 10
60.6224584661
 20
331.9556764403
 30
0.0
 10
60.7719198258
 20
330.8323977051
 30
0.0
 10
61.3296880613
 20
329.1831365895
 30
0.0
 10
62.1893443704
 20
327.5942976837
 30
0.0
 10
63.2811842285
 20
326.1965693748
 30
0.0
 10
64.5179348464
 20
325.1014025838
 30
0.0
 10
65.8077581134
 20
324.396855329
 30
0.0
 10
67.0702198914
 20
324.1440341802
 30
0.0
 10
67.8546832781
 20
324.3454630274
 30
0.0
 10
68.1668143964
 20
324.5258362961
 30
0.0
  0
SPLINE
  5
58A
100
AcDbEntity
  8
00_COMPONENTS
100
AcDbSpline
 62
7
  6
CONTINUOUS
 70
0
 71
3
 72
9
 73
5
 74
0
 42
0.0000001
 43
0.0000001
 44
0.0000000001
 40
0.0
 40
0.0
 40
0.0
 40
0.0
 40
0.2796269845
 40
1.0
 40
1.0
 40
1.0
 40
1.0
 10
58.5011292907
 20
333.7146168937
 30
0.0
 10
58.5011292907
 20
334.0330244871
 30
0.0
 10
58.5617819089
 20
335.166314695
 30
0.0
 10
58.9069341585
 20
336.3170683139
 30
0.0
 10
59.3793285321
 20
336.9876663687
 30
0.0
  0
SPLINE
  5
58B
100
AcDbEntity
  8
00_COMPONENTS
100
AcDbSpline
 62
7
  6
CONTINUOUS
 70
0
 71
3
 72
9
 73
5
 74
0
 42
0.0000001
 43
0.0000001
 44
0.0000000001
 40
0.0
 40
0.0
 40
0.0
 40
0.0
 40
0.2549163146
 40
1.0
 40
1.0
 40
1.0
 40
1.0
 10
59.3793285321
 20
336.9876663687
 30
0.0
 10
59.4167904862
 20
337.040846328
 30
0.0
 10
59.5691883818
 20
337.2455559377
 30
0.0
 10
59.743861688
 20
337.4338561346
 30
0.0
 10
59.8849825963
 20
337.5612728335
 30
0.0
  0
SPLINE
  5
58C
100
AcDbEntity
  8
00_COMPONENTS
100
AcDbSpline
 62
7
  6
CONTINUOUS
 70
0
 71
3
 72
11
 73
7
 74
0
 42
0.0000001
 43
0.0000001
 44
0.0000000001
 40
0.0
 40
0.0
 40
0.0
 40
0.0
 40
0.237239768
 40
0.4999988393
 40
0.7627585384
 40
1.0
 40
1.0
 40
1.0
 40
1.0
 10
65.0418942483
 20
322.3857425559
 30
0.0
 10
64.1132898915
 20
322.9218604026
 30
0.0
 10
62.3560324857
 20
324.4008146259
 30
0.0
 10
60.3050742736
 20
327.2035111358
 30
0.0
 10
58.9033291978
 20
330.3810418506
 30
0.0
 10
58.5011292907
 20
332.642355353
 30
0.0
 10
58.5011292907
 20
333.7146168937
 30
0.0
  0
SPLINE
  5
58D
100
AcDbEntity
  8
00_COMPONENTS
100
AcDbSpline
 62
7
  6
CONTINUOUS
 70
0
 71
3
 72
11
 73
7
 74
0
 42
0.0000001
 43
0.0000001
 44
0.0000000001
 40
0.0
 40
0.0
 40
0.0
 40
0.0
 40
0.2372523758
 40
0.4999990758
 40
0.7627462798
 40
1.0
 40
1.0
 40
1.0
 40
1.0
 10
232.6974505176
 20
74.9875143328
 30
0.0
 10
232.396266553
 20
75.1613990421
 30
0.0
 10
231.8263024897
 20
75.6410264409
 30
0.0
 10
231.1613307896
 20
76.5501192948
 30
0.0
 10
230.7065139258
 20
77.5805479748
 30
0.0
 10
230.5761213422
 20
78.3139665579
 30
0.0
 10
230.5761213422
 20
78.6617438477
 30
0.0
  0
SPLINE
  5
58E
100
AcDbEntity
  8
00_COMPONENTS
100
AcDbSpline
 62
7
  6
CONTINUOUS
 70
0
 71
3
 72
9
 73
5
 74
0
 42
0.0000001
 43
0.0000001
 44
0.0000000001
 40
0.0
 40
0.0
 40
0.0
 40
0.0
 40
0.2746710385
 40
1.0
 40
1.0
 40
1.0
 40
1.0
 10
185.7808798171
 20
77.6613406098
 30
0.0
 10
185.7808798171
 20
77.9338824496
 30
0.0
 10
185.8270232821
 20
78.9232755681
 30
0.0
 10
186.0775163498
 20
79.9199790371
 30
0.0
 10
186.4218588345
 20
80.5519643836
 30
0.0
  0
SPLINE
  5
58F
100
AcDbEntity
  8
00_COMPONENTS
100
AcDbSpline
 62
7
  6
CONTINUOUS
 70
0
 71
3
 72
9
 73
5
 74
0
 42
0.0000001
 43
0.0000001
 44
0.0000000001
 40
0.0
 40
0.0
 40
0.0
 40
0.0
 40
0.4656930672
 40
1.0
 40
1.0
 40
1.0
 40
1.0
 10
198.2389998448
 20
210.1898388904
 30
0.0
 10
198.4512398563
 20
210.2882403624
 30
0.0
 10
198.9653859733
 20
210.3807269861
 30
0.0
 10
199.4647803449
 20
210.2635102455
 30
0.0
 10
199.7162214762
 20
210.1695888986
 30
0.0
  0
SPLINE
  5
590
100
AcDbEntity
  8
00_COMPONENTS
100
AcDbSpline
 62
7
  6
CONTINUOUS
 70
0
 71
3
 72
15
 73
11
 74
0
 42
0.0000001
 43
0.0000001
 44
0.0000000001
 40
0.0
 40
0.0
 40
0.0
 40
0.0
 40
0.1288285297
 40
0.2705731043
 40
0.4178848725
 40
0.5623830488
 40
0.6962002801
 40
0.8135916328
 40
0.9130641676
 40
1.0
 40
1.0
 40
1.0
 40
1.0
 10
187.9022089926
 20
76.4366183463
 30
0.0
 10
187.9022089926
 20
75.9024001565
 30
0.0
 10
188.0516703522
 20
74.7791214213
 30
0.0
 10
188.6094385878
 20
73.1298603057
 30
0.0
 10
189.4690948968
 20
71.5410213998
 30
0.0
 10
190.560934755
 20
70.143293091
 30
0.0
 10
191.7976853728
 20
69.0481262999
 30
0.0
 10
193.0875086399
 20
68.3435790451
 30
0.0
 10
194.3499704179
 20
68.0907578964
 30
0.0
 10
195.1344338045
 20
68.2921867435
 30
0.0
 10
195.4465649229
 20
68.4725600122
 30
0.0
  0
SPLINE
  5
591
100
AcDbEntity
  8
00_COMPONENTS
100
AcDbSpline
 62
7
  6
CONTINUOUS
 70
0
 71
3
 72
9
 73
5
 74
0
 42
0.0000001
 43
0.0000001
 44
0.0000000001
 40
0.0
 40
0.0
 40
0.0
 40
0.0
 40
0.4760489767
 40
1.0
 40
1.0
 40
1.0
 40
1.0
 10
75.9312209198
 20
346.2681142572
 30
0.0
 10
75.9312209198
 20
345.2049834917
 30
0.0
 10
76.2315681751
 20
342.9697259373
 30
0.0
 10
76.9578234228
 20
340.8445178462
 30
0.0
 10
77.4274215375
 20
339.7727767173
 30
0.0
  0
SPLINE
  5
592
100
AcDbEntity
  8
00_COMPONENTS
100
AcDbSpline
 62
7
  6
CONTINUOUS
 70
0
 71
3
 72
11
 73
7
 74
0
 42
0.0000001
 43
0.0000001
 44
0.0000000001
 40
0.0
 40
0.0
 40
0.0
 40
0.0
 40
0.2401528821
 40
0.5029565013
 40
0.7641495046
 40
1.0
 40
1.0
 40
1.0
 40
1.0
 10
238.3457912879
 20
275.2671327428
 30
0.0
 10
238.2988937888
 20
276.4078803447
 30
0.0
 10
237.8094848097
 20
278.783383979
 30
0.0
 10
236.2776555451
 20
282.1056189125
 30
0.0
 10
234.0982600235
 20
285.0183517192
 30
0.0
 10
232.2541089314
 20
286.5537120539
 30
0.0
 10
231.2830662052
 20
287.1143311503
 30
0.0
  0
SPLINE
  5
593
100
AcDbEntity
  8
00_COMPONENTS
100
AcDbSpline
 62
7
  6
CONTINUOUS
 70
0
 71
3
 72
15
 73
11
 74
0
 42
0.0000001
 43
0.0000001
 44
0.0000000001
 40
0.0
 40
0.0
 40
0.0
 40
0.0
 40
0.1288285297
 40
0.2705731043
 40
0.4178848725
 40
0.5623830488
 40
0.6962002801
 40
0.8135916328
 40
0.9130641676
 40
1.0
 40
1.0
 40
1.0
 40
1.0
 10
116.7312200762
 20
354.882128112
 30
0.0
 10
116.7312200762
 20
355.3949775742
 30
0.0
 10
116.5877371709
 20
356.47332516
 30
0.0
 10
116.0522796648
 20
358.056615831
 30
0.0
 10
115.2270096081
 20
359.5819011806
 30
0.0
 10
114.1788433443
 20
360.9237203571
 30
0.0
 10
112.9915627511
 20
361.9750804765
 30
0.0
 10
111.7533324148
 20
362.6514458411
 30
0.0
 10
110.5413691079
 20
362.8941541439
 30
0.0
 10
109.7882842567
 20
362.7007824507
 30
0.0
 10
109.4886383831
 20
362.5276241127
 30
0.0
  0
SPLINE
  5
594
100
AcDbEntity
  8
00_COMPONENTS
100
AcDbSpline
 62
7
  6
CONTINUOUS
 70
0
 71
3
 72
11
 73
7
 74
0
 42
0.0000001
 43
0.0000001
 44
0.0000000001
 40
0.0
 40
0.0
 40
0.0
 40
0.0
 40
0.2177660095
 40
0.4508968553
 40
0.7103699668
 40
1.0
 40
1.0
 40
1.0
 40
1.0
 10
189.1967246265
 20
79.2976672488
 30
0.0
 10
188.9906228161
 20
79.1785658358
 30
0.0
 10
188.6046863293
 20
78.854602621
 30
0.0
 10
188.1940880048
 20
78.1829513116
 30
0.0
 10
187.9503335429
 20
77.355466899
 30
0.0
 10
187.9022089926
 20
76.7532130734
 30
0.0
 10
187.9022089926
 20
76.4366183463
 30
0.0
  0
SPLINE
  5
595
100
AcDbEntity
  8
00_COMPONENTS
100
AcDbSpline
 62
7
  6
CONTINUOUS
 70
0
 71
3
 72
9
 73
5
 74
0
 42
0.0000001
 43
0.0000001
 44
0.0000000001
 40
0.0
 40
0.0
 40
0.0
 40
0.0
 40
0.7463418244
 40
1.0
 40
1.0
 40
1.0
 40
1.0
 10
196.2445898746
 20
65.5769521366
 30
0.0
 10
196.1073071445
 20
65.5373841648
 30
0.0
 10
195.9196099566
 20
65.4963705536
 30
0.0
 10
195.7298744339
 20
65.4708669222
 30
0.0
 10
195.6816300429
 20
65.4653621239
 30
0.0
  0
SPLINE
  5
596
100
AcDbEntity
  8
00_COMPONENTS
100
AcDbSpline
 62
7
  6
CONTINUOUS
 70
0
 71
3
 72
14
 73
10
 74
0
 42
0.0000001
 43
0.0000001
 44
0.0000000001
 40
0.0
 40
0.0
 40
0.0
 40
0.0
 40
0.1994475485
 40
0.3229161317
 40
0.4581136146
 40
0.5996518553
 40
0.7412119897
 40
0.876462996
 40
1.0
 40
1.0
 40
1.0
 40
1.0
 10
195.6002654016
 20
65.4569996563
 30
0.0
 10
194.4764916643
 20
65.3541261258
 30
0.0
 10
192.6117172027
 20
66.0073333572
 30
0.0
 10
190.54613375
 20
67.5561842331
 30
0.0
 10
188.9839544774
 20
69.2177984156
 30
0.0
 10
187.6480698755
 20
71.1802135609
 30
0.0
 10
186.6146685788
 20
73.3204158354
 30
0.0
 10
185.9540771148
 20
75.496480617
 30
0.0
 10
185.7808798171
 20
76.9623692594
 30
0.0
 10
185.7808798171
 20
77.6613406098
 30
0.0
  0
SPLINE
  5
597
100
AcDbEntity
  8
00_COMPONENTS
100
AcDbSpline
 62
7
  6
CONTINUOUS
 70
0
 71
3
 72
9
 73
5
 74
0
 42
0.0000001
 43
0.0000001
 44
0.0000000001
 40
0.0
 40
0.0
 40
0.0
 40
0.0
 40
0.2302206533
 40
1.0
 40
1.0
 40
1.0
 40
1.0
 10
207.4538435291
 20
72.4157835714
 30
0.0
 10
207.5032659831
 20
72.4443174682
 30
0.0
 10
207.7090621323
 20
72.5834773569
 30
0.0
 10
207.8802571086
 20
72.7700932374
 30
0.0
 10
207.9907317669
 20
72.9256764344
 30
0.0
  0
SPLINE
  5
598
100
AcDbEntity
  8
00_COMPONENTS
100
AcDbSpline
 62
7
  6
CONTINUOUS
 70
0
 71
3
 72
9
 73
5
 74
0
 42
0.0000001
 43
0.0000001
 44
0.0000000001
 40
0.0
 40
0.0
 40
0.0
 40
0.0
 40
0.5243245317
 40
1.0
 40
1.0
 40
1.0
 40
1.0
 10
207.9907317669
 20
72.9256764344
 30
0.0
 10
208.1081571104
 20
73.0910483905
 30
0.0
 10
208.2903191724
 20
73.4374090927
 30
0.0
 10
208.3730785175
 20
73.8239511796
 30
0.0
 10
208.3730785175
 20
74.0079541137
 30
0.0
  0
SPLINE
  5
599
100
AcDbEntity
  8
00_COMPONENTS
100
AcDbSpline
 62
7
  6
CONTINUOUS
 70
0
 71
3
 72
9
 73
5
 74
0
 42
0.0000001
 43
0.0000001
 44
0.0000000001
 40
0.0
 40
0.0
 40
0.0
 40
0.0
 40
0.4997671378
 40
1.0
 40
1.0
 40
1.0
 40
1.0
 10
175.6692401872
 20
252.1886703221
 30
0.0
 10
175.6692401872
 20
251.8865176203
 30
0.0
 10
175.875389407
 20
251.2895274826
 30
0.0
 10
176.2882675452
 20
250.8118716982
 30
0.0
 10
176.5496717339
 20
250.6597719301
 30
0.0
  0
SPLINE
  5
59A
100
AcDbEntity
  8
00_COMPONENTS
100
AcDbSpline
 62
7
  6
CONTINUOUS
 70
0
 71
3
 72
9
 73
5
 74
0
 42
0.0000001
 43
0.0000001
 44
0.0000000001
 40
0.0
 40
0.0
 40
0.0
 40
0.0
 40
0.5510840199
 40
1.0
 40
1.0
 40
1.0
 40
1.0
 10
176.5496717339
 20
250.6597719301
 30
0.0
 10
176.6535255174
 20
250.5993439145
 30
0.0
 10
176.8610596702
 20
250.5122428653
 30
0.0
 10
177.0933266724
 20
250.5469528098
 30
0.0
 10
177.1781143566
 20
250.5958535408
 30
0.0
  0
SPLINE
  5
59B
100
AcDbEntity
  8
00_COMPONENTS
100
AcDbSpline
 62
7
  6
CONTINUOUS
 70
0
 71
3
 72
11
 73
7
 74
0
 42
0.0000001
 43
0.0000001
 44
0.0000000001
 40
0.0
 40
0.0
 40
0.0
 40
0.0
 40
0.2372531816
 40
0.5000006935
 40
0.7627478297
 40
1.0
 40
1.0
 40
1.0
 40
1.0
 10
196.9884058649
 20
287.1551289894
 30
0.0
 10
196.5868265838
 20
287.3869756504
 30
0.0
 10
195.6530189326
 20
287.7253480506
 30
0.0
 10
194.1599734737
 20
287.8871182121
 30
0.0
 10
192.666930783
 20
287.7253409167
 30
0.0
 10
191.733127513
 20
287.3869639606
 30
0.0
 10
191.3315516155
 20
287.155115392
 30
0.0
  0
SPLINE
  5
59C
100
AcDbEntity
  8
00_COMPONENTS
100
AcDbSpline
 62
7
  6
CONTINUOUS
 70
0
 71
3
 72
11
 73
7
 74
0
 42
0.0000001
 43
0.0000001
 44
0.0000000001
 40
0.0
 40
0.0
 40
0.0
 40
0.0
 40
0.2895416688
 40
0.549118971
 40
0.7822562702
 40
1.0
 40
1.0
 40
1.0
 40
1.0
 10
183.1998574875
 20
282.4603076225
 30
0.0
 10
183.0244453023
 20
282.3590339547
 30
0.0
 10
182.7061301862
 20
282.1395448043
 30
0.0
 10
182.3253623742
 20
281.7398018836
 30
0.0
 10
182.0844557672
 20
281.2972440236
 30
0.0
 10
182.0285201526
 20
280.979666757
 30
0.0
 10
182.0285201999
 20
280.827344606
 30
0.0
  0
SPLINE
  5
59D
100
AcDbEntity
  8
00_COMPONENTS
100
AcDbSpline
 62
7
  6
CONTINUOUS
 70
0
 71
3
 72
9
 73
5
 74
0
 42
0.0000001
 43
0.0000001
 44
0.0000000001
 40
0.0
 40
0.0
 40
0.0
 40
0.0
 40
0.2476504
 40
1.0
 40
1.0
 40
1.0
 40
1.0
 10
224.283148873
 20
291.0735918076
 30
0.0
 10
224.3939906493
 20
291.1375897653
 30
0.0
 10
224.8519864201
 20
291.3777154283
 30
0.0
 10
225.349687768
 20
291.5405010721
 30
0.0
 10
225.7306091824
 20
291.6185224573
 30
0.0
  0
SPLINE
  5
59E
100
AcDbEntity
  8
00_COMPONENTS
100
AcDbSpline
 62
7
  6
CONTINUOUS
 70
0
 71
3
 72
10
 73
6
 74
0
 42
0.0000001
 43
0.0000001
 44
0.0000000001
 40
0.0
 40
0.0
 40
0.0
 40
0.0
 40
0.4574830301
 40
0.717606743
 40
1.0
 40
1.0
 40
1.0
 40
1.0
 10
225.7306091824
 20
291.6185224573
 30
0.0
 10
226.595655202
 20
291.7957035928
 30
0.0
 10
228.0317895795
 20
291.7179211426
 30
0.0
 10
229.8687629898
 20
291.121137905
 30
0.0
 10
230.8110297204
 20
290.6528650451
 30
0.0
 10
231.2830662052
 20
290.3803408188
 30
0.0
  0
SPLINE
  5
59F
100
AcDbEntity
  8
00_COMPONENTS
100
AcDbSpline
 62
7
  6
CONTINUOUS
 70
0
 71
3
 72
11
 73
7
 74
0
 42
0.0000001
 43
0.0000001
 44
0.0000000001
 40
0.0
 40
0.0
 40
0.0
 40
0.0
 40
0.2340663175
 40
0.4931455497
 40
0.7559086828
 40
1.0
 40
1.0
 40
1.0
 40
1.0
 10
171.037624384
 20
266.4568415176
 30
0.0
 10
171.037624384
 20
266.1258123546
 30
0.0
 10
171.15249881
 20
265.4277735751
 30
0.0
 10
171.5612672069
 20
264.4323741645
 30
0.0
 10
172.1693747264
 20
263.5275033857
 30
0.0
 10
172.6929355639
 20
263.025349202
 30
0.0
 10
172.9740824246
 20
262.8250385574
 30
0.0
  0
SPLINE
  5
5A0
100
AcDbEntity
  8
00_COMPONENTS
100
AcDbSpline
 62
7
  6
CONTINUOUS
 70
0
 71
3
 72
11
 73
7
 74
0
 42
0.0000001
 43
0.0000001
 44
0.0000000001
 40
0.0
 40
0.0
 40
0.0
 40
0.0
 40
0.2372531816
 40
0.5000006935
 40
0.7627478297
 40
1.0
 40
1.0
 40
1.0
 40
1.0
 10
154.5618223561
 20
311.6495742607
 30
0.0
 10
154.160243075
 20
311.8814209216
 30
0.0
 10
153.2264354238
 20
312.2197933218
 30
0.0
 10
151.7333899649
 20
312.3815634834
 30
0.0
 10
150.2403472742
 20
312.2197861879
 30
0.0
 10
149.3065440042
 20
311.8814092318
 30
0.0
 10
148.9049681067
 20
311.6495606632
 30
0.0
  0
SPLINE
  5
5A1
100
AcDbEntity
  8
00_COMPONENTS
100
AcDbSpline
 62
7
  6
CONTINUOUS
 70
0
 71
3
 72
11
 73
7
 74
0
 42
0.0000001
 43
0.0000001
 44
0.0000000001
 40
0.0
 40
0.0
 40
0.0
 40
0.0
 40
0.2895416688
 40
0.549118971
 40
0.7822562702
 40
1.0
 40
1.0
 40
1.0
 40
1.0
 10
140.7732739787
 20
306.9547528937
 30
0.0
 10
140.5978617935
 20
306.8534792259
 30
0.0
 10
140.2795466774
 20
306.6339900755
 30
0.0
 10
139.8987788654
 20
306.2342471548
 30
0.0
 10
139.6578722583
 20
305.7916892949
 30
0.0
 10
139.6019366438
 20
305.4741120282
 30
0.0
 10
139.6019366911
 20
305.3217898773
 30
0.0
  0
SPLINE
  5
5A2
100
AcDbEntity
  8
00_COMPONENTS
100
AcDbSpline
 62
7
  6
CONTINUOUS
 70
0
 71
3
 72
9
 73
5
 74
0
 42
0.0000001
 43
0.0000001
 44
0.0000000001
 40
0.0
 40
0.0
 40
0.0
 40
0.0
 40
0.2476504
 40
1.0
 40
1.0
 40
1.0
 40
1.0
 10
97.0033983466
 20
364.5569276212
 30
0.0
 10
97.1142401228
 20
364.6209255789
 30
0.0
 10
97.5722358937
 20
364.8610512419
 30
0.0
 10
98.0699372416
 20
365.0238368858
 30
0.0
 10
98.450858656
 20
365.101858271
 30
0.0
  0
SPLINE
  5
5A3
100
AcDbEntity
  8
00_COMPONENTS
100
AcDbSpline
 62
7
  6
CONTINUOUS
 70
0
 71
3
 72
10
 73
6
 74
0
 42
0.0000001
 43
0.0000001
 44
0.0000000001
 40
0.0
 40
0.0
 40
0.0
 40
0.0
 40
0.4574830301
 40
0.717606743
 40
1.0
 40
1.0
 40
1.0
 40
1.0
 10
98.450858656
 20
365.101858271
 30
0.0
 10
99.3159046755
 20
365.2790394064
 30
0.0
 10
100.7520390531
 20
365.2012569563
 30
0.0
 10
102.5890124633
 20
364.6044737186
 30
0.0
 10
103.5312791939
 20
364.1362008588
 30
0.0
 10
104.0033156787
 20
363.8636766325
 30
0.0
  0
SPLINE
  5
5A4
100
AcDbEntity
  8
00_COMPONENTS
100
AcDbSpline
 62
7
  6
CONTINUOUS
 70
0
 71
3
 72
11
 73
7
 74
0
 42
0.0000001
 43
0.0000001
 44
0.0000000001
 40
0.0
 40
0.0
 40
0.0
 40
0.0
 40
0.2340663175
 40
0.4931455497
 40
0.7559086828
 40
1.0
 40
1.0
 40
1.0
 40
1.0
 10
128.6110408752
 20
290.9512867888
 30
0.0
 10
128.6110408752
 20
290.6202576258
 30
0.0
 10
128.7259153012
 20
289.9222188463
 30
0.0
 10
129.1346836981
 20
288.9268194357
 30
0.0
 10
129.7427912176
 20
288.0219486569
 30
0.0
 10
130.2663520551
 20
287.5197944733
 30
0.0
 10
130.5474989158
 20
287.3194838286
 30
0.0
  0
SPLINE
  5
5A5
100
AcDbEntity
  8
00_COMPONENTS
100
AcDbSpline
 62
7
  6
CONTINUOUS
 70
0
 71
3
 72
11
 73
7
 74
0
 42
0.0000001
 43
0.0000001
 44
0.0000000001
 40
0.0
 40
0.0
 40
0.0
 40
0.0
 40
0.2372531816
 40
0.5000006935
 40
0.7627478297
 40
1.0
 40
1.0
 40
1.0
 40
1.0
 10
112.1352388473
 20
336.1440195319
 30
0.0
 10
111.7336595662
 20
336.3758661928
 30
0.0
 10
110.799851915
 20
336.714238593
 30
0.0
 10
109.3068064561
 20
336.8760087546
 30
0.0
 10
107.8137637654
 20
336.7142314591
 30
0.0
 10
106.8799604954
 20
336.375854503
 30
0.0
 10
106.4783845979
 20
336.1440059345
 30
0.0
  0
SPLINE
  5
5A6
100
AcDbEntity
  8
00_COMPONENTS
100
AcDbSpline
 62
7
  6
CONTINUOUS
 70
0
 71
3
 72
11
 73
7
 74
0
 42
0.0000001
 43
0.0000001
 44
0.0000000001
 40
0.0
 40
0.0
 40
0.0
 40
0.0
 40
0.2895416688
 40
0.549118971
 40
0.7822562702
 40
1.0
 40
1.0
 40
1.0
 40
1.0
 10
98.3466904699
 20
331.4491981649
 30
0.0
 10
98.1712782847
 20
331.3479244971
 30
0.0
 10
97.8529631685
 20
331.1284353467
 30
0.0
 10
97.4721953566
 20
330.728692426
 30
0.0
 10
97.2312887495
 20
330.2861345661
 30
0.0
 10
97.175353135
 20
329.9685572995
 30
0.0
 10
97.1753531823
 20
329.8162351485
 30
0.0
  0
SPLINE
  5
5A7
100
AcDbEntity
  8
00_COMPONENTS
100
AcDbSpline
 62
7
  6
CONTINUOUS
 70
0
 71
3
 72
11
 73
7
 74
0
 42
0.0000001
 43
0.0000001
 44
0.0000000001
 40
0.0
 40
0.0
 40
0.0
 40
0.0
 40
0.2176907916
 40
0.4508868986
 40
0.7106214304
 40
1.0
 40
1.0
 40
1.0
 40
1.0
 10
86.8265708946
 20
316.8647531362
 30
0.0
 10
86.7243143118
 20
316.8058187997
 30
0.0
 10
86.5329766902
 20
316.6450206399
 30
0.0
 10
86.3290756335
 20
316.3118883088
 30
0.0
 10
86.2085746692
 20
315.9012884057
 30
0.0
 10
86.1844573664
 20
315.6026225572
 30
0.0
 10
86.1844573664
 20
315.44573206
 30
0.0
  0
SPLINE
  5
5A8
100
AcDbEntity
  8
00_COMPONENTS
100
AcDbSpline
 62
7
  6
CONTINUOUS
 70
0
 71
3
 72
11
 73
7
 74
0
 42
0.0000001
 43
0.0000001
 44
0.0000000001
 40
0.0
 40
0.0
 40
0.0
 40
0.0
 40
0.2372531816
 40
0.5000006935
 40
0.7627478297
 40
1.0
 40
1.0
 40
1.0
 40
1.0
 10
69.7086553385
 20
360.6384648031
 30
0.0
 10
69.3070760574
 20
360.8703114641
 30
0.0
 10
68.3732684062
 20
361.2086838643
 30
0.0
 10
66.8802229473
 20
361.3704540258
 30
0.0
 10
65.3871802566
 20
361.2086767303
 30
0.0
 10
64.4533769866
 20
360.8702997743
 30
0.0
 10
64.051801089
 20
360.6384512057
 30
0.0
  0
SPLINE
  5
5A9
100
AcDbEntity
  8
00_COMPONENTS
100
AcDbSpline
 62
7
  6
CONTINUOUS
 70
0
 71
3
 72
9
 73
5
 74
0
 42
0.0000001
 43
0.0000001
 44
0.0000000001
 40
0.0
 40
0.0
 40
0.0
 40
0.0
 40
0.2794979748
 40
1.0
 40
1.0
 40
1.0
 40
1.0
 10
203.212792203
 20
132.7859261847
 30
0.0
 10
203.2083063683
 20
132.6456071067
 30
0.0
 10
203.1653435924
 20
132.1468210462
 30
0.0
 10
202.9925258334
 20
131.644744729
 30
0.0
 10
202.7713287596
 20
131.3583055901
 30
0.0
  0
SPLINE
  5
5AA
100
AcDbEntity
  8
00_COMPONENTS
100
AcDbSpline
 62
7
  6
CONTINUOUS
 70
0
 71
3
 72
9
 73
5
 74
0
 42
0.0000001
 43
0.0000001
 44
0.0000000001
 40
0.0
 40
0.0
 40
0.0
 40
0.0
 40
0.2561836683
 40
1.0
 40
1.0
 40
1.0
 40
1.0
 10
202.7713287596
 20
131.3583055901
 30
0.0
 10
202.7413066839
 20
131.3194285048
 30
0.0
 10
202.617407934
 20
131.1730156474
 30
0.0
 10
202.4651970777
 20
131.0502432441
 30
0.0
 10
202.3417230861
 20
130.9788729097
 30
0.0
  0
SPLINE
  5
5AB
100
AcDbEntity
  8
00_COMPONENTS
100
AcDbSpline
 62
7
  6
CONTINUOUS
 70
0
 71
3
 72
9
 73
5
 74
0
 42
0.0000001
 43
0.0000001
 44
0.0000000001
 40
0.0
 40
0.0
 40
0.0
 40
0.0
 40
0.2381199178
 40
1.0
 40
1.0
 40
1.0
 40
1.0
 10
200.7987230962
 20
137.6825105405
 30
0.0
 10
200.9261796894
 20
137.5805386746
 30
0.0
 10
201.4407264575
 20
137.1266738391
 30
0.0
 10
201.8757526875
 20
136.5856197702
 30
0.0
 10
202.15843048
 20
136.146475243
 30
0.0
  0
SPLINE
  5
5AC
100
AcDbEntity
  8
00_COMPONENTS
100
AcDbSpline
 62
7
  6
CONTINUOUS
 70
0
 71
3
 72
9
 73
5
 74
0
 42
0.0000001
 43
0.0000001
 44
0.0000000001
 40
0.0
 40
0.0
 40
0.0
 40
0.0
 40
0.525510353
 40
1.0
 40
1.0
 40
1.0
 40
1.0
 10
202.3093363651
 20
135.9014842868
 30
0.0
 10
202.5896358243
 20
135.4255555861
 30
0.0
 10
203.0242939086
 20
134.4584348192
 30
0.0
 10
203.2147337392
 20
133.4070939719
 30
0.0
 10
203.2147337392
 20
132.9083824228
 30
0.0
  0
SPLINE
  5
5AD
100
AcDbEntity
  8
00_COMPONENTS
100
AcDbSpline
 62
7
  6
CONTINUOUS
 70
0
 71
3
 72
11
 73
7
 74
0
 42
0.0000001
 43
0.0000001
 44
0.0000000001
 40
0.0
 40
0.0
 40
0.0
 40
0.0
 40
0.2895416688
 40
0.549118971
 40
0.7822562702
 40
1.0
 40
1.0
 40
1.0
 40
1.0
 10
55.9201069611
 20
355.9436434362
 30
0.0
 10
55.7446947758
 20
355.8423697683
 30
0.0
 10
55.4263796597
 20
355.6228806179
 30
0.0
 10
55.0456118478
 20
355.2231376973
 30
0.0
 10
54.8047052407
 20
354.7805798373
 30
0.0
 10
54.7487696262
 20
354.4630025707
 30
0.0
 10
54.7487696735
 20
354.3106804197
 30
0.0
  0
SPLINE
  5
5AE
100
AcDbEntity
  8
00_COMPONENTS
100
AcDbSpline
 62
7
  6
CONTINUOUS
 70
0
 71
3
 72
15
 73
11
 74
0
 42
0.0000001
 43
0.0000001
 44
0.0000000001
 40
0.0
 40
0.0
 40
0.0
 40
0.0
 40
0.1288285297
 40
0.2705731043
 40
0.4178848725
 40
0.5623830488
 40
0.6962002801
 40
0.8135916328
 40
0.9130641676
 40
1.0
 40
1.0
 40
1.0
 40
1.0
 10
159.157803585
 20
330.3876828408
 30
0.0
 10
159.157803585
 20
330.900532303
 30
0.0
 10
159.0143206797
 20
331.9788798888
 30
0.0
 10
158.4788631736
 20
333.5621705597
 30
0.0
 10
157.6535931169
 20
335.0874559094
 30
0.0
 10
156.6054268531
 20
336.4292750859
 30
0.0
 10
155.4181462599
 20
337.4806352053
 30
0.0
 10
154.1799159236
 20
338.1570005699
 30
0.0
 10
152.9679526167
 20
338.3997088727
 30
0.0
 10
152.2148677655
 20
338.2063371794
 30
0.0
 10
151.9152218919
 20
338.0331788415
 30
0.0
  0
SPLINE
  5
5AF
100
AcDbEntity
  8
00_COMPONENTS
100
AcDbSpline
 62
7
  6
CONTINUOUS
 70
0
 71
3
 72
9
 73
5
 74
0
 42
0.0000001
 43
0.0000001
 44
0.0000000001
 40
0.0
 40
0.0
 40
0.0
 40
0.0
 40
0.4656930672
 40
1.0
 40
1.0
 40
1.0
 40
1.0
 10
198.2389998448
 20
138.337626183
 30
0.0
 10
198.4512398563
 20
138.436027655
 30
0.0
 10
198.9653859733
 20
138.5285142787
 30
0.0
 10
199.4647803449
 20
138.4112975381
 30
0.0
 10
199.7162214762
 20
138.3173761912
 30
0.0
  0
SPLINE
  5
5B0
100
AcDbEntity
  8
00_COMPONENTS
100
AcDbSpline
 62
7
  6
CONTINUOUS
 70
0
 71
3
 72
9
 73
5
 74
0
 42
0.0000001
 43
0.0000001
 44
0.0000000001
 40
0.0
 40
0.0
 40
0.0
 40
0.0
 40
0.2254718586
 40
1.0
 40
1.0
 40
1.0
 40
1.0
 10
195.4430358923
 20
248.0158425608
 30
0.0
 10
195.1974792765
 20
248.0036299291
 30
0.0
 10
194.1025962396
 20
248.0543037988
 30
0.0
 10
193.0530634401
 20
248.480131532
 30
0.0
 10
192.3216447747
 20
248.9024067423
 30
0.0
  0
SPLINE
  5
5B1
100
AcDbEntity
  8
00_COMPONENTS
100
AcDbSpline
 62
7
  6
CONTINUOUS
 70
0
 71
3
 72
11
 73
7
 74
0
 42
0.0000001
 43
0.0000001
 44
0.0000000001
 40
0.0
 40
0.0
 40
0.0
 40
0.0
 40
0.2177660095
 40
0.4508968553
 40
0.7103699668
 40
1.0
 40
1.0
 40
1.0
 40
1.0
 10
189.1967246265
 20
261.867607719
 30
0.0
 10
188.9906228161
 20
261.748506306
 30
0.0
 10
188.6046863293
 20
261.4245430912
 30
0.0
 10
188.1940880048
 20
260.7528917818
 30
0.0
 10
187.9503335429
 20
259.9254073692
 30
0.0
 10
187.9022089926
 20
259.3231535436
 30
0.0
 10
187.9022089926
 20
259.0065588165
 30
0.0
  0
SPLINE
  5
5B2
100
AcDbEntity
  8
00_COMPONENTS
100
AcDbSpline
 62
7
  6
CONTINUOUS
 70
0
 71
3
 72
9
 73
5
 74
0
 42
0.0000001
 43
0.0000001
 44
0.0000000001
 40
0.0
 40
0.0
 40
0.0
 40
0.0
 40
0.4760489767
 40
1.0
 40
1.0
 40
1.0
 40
1.0
 10
118.3578044286
 20
321.773668986
 30
0.0
 10
118.3578044286
 20
320.7105382205
 30
0.0
 10
118.658151684
 20
318.475280666
 30
0.0
 10
119.3844069316
 20
316.3500725749
 30
0.0
 10
119.8540050463
 20
315.2783314461
 30
0.0
  0
SPLINE
  5
5B3
100
AcDbEntity
  8
00_COMPONENTS
100
AcDbSpline
 62
7
  6
CONTINUOUS
 70
0
 71
3
 72
11
 73
7
 74
0
 42
0.0000001
 43
0.0000001
 44
0.0000000001
 40
0.0
 40
0.0
 40
0.0
 40
0.0
 40
0.237239768
 40
0.4999988393
 40
0.7627585384
 40
1.0
 40
1.0
 40
1.0
 40
1.0
 10
107.4684777571
 20
297.8912972847
 30
0.0
 10
106.5398734003
 20
298.4274151314
 30
0.0
 10
104.7826159945
 20
299.9063693546
 30
0.0
 10
102.7316577824
 20
302.7090658646
 30
0.0
 10
101.3299127066
 20
305.8865965794
 30
0.0
 10
100.9277127995
 20
308.1479100818
 30
0.0
 10
100.9277127995
 20
309.2201716225
 30
0.0
  0
SPLINE
  5
5B4
100
AcDbEntity
  8
00_COMPONENTS
100
AcDbSpline
 62
7
  6
CONTINUOUS
 70
0
 71
3
 72
9
 73
5
 74
0
 42
0.0000001
 43
0.0000001
 44
0.0000000001
 40
0.0
 40
0.0
 40
0.0
 40
0.0
 40
0.2796269845
 40
1.0
 40
1.0
 40
1.0
 40
1.0
 10
100.9277127995
 20
309.2201716225
 30
0.0
 10
100.9277127995
 20
309.5385792159
 30
0.0
 10
100.9883654177
 20
310.6718694238
 30
0.0
 10
101.3335176673
 20
311.8226230427
 30
0.0
 10
101.8059120409
 20
312.4932210975
 30
0.0
  0
SPLINE
  5
5B5
100
AcDbEntity
  8
00_COMPONENTS
100
AcDbSpline
 62
7
  6
CONTINUOUS
 70
0
 71
3
 72
9
 73
5
 74
0
 42
0.0000001
 43
0.0000001
 44
0.0000000001
 40
0.0
 40
0.0
 40
0.0
 40
0.0
 40
0.2549163146
 40
1.0
 40
1.0
 40
1.0
 40
1.0
 10
101.8059120409
 20
312.4932210975
 30
0.0
 10
101.843373995
 20
312.5464010568
 30
0.0
 10
101.9957718906
 20
312.7511106665
 30
0.0
 10
102.1704451968
 20
312.9394108634
 30
0.0
 10
102.3115661051
 20
313.0668275622
 30
0.0
  0
SPLINE
  5
5B6
100
AcDbEntity
  8
00_COMPONENTS
100
AcDbSpline
 62
7
  6
CONTINUOUS
 70
0
 71
3
 72
15
 73
11
 74
0
 42
0.0000001
 43
0.0000001
 44
0.0000000001
 40
0.0
 40
0.0
 40
0.0
 40
0.0
 40
0.1288285297
 40
0.2705731043
 40
0.4178848725
 40
0.5623830488
 40
0.6962002801
 40
0.8135916328
 40
0.9130641676
 40
1.0
 40
1.0
 40
1.0
 40
1.0
 10
103.0490419749
 20
307.9954493589
 30
0.0
 10
103.0490419749
 20
307.4612311691
 30
0.0
 10
103.1985033346
 20
306.3379524339
 30
0.0
 10
103.7562715701
 20
304.6886913183
 30
0.0
 10
104.6159278792
 20
303.0998524124
 30
0.0
 10
105.7077677373
 20
301.7021241036
 30
0.0
 10
106.9445183552
 20
300.6069573126
 30
0.0
 10
108.2343416222
 20
299.9024100578
 30
0.0
 10
109.4968034002
 20
299.649588909
 30
0.0
 10
110.2812667869
 20
299.8510177561
 30
0.0
 10
110.5933979053
 20
300.0313910248
 30
0.0
  0
SPLINE
  5
5B7
100
AcDbEntity
  8
00_COMPONENTS
100
AcDbSpline
 62
7
  6
CONTINUOUS
 70
0
 71
3
 72
11
 73
7
 74
0
 42
0.0000001
 43
0.0000001
 44
0.0000000001
 40
0.0
 40
0.0
 40
0.0
 40
0.0
 40
0.2345160231
 40
0.4941557823
 40
0.7569481612
 40
1.0
 40
1.0
 40
1.0
 40
1.0
 10
146.4298991876
 20
339.3692313613
 30
0.0
 10
147.7421350536
 20
338.61162877
 30
0.0
 10
150.2431608989
 20
336.5526038762
 30
0.0
 10
153.236120854
 20
332.6433707116
 30
0.0
 10
155.3978207771
 20
328.1584909051
 30
0.0
 10
156.1542789929
 20
324.9366310827
 30
0.0
 10
156.2816236011
 20
323.3714212531
 30
0.0
  0
SPLINE
  5
5B8
100
AcDbEntity
  8
00_COMPONENTS
100
AcDbSpline
 62
7
  6
CONTINUOUS
 70
0
 71
3
 72
11
 73
7
 74
0
 42
0.0000001
 43
0.0000001
 44
0.0000000001
 40
0.0
 40
0.0
 40
0.0
 40
0.0
 40
0.28970066
 40
0.5490882258
 40
0.7822179595
 40
1.0
 40
1.0
 40
1.0
 40
1.0
 10
146.4298991876
 20
336.1032216928
 30
0.0
 10
145.9911124928
 20
336.3565495781
 30
0.0
 10
145.1182202551
 20
336.7718025625
 30
0.0
 10
143.7765685513
 20
337.0958103919
 30
0.0
 10
142.5176923014
 20
337.0639280099
 30
0.0
 10
141.7598088975
 20
336.7888512032
 30
0.0
 10
141.4299386015
 20
336.5984349483
 30
0.0
  0
SPLINE
  5
5B9
100
AcDbEntity
  8
00_COMPONENTS
100
AcDbSpline
 62
7
  6
CONTINUOUS
 70
0
 71
3
 72
11
 73
7
 74
0
 42
0.0000001
 43
0.0000001
 44
0.0000000001
 40
0.0
 40
0.0
 40
0.0
 40
0.0
 40
0.235624153
 40
0.496548231
 40
0.7593519974
 40
1.0
 40
1.0
 40
1.0
 40
1.0
 10
144.6621395945
 20
335.0826113081
 30
0.0
 10
145.6276117137
 20
334.5252083303
 30
0.0
 10
147.4622441807
 20
333.0005919153
 30
0.0
 10
149.6349493034
 20
330.1078022044
 30
0.0
 10
151.1691336164
 20
326.8050059972
 30
0.0
 10
151.6673474258
 20
324.441505466
 30
0.0
 10
151.7218105616
 20
323.3042142391
 30
0.0
  0
SPLINE
  5
5BA
100
AcDbEntity
  8
00_COMPONENTS
100
AcDbSpline
 62
7
  6
CONTINUOUS
 70
0
 71
3
 72
16
 73
12
 74
0
 42
0.0000001
 43
0.0000001
 44
0.0000000001
 40
0.0
 40
0.0
 40
0.0
 40
0.0
 40
0.1287489314
 40
0.2703969846
 40
0.4176188959
 40
0.5620226724
 40
0.6957498727
 40
0.8130640984
 40
0.9124718534
 40
0.9571193875
 40
1.0
 40
1.0
 40
1.0
 40
1.0
 10
151.0261271209
 20
323.2434203461
 30
0.0
 10
151.0261271209
 20
324.012720414
 30
0.0
 10
150.8109249507
 20
325.630247613
 30
0.0
 10
150.0076494589
 20
328.0052011519
 30
0.0
 10
148.7696785086
 20
330.2930880098
 30
0.0
 10
147.1977181381
 20
332.3060367849
 30
0.0
 10
145.4157022746
 20
333.8822958823
 30
0.0
 10
143.5618200412
 20
334.899203713
 30
0.0
 10
141.9879970293
 20
335.2066652975
 30
0.0
 10
140.8732495581
 20
335.0430241473
 30
0.0
 10
140.3840564308
 20
334.8399313684
 30
0.0
 10
140.162180515
 20
334.7117916245
 30
0.0
  0
SPLINE
  5
5BB
100
AcDbEntity
  8
00_COMPONENTS
100
AcDbSpline
 62
7
  6
CONTINUOUS
 70
0
 71
3
 72
9
 73
5
 74
0
 42
0.0000001
 43
0.0000001
 44
0.0000000001
 40
0.0
 40
0.0
 40
0.0
 40
0.0
 40
0.2746710385
 40
1.0
 40
1.0
 40
1.0
 40
1.0
 10
58.5011292907
 20
151.1446764235
 30
0.0
 10
58.5011292907
 20
151.4172182633
 30
0.0
 10
58.5472727556
 20
152.4066113817
 30
0.0
 10
58.7977658234
 20
153.4033148507
 30
0.0
 10
59.1421083081
 20
154.0353001973
 30
0.0
  0
SPLINE
  5
5BC
100
AcDbEntity
  8
00_COMPONENTS
100
AcDbSpline
 62
7
  6
CONTINUOUS
 70
0
 71
3
 72
11
 73
7
 74
0
 42
0.0000001
 43
0.0000001
 44
0.0000000001
 40
0.0
 40
0.0
 40
0.0
 40
0.0
 40
0.2177434119
 40
0.4508805377
 40
0.710457812
 40
1.0
 40
1.0
 40
1.0
 40
1.0
 10
227.9997971055
 20
268.2943925316
 30
0.0
 10
227.9997970582
 20
268.4467164248
 30
0.0
 10
227.9438602691
 20
268.7642974924
 30
0.0
 10
227.7029482342
 20
269.2068595063
 30
0.0
 10
227.3221729848
 20
269.6066055131
 30
0.0
 10
227.0038517587
 20
269.826095258
 30
0.0
 10
226.8284362661
 20
269.9273691487
 30
0.0
  0
SPLINE
  5
5BD
100
AcDbEntity
  8
00_COMPONENTS
100
AcDbSpline
 62
7
  6
CONTINUOUS
 70
0
 71
3
 72
15
 73
11
 74
0
 42
0.0000001
 43
0.0000001
 44
0.0000000001
 40
0.0
 40
0.0
 40
0.0
 40
0.0
 40
0.1288285297
 40
0.2705731043
 40
0.4178848725
 40
0.5623830488
 40
0.6962002801
 40
0.8135916328
 40
0.9130641676
 40
1.0
 40
1.0
 40
1.0
 40
1.0
 10
60.6224584661
 20
149.9199541599
 30
0.0
 10
60.6224584661
 20
149.3857359701
 30
0.0
 10
60.7719198258
 20
148.262457235
 30
0.0
 10
61.3296880613
 20
146.6131961194
 30
0.0
 10
62.1893443704
 20
145.0243572135
 30
0.0
 10
63.2811842285
 20
143.6266289046
 30
0.0
 10
64.5179348464
 20
142.5314621136
 30
0.0
 10
65.8077581134
 20
141.8269148588
 30
0.0
 10
67.0702198914
 20
141.57409371
 30
0.0
 10
67.8546832781
 20
141.7755225572
 30
0.0
 10
68.1668143964
 20
141.9558958259
 30
0.0
  0
SPLINE
  5
5BE
100
AcDbEntity
  8
00_COMPONENTS
100
AcDbSpline
 62
7
  6
CONTINUOUS
 70
0
 71
3
 72
11
 73
7
 74
0
 42
0.0000001
 43
0.0000001
 44
0.0000000001
 40
0.0
 40
0.0
 40
0.0
 40
0.0
 40
0.2177660095
 40
0.4508968553
 40
0.7103699668
 40
1.0
 40
1.0
 40
1.0
 40
1.0
 10
146.7701411177
 20
103.7921125201
 30
0.0
 10
146.5640393072
 20
103.6730111071
 30
0.0
 10
146.1781028205
 20
103.3490478922
 30
0.0
 10
145.767504496
 20
102.6773965828
 30
0.0
 10
145.5237500341
 20
101.8499121702
 30
0.0
 10
145.4756254837
 20
101.2476583446
 30
0.0
 10
145.4756254837
 20
100.9310636175
 30
0.0
  0
SPLINE
  5
5BF
100
AcDbEntity
  8
00_COMPONENTS
100
AcDbSpline
 62
7
  6
CONTINUOUS
 70
0
 71
3
 72
15
 73
11
 74
0
 42
0.0000001
 43
0.0000001
 44
0.0000000001
 40
0.0
 40
0.0
 40
0.0
 40
0.0
 40
0.1288285297
 40
0.2705731043
 40
0.4178848725
 40
0.5623830488
 40
0.6962002801
 40
0.8135916328
 40
0.9130641676
 40
1.0
 40
1.0
 40
1.0
 40
1.0
 10
201.5843870938
 20
305.8932375696
 30
0.0
 10
201.5843870938
 20
306.4060870318
 30
0.0
 10
201.4409041885
 20
307.4844346176
 30
0.0
 10
200.9054466824
 20
309.0677252885
 30
0.0
 10
200.0801766257
 20
310.5930106382
 30
0.0
 10
199.0320103619
 20
311.9348298147
 30
0.0
 10
197.8447297688
 20
312.9861899341
 30
0.0
 10
196.6064994324
 20
313.6625552987
 30
0.0
 10
195.3945361255
 20
313.9052636015
 30
0.0
 10
194.6414512744
 20
313.7118919082
 30
0.0
 10
194.3418054007
 20
313.5387335703
 30
0.0
  0
SPLINE
  5
5C0
100
AcDbEntity
  8
00_COMPONENTS
100
AcDbSpline
 62
7
  6
CONTINUOUS
 70
0
 71
3
 72
9
 73
5
 74
0
 42
0.0000001
 43
0.0000001
 44
0.0000000001
 40
0.0
 40
0.0
 40
0.0
 40
0.0
 40
0.7463418244
 40
1.0
 40
1.0
 40
1.0
 40
1.0
 10
153.8180063658
 20
90.0713974078
 30
0.0
 10
153.6807236357
 20
90.031829436
 30
0.0
 10
153.4930264478
 20
89.9908158248
 30
0.0
 10
153.3032909251
 20
89.9653121934
 30
0.0
 10
153.2550465341
 20
89.9598073951
 30
0.0
  0
SPLINE
  5
5C1
100
AcDbEntity
  8
00_COMPONENTS
100
AcDbSpline
 62
7
  6
CONTINUOUS
 70
0
 71
3
 72
14
 73
10
 74
0
 42
0.0000001
 43
0.0000001
 44
0.0000000001
 40
0.0
 40
0.0
 40
0.0
 40
0.0
 40
0.1994475485
 40
0.3229161317
 40
0.4581136146
 40
0.5996518553
 40
0.7412119897
 40
0.876462996
 40
1.0
 40
1.0
 40
1.0
 40
1.0
 10
153.1736818927
 20
89.9514449275
 30
0.0
 10
152.0499081555
 20
89.848571397
 30
0.0
 10
150.1851336939
 20
90.5017786285
 30
0.0
 10
148.1195502412
 20
92.0506295043
 30
0.0
 10
146.5573709685
 20
93.7122436868
 30
0.0
 10
145.2214863667
 20
95.6746588322
 30
0.0
 10
144.1880850699
 20
97.8148611066
 30
0.0
 10
143.527493606
 20
99.9909258883
 30
0.0
 10
143.3542963083
 20
101.4568145306
 30
0.0
 10
143.3542963083
 20
102.1557858811
 30
0.0
  0
SPLINE
  5
5C2
100
AcDbEntity
  8
00_COMPONENTS
100
AcDbSpline
 62
7
  6
CONTINUOUS
 70
0
 71
3
 72
9
 73
5
 74
0
 42
0.0000001
 43
0.0000001
 44
0.0000000001
 40
0.0
 40
0.0
 40
0.0
 40
0.0
 40
0.2794979748
 40
1.0
 40
1.0
 40
1.0
 40
1.0
 10
203.212792203
 20
204.6381388921
 30
0.0
 10
203.2083063683
 20
204.4978198141
 30
0.0
 10
203.1653435924
 20
203.9990337536
 30
0.0
 10
202.9925258334
 20
203.4969574364
 30
0.0
 10
202.7713287596
 20
203.2105182975
 30
0.0
  0
SPLINE
  5
5C3
100
AcDbEntity
  8
00_COMPONENTS
100
AcDbSpline
 62
7
  6
CONTINUOUS
 70
0
 71
3
 72
9
 73
5
 74
0
 42
0.0000001
 43
0.0000001
 44
0.0000000001
 40
0.0
 40
0.0
 40
0.0
 40
0.0
 40
0.2561836683
 40
1.0
 40
1.0
 40
1.0
 40
1.0
 10
202.7713287596
 20
203.2105182975
 30
0.0
 10
202.7413066839
 20
203.1716412122
 30
0.0
 10
202.617407934
 20
203.0252283548
 30
0.0
 10
202.4651970777
 20
202.9024559515
 30
0.0
 10
202.3417230861
 20
202.8310856171
 30
0.0
  0
SPLINE
  5
5C4
100
AcDbEntity
  8
00_COMPONENTS
100
AcDbSpline
 62
7
  6
CONTINUOUS
 70
0
 71
3
 72
9
 73
5
 74
0
 42
0.0000001
 43
0.0000001
 44
0.0000000001
 40
0.0
 40
0.0
 40
0.0
 40
0.0
 40
0.2381199178
 40
1.0
 40
1.0
 40
1.0
 40
1.0
 10
200.7987230962
 20
209.5347232479
 30
0.0
 10
200.9261796894
 20
209.432751382
 30
0.0
 10
201.4407264575
 20
208.9788865465
 30
0.0
 10
201.8757526875
 20
208.4378324776
 30
0.0
 10
202.15843048
 20
207.9986879504
 30
0.0
  0
SPLINE
  5
5C5
100
AcDbEntity
  8
00_COMPONENTS
100
AcDbSpline
 62
7
  6
CONTINUOUS
 70
0
 71
3
 72
9
 73
5
 74
0
 42
0.0000001
 43
0.0000001
 44
0.0000000001
 40
0.0
 40
0.0
 40
0.0
 40
0.0
 40
0.525510353
 40
1.0
 40
1.0
 40
1.0
 40
1.0
 10
202.3093363651
 20
207.7536969942
 30
0.0
 10
202.5896358243
 20
207.2777682935
 30
0.0
 10
203.0242939086
 20
206.3106475266
 30
0.0
 10
203.2147337392
 20
205.2593066793
 30
0.0
 10
203.2147337392
 20
204.7605951302
 30
0.0
  0
SPLINE
  5
5C6
100
AcDbEntity
  8
00_COMPONENTS
100
AcDbSpline
 62
7
  6
CONTINUOUS
 70
0
 71
3
 72
9
 73
5
 74
0
 42
0.0000001
 43
0.0000001
 44
0.0000000001
 40
0.0
 40
0.0
 40
0.0
 40
0.0
 40
0.4760489767
 40
1.0
 40
1.0
 40
1.0
 40
1.0
 10
160.7843879374
 20
297.2792237148
 30
0.0
 10
160.7843879374
 20
296.2160929493
 30
0.0
 10
161.0847351928
 20
293.9808353948
 30
0.0
 10
161.8109904404
 20
291.8556273037
 30
0.0
 10
162.2805885551
 20
290.7838861749
 30
0.0
  0
SPLINE
  5
5C7
100
AcDbEntity
  8
00_COMPONENTS
100
AcDbSpline
 62
7
  6
CONTINUOUS
 70
0
 71
3
 72
11
 73
7
 74
0
 42
0.0000001
 43
0.0000001
 44
0.0000000001
 40
0.0
 40
0.0
 40
0.0
 40
0.0
 40
0.2177660095
 40
0.4508968553
 40
0.7103699668
 40
1.0
 40
1.0
 40
1.0
 40
1.0
 10
115.4884850676
 20
352.1355211656
 30
0.0
 10
115.6863428056
 20
352.249858522
 30
0.0
 10
116.0568418329
 20
352.5608632083
 30
0.0
 10
116.4510162244
 20
353.2056484653
 30
0.0
 10
116.6850205079
 20
354.0000335014
 30
0.0
 10
116.7312200762
 20
354.578197174
 30
0.0
 10
116.7312200762
 20
354.882128112
 30
0.0
  0
SPLINE
  5
5C8
100
AcDbEntity
  8
00_COMPONENTS
100
AcDbSpline
 62
7
  6
CONTINUOUS
 70
0
 71
3
 72
8
 73
4
 74
0
 42
0.0000001
 43
0.0000001
 44
0.0000000001
 40
0.0
 40
0.0
 40
0.0
 40
0.0
 40
1.0
 40
1.0
 40
1.0
 40
1.0
 10
197.9207350038
 20
210.3415376273
 30
0.0
 10
197.8082962042
 20
210.2766272151
 30
0.0
 10
197.7035993293
 20
210.1963518946
 30
0.0
 10
197.6111250606
 20
210.1052236614
 30
0.0
  0
SPLINE
  5
5C9
100
AcDbEntity
  8
00_COMPONENTS
100
AcDbSpline
 62
7
  6
CONTINUOUS
 70
0
 71
3
 72
9
 73
5
 74
0
 42
0.0000001
 43
0.0000001
 44
0.0000000001
 40
0.0
 40
0.0
 40
0.0
 40
0.0
 40
0.455848626
 40
1.0
 40
1.0
 40
1.0
 40
1.0
 10
197.6111250606
 20
210.1052236614
 30
0.0
 10
197.3985152494
 20
209.8957085528
 30
0.0
 10
197.065765484
 20
209.2996194922
 30
0.0
 10
196.9886331392
 20
208.6379884968
 30
0.0
 10
196.9886331392
 20
208.281671332
 30
0.0
  0
SPLINE
  5
5CA
100
AcDbEntity
  8
00_COMPONENTS
100
AcDbSpline
 62
7
  6
CONTINUOUS
 70
0
 71
3
 72
9
 73
5
 74
0
 42
0.0000001
 43
0.0000001
 44
0.0000000001
 40
0.0
 40
0.0
 40
0.0
 40
0.0
 40
0.4657705903
 40
1.0
 40
1.0
 40
1.0
 40
1.0
 10
82.2714854592
 20
277.1406177114
 30
0.0
 10
82.4833768143
 20
277.2391620074
 30
0.0
 10
82.9967359109
 20
277.3322414284
 30
0.0
 10
83.4956649892
 20
277.2158145965
 30
0.0
 10
83.7468647991
 20
277.12232607
 30
0.0
  0
SPLINE
  5
5CB
100
AcDbEntity
  8
00_COMPONENTS
100
AcDbSpline
 62
7
  6
CONTINUOUS
 70
0
 71
3
 72
11
 73
7
 74
0
 42
0.0000001
 43
0.0000001
 44
0.0000000001
 40
0.0
 40
0.0
 40
0.0
 40
0.0
 40
0.237239768
 40
0.4999988393
 40
0.7627585384
 40
1.0
 40
1.0
 40
1.0
 40
1.0
 10
149.8950612659
 20
273.3968520135
 30
0.0
 10
148.9664569092
 20
273.9329698602
 30
0.0
 10
147.2091995033
 20
275.4119240834
 30
0.0
 10
145.1582412912
 20
278.2146205934
 30
0.0
 10
143.7564962154
 20
281.3921513082
 30
0.0
 10
143.3542963083
 20
283.6534648106
 30
0.0
 10
143.3542963083
 20
284.7257263512
 30
0.0
  0
SPLINE
  5
5CC
100
AcDbEntity
  8
00_COMPONENTS
100
AcDbSpline
 62
7
  6
CONTINUOUS
 70
0
 71
3
 72
9
 73
5
 74
0
 42
0.0000001
 43
0.0000001
 44
0.0000000001
 40
0.0
 40
0.0
 40
0.0
 40
0.0
 40
0.2796269845
 40
1.0
 40
1.0
 40
1.0
 40
1.0
 10
143.3542963083
 20
284.7257263512
 30
0.0
 10
143.3542963083
 20
285.0441339447
 30
0.0
 10
143.4149489266
 20
286.1774241526
 30
0.0
 10
143.7601011761
 20
287.3281777715
 30
0.0
 10
144.2324955497
 20
287.9987758263
 30
0.0
  0
SPLINE
  5
5CD
100
AcDbEntity
  8
00_COMPONENTS
100
AcDbSpline
 62
7
  6
CONTINUOUS
 70
0
 71
3
 72
9
 73
5
 74
0
 42
0.0000001
 43
0.0000001
 44
0.0000000001
 40
0.0
 40
0.0
 40
0.0
 40
0.0
 40
0.2549163146
 40
1.0
 40
1.0
 40
1.0
 40
1.0
 10
144.2324955497
 20
287.9987758263
 30
0.0
 10
144.2699575038
 20
288.0519557855
 30
0.0
 10
144.4223553995
 20
288.2566653953
 30
0.0
 10
144.5970287056
 20
288.4449655922
 30
0.0
 10
144.7381496139
 20
288.572382291
 30
0.0
  0
SPLINE
  5
5CE
100
AcDbEntity
  8
00_COMPONENTS
100
AcDbSpline
 62
7
  6
CONTINUOUS
 70
0
 71
3
 72
15
 73
11
 74
0
 42
0.0000001
 43
0.0000001
 44
0.0000000001
 40
0.0
 40
0.0
 40
0.0
 40
0.0
 40
0.1288285297
 40
0.2705731043
 40
0.4178848725
 40
0.5623830488
 40
0.6962002801
 40
0.8135916328
 40
0.9130641676
 40
1.0
 40
1.0
 40
1.0
 40
1.0
 10
145.4756254837
 20
283.5010040877
 30
0.0
 10
145.4756254837
 20
282.9667858978
 30
0.0
 10
145.6250868434
 20
281.8435071627
 30
0.0
 10
146.1828550789
 20
280.1942460471
 30
0.0
 10
147.042511388
 20
278.6054071412
 30
0.0
 10
148.1343512461
 20
277.2076788324
 30
0.0
 10
149.371101864
 20
276.1125120413
 30
0.0
 10
150.660925131
 20
275.4079647865
 30
0.0
 10
151.9233869091
 20
275.1551436378
 30
0.0
 10
152.7078502957
 20
275.3565724849
 30
0.0
 10
153.0199814141
 20
275.5369457536
 30
0.0
  0
SPLINE
  5
5CF
100
AcDbEntity
  8
00_COMPONENTS
100
AcDbSpline
 62
7
  6
CONTINUOUS
 70
0
 71
3
 72
11
 73
7
 74
0
 42
0.0000001
 43
0.0000001
 44
0.0000000001
 40
0.0
 40
0.0
 40
0.0
 40
0.0
 40
0.2340663175
 40
0.4931455497
 40
0.7559086828
 40
1.0
 40
1.0
 40
1.0
 40
1.0
 10
86.1844573664
 20
315.44573206
 30
0.0
 10
86.1844573664
 20
315.114702897
 30
0.0
 10
86.2993317924
 20
314.4166641175
 30
0.0
 10
86.7081001892
 20
313.421264707
 30
0.0
 10
87.3162077088
 20
312.5163939281
 30
0.0
 10
87.8397685463
 20
312.0142397445
 30
0.0
 10
88.120915407
 20
311.8139290999
 30
0.0
  0
SPLINE
  5
5D0
100
AcDbEntity
  8
00_COMPONENTS
100
AcDbSpline
 62
7
  6
CONTINUOUS
 70
0
 71
3
 72
11
 73
7
 74
0
 42
0.0000001
 43
0.0000001
 44
0.0000000001
 40
0.0
 40
0.0
 40
0.0
 40
0.0
 40
0.2177660095
 40
0.4508968553
 40
0.7103699668
 40
1.0
 40
1.0
 40
1.0
 40
1.0
 10
104.3435576089
 20
128.2865577913
 30
0.0
 10
104.1374557984
 20
128.1674563783
 30
0.0
 10
103.7515193117
 20
127.8434931635
 30
0.0
 10
103.3409209872
 20
127.171841854
 30
0.0
 10
103.0971665253
 20
126.3443574414
 30
0.0
 10
103.0490419749
 20
125.7421036158
 30
0.0
 10
103.0490419749
 20
125.4255088887
 30
0.0
  0
SPLINE
  5
5D1
100
AcDbEntity
  8
00_COMPONENTS
100
AcDbSpline
 62
7
  6
CONTINUOUS
 70
0
 71
3
 72
9
 73
5
 74
0
 42
0.0000001
 43
0.0000001
 44
0.0000000001
 40
0.0
 40
0.0
 40
0.0
 40
0.0
 40
0.7463418244
 40
1.0
 40
1.0
 40
1.0
 40
1.0
 10
111.391422857
 20
114.565842679
 30
0.0
 10
111.2541401269
 20
114.5262747073
 30
0.0
 10
111.066442939
 20
114.485261096
 30
0.0
 10
110.8767074163
 20
114.4597574647
 30
0.0
 10
110.8284630253
 20
114.4542526663
 30
0.0
  0
SPLINE
  5
5D2
100
AcDbEntity
  8
00_COMPONENTS
100
AcDbSpline
 62
7
  6
CONTINUOUS
 70
0
 71
3
 72
14
 73
10
 74
0
 42
0.0000001
 43
0.0000001
 44
0.0000000001
 40
0.0
 40
0.0
 40
0.0
 40
0.0
 40
0.1994475485
 40
0.3229161317
 40
0.4581136146
 40
0.5996518553
 40
0.7412119897
 40
0.876462996
 40
1.0
 40
1.0
 40
1.0
 40
1.0
 10
110.7470983839
 20
114.4458901987
 30
0.0
 10
109.6233246466
 20
114.3430166683
 30
0.0
 10
107.7585501851
 20
114.9962238997
 30
0.0
 10
105.6929667323
 20
116.5450747755
 30
0.0
 10
104.1307874597
 20
118.2066889581
 30
0.0
 10
102.7949028578
 20
120.1691041034
 30
0.0
 10
101.7615015611
 20
122.3093063778
 30
0.0
 10
101.1009100972
 20
124.4853711595
 30
0.0
 10
100.9277127995
 20
125.9512598019
 30
0.0
 10
100.9277127995
 20
126.6502311523
 30
0.0
  0
SPLINE
  5
5D3
100
AcDbEntity
  8
00_COMPONENTS
100
AcDbSpline
 62
7
  6
CONTINUOUS
 70
0
 71
3
 72
11
 73
7
 74
0
 42
0.0000001
 43
0.0000001
 44
0.0000000001
 40
0.0
 40
0.0
 40
0.0
 40
0.0
 40
0.2345160231
 40
0.4941557823
 40
0.7569481612
 40
1.0
 40
1.0
 40
1.0
 40
1.0
 10
188.8564826964
 20
314.8747860901
 30
0.0
 10
190.1687185624
 20
314.1171834988
 30
0.0
 10
192.6697444077
 20
312.0581586049
 30
0.0
 10
195.6627043629
 20
308.1489254404
 30
0.0
 10
197.8244042859
 20
303.6640456339
 30
0.0
 10
198.5808625017
 20
300.4421858115
 30
0.0
 10
198.7082071099
 20
298.8769759819
 30
0.0
  0
SPLINE
  5
5D4
100
AcDbEntity
  8
00_COMPONENTS
100
AcDbSpline
 62
7
  6
CONTINUOUS
 70
0
 71
3
 72
11
 73
7
 74
0
 42
0.0000001
 43
0.0000001
 44
0.0000000001
 40
0.0
 40
0.0
 40
0.0
 40
0.0
 40
0.28970066
 40
0.5490882258
 40
0.7822179595
 40
1.0
 40
1.0
 40
1.0
 40
1.0
 10
188.8564826964
 20
311.6087764215
 30
0.0
 10
188.4176960016
 20
311.8621043069
 30
0.0
 10
187.544803764
 20
312.2773572913
 30
0.0
 10
186.2031520601
 20
312.6013651207
 30
0.0
 10
184.9442758102
 20
312.5694827387
 30
0.0
 10
184.1863924064
 20
312.294405932
 30
0.0
 10
183.8565221103
 20
312.103989677
 30
0.0
  0
SPLINE
  5
5D5
100
AcDbEntity
  8
00_COMPONENTS
100
AcDbSpline
 62
7
  6
CONTINUOUS
 70
0
 71
3
 72
11
 73
7
 74
0
 42
0.0000001
 43
0.0000001
 44
0.0000000001
 40
0.0
 40
0.0
 40
0.0
 40
0.0
 40
0.235624153
 40
0.496548231
 40
0.7593519974
 40
1.0
 40
1.0
 40
1.0
 40
1.0
 10
187.0887231033
 20
310.5881660369
 30
0.0
 10
188.0541952225
 20
310.0307630591
 30
0.0
 10
189.8888276895
 20
308.5061466441
 30
0.0
 10
192.0615328122
 20
305.6133569332
 30
0.0
 10
193.5957171252
 20
302.310560726
 30
0.0
 10
194.0939309346
 20
299.9470601947
 30
0.0
 10
194.1483940705
 20
298.8097689679
 30
0.0
  0
SPLINE
  5
5D6
100
AcDbEntity
  8
00_COMPONENTS
100
AcDbSpline
 62
7
  6
CONTINUOUS
 70
0
 71
3
 72
16
 73
12
 74
0
 42
0.0000001
 43
0.0000001
 44
0.0000000001
 40
0.0
 40
0.0
 40
0.0
 40
0.0
 40
0.1287489314
 40
0.2703969846
 40
0.4176188959
 40
0.5620226724
 40
0.6957498727
 40
0.8130640984
 40
0.9124718534
 40
0.9571193875
 40
1.0
 40
1.0
 40
1.0
 40
1.0
 10
193.4527106297
 20
298.7489750749
 30
0.0
 10
193.4527106297
 20
299.5182751427
 30
0.0
 10
193.2375084596
 20
301.1358023418
 30
0.0
 10
192.4342329677
 20
303.5107558807
 30
0.0
 10
191.1962620174
 20
305.7986427386
 30
0.0
 10
189.6243016469
 20
307.8115915137
 30
0.0
 10
187.8422857834
 20
309.3878506111
 30
0.0
 10
185.9884035501
 20
310.4047584418
 30
0.0
 10
184.4145805381
 20
310.7122200263
 30
0.0
 10
183.2998330669
 20
310.548578876
 30
0.0
 10
182.8106399396
 20
310.3454860972
 30
0.0
 10
182.5887640238
 20
310.2173463533
 30
0.0
  0
SPLINE
  5
5D7
100
AcDbEntity
  8
00_COMPONENTS
100
AcDbSpline
 62
7
  6
CONTINUOUS
 70
0
 71
3
 72
8
 73
4
 74
0
 42
0.0000001
 43
0.0000001
 44
0.0000000001
 40
0.0
 40
0.0
 40
0.0
 40
0.0
 40
1.0
 40
1.0
 40
1.0
 40
1.0
 10
197.9207350038
 20
138.4893249199
 30
0.0
 10
197.8082962042
 20
138.4244145077
 30
0.0
 10
197.7035993293
 20
138.3441391872
 30
0.0
 10
197.6111250606
 20
138.253010954
 30
0.0
  0
SPLINE
  5
5D8
100
AcDbEntity
  8
00_COMPONENTS
100
AcDbSpline
 62
7
  6
CONTINUOUS
 70
0
 71
3
 72
9
 73
5
 74
0
 42
0.0000001
 43
0.0000001
 44
0.0000000001
 40
0.0
 40
0.0
 40
0.0
 40
0.0
 40
0.455848626
 40
1.0
 40
1.0
 40
1.0
 40
1.0
 10
197.6111250606
 20
138.253010954
 30
0.0
 10
197.3985152494
 20
138.0434958454
 30
0.0
 10
197.065765484
 20
137.4474067848
 30
0.0
 10
196.9886331392
 20
136.7857757894
 30
0.0
 10
196.9886331392
 20
136.4294586246
 30
0.0
  0
SPLINE
  5
5D9
100
AcDbEntity
  8
00_COMPONENTS
100
AcDbSpline
 62
7
  6
CONTINUOUS
 70
0
 71
3
 72
9
 73
5
 74
0
 42
0.0000001
 43
0.0000001
 44
0.0000000001
 40
0.0
 40
0.0
 40
0.0
 40
0.0
 40
0.2383415038
 40
1.0
 40
1.0
 40
1.0
 40
1.0
 10
84.789677848
 20
276.5202712958
 30
0.0
 10
84.9012684369
 20
276.4329509421
 30
0.0
 10
85.3537897249
 20
276.0467259751
 30
0.0
 10
85.7458514631
 20
275.5917856808
 30
0.0
 10
86.0081064618
 20
275.2226560788
 30
0.0
  0
SPLINE
  5
5DA
100
AcDbEntity
  8
00_COMPONENTS
100
AcDbSpline
 62
7
  6
CONTINUOUS
 70
0
 71
3
 72
15
 73
11
 74
0
 42
0.0000001
 43
0.0000001
 44
0.0000000001
 40
0.0
 40
0.0
 40
0.0
 40
0.0
 40
0.1288285297
 40
0.2705731043
 40
0.4178848725
 40
0.5623830488
 40
0.6962002801
 40
0.8135916328
 40
0.9130641676
 40
1.0
 40
1.0
 40
1.0
 40
1.0
 10
244.0109706027
 20
281.3987922984
 30
0.0
 10
244.0109706027
 20
281.9116417606
 30
0.0
 10
243.8674876973
 20
282.9899893463
 30
0.0
 10
243.3320301912
 20
284.5732800173
 30
0.0
 10
242.5067601345
 20
286.0985653669
 30
0.0
 10
241.4585938707
 20
287.4403845434
 30
0.0
 10
240.2713132776
 20
288.4917446628
 30
0.0
 10
239.0330829412
 20
289.1681100275
 30
0.0
 10
237.8211196343
 20
289.4108183303
 30
0.0
 10
237.0680347832
 20
289.217446637
 30
0.0
 10
236.7683889095
 20
289.0442882991
 30
0.0
  0
SPLINE
  5
5DB
100
AcDbEntity
  8
00_COMPONENTS
100
AcDbSpline
 62
7
  6
CONTINUOUS
 70
0
 71
3
 72
9
 73
5
 74
0
 42
0.0000001
 43
0.0000001
 44
0.0000000001
 40
0.0
 40
0.0
 40
0.0
 40
0.0
 40
0.2254718586
 40
1.0
 40
1.0
 40
1.0
 40
1.0
 10
68.1632853659
 20
321.4991783745
 30
0.0
 10
67.9177287501
 20
321.4869657428
 30
0.0
 10
66.8228457131
 20
321.5376396125
 30
0.0
 10
65.7733129137
 20
321.9634673457
 30
0.0
 10
65.0418942483
 20
322.3857425559
 30
0.0
  0
SPLINE
  5
5DC
100
AcDbEntity
  8
00_COMPONENTS
100
AcDbSpline
 62
7
  6
CONTINUOUS
 70
0
 71
3
 72
8
 73
4
 74
0
 42
0.0000001
 43
0.0000001
 44
0.0000000001
 40
0.0
 40
0.0
 40
0.0
 40
0.0
 40
1.0
 40
1.0
 40
1.0
 40
1.0
 10
115.2934567652
 20
287.2091570419
 30
0.0
 10
115.2855474223
 20
287.1573778367
 30
0.0
 10
115.2820696596
 20
287.1048105615
 30
0.0
 10
115.2820696596
 20
287.0524307582
 30
0.0
  0
SPLINE
  5
5DD
100
AcDbEntity
  8
00_COMPONENTS
100
AcDbSpline
 62
7
  6
CONTINUOUS
 70
0
 71
3
 72
9
 73
5
 74
0
 42
0.0000001
 43
0.0000001
 44
0.0000000001
 40
0.0
 40
0.0
 40
0.0
 40
0.0
 40
0.4760489767
 40
1.0
 40
1.0
 40
1.0
 40
1.0
 10
203.2109714462
 20
272.7847784435
 30
0.0
 10
203.2109714462
 20
271.721647678
 30
0.0
 10
203.5113187016
 20
269.4863901236
 30
0.0
 10
204.2375739492
 20
267.3611820325
 30
0.0
 10
204.707172064
 20
266.2894409037
 30
0.0
  0
SPLINE
  5
5DE
100
AcDbEntity
  8
00_COMPONENTS
100
AcDbSpline
 62
7
  6
CONTINUOUS
 70
0
 71
3
 72
11
 73
7
 74
0
 42
0.0000001
 43
0.0000001
 44
0.0000000001
 40
0.0
 40
0.0
 40
0.0
 40
0.0
 40
0.237239768
 40
0.4999988393
 40
0.7627585384
 40
1.0
 40
1.0
 40
1.0
 40
1.0
 10
192.3216447747
 20
248.9024067423
 30
0.0
 10
191.393040418
 20
249.438524589
 30
0.0
 10
189.6357830121
 20
250.9174788122
 30
0.0
 10
187.5848248001
 20
253.7201753222
 30
0.0
 10
186.1830797243
 20
256.8977060369
 30
0.0
 10
185.7808798171
 20
259.1590195394
 30
0.0
 10
185.7808798171
 20
260.23128108
 30
0.0
  0
SPLINE
  5
5DF
100
AcDbEntity
  8
00_COMPONENTS
100
AcDbSpline
 62
7
  6
CONTINUOUS
 70
0
 71
3
 72
9
 73
5
 74
0
 42
0.0000001
 43
0.0000001
 44
0.0000000001
 40
0.0
 40
0.0
 40
0.0
 40
0.0
 40
0.2796269845
 40
1.0
 40
1.0
 40
1.0
 40
1.0
 10
185.7808798171
 20
260.23128108
 30
0.0
 10
185.7808798171
 20
260.5496886735
 30
0.0
 10
185.8415324354
 20
261.6829788813
 30
0.0
 10
186.1866846849
 20
262.8337325002
 30
0.0
 10
186.6590790585
 20
263.5043305551
 30
0.0
  0
SPLINE
  5
5E0
100
AcDbEntity
  8
00_COMPONENTS
100
AcDbSpline
 62
7
  6
CONTINUOUS
 70
0
 71
3
 72
9
 73
5
 74
0
 42
0.0000001
 43
0.0000001
 44
0.0000000001
 40
0.0
 40
0.0
 40
0.0
 40
0.0
 40
0.2549163146
 40
1.0
 40
1.0
 40
1.0
 40
1.0
 10
186.6590790585
 20
263.5043305551
 30
0.0
 10
186.6965410126
 20
263.5575105143
 30
0.0
 10
186.8489389083
 20
263.762220124
 30
0.0
 10
187.0236122144
 20
263.950520321
 30
0.0
 10
187.1647331227
 20
264.0779370198
 30
0.0
  0
SPLINE
  5
5E1
100
AcDbEntity
  8
00_COMPONENTS
100
AcDbSpline
 62
7
  6
CONTINUOUS
 70
0
 71
3
 72
15
 73
11
 74
0
 42
0.0000001
 43
0.0000001
 44
0.0000000001
 40
0.0
 40
0.0
 40
0.0
 40
0.0
 40
0.1288285297
 40
0.2705731043
 40
0.4178848725
 40
0.5623830488
 40
0.6962002801
 40
0.8135916328
 40
0.9130641676
 40
1.0
 40
1.0
 40
1.0
 40
1.0
 10
187.9022089926
 20
259.0065588165
 30
0.0
 10
187.9022089926
 20
258.4723406266
 30
0.0
 10
188.0516703522
 20
257.3490618915
 30
0.0
 10
188.6094385878
 20
255.6998007759
 30
0.0
 10
189.4690948968
 20
254.11096187
 30
0.0
 10
190.560934755
 20
252.7132335612
 30
0.0
 10
191.7976853728
 20
251.6180667701
 30
0.0
 10
193.0875086399
 20
250.9135195153
 30
0.0
 10
194.3499704179
 20
250.6606983666
 30
0.0
 10
195.1344338045
 20
250.8621272137
 30
0.0
 10
195.4465649229
 20
251.0425004824
 30
0.0
  0
SPLINE
  5
5E2
100
AcDbEntity
  8
00_COMPONENTS
100
AcDbSpline
 62
7
  6
CONTINUOUS
 70
0
 71
3
 72
11
 73
7
 74
0
 42
0.0000001
 43
0.0000001
 44
0.0000000001
 40
0.0
 40
0.0
 40
0.0
 40
0.0
 40
0.2176907916
 40
0.4508868986
 40
0.7106214304
 40
1.0
 40
1.0
 40
1.0
 40
1.0
 10
171.6797379123
 20
267.8758625937
 30
0.0
 10
171.5774813294
 20
267.8169282572
 30
0.0
 10
171.3861437078
 20
267.6561300974
 30
0.0
 10
171.1822426512
 20
267.3229977664
 30
0.0
 10
171.0617416869
 20
266.9123978633
 30
0.0
 10
171.037624384
 20
266.6137320147
 30
0.0
 10
171.037624384
 20
266.4568415176
 30
0.0
  0
SPLINE
  5
5E3
100
AcDbEntity
  8
00_COMPONENTS
100
AcDbSpline
 62
7
  6
CONTINUOUS
 70
0
 71
3
 72
11
 73
7
 74
0
 42
0.0000001
 43
0.0000001
 44
0.0000000001
 40
0.0
 40
0.0
 40
0.0
 40
0.0
 40
0.2345160231
 40
0.4941557823
 40
0.7569481612
 40
1.0
 40
1.0
 40
1.0
 40
1.0
 10
231.2830662052
 20
290.3803408188
 30
0.0
 10
232.5953020712
 20
289.6227382276
 30
0.0
 10
235.0963279166
 20
287.5637133337
 30
0.0
 10
238.0892878717
 20
283.6544801692
 30
0.0
 10
240.2509877947
 20
279.1696003626
 30
0.0
 10
241.0074460106
 20
275.9477405402
 30
0.0
 10
241.1347906187
 20
274.3825307107
 30
0.0
  0
SPLINE
  5
5E4
100
AcDbEntity
  8
00_COMPONENTS
100
AcDbSpline
 62
7
  6
CONTINUOUS
 70
0
 71
3
 72
11
 73
7
 74
0
 42
0.0000001
 43
0.0000001
 44
0.0000000001
 40
0.0
 40
0.0
 40
0.0
 40
0.0
 40
0.2177660095
 40
0.4508968553
 40
0.7103699668
 40
1.0
 40
1.0
 40
1.0
 40
1.0
 10
200.3416520852
 20
303.1466306231
 30
0.0
 10
200.5395098233
 20
303.2609679796
 30
0.0
 10
200.9100088505
 20
303.5719726658
 30
0.0
 10
201.3041832421
 20
304.2167579229
 30
0.0
 10
201.5381875255
 20
305.011142959
 30
0.0
 10
201.5843870938
 20
305.5893066315
 30
0.0
 10
201.5843870938
 20
305.8932375696
 30
0.0
  0
SPLINE
  5
5E5
100
AcDbEntity
  8
00_COMPONENTS
100
AcDbSpline
 62
7
  6
CONTINUOUS
 70
0
 71
3
 72
11
 73
7
 74
0
 42
0.0000001
 43
0.0000001
 44
0.0000000001
 40
0.0
 40
0.0
 40
0.0
 40
0.0
 40
0.28970066
 40
0.5490882258
 40
0.7822179595
 40
1.0
 40
1.0
 40
1.0
 40
1.0
 10
231.2830662052
 20
287.1143311503
 30
0.0
 10
230.8442795104
 20
287.3676590356
 30
0.0
 10
229.9713872728
 20
287.78291202
 30
0.0
 10
228.6297355689
 20
288.1069198495
 30
0.0
 10
227.3708593191
 20
288.0750374674
 30
0.0
 10
226.6129759152
 20
287.7999606608
 30
0.0
 10
226.2831056191
 20
287.6095444058
 30
0.0
  0
SPLINE
  5
5E6
100
AcDbEntity
  8
00_COMPONENTS
100
AcDbSpline
 62
7
  6
CONTINUOUS
 70
0
 71
3
 72
11
 73
7
 74
0
 42
0.0000001
 43
0.0000001
 44
0.0000000001
 40
0.0
 40
0.0
 40
0.0
 40
0.0
 40
0.235624153
 40
0.496548231
 40
0.7593519974
 40
1.0
 40
1.0
 40
1.0
 40
1.0
 10
229.5153066122
 20
286.0937207656
 30
0.0
 10
230.4807787313
 20
285.5363177879
 30
0.0
 10
232.3154111983
 20
284.0117013729
 30
0.0
 10
234.488116321
 20
281.118911662
 30
0.0
 10
236.022300634
 20
277.8161154548
 30
0.0
 10
236.5205144435
 20
275.4526149235
 30
0.0
 10
236.5749775793
 20
274.3153236966
 30
0.0
  0
SPLINE
  5
5E7
100
AcDbEntity
  8
00_COMPONENTS
100
AcDbSpline
 62
7
  6
CONTINUOUS
 70
0
 71
3
 72
16
 73
12
 74
0
 42
0.0000001
 43
0.0000001
 44
0.0000000001
 40
0.0
 40
0.0
 40
0.0
 40
0.0
 40
0.1287489314
 40
0.2703969846
 40
0.4176188959
 40
0.5620226724
 40
0.6957498727
 40
0.8130640984
 40
0.9124718534
 40
0.9571193875
 40
1.0
 40
1.0
 40
1.0
 40
1.0
 10
235.8792941385
 20
274.2545298037
 30
0.0
 10
235.8792941385
 20
275.0238298715
 30
0.0
 10
235.6640919684
 20
276.6413570706
 30
0.0
 10
234.8608164765
 20
279.0163106095
 30
0.0
 10
233.6228455262
 20
281.3041974674
 30
0.0
 10
232.0508851557
 20
283.3171462425
 30
0.0
 10
230.2688692922
 20
284.8934053399
 30
0.0
 10
228.4149870589
 20
285.9103131706
 30
0.0
 10
226.8411640469
 20
286.217774755
 30
0.0
 10
225.7264165758
 20
286.0541336048
 30
0.0
 10
225.2372234485
 20
285.851040826
 30
0.0
 10
225.0153475326
 20
285.7229010821
 30
0.0
  0
SPLINE
  5
5E8
100
AcDbEntity
  8
00_COMPONENTS
100
AcDbSpline
 62
7
  6
CONTINUOUS
 70
0
 71
3
 72
9
 73
5
 74
0
 42
0.0000001
 43
0.0000001
 44
0.0000000001
 40
0.0
 40
0.0
 40
0.0
 40
0.0
 40
0.4835236768
 40
1.0
 40
1.0
 40
1.0
 40
1.0
 10
113.4036419897
 20
205.2487510649
 30
0.0
 10
113.4036419897
 20
207.809230229
 30
0.0
 10
113.784865297
 20
213.1081297249
 30
0.0
 10
114.7937500017
 20
218.3187506193
 30
0.0
 10
115.4519303164
 20
220.9733515529
 30
0.0
  0
SPLINE
  5
5E9
100
AcDbEntity
  8
00_COMPONENTS
100
AcDbSpline
 62
7
  6
CONTINUOUS
 70
0
 71
3
 72
14
 73
10
 74
0
 42
0.0000001
 43
0.0000001
 44
0.0000000001
 40
0.0
 40
0.0
 40
0.0
 40
0.0
 40
0.0879622287
 40
0.1843256117
 40
0.2941220311
 40
0.4184640461
 40
0.5555223859
 40
0.7015535184
 40
1.0
 40
1.0
 40
1.0
 40
1.0
 10
89.2503455382
 20
354.3073162688
 30
0.0
 10
89.6018434879
 20
354.5102879085
 30
0.0
 10
90.4356607397
 20
354.7812727355
 30
0.0
 10
91.8135895439
 20
354.7005184752
 30
0.0
 10
93.2653367804
 20
354.1854310597
 30
0.0
 10
94.7282171799
 20
353.2750075661
 30
0.0
 10
96.1366809919
 20
352.0171267671
 30
0.0
 10
97.8578535399
 20
349.9509262605
 30
0.0
 10
98.8484152554
 20
348.1173017969
 30
0.0
 10
99.3295852116
 20
346.8269480257
 30
0.0
  0
SPLINE
  5
5EA
100
AcDbEntity
  8
00_COMPONENTS
100
AcDbSpline
 62
7
  6
CONTINUOUS
 70
0
 71
3
 72
14
 73
10
 74
0
 42
0.0000001
 43
0.0000001
 44
0.0000000001
 40
0.0
 40
0.0
 40
0.0
 40
0.0
 40
0.0879622287
 40
0.1843256117
 40
0.2941220311
 40
0.4184640461
 40
0.5555223859
 40
0.7015535184
 40
1.0
 40
1.0
 40
1.0
 40
1.0
 10
174.1035125558
 20
305.3184257264
 30
0.0
 10
174.4550105055
 20
305.5213973661
 30
0.0
 10
175.2888277574
 20
305.792382193
 30
0.0
 10
176.6667565616
 20
305.7116279327
 30
0.0
 10
178.1185037981
 20
305.1965405173
 30
0.0
 10
179.5813841975
 20
304.2861170236
 30
0.0
 10
180.9898480095
 20
303.0282362247
 30
0.0
 10
182.7110205575
 20
300.9620357181
 30
0.0
 10
183.7015822731
 20
299.1284112545
 30
0.0
 10
184.1827522292
 20
297.8380574832
 30
0.0
  0
SPLINE
  5
5EB
100
AcDbEntity
  8
00_COMPONENTS
100
AcDbSpline
 62
7
  6
CONTINUOUS
 70
0
 71
3
 72
9
 73
5
 74
0
 42
0.0000001
 43
0.0000001
 44
0.0000000001
 40
0.0
 40
0.0
 40
0.0
 40
0.0
 40
0.2611530219
 40
1.0
 40
1.0
 40
1.0
 40
1.0
 10
111.4709491982
 20
221.1162097362
 30
0.0
 10
111.2088909463
 20
219.9319110252
 30
0.0
 10
110.3145276077
 20
215.3745905368
 30
0.0
 10
109.8680933639
 20
210.7215884049
 30
0.0
 10
109.8680933639
 20
207.2899548375
 30
0.0
  0
SPLINE
  5
5EC
100
AcDbEntity
  8
00_COMPONENTS
100
AcDbSpline
 62
7
  6
CONTINUOUS
 70
0
 71
3
 72
11
 73
7
 74
0
 42
0.0000001
 43
0.0000001
 44
0.0000000001
 40
0.0
 40
0.0
 40
0.0
 40
0.0
 40
0.2177660095
 40
0.4508968553
 40
0.7103699668
 40
1.0
 40
1.0
 40
1.0
 40
1.0
 10
61.9169741001
 20
152.7810030625
 30
0.0
 10
61.7108722896
 20
152.6619016495
 30
0.0
 10
61.3249358029
 20
152.3379384347
 30
0.0
 10
60.9143374784
 20
151.6662871252
 30
0.0
 10
60.6705830164
 20
150.8388027127
 30
0.0
 10
60.6224584661
 20
150.2365488871
 30
0.0
 10
60.6224584661
 20
149.9199541599
 30
0.0
  0
SPLINE
  5
5ED
100
AcDbEntity
  8
00_COMPONENTS
100
AcDbSpline
 62
7
  6
CONTINUOUS
 70
0
 71
3
 72
11
 73
7
 74
0
 42
0.0000001
 43
0.0000001
 44
0.0000000001
 40
0.0
 40
0.0
 40
0.0
 40
0.0
 40
0.2177849011
 40
0.4509184398
 40
0.7103088704
 40
1.0
 40
1.0
 40
1.0
 40
1.0
 10
182.0887683797
 20
311.0833689483
 30
0.0
 10
182.4186543277
 20
311.2737674421
 30
0.0
 10
183.1765266394
 20
311.5488925547
 30
0.0
 10
184.435429353
 20
311.5807395636
 30
0.0
 10
185.7770697381
 20
311.2567346157
 30
0.0
 10
186.6499512191
 20
310.8414853715
 30
0.0
 10
187.0887231033
 20
310.5881660369
 30
0.0
  0
ELLIPSE
  5
5EE
100
AcDbEntity
  8
00_COMPONENTS
100
AcDbEllipse
 62
7
  6
CONTINUOUS
 10
168.3904748827
 20
89.2988919777
 30
0.0
 11
-3.6730991824
 21
4.7945007475
 31
0.0
 40
0.4694682735
 41
-2.41754961
 42
-0.9855224411
  0
ELLIPSE
  5
5EF
100
AcDbEntity
  8
00_COMPONENTS
100
AcDbEllipse
 62
7
  6
CONTINUOUS
 10
125.9638913739
 20
113.7933372489
 30
0.0
 11
-3.6730991824
 21
4.7945007475
 31
0.0
 40
0.4694682735
 41
-2.41754961
 42
-0.9855224411
  0
ELLIPSE
  5
5F0
100
AcDbEntity
  8
00_COMPONENTS
100
AcDbEllipse
 62
7
  6
CONTINUOUS
 10
83.5373078651
 20
138.2877825202
 30
0.0
 11
-3.6730991824
 21
4.7945007475
 31
0.0
 40
0.4694682735
 41
-2.41754961
 42
-0.9855224411
  0
ELLIPSE
  5
5F1
100
AcDbEntity
  8
00_COMPONENTS
100
AcDbEllipse
 62
7
  6
CONTINUOUS
 10
78.1237230498
 20
187.9901826845
 30
0.0
 11
-5.0001146967
 21
8.6602669594
 31
0.0
 40
0.5773567998
 41
0.7853930955
 42
2.3561894223
  0
ELLIPSE
  5
5F2
100
AcDbEntity
  8
00_COMPONENTS
100
AcDbEllipse
 62
7
  6
CONTINUOUS
 10
83.5373078651
 20
138.2877825202
 30
0.0
 11
-3.6730991824
 21
4.7945007475
 31
0.0
 40
0.4694682735
 41
5.9306693022
 42
7.0072283508
  0
ELLIPSE
  5
5F3
100
AcDbEntity
  8
00_COMPONENTS
100
AcDbEllipse
 62
7
  6
CONTINUOUS
 10
189.7919434097
 20
142.6256314232
 30
0.0
 11
-5.0001146967
 21
8.6602669594
 31
0.0
 40
0.5773567998
 41
-3.1442107046
 42
-2.3561995581
  0
ELLIPSE
  5
5F4
100
AcDbEntity
  8
00_COMPONENTS
100
AcDbEllipse
 62
7
  6
CONTINUOUS
 10
189.7919434097
 20
213.6613417135
 30
0.0
 11
-5.0001146967
 21
8.6602669594
 31
0.0
 40
0.5773567998
 41
-2.3561995581
 42
-0.7854032313
  0
ELLIPSE
  5
5F5
100
AcDbEntity
  8
00_COMPONENTS
100
AcDbEllipse
 62
7
  6
CONTINUOUS
 10
78.1237230498
 20
259.0258929748
 30
0.0
 11
-5.0001146967
 21
8.6602669594
 31
0.0
 40
0.5773567998
 41
-0.7854032313
 42
0.7853930955
  0
ELLIPSE
  5
5F6
100
AcDbEntity
  8
00_COMPONENTS
100
AcDbEllipse
 62
7
  6
CONTINUOUS
 10
94.5833154708
 20
268.6288251525
 30
0.0
 11
-5.0001146967
 21
8.6602669594
 31
0.0
 40
0.5773567998
 41
-0.7854032313
 42
0.0026180509
  0
ELLIPSE
  5
5F7
100
AcDbEntity
  8
00_COMPONENTS
100
AcDbEllipse
 62
7
  6
CONTINUOUS
 10
176.5989400385
 20
88.7309367338
 30
0.0
 11
-0.6734015168
 21
0.8789918037
 31
0.0
 40
0.4694682735
 41
1.1179188041
 42
3.4717609651
  0
ELLIPSE
  5
5F8
100
AcDbEntity
  8
00_COMPONENTS
100
AcDbEllipse
 62
7
  6
CONTINUOUS
 10
41.1107243562
 20
162.7822277914
 30
0.0
 11
-1.8365495912
 21
2.3972503738
 31
0.0
 40
0.4694682735
 41
-3.9883459368
 42
-0.8467532832
  0
ELLIPSE
  5
5F9
100
AcDbEntity
  8
00_COMPONENTS
100
AcDbEllipse
 62
7
  6
CONTINUOUS
 10
125.8946490267
 20
286.8518728313
 30
0.0
 11
-2.0175342568
 21
5.7106798341
 31
0.0
 40
0.6665664847
 41
0.908822318
 42
4.0504149716
  0
ELLIPSE
  5
5FA
100
AcDbEntity
  8
00_COMPONENTS
100
AcDbEllipse
 62
7
  6
CONTINUOUS
 10
83.4680655179
 20
311.3463181025
 30
0.0
 11
-2.0175342568
 21
5.7106798341
 31
0.0
 40
0.6665664847
 41
0.908822318
 42
4.0504149716
  0
ELLIPSE
  5
5FB
100
AcDbEntity
  8
00_COMPONENTS
100
AcDbEllipse
 62
7
  6
CONTINUOUS
 10
116.1410101927
 20
286.5277269613
 30
0.0
 11
-0.4203196368
 21
1.1897249654
 31
0.0
 40
0.6665664847
 41
4.2111056245
 42
7.0313169722
  0
ELLIPSE
  5
5FC
100
AcDbEntity
  8
00_COMPONENTS
100
AcDbEllipse
 62
7
  6
CONTINUOUS
 10
190.325799613
 20
72.7328187674
 30
0.0
 11
-5.6626945728
 21
7.3915219857
 31
0.0
 40
0.4694682735
 41
0.0
 42
6.2831853072
  0
ELLIPSE
  5
5FD
100
AcDbEntity
  8
00_COMPONENTS
100
AcDbEllipse
 62
7
  6
CONTINUOUS
 10
210.7465240204
 20
237.8637282223
 30
0.0
 11
-1.0087671284
 21
2.8553399171
 31
0.0
 40
0.6665664847
 41
5.6206022349
 42
8.7634130154
  0
ELLIPSE
  5
5FE
100
AcDbEntity
  8
00_COMPONENTS
100
AcDbEllipse
 62
7
  6
CONTINUOUS
 10
176.5281807202
 20
251.6639665252
 30
0.0
 11
-0.4203196368
 21
1.1897249654
 31
0.0
 40
0.6665664847
 41
4.2111056245
 42
7.0313169722
  0
ELLIPSE
  5
5FF
100
AcDbEntity
  8
00_COMPONENTS
100
AcDbEllipse
 62
7
  6
CONTINUOUS
 10
105.4048093502
 20
304.2524922449
 30
0.0
 11
-3.1103653126
 21
8.8039647443
 31
0.0
 40
0.6665664847
 41
0.0
 42
6.2831853072
  0
ELLIPSE
  5
600
100
AcDbEntity
  8
00_COMPONENTS
100
AcDbEllipse
 62
7
  6
CONTINUOUS
 10
210.8170583915
 20
64.8044467065
 30
0.0
 11
-1.8365495912
 21
2.3972503738
 31
0.0
 40
0.4694682735
 41
5.436432024
 42
8.5780246776
  0
ELLIPSE
  5
601
100
AcDbEntity
  8
00_COMPONENTS
100
AcDbEllipse
 62
7
  6
CONTINUOUS
 10
63.0460490866
 20
146.2161545811
 30
0.0
 11
-5.6626945728
 21
7.3915219857
 31
0.0
 40
0.4694682735
 41
0.0
 42
6.2831853072
  0
ELLIPSE
  5
602
100
AcDbEntity
  8
00_COMPONENTS
100
AcDbEllipse
 62
7
  6
CONTINUOUS
 10
168.3904748827
 20
89.2988919777
 30
0.0
 11
-3.6730991824
 21
4.7945007475
 31
0.0
 40
0.4694682735
 41
5.5811915833
 42
7.0072283508
  0
ELLIPSE
  5
603
100
AcDbEntity
  8
00_COMPONENTS
100
AcDbEllipse
 62
7
  6
CONTINUOUS
 10
147.8992161042
 20
97.2272640387
 30
0.0
 11
-5.6626945728
 21
7.3915219857
 31
0.0
 40
0.4694682735
 41
0.0
 42
6.2831853072
  0
ELLIPSE
  5
604
100
AcDbEntity
  8
00_COMPONENTS
100
AcDbEllipse
 62
7
  6
CONTINUOUS
 10
168.3212325355
 20
262.3574275601
 30
0.0
 11
-2.0175342568
 21
5.7106798341
 31
0.0
 40
0.6665664847
 41
0.908822318
 42
4.0504149716
  0
ELLIPSE
  5
605
100
AcDbEntity
  8
00_COMPONENTS
100
AcDbEllipse
 62
7
  6
CONTINUOUS
 10
147.8313928591
 20
279.7580469737
 30
0.0
 11
-3.1103653126
 21
8.8039647443
 31
0.0
 40
0.6665664847
 41
0.0
 42
6.2831853072
  0
ELLIPSE
  5
606
100
AcDbEntity
  8
00_COMPONENTS
100
AcDbEllipse
 62
7
  6
CONTINUOUS
 10
105.4726325954
 20
121.7217093099
 30
0.0
 11
-5.6626945728
 21
7.3915219857
 31
0.0
 40
0.4694682735
 41
0.0
 42
6.2831853072
  0
ELLIPSE
  5
607
100
AcDbEntity
  8
00_COMPONENTS
100
AcDbEllipse
 62
7
  6
CONTINUOUS
 10
62.9782258414
 20
328.7469375162
 30
0.0
 11
-3.1103653126
 21
8.8039647443
 31
0.0
 40
0.6665664847
 41
0.0
 42
6.2831853072
  0
ELLIPSE
  5
608
100
AcDbEntity
  8
00_COMPONENTS
100
AcDbEllipse
 62
7
  6
CONTINUOUS
 10
125.9638913739
 20
113.7933372489
 30
0.0
 11
-3.6730991824
 21
4.7945007475
 31
0.0
 40
0.4694682735
 41
5.5811915833
 42
7.0072283508
  0
ELLIPSE
  5
609
100
AcDbEntity
  8
00_COMPONENTS
100
AcDbEllipse
 62
7
  6
CONTINUOUS
 10
190.2579763679
 20
255.2636017025
 30
0.0
 11
-3.1103653126
 21
8.8039647443
 31
0.0
 40
0.6665664847
 41
0.0
 42
6.2831853072
  0
ELLIPSE
  5
60A
100
AcDbEntity
  8
00_COMPONENTS
100
AcDbEllipse
 62
7
  6
CONTINUOUS
 10
173.1590762492
 20
204.15844749
 30
0.0
 11
-5.0001146967
 21
8.6602669594
 31
0.0
 40
0.5773567998
 41
-2.3561995581
 42
-0.7854032313
  0
ELLIPSE
  5
60B
100
AcDbEntity
  8
00_COMPONENTS
100
AcDbEllipse
 62
7
  6
CONTINUOUS
 10
173.1590762491
 20
133.1227371998
 30
0.0
 11
-5.0001146967
 21
8.6602669594
 31
0.0
 40
0.5773567998
 41
2.3561894223
 42
3.9269857491
  0
ENDSEC
  0
SECTION
  2
OBJECTS
  0
DICTIONARY
  5
C
100
AcDbDictionary
280
0
281
1
  3
ACAD_GROUP
350
D
  3
ACAD_MLINESTYLE
350
17
  3
ACAD_LAYOUT
350
1A
  3
ACAD_PLOTSETTINGS
350
19
  3
ACAD_PLOTSTYLENAME
350
E
  0
DICTIONARY
  5
D
102
{ACAD_REACTORS
330
C
102
}
100
AcDbDictionary
280
0
281
1
  0
ACDBDICTIONARYWDFLT
  5
E
102
{ACAD_REACTORS
330
C
102
}
100
AcDbDictionary
281
1
  3
Normal
350
F
100
AcDbDictionaryWithDefault
340
F
  0
DICTIONARY
  5
17
102
{ACAD_REACTORS
330
C
102
}
100
AcDbDictionary
280
0
281
1
  3
Standard
350
18
  0
DICTIONARY
  5
19
102
{ACAD_REACTORS
330
C
102
}
100
AcDbDictionary
281
1
  0
DICTIONARY
  5
1A
102
{ACAD_REACTORS
330
C
102
}
100
AcDbDictionary
281
1
  3
Model
350
60C
  3
Layout1
350
60D
  0
ACDBPLACEHOLDER
  5
F
102
{ACAD_REACTORS
330
E
102
}
  0
MLINESTYLE
  5
18
102
{ACAD_REACTORS
330
17
102
}
100
AcDbMlineStyle
  2
STANDARD
 70
0
  3

 62
256
 51
90.0
 52
90.0
 71
2
 49
0.5
 62
256
  6
BYLAYER
 49
-0.5
 62
256
  6
BYLAYER
  0
LAYOUT
  5
60C
102
{ACAD_REACTORS
330
1A
102
}
100
AcDbPlotSettings
  1

  2
none_device
  4

  6

 40
0.0
 41
0.0
 42
0.0
 43
0.0
 44
210.0
 45
297.0
 46
0.0
 47
0.0
 48
0.0
 49
0.0
140
0.0
141
0.0
142
1.0
143
1.0
 70
1024
 72
1
 73
0
 74
0
  7

 75
0
147
1.0
148
0.0
149
0.0
100
AcDbLayout
  1
Model
 70
0
 71
0
 10
0.0
 20
0.0
 11
210.0
 21
297.0
 12
0.0
 22
0.0
 32
0.0
 14
0.0
 24
0.0
 34
0.0
 15
0.0
 25
0.0
 35
0.0
146
0.0
 13
0.0
 23
0.0
 33
0.0
 16
1.0
 26
0.0
 36
0.0
 17
0.0
 27
1.0
 37
0.0
 76
0
330
213
345
0
346
0
  0
LAYOUT
  5
60D
102
{ACAD_REACTORS
330
1A
102
}
100
AcDbPlotSettings
  1

  2
none_device
  4

  6

 40
0.0
 41
0.0
 42
0.0
 43
0.0
 44
210.0
 45
297.0
 46
0.0
 47
0.0
 48
0.0
 49
0.0
140
0.0
141
0.0
142
1.0
143
1.0
 70
0
 72
1
 73
0
 74
0
  7

 75
0
147
1.0
148
0.0
149
0.0
100
AcDbLayout
  1
Layout1
 70
0
 71
1
 10
0.0
 20
0.0
 11
210.0
 21
297.0
 12
0.0
 22
0.0
 32
0.0
 14
0.0
 24
0.0
 34
0.0
 15
0.0
 25
0.0
 35
0.0
146
0.0
 13
0.0
 23
0.0
 33
0.0
 16
1.0
 26
0.0
 36
0.0
 17
0.0
 27
1.0
 37
0.0
 76
0
330
214
345
0
346
0
  0
ENDSEC
  0
EOF
