999
DXF file: C:\Users\sesa63760\Dev\_Creo\CAD\MCADFD0002082_3D-CAD\drw0001_1.dxf
999
Pro/ENGINEER 2019471 by Parametric Technology Corporation
  0
SECTION
  2
HEADER
  9
$ACADVER
  1
AC1024
  9
$DWGCODEPAGE
  3
ANSI_1252
  9
$EXTMAX
 10
250.7113239777
 20
354.5774439113
 30
0.0
  9
$EXTMIN
 10
0.0
 20
0.0
 30
0.0
  9
$LIMMIN
 10
0.0
 20
0.0
  9
$LIMMAX
 10
250.7113239777
 20
354.5774439113
  9
$VIEWCTR
 10
125.3556619888
 20
177.2887219557
  9
$VIEWSIZE
 40
354.5774439113
  9
$CLAYER
  8
0
  9
$LTSCALE
 40
23.1131963438
  9
$CELTYPE
  6
BYLAYER
  9
$DIMSCALE
 40
1.0
  9
$DIMASZ
 40
2.9846586188
  9
$DIMEXO
 40
1.0
  9
$DIMDLI
 40
15.9691174739
  9
$DIMEXE
 40
1.0
  9
$DIMCEN
 40
3.7821594017
  9
$DIMLFAC
 40
1.0
  9
$DIMBLK
  1
_FILLED
  9
$DIMALT
 70
0
  9
$DIMALTF
 40
0.0393700787
  9
$DIMTXT
 40
4.1785220663
  9
$DIMTOL
 70
1
  9
$DIMLIM
 70
0
  9
$DIMTFAC
 40
1.0
  9
$DIMTP
 40
0.01
  9
$DIMTM
 40
0.01
  9
$DIMGAP
 40
0.625
  9
$DIMDSEP
 70
46
  9
$AUNITS
 70
0
  9
$PDMODE
 70
3
  9
$PDSIZE
 40
0.3125
  9
$HANDSEED
  5
262
  9
$TILEMODE
 70
1
  9
$MEASUREMENT
 70
1
  9
$INSUNITS
 70
4
  0
ENDSEC
  0
SECTION
  2
CLASSES
  0
CLASS
  1
ACDBDICTIONARYWDFLT
  2
AcDbDictionaryWithDefault
  3
AutoCAD 2000
 90
0
 91
1
280
0
281
0
  0
CLASS
  1
ACDBPLACEHOLDER
  2
AcDbPlaceHolder
  3
AutoCAD 2000
 90
0
 91
1
280
0
281
0
  0
CLASS
  1
LAYOUT
  2
AcDbLayout
  3
AutoCAD 2000
 90
0
 91
0
280
0
281
0
  0
ENDSEC
  0
SECTION
  2
TABLES
  0
TABLE
  2
VPORT
  5
8
100
AcDbSymbolTable
 70
2
  0
VPORT
  5
1F4
100
AcDbSymbolTableRecord
100
AcDbViewportTableRecord
  2
*ACTIVE
 70
0
 10
0.0
 20
0.0
 11
1.0
 21
1.0
 12
125.3556619888
 22
177.2887219557
 13
0.0
 23
0.0
 14
1.0
 24
1.0
 15
0.0
 25
0.0
 16
0.0
 26
0.0
 36
1.0
 17
0.0
 27
0.0
 37
0.0
 40
354.5774439113
 41
0.7070707071
 42
50.0
 43
0.0
 44
0.0
 50
0.0
 51
0.0
 71
0
 72
100
 73
1
 74
1
 75
0
 76
0
 77
0
 78
0
  0
ENDTAB
  0
TABLE
  2
LTYPE
  5
5
100
AcDbSymbolTable
 70
6
  0
LTYPE
  5
14
100
AcDbSymbolTableRecord
100
AcDbLinetypeTableRecord
  2
BYBLOCK
 70
0
  3

 72
65
 73
0
 40
0.0
  0
LTYPE
  5
15
100
AcDbSymbolTableRecord
100
AcDbLinetypeTableRecord
  2
BYLAYER
 70
0
  3

 72
65
 73
0
 40
0.0
  0
LTYPE
  5
16
100
AcDbSymbolTableRecord
100
AcDbLinetypeTableRecord
  2
CONTINUOUS
 70
64
  3
Solid line
 72
65
 73
0
 40
0.0
  0
LTYPE
  5
1F5
100
AcDbSymbolTableRecord
100
AcDbLinetypeTableRecord
  2
CENTER
 70
64
  3
____ _ ____ _ ____ _ ____ _ ____ _ ____ _ ____
 72
65
 73
4
 40
0.6
 49
0.375
 74
0
 49
-0.075
 74
0
 49
0.075
 74
0
 49
-0.075
 74
0
  0
LTYPE
  5
1F6
100
AcDbSymbolTableRecord
100
AcDbLinetypeTableRecord
  2
HIDDEN
 70
64
  3
- - - - - - - - - - - - - - - - - - - -
 72
65
 73
2
 40
0.2
 49
0.1
 74
0
 49
-0.1
 74
0
  0
LTYPE
  5
1F7
100
AcDbSymbolTableRecord
100
AcDbLinetypeTableRecord
  2
PHANTOM
 70
64
  3
_____ _ _ _____ _ _ _____ _ _ _____
 72
65
 73
6
 40
0.8
 49
0.45
 74
0
 49
-0.05
 74
0
 49
0.1
 74
0
 49
-0.05
 74
0
 49
0.1
 74
0
 49
-0.05
 74
0
  0
LTYPE
  5
1F8
100
AcDbSymbolTableRecord
100
AcDbLinetypeTableRecord
  2
DOT
 70
64
  3
. . . . . . . . . . . . . . . . . . . .
 72
65
 73
2
 40
0.2
 49
0.1
 74
0
 49
-0.1
 74
0
  0
LTYPE
  5
1F9
100
AcDbSymbolTableRecord
100
AcDbLinetypeTableRecord
  2
DASHED
 70
64
  3
- - - - - - - - - - - - - - - - - - - -
 72
65
 73
2
 40
0.2
 49
0.1
 74
0
 49
-0.1
 74
0
  0
ENDTAB
  0
TABLE
  2
LAYER
  5
2
100
AcDbSymbolTable
 70
36
  0
LAYER
  5
10
100
AcDbSymbolTableRecord
100
AcDbLayerTableRecord
  2
0
 70
0
 62
7
  6
CONTINUOUS
370
-3
390
F
  0
LAYER
  5
1FA
100
AcDbSymbolTableRecord
100
AcDbLayerTableRecord
  2
DEFAULT_1
 70
0
 62
7
  6
CENTER
370
-3
390
F
  0
LAYER
  5
1FB
100
AcDbSymbolTableRecord
100
AcDbLayerTableRecord
  2
DEFAULT_2
 70
0
 62
8
  6
HIDDEN
370
-3
390
F
  0
LAYER
  5
1FC
100
AcDbSymbolTableRecord
100
AcDbLayerTableRecord
  2
DEFAULT_3
 70
0
 62
7
  6
PHANTOM
370
-3
390
F
  0
LAYER
  5
1FD
100
AcDbSymbolTableRecord
100
AcDbLayerTableRecord
  2
00_COMPONENTS
 70
0
 62
7
  6
CONTINUOUS
370
-3
390
F
  0
LAYER
  5
1FE
100
AcDbSymbolTableRecord
100
AcDbLayerTableRecord
  2
01_1_DEFAULT_DATUMS
 70
0
 62
7
  6
CONTINUOUS
370
-3
390
F
  0
LAYER
  5
1FF
100
AcDbSymbolTableRecord
100
AcDbLayerTableRecord
  2
01_PLANES
 70
0
 62
7
  6
CONTINUOUS
370
-3
390
F
  0
LAYER
  5
200
100
AcDbSymbolTableRecord
100
AcDbLayerTableRecord
  2
02_COORD_SYS
 70
0
 62
7
  6
CONTINUOUS
370
-3
390
F
  0
LAYER
  5
201
100
AcDbSymbolTableRecord
100
AcDbLayerTableRecord
  2
03_AXES
 70
0
 62
7
  6
CONTINUOUS
370
-3
390
F
  0
LAYER
  5
202
100
AcDbSymbolTableRecord
100
AcDbLayerTableRecord
  2
04_POINTS
 70
0
 62
7
  6
CONTINUOUS
370
-3
390
F
  0
LAYER
  5
203
100
AcDbSymbolTableRecord
100
AcDbLayerTableRecord
  2
05_CURVES
 70
0
 62
7
  6
CONTINUOUS
370
-3
390
F
  0
LAYER
  5
204
100
AcDbSymbolTableRecord
100
AcDbLayerTableRecord
  2
06_SURFS
 70
0
 62
7
  6
CONTINUOUS
370
-3
390
F
  0
LAYER
  5
205
100
AcDbSymbolTableRecord
100
AcDbLayerTableRecord
  2
07_COSMETICS
 70
0
 62
7
  6
CONTINUOUS
370
-3
390
F
  0
LAYER
  5
206
100
AcDbSymbolTableRecord
100
AcDbLayerTableRecord
  2
10_NOTES
 70
0
 62
7
  6
CONTINUOUS
370
-3
390
F
  0
LAYER
  5
207
100
AcDbSymbolTableRecord
100
AcDbLayerTableRecord
  2
11_NOTES_PUB
 70
0
 62
7
  6
CONTINUOUS
370
-3
390
F
  0
LAYER
  5
208
100
AcDbSymbolTableRecord
100
AcDbLayerTableRecord
  2
13_REF_GTOL
 70
0
 62
7
  6
CONTINUOUS
370
-3
390
F
  0
LAYER
  5
209
100
AcDbSymbolTableRecord
100
AcDbLayerTableRecord
  2
16_MISC
 70
0
 62
7
  6
CONTINUOUS
370
-3
390
F
  0
LAYER
  5
20A
100
AcDbSymbolTableRecord
100
AcDbLayerTableRecord
  2
17_NO_PRINT
 70
0
 62
7
  6
CONTINUOUS
370
-3
390
F
  0
LAYER
  5
20B
100
AcDbSymbolTableRecord
100
AcDbLayerTableRecord
  2
18_DATUM_CAMS_JOINTS
 70
0
 62
7
  6
CONTINUOUS
370
-3
390
F
  0
LAYER
  5
20C
100
AcDbSymbolTableRecord
100
AcDbLayerTableRecord
  2
19_DATUM_FUNCTIONAL
 70
0
 62
7
  6
CONTINUOUS
370
-3
390
F
  0
LAYER
  5
20D
100
AcDbSymbolTableRecord
100
AcDbLayerTableRecord
  2
20_DATUM_KINEMATIC_SCHEME
 70
0
 62
7
  6
CONTINUOUS
370
-3
390
F
  0
ENDTAB
  0
TABLE
  2
STYLE
  5
3
100
AcDbSymbolTable
 70
1
  0
STYLE
  5
11
100
AcDbSymbolTableRecord
100
AcDbTextStyleTableRecord
  2
STANDARD
 70
0
 40
0.0
 41
0.8
 50
0.0
 71
0
 42
0.2
  3
txt
  4

  0
STYLE
  5
20E
100
AcDbSymbolTableRecord
100
AcDbTextStyleTableRecord
  2
TEXTSTYLE_1
 70
0
 40
0.0
 41
0.8
 50
0.0
 71
0
 42
0.2
  3
gdt
  4

  0
ENDTAB
  0
TABLE
  2
VIEW
  5
6
100
AcDbSymbolTable
 70
0
  0
ENDTAB
  0
TABLE
  2
UCS
  5
7
100
AcDbSymbolTable
 70
0
  0
ENDTAB
  0
TABLE
  2
APPID
  5
9
100
AcDbSymbolTable
 70
1
  0
APPID
  5
20F
100
AcDbSymbolTableRecord
100
AcDbRegAppTableRecord
  2
ACAD
 70
0
  0
ENDTAB
  0
TABLE
  2
BLOCK_RECORD
  5
1
100
AcDbSymbolTable
 70
0
  0
BLOCK_RECORD
  5
210
100
AcDbSymbolTableRecord
100
AcDbBlockTableRecord
  2
*Model_Space
  0
BLOCK_RECORD
  5
211
100
AcDbSymbolTableRecord
100
AcDbBlockTableRecord
  2
*Paper_Space
  0
BLOCK_RECORD
  5
212
100
AcDbSymbolTableRecord
100
AcDbBlockTableRecord
  2
_FILLED
  0
ENDTAB
  0
TABLE
  2
DIMSTYLE
  5
A
100
AcDbSymbolTable
 70
1
100
AcDbDimStyleTable
 71
0
  0
DIMSTYLE
105
213
100
AcDbSymbolTableRecord
100
AcDbDimStyleTableRecord
  2
STANDARD
 70
0
  3

  4

 40
1.0
 41
2.9846586188
 42
1.0
 43
0.38
 44
1.0
 45
0.0
 46
0.0
 47
0.01
 48
0.01
140
4.1785220663
141
0.09
142
0.0
143
25.4
144
1.0
145
0.0
146
1.0
147
0.625
 71
1
 72
0
 73
0
 74
0
 75
0
 76
0
 77
1
 78
8
 79
2
170
0
171
1
172
0
173
0
174
0
175
0
176
0
177
0
178
0
270
2
179
2
271
2
272
2
273
2
274
2
275
0
280
0
281
0
282
0
283
1
284
8
285
0
286
0
287
3
288
0
340
11
278
46
341
212
342
212
343
212
344
212
  0
ENDTAB
  0
ENDSEC
  0
SECTION
  2
BLOCKS
  0
BLOCK
  5
20
100
AcDbEntity
  8
0
100
AcDbBlockBegin
  2
*Model_Space
 70
0
 10
0.0
 20
0.0
 30
0.0
  3
*Model_Space
  1

  0
ENDBLK
  5
21
100
AcDbEntity
  8
0
100
AcDbBlockEnd
  0
BLOCK
  5
1C
100
AcDbEntity
  8
0
100
AcDbBlockBegin
  2
*Paper_Space
 70
0
 10
0.0
 20
0.0
 30
0.0
  3
*Paper_Space
  1

  0
ENDBLK
  5
1D
100
AcDbEntity
  8
0
100
AcDbBlockEnd
  0
BLOCK
  5
214
100
AcDbEntity
  8
0
100
AcDbBlockBegin
  2
_FILLED
 70
64
 10
0.0
 20
0.0
  3
_FILLED
  1

  0
SOLID
  5
215
100
AcDbEntity
  8
0
  6
BYBLOCK
 62
0
100
AcDbTrace
 10
0.0
 20
0.0
 11
-1.0
 21
0.25
 12
-1.0
 22
-0.25
 13
-1.0
 23
-0.25
  0
ENDBLK
  5
216
100
AcDbEntity
  8
0
  6
BYBLOCK
 62
0
100
AcDbBlockEnd
  0
ENDSEC
  0
SECTION
  2
ENTITIES
  0
LINE
  5
217
100
AcDbEntity
  8
0
100
AcDbLine
 62
7
  6
CONTINUOUS
 10
36.2866814046
 20
306.8674391711
 11
41.3182944675
 21
309.772424987
  0
LINE
  5
218
100
AcDbEntity
  8
0
100
AcDbLine
 62
7
  6
CONTINUOUS
 10
70.1683282716
 20
295.8105323653
 11
68.0470167599
 21
294.5857999037
  0
LINE
  5
219
100
AcDbEntity
  8
0
100
AcDbLine
 62
7
  6
CONTINUOUS
 10
108.3519225277
 20
314.75296897
 11
72.8554185426
 21
294.2591751704
  0
LINE
  5
21A
100
AcDbEntity
  8
0
100
AcDbLine
 62
7
  6
CONTINUOUS
 10
46.4802790697
 20
251.5724576326
 11
46.7014539115
 21
251.7001522248
  0
LINE
  5
21B
100
AcDbEntity
  8
0
100
AcDbLine
 62
7
  6
CONTINUOUS
 10
183.3655042352
 20
40.6898256281
 11
36.2866814046
 21
125.6039025683
  0
LINE
  5
21C
100
AcDbEntity
  8
0
100
AcDbLine
 62
7
  6
CONTINUOUS
 10
46.0084786827
 20
157.0593512547
 11
45.9730093082
 21
157.4681457866
  0
LINE
  5
21D
100
AcDbEntity
  8
0
100
AcDbLine
 62
7
  6
CONTINUOUS
 10
46.0084786827
 20
157.0593512547
 11
45.9787695578
 21
157.4721031572
  0
LINE
  5
21E
100
AcDbEntity
  8
0
100
AcDbLine
 62
7
  6
CONTINUOUS
 10
80.6336758504
 20
232.7770681662
 11
80.0558119485
 21
232.4434402784
  0
LINE
  5
21F
100
AcDbEntity
  8
0
100
AcDbLine
 62
7
  6
CONTINUOUS
 10
46.0084786827
 20
157.0593512547
 11
163.1765601396
 21
89.4138582307
  0
LINE
  5
220
100
AcDbEntity
  8
0
100
AcDbLine
 62
7
  6
CONTINUOUS
 10
162.6744019123
 20
90.0384165425
 11
46.0012972631
 21
157.3981410384
  0
LINE
  5
221
100
AcDbEntity
  8
0
100
AcDbLine
 62
7
  6
CONTINUOUS
 10
80.6336758504
 20
232.7770681662
 11
80.6336758504
 21
236.8595802519
  0
LINE
  5
222
100
AcDbEntity
  8
0
100
AcDbLine
 62
7
  6
CONTINUOUS
 10
101.8469087254
 20
232.7772066091
 11
101.8469087254
 21
228.6946946145
  0
LINE
  5
223
100
AcDbEntity
  8
0
100
AcDbLine
 62
7
  6
CONTINUOUS
 10
167.7494880057
 20
237.0238535163
 11
169.8707995173
 21
238.2485859779
  0
LINE
  5
224
100
AcDbEntity
  8
0
100
AcDbLine
 62
7
  6
CONTINUOUS
 10
211.1656765641
 20
255.3947632628
 11
174.7992197585
 21
234.3987049662
  0
LINE
  5
225
100
AcDbEntity
  8
0
100
AcDbLine
 62
7
  6
CONTINUOUS
 10
46.2982927564
 20
157.2266744894
 11
46.0084786827
 21
157.0593512547
  0
LINE
  5
226
100
AcDbEntity
  8
0
100
AcDbLine
 62
7
  6
CONTINUOUS
 10
183.3655042352
 20
221.9533622308
 11
188.3971172981
 21
224.8583480467
  0
LINE
  5
227
100
AcDbEntity
  8
0
100
AcDbLine
 62
7
  6
CONTINUOUS
 10
122.6359346448
 20
216.6924164316
 11
122.6359346448
 21
220.7749284717
  0
LINE
  5
228
100
AcDbEntity
  8
0
100
AcDbLine
 62
7
  6
CONTINUOUS
 10
225.5200039845
 20
230.5324768783
 11
189.4009920631
 21
209.6792800994
  0
LINE
  5
229
100
AcDbEntity
  8
0
100
AcDbLine
 62
7
  6
CONTINUOUS
 10
190.3769815466
 20
202.7310340001
 11
188.3971172981
 21
201.5879656664
  0
LINE
  5
22A
100
AcDbEntity
  8
0
100
AcDbLine
 62
7
  6
CONTINUOUS
 10
46.4802790697
 20
251.5724576326
 11
163.153383719
 21
184.2127331367
  0
LINE
  5
22B
100
AcDbEntity
  8
0
100
AcDbLine
 62
7
  6
CONTINUOUS
 10
163.1765601396
 20
184.4547395846
 11
129.1292268737
 21
204.1115319147
  0
LINE
  5
22C
100
AcDbEntity
  8
0
100
AcDbLine
 62
7
  6
CONTINUOUS
 10
80.0558119485
 20
232.4434402784
 11
46.0084786827
 21
252.1002326086
  0
LINE
  5
22D
100
AcDbEntity
  8
0
100
AcDbLine
 62
7
  6
CONTINUOUS
 10
163.1014957588
 20
90.2837097698
 11
163.1765601396
 21
89.4138582307
  0
LINE
  5
22E
100
AcDbEntity
  8
0
100
AcDbLine
 62
7
  6
CONTINUOUS
 10
163.1133639126
 20
90.2918498588
 11
163.1765601396
 21
89.4138582307
  0
LINE
  5
22F
100
AcDbEntity
  8
0
100
AcDbLine
 62
7
  6
CONTINUOUS
 10
123.8694491989
 20
215.8741068146
 11
100.4293341515
 21
229.406957393
  0
LINE
  5
230
100
AcDbEntity
  8
0
100
AcDbLine
 62
7
  6
CONTINUOUS
 10
122.6359346448
 20
216.6924164316
 11
101.8469087254
 21
228.6946946145
  0
LINE
  5
231
100
AcDbEntity
  8
0
100
AcDbLine
 62
7
  6
CONTINUOUS
 10
101.8469087254
 20
232.7772066091
 11
122.6359346448
 21
220.7749284717
  0
LINE
  5
232
100
AcDbEntity
  8
0
100
AcDbLine
 62
7
  6
CONTINUOUS
 10
96.1102713314
 20
244.5170183801
 11
95.3997386996
 21
244.8926221942
  0
LINE
  5
233
100
AcDbEntity
  8
0
100
AcDbLine
 62
7
  6
CONTINUOUS
 10
116.8992972507
 20
232.5147401972
 11
96.1102713314
 21
244.5170183801
  0
LINE
  5
234
100
AcDbEntity
  8
0
100
AcDbLine
 62
7
  6
CONTINUOUS
 10
188.3971172981
 20
224.8583480467
 11
188.3971172981
 21
43.594811444
  0
LINE
  5
235
100
AcDbEntity
  8
0
100
AcDbLine
 62
7
  6
CONTINUOUS
 10
190.3769815466
 20
75.3566569279
 11
190.3769815466
 21
202.7310340001
  0
LINE
  5
236
100
AcDbEntity
  8
0
100
AcDbLine
 62
7
  6
CONTINUOUS
 10
36.2866814046
 20
306.8674391711
 11
183.3655042352
 21
221.9533622308
  0
LINE
  5
237
100
AcDbEntity
  8
0
100
AcDbLine
 62
7
  6
CONTINUOUS
 10
188.3971172981
 20
224.8583480467
 11
41.3182944675
 21
309.772424987
  0
LINE
  5
238
100
AcDbEntity
  8
0
100
AcDbLine
 62
7
  6
CONTINUOUS
 10
167.7494880057
 20
237.0238535163
 11
68.0470167599
 21
294.5857999037
  0
LINE
  5
239
100
AcDbEntity
  8
0
100
AcDbLine
 62
7
  6
CONTINUOUS
 10
169.8707995173
 20
238.2485859779
 11
70.1683282716
 21
295.8105323653
  0
LINE
  5
23A
100
AcDbEntity
  8
0
100
AcDbLine
 62
7
  6
CONTINUOUS
 10
225.5200039845
 20
98.7489867536
 11
225.5200039845
 21
230.5324768783
  0
LINE
  5
23B
100
AcDbEntity
  8
0
100
AcDbLine
 62
7
  6
CONTINUOUS
 10
163.1133639126
 20
90.2918498588
 11
162.6744019123
 21
90.0384165425
  0
LINE
  5
23C
100
AcDbEntity
  8
0
100
AcDbLine
 62
7
  6
CONTINUOUS
 10
211.1656765641
 20
255.3947632628
 11
108.3519225277
 21
314.75296897
  0
LINE
  5
23D
100
AcDbEntity
  8
0
100
AcDbLine
 62
7
  6
CONTINUOUS
 10
225.5200039845
 20
230.5324768783
 11
211.1656765641
 21
255.3947632628
  0
LINE
  5
23E
100
AcDbEntity
  8
0
100
AcDbLine
 62
7
  6
CONTINUOUS
 10
225.5200039845
 20
98.7489867536
 11
190.3769815466
 21
78.4592744021
  0
LINE
  5
23F
100
AcDbEntity
  8
0
100
AcDbLine
 62
7
  6
CONTINUOUS
 10
188.3971172981
 20
74.2135885942
 11
190.3769815466
 21
75.3566569279
  0
LINE
  5
240
100
AcDbEntity
  8
0
100
AcDbLine
 62
7
  6
CONTINUOUS
 10
188.3971172981
 20
43.594811444
 11
183.3655042352
 21
40.6898256281
  0
ARC
  5
241
100
AcDbEntity
  8
0
100
AcDbCircle
 62
7
  6
CONTINUOUS
 10
791.8837876953
 20
151.6040265053
 40
664.8312913922
100
AcDbArc
 50
174.9596005319
 51
175.4701366892
  0
ARC
  5
242
100
AcDbEntity
  8
0
100
AcDbCircle
 62
7
  6
CONTINUOUS
 10
741.1406168934
 20
180.0757118295
 40
663.155711965
100
AcDbArc
 50
174.958955548
 51
175.4707816731
  0
ARC
  5
243
100
AcDbEntity
  8
0
100
AcDbCircle
 62
7
  6
CONTINUOUS
 10
699.7832534792
 20
200.3124929787
 40
655.8227093783
100
AcDbArc
 50
175.4708623146
 51
175.7875295132
  0
ARC
  5
244
100
AcDbEntity
  8
0
100
AcDbCircle
 62
7
  6
CONTINUOUS
 10
153.591578764
 20
212.5123739596
 40
28.3065191105
100
AcDbArc
 50
57.1136308116
 51
59.9891319161
  0
ARC
  5
245
100
AcDbEntity
  8
0
100
AcDbCircle
 62
7
  6
CONTINUOUS
 10
55.0761535798
 20
272.1477784198
 40
25.9173320337
100
AcDbArc
 50
59.9688592756
 51
63.0177280344
  0
ARC
  5
246
100
AcDbEntity
  8
0
100
AcDbCircle
 62
7
  6
CONTINUOUS
 10
116.2022729066
 20
202.3514497224
 40
15.1917017689
100
AcDbArc
 50
29.6966114168
 51
32.8832185171
  0
ARC
  5
247
100
AcDbEntity
  8
0
100
AcDbCircle
 62
7
  6
CONTINUOUS
 10
117.8026415098
 20
203.2810789052
 40
13.3409872911
100
AcDbArc
 50
27.8636340968
 51
29.6334869368
  0
SPLINE
  5
248
100
AcDbEntity
  8
0
100
AcDbSpline
 62
7
  6
CONTINUOUS
 70
0
 71
3
 72
11
 73
7
 74
0
 42
0.0000001
 43
0.0000001
 44
0.0000000001
 40
0.0
 40
0.0
 40
0.0
 40
0.0
 40
0.2637534574
 40
0.5191618888
 40
0.7649272188
 40
1.0
 40
1.0
 40
1.0
 40
1.0
 10
46.4802790697
 20
251.5724576326
 30
0.0
 10
45.1273175407
 20
247.0889599213
 30
0.0
 10
42.7397658802
 20
238.1774102169
 30
0.0
 10
40.1118906585
 20
224.8411408091
 30
0.0
 10
38.5134953816
 20
211.854847306
 30
0.0
 10
38.1364537906
 20
203.3139292074
 30
0.0
 10
38.1364537906
 20
199.1399926488
 30
0.0
  0
SPLINE
  5
249
100
AcDbEntity
  8
0
100
AcDbSpline
 62
7
  6
CONTINUOUS
 70
0
 71
3
 72
10
 73
6
 74
0
 42
0.0000001
 43
0.0000001
 44
0.0000000001
 40
0.0
 40
0.0
 40
0.0
 40
0.0
 40
0.2707828352
 40
0.5277069611
 40
1.0
 40
1.0
 40
1.0
 40
1.0
 10
38.1364537906
 20
199.1399926488
 30
0.0
 10
38.1364537906
 20
195.2831960882
 30
0.0
 10
38.4438508589
 20
187.7593014272
 30
0.0
 10
40.3354697273
 20
173.6353792233
 30
0.0
 10
43.2709895238
 20
163.5460720792
 30
0.0
 10
46.0012972631
 20
157.3981410384
 30
0.0
  0
SPLINE
  5
24A
100
AcDbEntity
  8
0
100
AcDbSpline
 62
7
  6
CONTINUOUS
 70
0
 71
3
 72
10
 73
6
 74
0
 42
0.0000001
 43
0.0000001
 44
0.0000000001
 40
0.0
 40
0.0
 40
0.0
 40
0.0
 40
0.4722930389
 40
0.7292171648
 40
1.0
 40
1.0
 40
1.0
 40
1.0
 10
162.6744019123
 20
90.0384165425
 30
0.0
 10
159.9440941731
 20
96.1863475834
 30
0.0
 10
157.0085743766
 20
106.2756547274
 30
0.0
 10
155.1169555082
 20
120.3995769314
 30
0.0
 10
154.8095584399
 20
127.9234715923
 30
0.0
 10
154.8095584399
 20
131.7802681529
 30
0.0
  0
SPLINE
  5
24B
100
AcDbEntity
  8
0
100
AcDbSpline
 62
7
  6
CONTINUOUS
 70
0
 71
3
 72
11
 73
7
 74
0
 42
0.0000001
 43
0.0000001
 44
0.0000000001
 40
0.0
 40
0.0
 40
0.0
 40
0.0
 40
0.2350727812
 40
0.4808381112
 40
0.7362465426
 40
1.0
 40
1.0
 40
1.0
 40
1.0
 10
154.8095584399
 20
131.7802681529
 30
0.0
 10
154.8095584399
 20
135.9542047115
 30
0.0
 10
155.1866000308
 20
144.4951228101
 30
0.0
 10
156.7849953077
 20
157.4814163133
 30
0.0
 10
159.4128705295
 20
170.817685721
 30
0.0
 10
161.8004221899
 20
179.7292354254
 30
0.0
 10
163.153383719
 20
184.2127331367
 30
0.0
  0
SPLINE
  5
24C
100
AcDbEntity
  8
0
100
AcDbSpline
 62
7
  6
CONTINUOUS
 70
0
 71
3
 72
9
 73
5
 74
0
 42
0.0000001
 43
0.0000001
 44
0.0000000001
 40
0.0
 40
0.0
 40
0.0
 40
0.0
 40
0.5103013199
 40
1.0
 40
1.0
 40
1.0
 40
1.0
 10
36.2866814046
 20
306.8674391711
 30
0.0
 10
33.9382528958
 20
290.8579065762
 30
0.0
 10
30.3666321245
 20
259.3231094977
 30
0.0
 10
29.0853980837
 20
227.6056158007
 30
0.0
 10
29.0853980837
 20
212.0780328236
 30
0.0
  0
SPLINE
  5
24D
100
AcDbEntity
  8
0
100
AcDbSpline
 62
7
  6
CONTINUOUS
 70
0
 71
3
 72
9
 73
5
 74
0
 42
0.0000001
 43
0.0000001
 44
0.0000000001
 40
0.0
 40
0.0
 40
0.0
 40
0.0
 40
0.5123563358
 40
1.0
 40
1.0
 40
1.0
 40
1.0
 10
29.0853980837
 20
212.0780328236
 30
0.0
 10
29.0853980837
 20
197.2442922284
 30
0.0
 10
30.2025329739
 20
168.2779172468
 30
0.0
 10
33.8313556456
 20
139.5070181143
 30
0.0
 10
36.2866814046
 20
125.6039025683
 30
0.0
  0
SPLINE
  5
24E
100
AcDbEntity
  8
0
100
AcDbSpline
 62
7
  6
CONTINUOUS
 70
0
 71
3
 72
18
 73
14
 74
0
 42
0.0000001
 43
0.0000001
 44
0.0000000001
 40
0.0
 40
0.0
 40
0.0
 40
0.0
 40
0.0579299937
 40
0.1182899734
 40
0.1813786895
 40
0.2465279361
 40
0.3790812683
 40
0.5108559962
 40
0.6398898182
 40
0.765336897
 40
0.8861766492
 40
0.9442547633
 40
1.0
 40
1.0
 40
1.0
 40
1.0
 10
129.623400961
 20
210.014865936
 30
0.0
 10
129.6691699752
 20
210.5338267773
 30
0.0
 10
129.7388335978
 20
211.5963072889
 30
0.0
 10
129.692847813
 20
213.2299969101
 30
0.0
 10
129.4509455546
 20
214.9126117489
 30
0.0
 10
128.8648385381
 20
217.1875520379
 30
0.0
 10
127.7278610928
 20
219.9386718763
 30
0.0
 10
125.9710435864
 20
223.0159714244
 30
0.0
 10
123.9620512714
 20
225.8558607411
 30
0.0
 10
121.7792968605
 20
228.4351176139
 30
0.0
 10
119.8238408308
 20
230.359242609
 30
0.0
 10
118.1839152481
 20
231.6896188319
 30
0.0
 10
117.3334618597
 20
232.264080814
 30
0.0
 10
116.8992972507
 20
232.5147401972
 30
0.0
  0
SPLINE
  5
24F
100
AcDbEntity
  8
0
100
AcDbSpline
 62
7
  6
CONTINUOUS
 70
0
 71
3
 72
11
 73
7
 74
0
 42
0.0000001
 43
0.0000001
 44
0.0000000001
 40
0.0
 40
0.0
 40
0.0
 40
0.0
 40
0.2044820928
 40
0.4497605122
 40
0.7231137494
 40
1.0
 40
1.0
 40
1.0
 40
1.0
 10
122.6359346448
 20
216.6924164316
 30
0.0
 10
123.1584499379
 20
216.3907489111
 30
0.0
 10
124.2656402687
 20
215.653174333
 30
0.0
 10
125.9055018486
 20
214.2819008206
 30
0.0
 10
127.5348278939
 20
212.5857997645
 30
0.0
 10
128.5166420377
 20
211.285709635
 30
0.0
 10
128.9599438116
 20
210.5994577069
 30
0.0
  0
SPLINE
  5
250
100
AcDbEntity
  8
0
100
AcDbSpline
 62
7
  6
CONTINUOUS
 70
0
 71
3
 72
9
 73
5
 74
0
 42
0.0000001
 43
0.0000001
 44
0.0000000001
 40
0.0
 40
0.0
 40
0.0
 40
0.0
 40
0.2546011794
 40
1.0
 40
1.0
 40
1.0
 40
1.0
 10
161.2088502274
 20
135.7982478415
 30
0.0
 10
161.2088502274
 20
131.9315755176
 30
0.0
 10
161.3620157142
 20
116.7449825516
 30
0.0
 10
162.1381285944
 20
101.5631456635
 30
0.0
 10
163.1014957588
 20
90.2837097698
 30
0.0
  0
SPLINE
  5
251
100
AcDbEntity
  8
0
100
AcDbSpline
 62
7
  6
CONTINUOUS
 70
0
 71
3
 72
18
 73
14
 74
0
 42
0.0000001
 43
0.0000001
 44
0.0000000001
 40
0.0
 40
0.0
 40
0.0
 40
0.0
 40
0.0232460425
 40
0.0544385793
 40
0.0949679765
 40
0.1455503269
 40
0.2064386771
 40
0.2767873254
 40
0.4391630707
 40
0.6123085661
 40
0.7726893611
 40
0.9037323828
 40
1.0
 40
1.0
 40
1.0
 40
1.0
 10
80.6336758504
 20
232.7770681662
 30
0.0
 10
80.7813097167
 20
232.8623041099
 30
0.0
 10
81.1546146009
 20
233.0131969322
 30
0.0
 10
81.8351919764
 20
233.16774601
 30
0.0
 10
82.7280299709
 20
233.2678063257
 30
0.0
 10
83.8431163258
 20
233.3005141015
 30
0.0
 10
85.1764070506
 20
233.2531551109
 30
0.0
 10
87.3220885823
 20
233.0648036654
 30
0.0
 10
90.2657127523
 20
232.6001643858
 30
0.0
 10
93.8119171127
 20
231.7830365065
 30
0.0
 10
97.0758533523
 20
230.7960772575
 30
0.0
 10
99.7328944959
 20
229.7780954914
 30
0.0
 10
101.2355177885
 20
229.0476733511
 30
0.0
 10
101.8469087254
 20
228.6946946145
 30
0.0
  0
SPLINE
  5
252
100
AcDbEntity
  8
0
100
AcDbSpline
 62
7
  6
CONTINUOUS
 70
0
 71
3
 72
9
 73
5
 74
0
 42
0.0000001
 43
0.0000001
 44
0.0000000001
 40
0.0
 40
0.0
 40
0.0
 40
0.0
 40
0.2542548684
 40
1.0
 40
1.0
 40
1.0
 40
1.0
 10
163.1765601396
 20
184.4547395846
 30
0.0
 10
162.850630625
 20
180.3399434491
 30
0.0
 10
161.7208452057
 20
164.1446751703
 30
0.0
 10
161.2088502274
 20
147.9049990517
 30
0.0
 10
161.2088502274
 20
135.7982478415
 30
0.0
  0
SPLINE
  5
253
100
AcDbEntity
  8
0
100
AcDbSpline
 62
7
  6
CONTINUOUS
 70
0
 71
3
 72
9
 73
5
 74
0
 42
0.0000001
 43
0.0000001
 44
0.0000000001
 40
0.0
 40
0.0
 40
0.0
 40
0.0
 40
0.4896986801
 40
1.0
 40
1.0
 40
1.0
 40
1.0
 10
176.1642209143
 20
127.1639558834
 30
0.0
 10
176.1642209143
 20
142.6915388605
 30
0.0
 10
177.4454549551
 20
174.4090325574
 30
0.0
 10
181.0170757264
 20
205.943829636
 30
0.0
 10
183.3655042352
 20
221.9533622308
 30
0.0
  0
SPLINE
  5
254
100
AcDbEntity
  8
0
100
AcDbSpline
 62
7
  6
CONTINUOUS
 70
0
 71
3
 72
18
 73
14
 74
0
 42
0.0000001
 43
0.0000001
 44
0.0000000001
 40
0.0
 40
0.0
 40
0.0
 40
0.0
 40
0.1335213788
 40
0.2589280334
 40
0.3787161407
 40
0.494356272
 40
0.6078659506
 40
0.665359916
 40
0.7246383568
 40
0.7871273511
 40
0.8539976177
 40
0.9253523714
 40
1.0
 40
1.0
 40
1.0
 40
1.0
 10
95.3997268036
 20
244.8923748623
 30
0.0
 10
94.6128410839
 20
245.2721686712
 30
0.0
 10
93.0026183729
 20
245.8402142063
 30
0.0
 10
90.5516068729
 20
246.2629487071
 30
0.0
 10
88.1794440091
 20
246.2914372309
 30
0.0
 10
85.9138581325
 20
245.9149420168
 30
0.0
 10
84.1576473898
 20
245.1857929602
 30
0.0
 10
82.934567931
 20
244.2935968595
 30
0.0
 10
82.123664581
 20
243.4357383184
 30
0.0
 10
81.4654704148
 20
242.3818053041
 30
0.0
 10
80.9913803595
 20
241.1495281214
 30
0.0
 10
80.6978489708
 20
239.783870249
 30
0.0
 10
80.5929006204
 20
238.8333697718
 30
0.0
 10
80.5499860358
 20
238.3467743005
 30
0.0
  0
SPLINE
  5
255
100
AcDbEntity
  8
0
100
AcDbSpline
 62
7
  6
CONTINUOUS
 70
0
 71
3
 72
12
 73
8
 74
0
 42
0.0000001
 43
0.0000001
 44
0.0000000001
 40
0.0
 40
0.0
 40
0.0
 40
0.0
 40
0.1081236355
 40
0.2183706948
 40
0.451541934
 40
0.7106364236
 40
1.0
 40
1.0
 40
1.0
 40
1.0
 10
96.7509813659
 20
244.1738774742
 30
0.0
 10
97.1550567856
 20
243.934345772
 30
0.0
 10
97.9315847598
 20
243.380061089
 30
0.0
 10
99.3232465268
 20
241.9866321347
 30
0.0
 10
100.6995309288
 20
239.7119569078
 30
0.0
 10
101.6579014175
 20
236.4254607878
 30
0.0
 10
101.8469087291
 20
234.0343289395
 30
0.0
 10
101.8469087254
 20
232.7772066319
 30
0.0
  0
SPLINE
  5
256
100
AcDbEntity
  8
0
100
AcDbSpline
 62
7
  6
CONTINUOUS
 70
0
 71
3
 72
9
 73
5
 74
0
 42
0.0000001
 43
0.0000001
 44
0.0000000001
 40
0.0
 40
0.0
 40
0.0
 40
0.0
 40
0.2437662775
 40
1.0
 40
1.0
 40
1.0
 40
1.0
 10
80.5499862306
 20
238.3467766254
 30
0.0
 10
80.5640344569
 20
238.2265210497
 30
0.0
 10
80.6141864418
 20
237.7323348673
 30
0.0
 10
80.6336758459
 20
237.2351849141
 30
0.0
 10
80.6336758504
 20
236.8595802519
 30
0.0
  0
SPLINE
  5
257
100
AcDbEntity
  8
0
100
AcDbSpline
 62
7
  6
CONTINUOUS
 70
0
 71
3
 72
18
 73
14
 74
0
 42
0.0000001
 43
0.0000001
 44
0.0000000001
 40
0.0
 40
0.0
 40
0.0
 40
0.0
 40
0.0962676174
 40
0.2273106394
 40
0.3876914348
 40
0.5608369305
 40
0.7232126758
 40
0.793561324
 40
0.854449674
 40
0.9050320241
 40
0.9455614211
 40
0.9767539576
 40
1.0
 40
1.0
 40
1.0
 40
1.0
 10
101.8469087571
 20
232.7772069981
 30
0.0
 10
101.2355178181
 20
233.1301857359
 30
0.0
 10
99.7328945191
 20
233.8606078767
 30
0.0
 10
97.0758533632
 20
234.8785896385
 30
0.0
 10
93.8119171088
 20
235.8655488765
 30
0.0
 10
90.2657127355
 20
236.6826767376
 30
0.0
 10
87.3220885582
 20
237.147315997
 30
0.0
 10
85.1764070252
 20
237.3356674237
 30
0.0
 10
83.8431163027
 20
237.3830264009
 30
0.0
 10
82.7280299518
 20
237.3503186122
 30
0.0
 10
81.8351919627
 20
237.2502582846
 30
0.0
 10
81.1546145931
 20
237.0957091962
 30
0.0
 10
80.781309714
 20
236.9448163666
 30
0.0
 10
80.6336758504
 20
236.8595804197
 30
0.0
  0
SPLINE
  5
258
100
AcDbEntity
  8
0
100
AcDbSpline
 62
7
  6
CONTINUOUS
 70
0
 71
3
 72
11
 73
7
 74
0
 42
0.0000001
 43
0.0000001
 44
0.0000000001
 40
0.0
 40
0.0
 40
0.0
 40
0.0
 40
0.2885003845
 40
0.5479946782
 40
0.7821593335
 40
1.0
 40
1.0
 40
1.0
 40
1.0
 10
122.6359346448
 20
220.774928449
 30
0.0
 10
122.6359346483
 20
221.9855223637
 30
0.0
 10
122.4606928933
 20
224.2920805937
 30
0.0
 10
121.5722539177
 20
227.4782606355
 30
0.0
 10
120.0824006021
 20
230.1059626176
 30
0.0
 10
118.6730562444
 20
231.4306053173
 30
0.0
 10
117.9123337804
 20
231.9374286598
 30
0.0
  0
SPLINE
  5
259
100
AcDbEntity
  8
0
100
AcDbSpline
 62
7
  6
CONTINUOUS
 70
0
 71
3
 72
11
 73
7
 74
0
 42
0.0000001
 43
0.0000001
 44
0.0000000001
 40
0.0
 40
0.0
 40
0.0
 40
0.0
 40
0.2063948864
 40
0.4573898947
 40
0.7334907
 40
1.0
 40
1.0
 40
1.0
 40
1.0
 10
122.6359346448
 20
220.7749283651
 30
0.0
 10
123.2369293559
 20
220.4279517565
 30
0.0
 10
124.5128625001
 20
219.56073484
 30
0.0
 10
126.3730524739
 20
217.9322441559
 30
0.0
 10
128.1512533525
 20
215.9338154392
 30
0.0
 10
129.1683180898
 20
214.4069738823
 30
0.0
 10
129.5881396292
 20
213.6153143453
 30
0.0
  0
SPLINE
  5
25A
100
AcDbEntity
  8
0
100
AcDbSpline
 62
7
  6
CONTINUOUS
 70
0
 71
3
 72
9
 73
5
 74
0
 42
0.0000001
 43
0.0000001
 44
0.0000000001
 40
0.0
 40
0.0
 40
0.0
 40
0.0
 40
0.2461523585
 40
1.0
 40
1.0
 40
1.0
 40
1.0
 10
183.3655042352
 20
40.6898256281
 30
0.0
 10
182.8827499251
 20
43.4233891598
 30
0.0
 10
181.0297193169
 20
54.5474788383
 30
0.0
 10
179.6027640073
 20
65.741820843
 30
0.0
 10
178.750143212
 20
74.2001079389
 30
0.0
  0
SPLINE
  5
25B
100
AcDbEntity
  8
0
100
AcDbSpline
 62
7
  6
CONTINUOUS
 70
0
 71
3
 72
9
 73
5
 74
0
 42
0.0000001
 43
0.0000001
 44
0.0000000001
 40
0.0
 40
0.0
 40
0.0
 40
0.0
 40
0.2446254225
 40
1.0
 40
1.0
 40
1.0
 40
1.0
 10
178.750143212
 20
74.2001079389
 30
0.0
 10
178.3163736227
 20
78.5032491948
 30
0.0
 10
176.7790561264
 20
96.1173155311
 30
0.0
 10
176.1642209143
 20
113.8090223835
 30
0.0
 10
176.1642209143
 20
127.1639558834
 30
0.0
  0
SPLINE
  5
25C
100
AcDbEntity
  8
0
100
AcDbSpline
 62
7
  6
CONTINUOUS
 70
0
 71
3
 72
10
 73
6
 74
0
 42
0.0000001
 43
0.0000001
 44
0.0000000001
 40
0.0
 40
0.0
 40
0.0
 40
0.0
 40
0.2281640476
 40
0.5970265898
 40
1.0
 40
1.0
 40
1.0
 40
1.0
 10
188.5836652317
 20
66.7084005962
 30
0.0
 10
188.8865358251
 20
67.3138690716
 30
0.0
 10
189.5609862552
 20
68.9588518264
 30
0.0
 10
190.2277682312
 20
71.8663734168
 30
0.0
 10
190.3769815466
 20
74.1609772489
 30
0.0
 10
190.3769815466
 20
75.3566569279
 30
0.0
  0
SPLINE
  5
25D
100
AcDbEntity
  8
0
100
AcDbSpline
 62
7
  6
CONTINUOUS
 70
0
 71
3
 72
9
 73
5
 74
0
 42
0.0000001
 43
0.0000001
 44
0.0000000001
 40
0.0
 40
0.0
 40
0.0
 40
0.0
 40
0.4801127842
 40
1.0
 40
1.0
 40
1.0
 40
1.0
 10
190.3769815466
 20
202.7310340001
 30
0.0
 10
190.3769815466
 20
204.4753326959
 30
0.0
 10
190.033292119
 20
208.1115238373
 30
0.0
 10
189.1545653081
 20
211.6494920524
 30
0.0
 10
188.583675677
 20
213.4499538792
 30
0.0
  0
SPLINE
  5
25E
100
AcDbEntity
  8
0
100
AcDbSpline
 62
7
  6
CONTINUOUS
 70
0
 71
3
 72
9
 73
5
 74
0
 42
0.0000001
 43
0.0000001
 44
0.0000000001
 40
0.0
 40
0.0
 40
0.0
 40
0.0
 40
0.5209023876
 40
1.0
 40
1.0
 40
1.0
 40
1.0
 10
178.9017986581
 20
230.6145980905
 30
0.0
 10
177.545824757
 20
232.1654514166
 30
0.0
 10
174.7369073264
 20
234.9708322475
 30
0.0
 10
171.5116869044
 20
237.3012406351
 30
0.0
 10
169.8707995173
 20
238.2485859779
 30
0.0
  0
SPLINE
  5
25F
100
AcDbEntity
  8
0
100
AcDbSpline
 62
7
  6
CONTINUOUS
 70
0
 71
3
 72
9
 73
5
 74
0
 42
0.0000001
 43
0.0000001
 44
0.0000000001
 40
0.0
 40
0.0
 40
0.0
 40
0.0
 40
0.2755525565
 40
1.0
 40
1.0
 40
1.0
 40
1.0
 10
70.1683282716
 20
295.8105323653
 30
0.0
 10
69.4120898733
 20
296.2471369308
 30
0.0
 10
66.6014412516
 20
297.6976225388
 30
0.0
 10
63.4329713424
 20
298.5792567019
 30
0.0
 10
61.1373407042
 20
298.604408033
 30
0.0
  0
ENDSEC
  0
SECTION
  2
OBJECTS
  0
DICTIONARY
  5
C
100
AcDbDictionary
280
0
281
1
  3
ACAD_GROUP
350
D
  3
ACAD_MLINESTYLE
350
17
  3
ACAD_LAYOUT
350
1A
  3
ACAD_PLOTSETTINGS
350
19
  3
ACAD_PLOTSTYLENAME
350
E
  0
DICTIONARY
  5
D
102
{ACAD_REACTORS
330
C
102
}
100
AcDbDictionary
280
0
281
1
  0
ACDBDICTIONARYWDFLT
  5
E
102
{ACAD_REACTORS
330
C
102
}
100
AcDbDictionary
281
1
  3
Normal
350
F
100
AcDbDictionaryWithDefault
340
F
  0
DICTIONARY
  5
17
102
{ACAD_REACTORS
330
C
102
}
100
AcDbDictionary
280
0
281
1
  3
Standard
350
18
  0
DICTIONARY
  5
19
102
{ACAD_REACTORS
330
C
102
}
100
AcDbDictionary
281
1
  0
DICTIONARY
  5
1A
102
{ACAD_REACTORS
330
C
102
}
100
AcDbDictionary
281
1
  3
Model
350
260
  3
Layout1
350
261
  0
ACDBPLACEHOLDER
  5
F
102
{ACAD_REACTORS
330
E
102
}
  0
MLINESTYLE
  5
18
102
{ACAD_REACTORS
330
17
102
}
100
AcDbMlineStyle
  2
STANDARD
 70
0
  3

 62
256
 51
90.0
 52
90.0
 71
2
 49
0.5
 62
256
  6
BYLAYER
 49
-0.5
 62
256
  6
BYLAYER
  0
LAYOUT
  5
260
102
{ACAD_REACTORS
330
1A
102
}
100
AcDbPlotSettings
  1

  2
none_device
  4

  6

 40
0.0
 41
0.0
 42
0.0
 43
0.0
 44
210.0
 45
297.0
 46
0.0
 47
0.0
 48
0.0
 49
0.0
140
0.0
141
0.0
142
1.0
143
1.0
 70
1024
 72
1
 73
0
 74
0
  7

 75
0
147
1.0
148
0.0
149
0.0
100
AcDbLayout
  1
Model
 70
0
 71
0
 10
0.0
 20
0.0
 11
210.0
 21
297.0
 12
0.0
 22
0.0
 32
0.0
 14
0.0
 24
0.0
 34
0.0
 15
0.0
 25
0.0
 35
0.0
146
0.0
 13
0.0
 23
0.0
 33
0.0
 16
1.0
 26
0.0
 36
0.0
 17
0.0
 27
1.0
 37
0.0
 76
0
330
210
345
0
346
0
  0
LAYOUT
  5
261
102
{ACAD_REACTORS
330
1A
102
}
100
AcDbPlotSettings
  1

  2
none_device
  4

  6

 40
0.0
 41
0.0
 42
0.0
 43
0.0
 44
210.0
 45
297.0
 46
0.0
 47
0.0
 48
0.0
 49
0.0
140
0.0
141
0.0
142
1.0
143
1.0
 70
0
 72
1
 73
0
 74
0
  7

 75
0
147
1.0
148
0.0
149
0.0
100
AcDbLayout
  1
Layout1
 70
0
 71
1
 10
0.0
 20
0.0
 11
210.0
 21
297.0
 12
0.0
 22
0.0
 32
0.0
 14
0.0
 24
0.0
 34
0.0
 15
0.0
 25
0.0
 35
0.0
146
0.0
 13
0.0
 23
0.0
 33
0.0
 16
1.0
 26
0.0
 36
0.0
 17
0.0
 27
1.0
 37
0.0
 76
0
330
211
345
0
346
0
  0
ENDSEC
  0
EOF
