999
DXF file: C:\Users\sesa63760\Dev\_Creo\CAD\MCADFD0002085_3D-CAD\drw0001_1.dxf
999
Pro/ENGINEER 2019471 by Parametric Technology Corporation
  0
SECTION
  2
HEADER
  9
$ACADVER
  1
AC1024
  9
$DWGCODEPAGE
  3
ANSI_1252
  9
$EXTMAX
 10
315.6906581916
 20
446.4767880139
 30
0.0
  9
$EXTMIN
 10
0.0
 20
0.0
 30
0.0
  9
$LIMMIN
 10
0.0
 20
0.0
  9
$LIMMAX
 10
315.6906581916
 20
446.4767880139
  9
$VIEWCTR
 10
157.8453290958
 20
223.2383940069
  9
$VIEWSIZE
 40
446.4767880139
  9
$CLAYER
  8
0
  9
$LTSCALE
 40
29.1036721076
  9
$CELTYPE
  6
BYLAYER
  9
$DIMSCALE
 40
1.0
  9
$DIMASZ
 40
3.7582221213
  9
$DIMEXO
 40
1.0
  9
$DIMDLI
 40
20.107991638
  9
$DIMEXE
 40
1.0
  9
$DIMCEN
 40
4.7624190721
  9
$DIMLFAC
 40
1.0
  9
$DIMBLK
  1
_FILLED
  9
$DIMALT
 70
0
  9
$DIMALTF
 40
0.0393700787
  9
$DIMTXT
 40
5.2615109699
  9
$DIMTOL
 70
1
  9
$DIMLIM
 70
0
  9
$DIMTFAC
 40
1.0
  9
$DIMTP
 40
0.01
  9
$DIMTM
 40
0.01
  9
$DIMGAP
 40
0.625
  9
$DIMDSEP
 70
46
  9
$AUNITS
 70
0
  9
$PDMODE
 70
3
  9
$PDSIZE
 40
0.3125
  9
$HANDSEED
  5
262
  9
$TILEMODE
 70
1
  9
$MEASUREMENT
 70
1
  9
$INSUNITS
 70
4
  0
ENDSEC
  0
SECTION
  2
CLASSES
  0
CLASS
  1
ACDBDICTIONARYWDFLT
  2
AcDbDictionaryWithDefault
  3
AutoCAD 2000
 90
0
 91
1
280
0
281
0
  0
CLASS
  1
ACDBPLACEHOLDER
  2
AcDbPlaceHolder
  3
AutoCAD 2000
 90
0
 91
1
280
0
281
0
  0
CLASS
  1
LAYOUT
  2
AcDbLayout
  3
AutoCAD 2000
 90
0
 91
0
280
0
281
0
  0
ENDSEC
  0
SECTION
  2
TABLES
  0
TABLE
  2
VPORT
  5
8
100
AcDbSymbolTable
 70
2
  0
VPORT
  5
1F4
100
AcDbSymbolTableRecord
100
AcDbViewportTableRecord
  2
*ACTIVE
 70
0
 10
0.0
 20
0.0
 11
1.0
 21
1.0
 12
157.8453290958
 22
223.2383940069
 13
0.0
 23
0.0
 14
1.0
 24
1.0
 15
0.0
 25
0.0
 16
0.0
 26
0.0
 36
1.0
 17
0.0
 27
0.0
 37
0.0
 40
446.4767880139
 41
0.7070707071
 42
50.0
 43
0.0
 44
0.0
 50
0.0
 51
0.0
 71
0
 72
100
 73
1
 74
1
 75
0
 76
0
 77
0
 78
0
  0
ENDTAB
  0
TABLE
  2
LTYPE
  5
5
100
AcDbSymbolTable
 70
6
  0
LTYPE
  5
14
100
AcDbSymbolTableRecord
100
AcDbLinetypeTableRecord
  2
BYBLOCK
 70
0
  3

 72
65
 73
0
 40
0.0
  0
LTYPE
  5
15
100
AcDbSymbolTableRecord
100
AcDbLinetypeTableRecord
  2
BYLAYER
 70
0
  3

 72
65
 73
0
 40
0.0
  0
LTYPE
  5
16
100
AcDbSymbolTableRecord
100
AcDbLinetypeTableRecord
  2
CONTINUOUS
 70
64
  3
Solid line
 72
65
 73
0
 40
0.0
  0
LTYPE
  5
1F5
100
AcDbSymbolTableRecord
100
AcDbLinetypeTableRecord
  2
CENTER
 70
64
  3
____ _ ____ _ ____ _ ____ _ ____ _ ____ _ ____
 72
65
 73
4
 40
0.6
 49
0.375
 74
0
 49
-0.075
 74
0
 49
0.075
 74
0
 49
-0.075
 74
0
  0
LTYPE
  5
1F6
100
AcDbSymbolTableRecord
100
AcDbLinetypeTableRecord
  2
HIDDEN
 70
64
  3
- - - - - - - - - - - - - - - - - - - -
 72
65
 73
2
 40
0.2
 49
0.1
 74
0
 49
-0.1
 74
0
  0
LTYPE
  5
1F7
100
AcDbSymbolTableRecord
100
AcDbLinetypeTableRecord
  2
PHANTOM
 70
64
  3
_____ _ _ _____ _ _ _____ _ _ _____
 72
65
 73
6
 40
0.8
 49
0.45
 74
0
 49
-0.05
 74
0
 49
0.1
 74
0
 49
-0.05
 74
0
 49
0.1
 74
0
 49
-0.05
 74
0
  0
LTYPE
  5
1F8
100
AcDbSymbolTableRecord
100
AcDbLinetypeTableRecord
  2
DOT
 70
64
  3
. . . . . . . . . . . . . . . . . . . .
 72
65
 73
2
 40
0.2
 49
0.1
 74
0
 49
-0.1
 74
0
  0
LTYPE
  5
1F9
100
AcDbSymbolTableRecord
100
AcDbLinetypeTableRecord
  2
DASHED
 70
64
  3
- - - - - - - - - - - - - - - - - - - -
 72
65
 73
2
 40
0.2
 49
0.1
 74
0
 49
-0.1
 74
0
  0
ENDTAB
  0
TABLE
  2
LAYER
  5
2
100
AcDbSymbolTable
 70
36
  0
LAYER
  5
10
100
AcDbSymbolTableRecord
100
AcDbLayerTableRecord
  2
0
 70
0
 62
7
  6
CONTINUOUS
370
-3
390
F
  0
LAYER
  5
1FA
100
AcDbSymbolTableRecord
100
AcDbLayerTableRecord
  2
DEFAULT_1
 70
0
 62
7
  6
CENTER
370
-3
390
F
  0
LAYER
  5
1FB
100
AcDbSymbolTableRecord
100
AcDbLayerTableRecord
  2
DEFAULT_2
 70
0
 62
8
  6
HIDDEN
370
-3
390
F
  0
LAYER
  5
1FC
100
AcDbSymbolTableRecord
100
AcDbLayerTableRecord
  2
DEFAULT_3
 70
0
 62
7
  6
PHANTOM
370
-3
390
F
  0
LAYER
  5
1FD
100
AcDbSymbolTableRecord
100
AcDbLayerTableRecord
  2
00_COMPONENTS
 70
0
 62
7
  6
CONTINUOUS
370
-3
390
F
  0
LAYER
  5
1FE
100
AcDbSymbolTableRecord
100
AcDbLayerTableRecord
  2
01_1_DEFAULT_DATUMS
 70
0
 62
7
  6
CONTINUOUS
370
-3
390
F
  0
LAYER
  5
1FF
100
AcDbSymbolTableRecord
100
AcDbLayerTableRecord
  2
01_PLANES
 70
0
 62
7
  6
CONTINUOUS
370
-3
390
F
  0
LAYER
  5
200
100
AcDbSymbolTableRecord
100
AcDbLayerTableRecord
  2
02_COORD_SYS
 70
0
 62
7
  6
CONTINUOUS
370
-3
390
F
  0
LAYER
  5
201
100
AcDbSymbolTableRecord
100
AcDbLayerTableRecord
  2
03_AXES
 70
0
 62
7
  6
CONTINUOUS
370
-3
390
F
  0
LAYER
  5
202
100
AcDbSymbolTableRecord
100
AcDbLayerTableRecord
  2
04_POINTS
 70
0
 62
7
  6
CONTINUOUS
370
-3
390
F
  0
LAYER
  5
203
100
AcDbSymbolTableRecord
100
AcDbLayerTableRecord
  2
05_CURVES
 70
0
 62
7
  6
CONTINUOUS
370
-3
390
F
  0
LAYER
  5
204
100
AcDbSymbolTableRecord
100
AcDbLayerTableRecord
  2
06_SURFS
 70
0
 62
7
  6
CONTINUOUS
370
-3
390
F
  0
LAYER
  5
205
100
AcDbSymbolTableRecord
100
AcDbLayerTableRecord
  2
07_COSMETICS
 70
0
 62
7
  6
CONTINUOUS
370
-3
390
F
  0
LAYER
  5
206
100
AcDbSymbolTableRecord
100
AcDbLayerTableRecord
  2
10_NOTES
 70
0
 62
7
  6
CONTINUOUS
370
-3
390
F
  0
LAYER
  5
207
100
AcDbSymbolTableRecord
100
AcDbLayerTableRecord
  2
11_NOTES_PUB
 70
0
 62
7
  6
CONTINUOUS
370
-3
390
F
  0
LAYER
  5
208
100
AcDbSymbolTableRecord
100
AcDbLayerTableRecord
  2
13_REF_GTOL
 70
0
 62
7
  6
CONTINUOUS
370
-3
390
F
  0
LAYER
  5
209
100
AcDbSymbolTableRecord
100
AcDbLayerTableRecord
  2
16_MISC
 70
0
 62
7
  6
CONTINUOUS
370
-3
390
F
  0
LAYER
  5
20A
100
AcDbSymbolTableRecord
100
AcDbLayerTableRecord
  2
17_NO_PRINT
 70
0
 62
7
  6
CONTINUOUS
370
-3
390
F
  0
LAYER
  5
20B
100
AcDbSymbolTableRecord
100
AcDbLayerTableRecord
  2
18_DATUM_CAMS_JOINTS
 70
0
 62
7
  6
CONTINUOUS
370
-3
390
F
  0
LAYER
  5
20C
100
AcDbSymbolTableRecord
100
AcDbLayerTableRecord
  2
19_DATUM_FUNCTIONAL
 70
0
 62
7
  6
CONTINUOUS
370
-3
390
F
  0
LAYER
  5
20D
100
AcDbSymbolTableRecord
100
AcDbLayerTableRecord
  2
20_DATUM_KINEMATIC_SCHEME
 70
0
 62
7
  6
CONTINUOUS
370
-3
390
F
  0
ENDTAB
  0
TABLE
  2
STYLE
  5
3
100
AcDbSymbolTable
 70
1
  0
STYLE
  5
11
100
AcDbSymbolTableRecord
100
AcDbTextStyleTableRecord
  2
STANDARD
 70
0
 40
0.0
 41
0.8
 50
0.0
 71
0
 42
0.2
  3
txt
  4

  0
STYLE
  5
20E
100
AcDbSymbolTableRecord
100
AcDbTextStyleTableRecord
  2
TEXTSTYLE_1
 70
0
 40
0.0
 41
0.8
 50
0.0
 71
0
 42
0.2
  3
gdt
  4

  0
ENDTAB
  0
TABLE
  2
VIEW
  5
6
100
AcDbSymbolTable
 70
0
  0
ENDTAB
  0
TABLE
  2
UCS
  5
7
100
AcDbSymbolTable
 70
0
  0
ENDTAB
  0
TABLE
  2
APPID
  5
9
100
AcDbSymbolTable
 70
1
  0
APPID
  5
20F
100
AcDbSymbolTableRecord
100
AcDbRegAppTableRecord
  2
ACAD
 70
0
  0
ENDTAB
  0
TABLE
  2
BLOCK_RECORD
  5
1
100
AcDbSymbolTable
 70
0
  0
BLOCK_RECORD
  5
210
100
AcDbSymbolTableRecord
100
AcDbBlockTableRecord
  2
*Model_Space
  0
BLOCK_RECORD
  5
211
100
AcDbSymbolTableRecord
100
AcDbBlockTableRecord
  2
*Paper_Space
  0
BLOCK_RECORD
  5
212
100
AcDbSymbolTableRecord
100
AcDbBlockTableRecord
  2
_FILLED
  0
ENDTAB
  0
TABLE
  2
DIMSTYLE
  5
A
100
AcDbSymbolTable
 70
1
100
AcDbDimStyleTable
 71
0
  0
DIMSTYLE
105
213
100
AcDbSymbolTableRecord
100
AcDbDimStyleTableRecord
  2
STANDARD
 70
0
  3

  4

 40
1.0
 41
3.7582221213
 42
1.0
 43
0.38
 44
1.0
 45
0.0
 46
0.0
 47
0.01
 48
0.01
140
5.2615109699
141
0.09
142
0.0
143
25.4
144
1.0
145
0.0
146
1.0
147
0.625
 71
1
 72
0
 73
0
 74
0
 75
0
 76
0
 77
1
 78
8
 79
2
170
0
171
1
172
0
173
0
174
0
175
0
176
0
177
0
178
0
270
2
179
2
271
2
272
2
273
2
274
2
275
0
280
0
281
0
282
0
283
1
284
8
285
0
286
0
287
3
288
0
340
11
278
46
341
212
342
212
343
212
344
212
  0
ENDTAB
  0
ENDSEC
  0
SECTION
  2
BLOCKS
  0
BLOCK
  5
20
100
AcDbEntity
  8
0
100
AcDbBlockBegin
  2
*Model_Space
 70
0
 10
0.0
 20
0.0
 30
0.0
  3
*Model_Space
  1

  0
ENDBLK
  5
21
100
AcDbEntity
  8
0
100
AcDbBlockEnd
  0
BLOCK
  5
1C
100
AcDbEntity
  8
0
100
AcDbBlockBegin
  2
*Paper_Space
 70
0
 10
0.0
 20
0.0
 30
0.0
  3
*Paper_Space
  1

  0
ENDBLK
  5
1D
100
AcDbEntity
  8
0
100
AcDbBlockEnd
  0
BLOCK
  5
214
100
AcDbEntity
  8
0
100
AcDbBlockBegin
  2
_FILLED
 70
64
 10
0.0
 20
0.0
  3
_FILLED
  1

  0
SOLID
  5
215
100
AcDbEntity
  8
0
  6
BYBLOCK
 62
0
100
AcDbTrace
 10
0.0
 20
0.0
 11
-1.0
 21
0.25
 12
-1.0
 22
-0.25
 13
-1.0
 23
-0.25
  0
ENDBLK
  5
216
100
AcDbEntity
  8
0
  6
BYBLOCK
 62
0
100
AcDbBlockEnd
  0
ENDSEC
  0
SECTION
  2
ENTITIES
  0
LINE
  5
217
100
AcDbEntity
  8
0
100
AcDbLine
 62
7
  6
CONTINUOUS
 10
43.8250317784
 20
367.6259191344
 11
48.8566448413
 21
370.5309049504
  0
LINE
  5
218
100
AcDbEntity
  8
0
100
AcDbLine
 62
7
  6
CONTINUOUS
 10
77.7066786454
 20
356.5690123287
 11
75.5853671338
 21
355.3442798671
  0
LINE
  5
219
100
AcDbEntity
  8
0
100
AcDbLine
 62
7
  6
CONTINUOUS
 10
115.8902729015
 20
375.5114489334
 11
80.3937689164
 21
355.0176551338
  0
LINE
  5
21A
100
AcDbEntity
  8
0
100
AcDbLine
 62
7
  6
CONTINUOUS
 10
54.0186294435
 20
312.330937596
 11
54.2398042853
 21
312.4586321881
  0
LINE
  5
21B
100
AcDbEntity
  8
0
100
AcDbLine
 62
7
  6
CONTINUOUS
 10
53.5468290565
 20
217.8178312181
 11
53.5177974879
 21
218.1521353436
  0
LINE
  5
21C
100
AcDbEntity
  8
0
100
AcDbLine
 62
7
  6
CONTINUOUS
 10
53.5468290565
 20
217.8178312181
 11
53.5225322616
 21
218.1553890684
  0
LINE
  5
21D
100
AcDbEntity
  8
0
100
AcDbLine
 62
7
  6
CONTINUOUS
 10
241.8157548195
 20
72.054971266
 11
43.8250317784
 21
186.3623825317
  0
LINE
  5
21E
100
AcDbEntity
  8
0
100
AcDbLine
 62
7
  6
CONTINUOUS
 10
113.6279763295
 20
278.8388809669
 11
113.0501124276
 21
278.5052530791
  0
LINE
  5
21F
100
AcDbEntity
  8
0
100
AcDbLine
 62
7
  6
CONTINUOUS
 10
53.5468290565
 20
217.8178312181
 11
221.626810724
 21
120.7790038686
  0
LINE
  5
220
100
AcDbEntity
  8
0
100
AcDbLine
 62
7
  6
CONTINUOUS
 10
221.1246524967
 20
121.4035621804
 11
53.5396476369
 21
218.1566210018
  0
LINE
  5
221
100
AcDbEntity
  8
0
100
AcDbLine
 62
7
  6
CONTINUOUS
 10
113.6279763295
 20
278.8388809669
 11
113.6279763295
 21
282.9213930525
  0
LINE
  5
222
100
AcDbEntity
  8
0
100
AcDbLine
 62
7
  6
CONTINUOUS
 10
53.8366431302
 20
217.9851544528
 11
53.5468290565
 21
217.8178312181
  0
LINE
  5
223
100
AcDbEntity
  8
0
100
AcDbLine
 62
7
  6
CONTINUOUS
 10
134.8412092045
 20
278.8390194024
 11
134.8412092045
 21
274.7565074152
  0
LINE
  5
224
100
AcDbEntity
  8
0
100
AcDbLine
 62
7
  6
CONTINUOUS
 10
155.6302351239
 20
262.7542292323
 11
155.6302351239
 21
266.8367412687
  0
LINE
  5
225
100
AcDbEntity
  8
0
100
AcDbLine
 62
7
  6
CONTINUOUS
 10
226.1997385901
 20
268.3889991542
 11
228.3210501017
 21
269.6137316158
  0
LINE
  5
226
100
AcDbEntity
  8
0
100
AcDbLine
 62
7
  6
CONTINUOUS
 10
269.6159271484
 20
286.7599089007
 11
233.1565057858
 21
265.7101778124
  0
LINE
  5
227
100
AcDbEntity
  8
0
100
AcDbLine
 62
7
  6
CONTINUOUS
 10
241.8157548195
 20
253.3185078688
 11
246.8473678825
 21
256.2234936847
  0
LINE
  5
228
100
AcDbEntity
  8
0
100
AcDbLine
 62
7
  6
CONTINUOUS
 10
54.0186294435
 20
312.330937596
 11
221.6036343034
 21
215.5778787746
  0
LINE
  5
229
100
AcDbEntity
  8
0
100
AcDbLine
 62
7
  6
CONTINUOUS
 10
221.626810724
 20
215.8198852225
 11
162.1235273528
 21
250.1733447154
  0
LINE
  5
22A
100
AcDbEntity
  8
0
100
AcDbLine
 62
7
  6
CONTINUOUS
 10
113.0501124276
 20
278.5052530791
 11
53.5468290565
 21
312.858712572
  0
LINE
  5
22B
100
AcDbEntity
  8
0
100
AcDbLine
 62
7
  6
CONTINUOUS
 10
283.9702545689
 20
261.8976225162
 11
247.7468963962
 21
240.9841817606
  0
LINE
  5
22C
100
AcDbEntity
  8
0
100
AcDbLine
 62
7
  6
CONTINUOUS
 10
248.827232131
 20
234.096179638
 11
246.8473678825
 21
232.9531113044
  0
LINE
  5
22D
100
AcDbEntity
  8
0
100
AcDbLine
 62
7
  6
CONTINUOUS
 10
156.9016844658
 20
261.9140184508
 11
133.591765644
 21
275.3717019038
  0
LINE
  5
22E
100
AcDbEntity
  8
0
100
AcDbLine
 62
7
  6
CONTINUOUS
 10
155.6302351239
 20
262.7542292323
 11
134.8412092045
 21
274.7565074152
  0
LINE
  5
22F
100
AcDbEntity
  8
0
100
AcDbLine
 62
7
  6
CONTINUOUS
 10
134.8412092045
 20
278.8390194024
 11
155.6302351239
 21
266.8367412687
  0
LINE
  5
230
100
AcDbEntity
  8
0
100
AcDbLine
 62
7
  6
CONTINUOUS
 10
221.5517463432
 20
121.6488554077
 11
221.626810724
 21
120.7790038686
  0
LINE
  5
231
100
AcDbEntity
  8
0
100
AcDbLine
 62
7
  6
CONTINUOUS
 10
221.563614497
 20
121.6569954967
 11
221.626810724
 21
120.7790038686
  0
LINE
  5
232
100
AcDbEntity
  8
0
100
AcDbLine
 62
7
  6
CONTINUOUS
 10
129.1045741203
 20
290.5788522648
 11
128.3940469402
 21
290.9543080415
  0
LINE
  5
233
100
AcDbEntity
  8
0
100
AcDbLine
 62
7
  6
CONTINUOUS
 10
149.8936000396
 20
278.5765740819
 11
129.1045741203
 21
290.5788522648
  0
LINE
  5
234
100
AcDbEntity
  8
0
100
AcDbLine
 62
7
  6
CONTINUOUS
 10
43.8250317784
 20
367.6259191344
 11
241.8157548195
 21
253.3185078688
  0
LINE
  5
235
100
AcDbEntity
  8
0
100
AcDbLine
 62
7
  6
CONTINUOUS
 10
246.8473678825
 20
256.2234936847
 11
48.8566448413
 21
370.5309049504
  0
LINE
  5
236
100
AcDbEntity
  8
0
100
AcDbLine
 62
7
  6
CONTINUOUS
 10
226.1997385901
 20
268.3889991542
 11
75.5853671338
 21
355.3442798671
  0
LINE
  5
237
100
AcDbEntity
  8
0
100
AcDbLine
 62
7
  6
CONTINUOUS
 10
228.3210501017
 20
269.6137316158
 11
77.7066786454
 21
356.5690123287
  0
LINE
  5
238
100
AcDbEntity
  8
0
100
AcDbLine
 62
7
  6
CONTINUOUS
 10
246.8473678825
 20
256.2234936847
 11
246.8473678825
 21
74.9599570819
  0
LINE
  5
239
100
AcDbEntity
  8
0
100
AcDbLine
 62
7
  6
CONTINUOUS
 10
248.827232131
 20
106.7218025658
 11
248.827232131
 21
234.096179638
  0
LINE
  5
23A
100
AcDbEntity
  8
0
100
AcDbLine
 62
7
  6
CONTINUOUS
 10
221.563614497
 20
121.6569954967
 11
221.1246524967
 21
121.4035621804
  0
LINE
  5
23B
100
AcDbEntity
  8
0
100
AcDbLine
 62
7
  6
CONTINUOUS
 10
269.6159271484
 20
286.7599089007
 11
115.8902729015
 21
375.5114489334
  0
LINE
  5
23C
100
AcDbEntity
  8
0
100
AcDbLine
 62
7
  6
CONTINUOUS
 10
283.9702545689
 20
130.1141323915
 11
283.9702545689
 21
261.8976225162
  0
LINE
  5
23D
100
AcDbEntity
  8
0
100
AcDbLine
 62
7
  6
CONTINUOUS
 10
283.9702545689
 20
261.8976225162
 11
269.6159271484
 21
286.7599089007
  0
LINE
  5
23E
100
AcDbEntity
  8
0
100
AcDbLine
 62
7
  6
CONTINUOUS
 10
283.9702545689
 20
130.1141323915
 11
248.827232131
 21
109.82442004
  0
LINE
  5
23F
100
AcDbEntity
  8
0
100
AcDbLine
 62
7
  6
CONTINUOUS
 10
246.8473678825
 20
105.5787342321
 11
248.827232131
 21
106.7218025658
  0
LINE
  5
240
100
AcDbEntity
  8
0
100
AcDbLine
 62
7
  6
CONTINUOUS
 10
246.8473678825
 20
74.9599570819
 11
241.8157548195
 21
72.054971266
  0
ARC
  5
241
100
AcDbEntity
  8
0
100
AcDbCircle
 62
7
  6
CONTINUOUS
 10
824.8780623393
 20
197.6658414285
 40
664.8312654701
100
AcDbArc
 50
174.9596005183
 51
175.4701366957
  0
ARC
  5
242
100
AcDbEntity
  8
0
100
AcDbCircle
 62
7
  6
CONTINUOUS
 10
774.1349065384
 20
226.1375254971
 40
663.1557010963
100
AcDbArc
 50
174.9589555401
 51
175.4707816739
  0
ARC
  5
243
100
AcDbEntity
  8
0
100
AcDbCircle
 62
7
  6
CONTINUOUS
 10
707.3216038566
 20
261.0709729418
 40
655.8227093818
100
AcDbArc
 50
175.4708623146
 51
175.7875295132
  0
ARC
  5
244
100
AcDbEntity
  8
0
100
AcDbCircle
 62
7
  6
CONTINUOUS
 10
212.1171808003
 20
244.0057624534
 40
28.1577816227
100
AcDbArc
 50
57.4326247031
 51
59.9913837008
  0
ARC
  5
245
100
AcDbEntity
  8
0
100
AcDbCircle
 62
7
  6
CONTINUOUS
 10
62.5537199914
 20
332.7944678149
 40
26.0445359112
100
AcDbArc
 50
59.9761717188
 51
62.6708437687
  0
ARC
  5
246
100
AcDbEntity
  8
0
100
AcDbCircle
 62
7
  6
CONTINUOUS
 10
150.7088805241
 20
249.2938097006
 40
13.4417987826
100
AcDbArc
 50
28.3083176492
 51
29.5970944438
  0
ARC
  5
247
100
AcDbEntity
  8
0
100
AcDbCircle
 62
7
  6
CONTINUOUS
 10
151.0565081996
 20
249.4822155316
 40
13.0463993913
100
AcDbArc
 50
27.956129385
 51
28.3038228168
  0
SPLINE
  5
248
100
AcDbEntity
  8
0
100
AcDbSpline
 62
7
  6
CONTINUOUS
 70
0
 71
3
 72
9
 73
5
 74
0
 42
0.0000001
 43
0.0000001
 44
0.0000000001
 40
0.0
 40
0.0
 40
0.0
 40
0.0
 40
0.5192130699
 40
1.0
 40
1.0
 40
1.0
 40
1.0
 10
54.0186294435
 20
312.330937596
 30
0.0
 10
51.3570290488
 20
303.5108203777
 30
0.0
 10
47.2639716316
 20
286.1880840657
 30
0.0
 10
45.6748041644
 20
268.4295935928
 30
0.0
 10
45.6748041644
 20
259.8984726122
 30
0.0
  0
SPLINE
  5
249
100
AcDbEntity
  8
0
100
AcDbSpline
 62
7
  6
CONTINUOUS
 70
0
 71
3
 72
10
 73
6
 74
0
 42
0.0000001
 43
0.0000001
 44
0.0000000001
 40
0.0
 40
0.0
 40
0.0
 40
0.0
 40
0.2707828352
 40
0.5277069611
 40
1.0
 40
1.0
 40
1.0
 40
1.0
 10
45.6748041644
 20
259.8984726122
 30
0.0
 10
45.6748041644
 20
256.0416760516
 30
0.0
 10
45.9822012328
 20
248.5177813906
 30
0.0
 10
47.8738201011
 20
234.3938591866
 30
0.0
 10
50.8093398976
 20
224.3045520426
 30
0.0
 10
53.5396476369
 20
218.1566210018
 30
0.0
  0
SPLINE
  5
24A
100
AcDbEntity
  8
0
100
AcDbSpline
 62
7
  6
CONTINUOUS
 70
0
 71
3
 72
10
 73
6
 74
0
 42
0.0000001
 43
0.0000001
 44
0.0000000001
 40
0.0
 40
0.0
 40
0.0
 40
0.0
 40
0.4722930389
 40
0.7292171648
 40
1.0
 40
1.0
 40
1.0
 40
1.0
 10
221.1246524967
 20
121.4035621804
 30
0.0
 10
218.3943447575
 20
127.5514932213
 30
0.0
 10
215.458824961
 20
137.6408003653
 30
0.0
 10
213.5672060926
 20
151.7647225693
 30
0.0
 10
213.2598090243
 20
159.2886172303
 30
0.0
 10
213.2598090243
 20
163.1454137909
 30
0.0
  0
SPLINE
  5
24B
100
AcDbEntity
  8
0
100
AcDbSpline
 62
7
  6
CONTINUOUS
 70
0
 71
3
 72
9
 73
5
 74
0
 42
0.0000001
 43
0.0000001
 44
0.0000000001
 40
0.0
 40
0.0
 40
0.0
 40
0.0
 40
0.4807869301
 40
1.0
 40
1.0
 40
1.0
 40
1.0
 10
213.2598090243
 20
163.1454137909
 30
0.0
 10
213.2598090242
 20
171.6765347715
 30
0.0
 10
214.8489764915
 20
189.4350252444
 30
0.0
 10
218.9420339086
 20
206.7577615564
 30
0.0
 10
221.6036343034
 20
215.5778787746
 30
0.0
  0
SPLINE
  5
24C
100
AcDbEntity
  8
0
100
AcDbSpline
 62
7
  6
CONTINUOUS
 70
0
 71
3
 72
9
 73
5
 74
0
 42
0.0000001
 43
0.0000001
 44
0.0000000001
 40
0.0
 40
0.0
 40
0.0
 40
0.0
 40
0.2283752417
 40
1.0
 40
1.0
 40
1.0
 40
1.0
 10
246.9678320367
 20
97.9431728972
 30
0.0
 10
247.2818206292
 20
98.5540867311
 30
0.0
 10
248.4501788772
 20
101.3359930769
 30
0.0
 10
248.827232131
 20
104.4010000005
 30
0.0
 10
248.827232131
 20
106.7218025658
 30
0.0
  0
SPLINE
  5
24D
100
AcDbEntity
  8
0
100
AcDbSpline
 62
7
  6
CONTINUOUS
 70
0
 71
3
 72
9
 73
5
 74
0
 42
0.0000001
 43
0.0000001
 44
0.0000000001
 40
0.0
 40
0.0
 40
0.0
 40
0.0
 40
0.4798721069
 40
1.0
 40
1.0
 40
1.0
 40
1.0
 10
248.827232131
 20
234.096179638
 30
0.0
 10
248.827232131
 20
235.8742442291
 30
0.0
 10
248.4700405343
 20
239.5827142515
 30
0.0
 10
247.5594116772
 20
243.1877326943
 30
0.0
 10
246.9678016054
 20
245.0219053835
 30
0.0
  0
SPLINE
  5
24E
100
AcDbEntity
  8
0
100
AcDbSpline
 62
7
  6
CONTINUOUS
 70
0
 71
3
 72
9
 73
5
 74
0
 42
0.0000001
 43
0.0000001
 44
0.0000000001
 40
0.0
 40
0.0
 40
0.0
 40
0.0
 40
0.5210114523
 40
1.0
 40
1.0
 40
1.0
 40
1.0
 10
237.4263853302
 20
261.8944497782
 30
0.0
 10
236.0612459698
 20
263.4638774548
 30
0.0
 10
233.2311952201
 20
266.3018046683
 30
0.0
 10
229.9771623796
 20
268.657596377
 30
0.0
 10
228.3210501017
 20
269.6137316158
 30
0.0
  0
SPLINE
  5
24F
100
AcDbEntity
  8
0
100
AcDbSpline
 62
7
  6
CONTINUOUS
 70
0
 71
3
 72
9
 73
5
 74
0
 42
0.0000001
 43
0.0000001
 44
0.0000000001
 40
0.0
 40
0.0
 40
0.0
 40
0.0
 40
0.2757637599
 40
1.0
 40
1.0
 40
1.0
 40
1.0
 10
77.7066786454
 20
356.5690123287
 30
0.0
 10
76.9440616213
 20
357.0092995122
 30
0.0
 10
74.1114521444
 20
358.4695394405
 30
0.0
 10
70.9139397448
 20
359.3518113829
 30
0.0
 10
68.6012840003
 20
359.3634284199
 30
0.0
  0
SPLINE
  5
250
100
AcDbEntity
  8
0
100
AcDbSpline
 62
7
  6
CONTINUOUS
 70
0
 71
3
 72
9
 73
5
 74
0
 42
0.0000001
 43
0.0000001
 44
0.0000000001
 40
0.0
 40
0.0
 40
0.0
 40
0.0
 40
0.5103013199
 40
1.0
 40
1.0
 40
1.0
 40
1.0
 10
43.8250317784
 20
367.6259191344
 30
0.0
 10
41.4766032697
 20
351.6163865396
 30
0.0
 10
37.9049824983
 20
320.081589461
 30
0.0
 10
36.6237484575
 20
288.3640957641
 30
0.0
 10
36.6237484575
 20
272.836512787
 30
0.0
  0
SPLINE
  5
251
100
AcDbEntity
  8
0
100
AcDbSpline
 62
7
  6
CONTINUOUS
 70
0
 71
3
 72
9
 73
5
 74
0
 42
0.0000001
 43
0.0000001
 44
0.0000000001
 40
0.0
 40
0.0
 40
0.0
 40
0.0
 40
0.5123563358
 40
1.0
 40
1.0
 40
1.0
 40
1.0
 10
36.6237484575
 20
272.836512787
 30
0.0
 10
36.6237484575
 20
258.0027721917
 30
0.0
 10
37.7408833478
 20
229.0363972102
 30
0.0
 10
41.3697060194
 20
200.2654980777
 30
0.0
 10
43.8250317784
 20
186.3623825317
 30
0.0
  0
SPLINE
  5
252
100
AcDbEntity
  8
0
100
AcDbSpline
 62
7
  6
CONTINUOUS
 70
0
 71
3
 72
17
 73
13
 74
0
 42
0.0000001
 43
0.0000001
 44
0.0000000001
 40
0.0
 40
0.0
 40
0.0
 40
0.0
 40
0.0579393081
 40
0.1183103142
 40
0.2463884955
 40
0.3789682465
 40
0.5107685628
 40
0.639825152
 40
0.7652945373
 40
0.8861547639
 40
0.944243436
 40
1.0
 40
1.0
 40
1.0
 40
1.0
 10
162.6177014481
 20
256.0766788271
 30
0.0
 10
162.6634661014
 20
256.5956270959
 30
0.0
 10
162.7329526671
 20
257.6581235329
 30
0.0
 10
162.6715990106
 20
259.8767545499
 30
0.0
 10
162.0772957039
 20
262.7275191127
 30
0.0
 10
160.7218405742
 20
265.9996439563
 30
0.0
 10
158.9653763782
 20
269.0780987449
 30
0.0
 10
156.9562808933
 20
271.9176723129
 30
0.0
 10
154.7735906787
 20
274.4969916942
 30
0.0
 10
152.8181522376
 20
276.4210801952
 30
0.0
 10
151.1782490555
 20
277.7514710819
 30
0.0
 10
150.3277723026
 20
278.3259102798
 30
0.0
 10
149.8936000396
 20
278.5765740819
 30
0.0
  0
SPLINE
  5
253
100
AcDbEntity
  8
0
100
AcDbSpline
 62
7
  6
CONTINUOUS
 70
0
 71
3
 72
11
 73
7
 74
0
 42
0.0000001
 43
0.0000001
 44
0.0000000001
 40
0.0
 40
0.0
 40
0.0
 40
0.0
 40
0.2055473132
 40
0.4544966533
 40
0.7297460823
 40
1.0
 40
1.0
 40
1.0
 40
1.0
 10
155.6302351239
 20
262.7542292323
 30
0.0
 10
156.2059448682
 20
262.4218505759
 30
0.0
 10
157.4276699376
 20
261.5967881679
 30
0.0
 10
159.2186720754
 20
260.0515837274
 30
0.0
 10
160.9541162339
 20
258.1487633541
 30
0.0
 10
161.965171479
 20
256.692714781
 30
0.0
 10
162.3967930914
 20
255.9326841782
 30
0.0
  0
SPLINE
  5
254
100
AcDbEntity
  8
0
100
AcDbSpline
 62
7
  6
CONTINUOUS
 70
0
 71
3
 72
9
 73
5
 74
0
 42
0.0000001
 43
0.0000001
 44
0.0000000001
 40
0.0
 40
0.0
 40
0.0
 40
0.0
 40
0.2546011794
 40
1.0
 40
1.0
 40
1.0
 40
1.0
 10
219.6591008118
 20
167.1633934794
 30
0.0
 10
219.6591008118
 20
163.2967211555
 30
0.0
 10
219.8122662986
 20
148.1101281895
 30
0.0
 10
220.5883791788
 20
132.9282913014
 30
0.0
 10
221.5517463432
 20
121.6488554077
 30
0.0
  0
SPLINE
  5
255
100
AcDbEntity
  8
0
100
AcDbSpline
 62
7
  6
CONTINUOUS
 70
0
 71
3
 72
17
 73
13
 74
0
 42
0.0000001
 43
0.0000001
 44
0.0000000001
 40
0.0
 40
0.0
 40
0.0
 40
0.0
 40
0.0232471267
 40
0.0544411184
 40
0.0949724059
 40
0.1455571155
 40
0.2767535938
 40
0.4391369125
 40
0.6122904836
 40
0.7726787591
 40
0.9037278928
 40
1.0
 40
1.0
 40
1.0
 40
1.0
 10
113.6279763295
 20
278.8388809669
 30
0.0
 10
113.7756101958
 20
278.9241169106
 30
0.0
 10
114.1489150357
 20
279.0750131598
 30
0.0
 10
114.8294926959
 20
279.2295402155
 30
0.0
 10
115.7223291421
 20
279.3297202955
 30
0.0
 10
117.3531690866
 20
279.3766474504
 30
0.0
 10
119.8760353797
 20
279.1940434748
 30
0.0
 10
123.2597278851
 20
278.6626756815
 30
0.0
 10
126.8062903044
 20
277.8446713151
 30
0.0
 10
130.070138535
 20
276.8579275022
 30
0.0
 10
132.7271978347
 20
275.8399012917
 30
0.0
 10
134.2298182676
 20
275.1094861518
 30
0.0
 10
134.8412092045
 20
274.7565074152
 30
0.0
  0
SPLINE
  5
256
100
AcDbEntity
  8
0
100
AcDbSpline
 62
7
  6
CONTINUOUS
 70
0
 71
3
 72
9
 73
5
 74
0
 42
0.0000001
 43
0.0000001
 44
0.0000000001
 40
0.0
 40
0.0
 40
0.0
 40
0.0
 40
0.2542548684
 40
1.0
 40
1.0
 40
1.0
 40
1.0
 10
221.626810724
 20
215.8198852225
 30
0.0
 10
221.3008812094
 20
211.7050890871
 30
0.0
 10
220.1710957901
 20
195.5098208082
 30
0.0
 10
219.6591008118
 20
179.2701446896
 30
0.0
 10
219.6591008118
 20
167.1633934794
 30
0.0
  0
SPLINE
  5
257
100
AcDbEntity
  8
0
100
AcDbSpline
 62
7
  6
CONTINUOUS
 70
0
 71
3
 72
9
 73
5
 74
0
 42
0.0000001
 43
0.0000001
 44
0.0000000001
 40
0.0
 40
0.0
 40
0.0
 40
0.0
 40
0.4896986801
 40
1.0
 40
1.0
 40
1.0
 40
1.0
 10
234.6144714987
 20
158.5291015213
 30
0.0
 10
234.6144714987
 20
174.0566844984
 30
0.0
 10
235.8957055395
 20
205.7741781954
 30
0.0
 10
239.4673263108
 20
237.3089752739
 30
0.0
 10
241.8157548195
 20
253.3185078688
 30
0.0
  0
SPLINE
  5
258
100
AcDbEntity
  8
0
100
AcDbSpline
 62
7
  6
CONTINUOUS
 70
0
 71
3
 72
17
 73
13
 74
0
 42
0.0000001
 43
0.0000001
 44
0.0000000001
 40
0.0
 40
0.0
 40
0.0
 40
0.0
 40
0.1335434702
 40
0.2589721457
 40
0.3787864387
 40
0.494449396
 40
0.6079822891
 40
0.665488654
 40
0.7247799033
 40
0.787278334
 40
0.8541602102
 40
1.0
 40
1.0
 40
1.0
 40
1.0
 10
128.394023059
 20
290.953804017
 30
0.0
 10
127.6068996222
 20
291.3330304519
 30
0.0
 10
125.9969709899
 20
291.9015073055
 30
0.0
 10
123.5458782904
 20
292.3238099864
 30
0.0
 10
121.1737689735
 20
292.3527266515
 30
0.0
 10
118.9081388721
 20
291.9764986844
 30
0.0
 10
117.1517208141
 20
291.2477571212
 30
0.0
 10
115.9287280867
 20
290.3553832414
 30
0.0
 10
115.1179809095
 20
289.4974110325
 30
0.0
 10
114.4597128545
 20
288.4435725453
 30
0.0
 10
113.8101314346
 20
286.7539430619
 30
0.0
 10
113.6281180996
 20
285.359060499
 30
0.0
 10
113.544286523
 20
284.4085871922
 30
0.0
  0
SPLINE
  5
259
100
AcDbEntity
  8
0
100
AcDbSpline
 62
7
  6
CONTINUOUS
 70
0
 71
3
 72
11
 73
7
 74
0
 42
0.0000001
 43
0.0000001
 44
0.0000000001
 40
0.0
 40
0.0
 40
0.0
 40
0.0
 40
0.2177907612
 40
0.4511348445
 40
0.710421498
 40
1.0
 40
1.0
 40
1.0
 40
1.0
 10
129.7452174395
 20
290.235728399
 30
0.0
 10
130.5585419286
 20
289.7536078627
 30
0.0
 10
132.0781023211
 20
288.4510353747
 30
0.0
 10
133.6919928514
 20
285.77469536
 30
0.0
 10
134.6528122174
 20
282.4869979887
 30
0.0
 10
134.8412092085
 20
280.09614976
 30
0.0
 10
134.8412092045
 20
278.839019427
 30
0.0
  0
SPLINE
  5
25A
100
AcDbEntity
  8
0
100
AcDbSpline
 62
7
  6
CONTINUOUS
 70
0
 71
3
 72
9
 73
5
 74
0
 42
0.0000001
 43
0.0000001
 44
0.0000000001
 40
0.0
 40
0.0
 40
0.0
 40
0.0
 40
0.2437674886
 40
1.0
 40
1.0
 40
1.0
 40
1.0
 10
113.5442867103
 20
284.4085894283
 30
0.0
 10
113.5583350053
 20
284.2883332707
 30
0.0
 10
113.6084780807
 20
283.7941462786
 30
0.0
 10
113.62797631
 20
283.296997065
 30
0.0
 10
113.6279763295
 20
282.9213930525
 30
0.0
  0
SPLINE
  5
25B
100
AcDbEntity
  8
0
100
AcDbSpline
 62
7
  6
CONTINUOUS
 70
0
 71
3
 72
17
 73
13
 74
0
 42
0.0000001
 43
0.0000001
 44
0.0000000001
 40
0.0
 40
0.0
 40
0.0
 40
0.0
 40
0.0962716456
 40
0.2273199357
 40
0.3877071765
 40
0.5608599676
 40
0.7232432114
 40
0.8544404251
 40
0.9050257185
 40
0.9455576554
 40
0.9767522944
 40
1.0
 40
1.0
 40
1.0
 40
1.0
 10
134.841141497
 20
278.8389816331
 30
0.0
 10
134.2297554856
 20
279.191957526
 30
0.0
 10
132.7271492074
 20
279.9223672211
 30
0.0
 10
130.070116064
 20
280.940387697
 30
0.0
 10
126.8062990784
 20
281.9271288786
 30
0.0
 10
123.259763801
 20
282.7451361066
 30
0.0
 10
119.8760849431
 20
283.2765129321
 30
0.0
 10
117.3532188155
 20
283.4591282159
 30
0.0
 10
115.7223694875
 20
283.412212218
 30
0.0
 10
114.8295213706
 20
283.3120394421
 30
0.0
 10
114.1489305202
 20
283.1575189964
 30
0.0
 10
113.7756156959
 20
283.0066275826
 30
0.0
 10
113.6279763304
 20
282.9213937862
 30
0.0
  0
SPLINE
  5
25C
100
AcDbEntity
  8
0
100
AcDbSpline
 62
7
  6
CONTINUOUS
 70
0
 71
3
 72
11
 73
7
 74
0
 42
0.0000001
 43
0.0000001
 44
0.0000000001
 40
0.0
 40
0.0
 40
0.0
 40
0.0
 40
0.2883701141
 40
0.5478827067
 40
0.782141536
 40
1.0
 40
1.0
 40
1.0
 40
1.0
 10
155.6302351239
 20
266.8367412441
 30
0.0
 10
155.6302351276
 20
268.0419678204
 30
0.0
 10
155.4564823233
 20
270.3387868939
 30
0.0
 10
154.5761910264
 20
273.5131577238
 30
0.0
 10
153.1002479365
 20
276.1349358085
 30
0.0
 10
151.7034064351
 20
277.4616092736
 30
0.0
 10
150.9487152199
 20
277.9710214971
 30
0.0
  0
SPLINE
  5
25D
100
AcDbEntity
  8
0
100
AcDbSpline
 62
7
  6
CONTINUOUS
 70
0
 71
3
 72
11
 73
7
 74
0
 42
0.0000001
 43
0.0000001
 44
0.0000000001
 40
0.0
 40
0.0
 40
0.0
 40
0.0
 40
0.2063053369
 40
0.4570982362
 40
0.7331200269
 40
1.0
 40
1.0
 40
1.0
 40
1.0
 10
155.6302351239
 20
266.8367411526
 30
0.0
 10
156.2288297448
 20
266.4911502054
 30
0.0
 10
157.4996248129
 20
265.6279490815
 30
0.0
 10
159.3533275269
 20
264.0073759158
 30
0.0
 10
161.1276747749
 20
262.0179285688
 30
0.0
 10
162.1444131522
 20
260.4977150484
 30
0.0
 10
162.5655114048
 20
259.7089428558
 30
0.0
  0
SPLINE
  5
25E
100
AcDbEntity
  8
0
100
AcDbSpline
 62
7
  6
CONTINUOUS
 70
0
 71
3
 72
9
 73
5
 74
0
 42
0.0000001
 43
0.0000001
 44
0.0000000001
 40
0.0
 40
0.0
 40
0.0
 40
0.0
 40
0.2461523585
 40
1.0
 40
1.0
 40
1.0
 40
1.0
 10
241.8157548195
 20
72.054971266
 30
0.0
 10
241.3330005095
 20
74.7885347977
 30
0.0
 10
239.4799699013
 20
85.9126244762
 30
0.0
 10
238.0530145917
 20
97.1069664809
 30
0.0
 10
237.2003937964
 20
105.5652535769
 30
0.0
  0
SPLINE
  5
25F
100
AcDbEntity
  8
0
100
AcDbSpline
 62
7
  6
CONTINUOUS
 70
0
 71
3
 72
9
 73
5
 74
0
 42
0.0000001
 43
0.0000001
 44
0.0000000001
 40
0.0
 40
0.0
 40
0.0
 40
0.0
 40
0.2446254225
 40
1.0
 40
1.0
 40
1.0
 40
1.0
 10
237.2003937964
 20
105.5652535769
 30
0.0
 10
236.7666242071
 20
109.8683948328
 30
0.0
 10
235.2293067108
 20
127.482461169
 30
0.0
 10
234.6144714987
 20
145.1741680215
 30
0.0
 10
234.6144714987
 20
158.5291015213
 30
0.0
  0
ENDSEC
  0
SECTION
  2
OBJECTS
  0
DICTIONARY
  5
C
100
AcDbDictionary
280
0
281
1
  3
ACAD_GROUP
350
D
  3
ACAD_MLINESTYLE
350
17
  3
ACAD_LAYOUT
350
1A
  3
ACAD_PLOTSETTINGS
350
19
  3
ACAD_PLOTSTYLENAME
350
E
  0
DICTIONARY
  5
D
102
{ACAD_REACTORS
330
C
102
}
100
AcDbDictionary
280
0
281
1
  0
ACDBDICTIONARYWDFLT
  5
E
102
{ACAD_REACTORS
330
C
102
}
100
AcDbDictionary
281
1
  3
Normal
350
F
100
AcDbDictionaryWithDefault
340
F
  0
DICTIONARY
  5
17
102
{ACAD_REACTORS
330
C
102
}
100
AcDbDictionary
280
0
281
1
  3
Standard
350
18
  0
DICTIONARY
  5
19
102
{ACAD_REACTORS
330
C
102
}
100
AcDbDictionary
281
1
  0
DICTIONARY
  5
1A
102
{ACAD_REACTORS
330
C
102
}
100
AcDbDictionary
281
1
  3
Model
350
260
  3
Layout1
350
261
  0
ACDBPLACEHOLDER
  5
F
102
{ACAD_REACTORS
330
E
102
}
  0
MLINESTYLE
  5
18
102
{ACAD_REACTORS
330
17
102
}
100
AcDbMlineStyle
  2
STANDARD
 70
0
  3

 62
256
 51
90.0
 52
90.0
 71
2
 49
0.5
 62
256
  6
BYLAYER
 49
-0.5
 62
256
  6
BYLAYER
  0
LAYOUT
  5
260
102
{ACAD_REACTORS
330
1A
102
}
100
AcDbPlotSettings
  1

  2
none_device
  4

  6

 40
0.0
 41
0.0
 42
0.0
 43
0.0
 44
210.0
 45
297.0
 46
0.0
 47
0.0
 48
0.0
 49
0.0
140
0.0
141
0.0
142
1.0
143
1.0
 70
1024
 72
1
 73
0
 74
0
  7

 75
0
147
1.0
148
0.0
149
0.0
100
AcDbLayout
  1
Model
 70
0
 71
0
 10
0.0
 20
0.0
 11
210.0
 21
297.0
 12
0.0
 22
0.0
 32
0.0
 14
0.0
 24
0.0
 34
0.0
 15
0.0
 25
0.0
 35
0.0
146
0.0
 13
0.0
 23
0.0
 33
0.0
 16
1.0
 26
0.0
 36
0.0
 17
0.0
 27
1.0
 37
0.0
 76
0
330
210
345
0
346
0
  0
LAYOUT
  5
261
102
{ACAD_REACTORS
330
1A
102
}
100
AcDbPlotSettings
  1

  2
none_device
  4

  6

 40
0.0
 41
0.0
 42
0.0
 43
0.0
 44
210.0
 45
297.0
 46
0.0
 47
0.0
 48
0.0
 49
0.0
140
0.0
141
0.0
142
1.0
143
1.0
 70
0
 72
1
 73
0
 74
0
  7

 75
0
147
1.0
148
0.0
149
0.0
100
AcDbLayout
  1
Layout1
 70
0
 71
1
 10
0.0
 20
0.0
 11
210.0
 21
297.0
 12
0.0
 22
0.0
 32
0.0
 14
0.0
 24
0.0
 34
0.0
 15
0.0
 25
0.0
 35
0.0
146
0.0
 13
0.0
 23
0.0
 33
0.0
 16
1.0
 26
0.0
 36
0.0
 17
0.0
 27
1.0
 37
0.0
 76
0
330
211
345
0
346
0
  0
ENDSEC
  0
EOF
