999
DXF file: C:\Users\sesa63760\Dev\_Creo\CAD\MCADFD0002087_3D-CAD\drw0001_1.dxf
999
Pro/ENGINEER 2019471 by Parametric Technology Corporation
  0
SECTION
  2
HEADER
  9
$ACADVER
  1
AC1024
  9
$DWGCODEPAGE
  3
ANSI_1252
  9
$EXTMAX
 10
427.7798910229
 20
605.0029887324
 30
0.0
  9
$EXTMIN
 10
0.0
 20
0.0
 30
0.0
  9
$LIMMIN
 10
0.0
 20
0.0
  9
$LIMMAX
 10
427.7798910229
 20
605.0029887324
  9
$VIEWCTR
 10
213.8899455115
 20
302.5014943662
  9
$VIEWSIZE
 40
605.0029887324
  9
$CLAYER
  8
0
  9
$LTSCALE
 40
39.4372318581
  9
$CELTYPE
  6
BYLAYER
  9
$DIMSCALE
 40
1.0
  9
$DIMASZ
 40
5.0926177503
  9
$DIMEXO
 40
1.0
  9
$DIMDLI
 40
27.2475420111
  9
$DIMEXE
 40
1.0
  9
$DIMCEN
 40
6.4533652131
  9
$DIMLFAC
 40
1.0
  9
$DIMBLK
  1
_FILLED
  9
$DIMALT
 70
0
  9
$DIMALTF
 40
0.0393700787
  9
$DIMTXT
 40
7.1296648504
  9
$DIMTOL
 70
1
  9
$DIMLIM
 70
0
  9
$DIMTFAC
 40
1.0
  9
$DIMTP
 40
0.01
  9
$DIMTM
 40
0.01
  9
$DIMGAP
 40
0.625
  9
$DIMDSEP
 70
46
  9
$AUNITS
 70
0
  9
$PDMODE
 70
3
  9
$PDSIZE
 40
0.3125
  9
$HANDSEED
  5
263
  9
$TILEMODE
 70
1
  9
$MEASUREMENT
 70
1
  9
$INSUNITS
 70
4
  0
ENDSEC
  0
SECTION
  2
CLASSES
  0
CLASS
  1
ACDBDICTIONARYWDFLT
  2
AcDbDictionaryWithDefault
  3
AutoCAD 2000
 90
0
 91
1
280
0
281
0
  0
CLASS
  1
ACDBPLACEHOLDER
  2
AcDbPlaceHolder
  3
AutoCAD 2000
 90
0
 91
1
280
0
281
0
  0
CLASS
  1
LAYOUT
  2
AcDbLayout
  3
AutoCAD 2000
 90
0
 91
0
280
0
281
0
  0
ENDSEC
  0
SECTION
  2
TABLES
  0
TABLE
  2
VPORT
  5
8
100
AcDbSymbolTable
 70
2
  0
VPORT
  5
1F4
100
AcDbSymbolTableRecord
100
AcDbViewportTableRecord
  2
*ACTIVE
 70
0
 10
0.0
 20
0.0
 11
1.0
 21
1.0
 12
213.8899455115
 22
302.5014943662
 13
0.0
 23
0.0
 14
1.0
 24
1.0
 15
0.0
 25
0.0
 16
0.0
 26
0.0
 36
1.0
 17
0.0
 27
0.0
 37
0.0
 40
605.0029887324
 41
0.7070707071
 42
50.0
 43
0.0
 44
0.0
 50
0.0
 51
0.0
 71
0
 72
100
 73
1
 74
1
 75
0
 76
0
 77
0
 78
0
  0
ENDTAB
  0
TABLE
  2
LTYPE
  5
5
100
AcDbSymbolTable
 70
6
  0
LTYPE
  5
14
100
AcDbSymbolTableRecord
100
AcDbLinetypeTableRecord
  2
BYBLOCK
 70
0
  3

 72
65
 73
0
 40
0.0
  0
LTYPE
  5
15
100
AcDbSymbolTableRecord
100
AcDbLinetypeTableRecord
  2
BYLAYER
 70
0
  3

 72
65
 73
0
 40
0.0
  0
LTYPE
  5
16
100
AcDbSymbolTableRecord
100
AcDbLinetypeTableRecord
  2
CONTINUOUS
 70
64
  3
Solid line
 72
65
 73
0
 40
0.0
  0
LTYPE
  5
1F5
100
AcDbSymbolTableRecord
100
AcDbLinetypeTableRecord
  2
CENTER
 70
64
  3
____ _ ____ _ ____ _ ____ _ ____ _ ____ _ ____
 72
65
 73
4
 40
0.6
 49
0.375
 74
0
 49
-0.075
 74
0
 49
0.075
 74
0
 49
-0.075
 74
0
  0
LTYPE
  5
1F6
100
AcDbSymbolTableRecord
100
AcDbLinetypeTableRecord
  2
HIDDEN
 70
64
  3
- - - - - - - - - - - - - - - - - - - -
 72
65
 73
2
 40
0.2
 49
0.1
 74
0
 49
-0.1
 74
0
  0
LTYPE
  5
1F7
100
AcDbSymbolTableRecord
100
AcDbLinetypeTableRecord
  2
PHANTOM
 70
64
  3
_____ _ _ _____ _ _ _____ _ _ _____
 72
65
 73
6
 40
0.8
 49
0.45
 74
0
 49
-0.05
 74
0
 49
0.1
 74
0
 49
-0.05
 74
0
 49
0.1
 74
0
 49
-0.05
 74
0
  0
LTYPE
  5
1F8
100
AcDbSymbolTableRecord
100
AcDbLinetypeTableRecord
  2
DOT
 70
64
  3
. . . . . . . . . . . . . . . . . . . .
 72
65
 73
2
 40
0.2
 49
0.1
 74
0
 49
-0.1
 74
0
  0
LTYPE
  5
1F9
100
AcDbSymbolTableRecord
100
AcDbLinetypeTableRecord
  2
DASHED
 70
64
  3
- - - - - - - - - - - - - - - - - - - -
 72
65
 73
2
 40
0.2
 49
0.1
 74
0
 49
-0.1
 74
0
  0
ENDTAB
  0
TABLE
  2
LAYER
  5
2
100
AcDbSymbolTable
 70
36
  0
LAYER
  5
10
100
AcDbSymbolTableRecord
100
AcDbLayerTableRecord
  2
0
 70
0
 62
7
  6
CONTINUOUS
370
-3
390
F
  0
LAYER
  5
1FA
100
AcDbSymbolTableRecord
100
AcDbLayerTableRecord
  2
DEFAULT_1
 70
0
 62
7
  6
CENTER
370
-3
390
F
  0
LAYER
  5
1FB
100
AcDbSymbolTableRecord
100
AcDbLayerTableRecord
  2
DEFAULT_2
 70
0
 62
8
  6
HIDDEN
370
-3
390
F
  0
LAYER
  5
1FC
100
AcDbSymbolTableRecord
100
AcDbLayerTableRecord
  2
DEFAULT_3
 70
0
 62
7
  6
PHANTOM
370
-3
390
F
  0
LAYER
  5
1FD
100
AcDbSymbolTableRecord
100
AcDbLayerTableRecord
  2
00_COMPONENTS
 70
0
 62
7
  6
CONTINUOUS
370
-3
390
F
  0
LAYER
  5
1FE
100
AcDbSymbolTableRecord
100
AcDbLayerTableRecord
  2
01_1_DEFAULT_DATUMS
 70
0
 62
7
  6
CONTINUOUS
370
-3
390
F
  0
LAYER
  5
1FF
100
AcDbSymbolTableRecord
100
AcDbLayerTableRecord
  2
01_PLANES
 70
0
 62
7
  6
CONTINUOUS
370
-3
390
F
  0
LAYER
  5
200
100
AcDbSymbolTableRecord
100
AcDbLayerTableRecord
  2
02_COORD_SYS
 70
0
 62
7
  6
CONTINUOUS
370
-3
390
F
  0
LAYER
  5
201
100
AcDbSymbolTableRecord
100
AcDbLayerTableRecord
  2
03_AXES
 70
0
 62
7
  6
CONTINUOUS
370
-3
390
F
  0
LAYER
  5
202
100
AcDbSymbolTableRecord
100
AcDbLayerTableRecord
  2
04_POINTS
 70
0
 62
7
  6
CONTINUOUS
370
-3
390
F
  0
LAYER
  5
203
100
AcDbSymbolTableRecord
100
AcDbLayerTableRecord
  2
05_CURVES
 70
0
 62
7
  6
CONTINUOUS
370
-3
390
F
  0
LAYER
  5
204
100
AcDbSymbolTableRecord
100
AcDbLayerTableRecord
  2
06_SURFS
 70
0
 62
7
  6
CONTINUOUS
370
-3
390
F
  0
LAYER
  5
205
100
AcDbSymbolTableRecord
100
AcDbLayerTableRecord
  2
07_COSMETICS
 70
0
 62
7
  6
CONTINUOUS
370
-3
390
F
  0
LAYER
  5
206
100
AcDbSymbolTableRecord
100
AcDbLayerTableRecord
  2
10_NOTES
 70
0
 62
7
  6
CONTINUOUS
370
-3
390
F
  0
LAYER
  5
207
100
AcDbSymbolTableRecord
100
AcDbLayerTableRecord
  2
11_NOTES_PUB
 70
0
 62
7
  6
CONTINUOUS
370
-3
390
F
  0
LAYER
  5
208
100
AcDbSymbolTableRecord
100
AcDbLayerTableRecord
  2
13_REF_GTOL
 70
0
 62
7
  6
CONTINUOUS
370
-3
390
F
  0
LAYER
  5
209
100
AcDbSymbolTableRecord
100
AcDbLayerTableRecord
  2
16_MISC
 70
0
 62
7
  6
CONTINUOUS
370
-3
390
F
  0
LAYER
  5
20A
100
AcDbSymbolTableRecord
100
AcDbLayerTableRecord
  2
17_NO_PRINT
 70
0
 62
7
  6
CONTINUOUS
370
-3
390
F
  0
LAYER
  5
20B
100
AcDbSymbolTableRecord
100
AcDbLayerTableRecord
  2
18_DATUM_CAMS_JOINTS
 70
0
 62
7
  6
CONTINUOUS
370
-3
390
F
  0
LAYER
  5
20C
100
AcDbSymbolTableRecord
100
AcDbLayerTableRecord
  2
19_DATUM_FUNCTIONAL
 70
0
 62
7
  6
CONTINUOUS
370
-3
390
F
  0
LAYER
  5
20D
100
AcDbSymbolTableRecord
100
AcDbLayerTableRecord
  2
20_DATUM_KINEMATIC_SCHEME
 70
0
 62
7
  6
CONTINUOUS
370
-3
390
F
  0
ENDTAB
  0
TABLE
  2
STYLE
  5
3
100
AcDbSymbolTable
 70
1
  0
STYLE
  5
11
100
AcDbSymbolTableRecord
100
AcDbTextStyleTableRecord
  2
STANDARD
 70
0
 40
0.0
 41
0.8
 50
0.0
 71
0
 42
0.2
  3
txt
  4

  0
STYLE
  5
20E
100
AcDbSymbolTableRecord
100
AcDbTextStyleTableRecord
  2
TEXTSTYLE_1
 70
0
 40
0.0
 41
0.8
 50
0.0
 71
0
 42
0.2
  3
gdt
  4

  0
ENDTAB
  0
TABLE
  2
VIEW
  5
6
100
AcDbSymbolTable
 70
0
  0
ENDTAB
  0
TABLE
  2
UCS
  5
7
100
AcDbSymbolTable
 70
0
  0
ENDTAB
  0
TABLE
  2
APPID
  5
9
100
AcDbSymbolTable
 70
1
  0
APPID
  5
20F
100
AcDbSymbolTableRecord
100
AcDbRegAppTableRecord
  2
ACAD
 70
0
  0
ENDTAB
  0
TABLE
  2
BLOCK_RECORD
  5
1
100
AcDbSymbolTable
 70
0
  0
BLOCK_RECORD
  5
210
100
AcDbSymbolTableRecord
100
AcDbBlockTableRecord
  2
*Model_Space
  0
BLOCK_RECORD
  5
211
100
AcDbSymbolTableRecord
100
AcDbBlockTableRecord
  2
*Paper_Space
  0
BLOCK_RECORD
  5
212
100
AcDbSymbolTableRecord
100
AcDbBlockTableRecord
  2
_FILLED
  0
ENDTAB
  0
TABLE
  2
DIMSTYLE
  5
A
100
AcDbSymbolTable
 70
1
100
AcDbDimStyleTable
 71
0
  0
DIMSTYLE
105
213
100
AcDbSymbolTableRecord
100
AcDbDimStyleTableRecord
  2
STANDARD
 70
0
  3

  4

 40
1.0
 41
5.0926177503
 42
1.0
 43
0.38
 44
1.0
 45
0.0
 46
0.0
 47
0.01
 48
0.01
140
7.1296648504
141
0.09
142
0.0
143
25.4
144
1.0
145
0.0
146
1.0
147
0.625
 71
1
 72
0
 73
0
 74
0
 75
0
 76
0
 77
1
 78
8
 79
2
170
0
171
1
172
0
173
0
174
0
175
0
176
0
177
0
178
0
270
2
179
2
271
2
272
2
273
2
274
2
275
0
280
0
281
0
282
0
283
1
284
8
285
0
286
0
287
3
288
0
340
11
278
46
341
212
342
212
343
212
344
212
  0
ENDTAB
  0
ENDSEC
  0
SECTION
  2
BLOCKS
  0
BLOCK
  5
20
100
AcDbEntity
  8
0
100
AcDbBlockBegin
  2
*Model_Space
 70
0
 10
0.0
 20
0.0
 30
0.0
  3
*Model_Space
  1

  0
ENDBLK
  5
21
100
AcDbEntity
  8
0
100
AcDbBlockEnd
  0
BLOCK
  5
1C
100
AcDbEntity
  8
0
100
AcDbBlockBegin
  2
*Paper_Space
 70
0
 10
0.0
 20
0.0
 30
0.0
  3
*Paper_Space
  1

  0
ENDBLK
  5
1D
100
AcDbEntity
  8
0
100
AcDbBlockEnd
  0
BLOCK
  5
214
100
AcDbEntity
  8
0
100
AcDbBlockBegin
  2
_FILLED
 70
64
 10
0.0
 20
0.0
  3
_FILLED
  1

  0
SOLID
  5
215
100
AcDbEntity
  8
0
  6
BYBLOCK
 62
0
100
AcDbTrace
 10
0.0
 20
0.0
 11
-1.0
 21
0.25
 12
-1.0
 22
-0.25
 13
-1.0
 23
-0.25
  0
ENDBLK
  5
216
100
AcDbEntity
  8
0
  6
BYBLOCK
 62
0
100
AcDbBlockEnd
  0
ENDSEC
  0
SECTION
  2
ENTITIES
  0
LINE
  5
217
100
AcDbEntity
  8
0
100
AcDbLine
 62
7
  6
CONTINUOUS
 10
58.0281257315
 20
484.544382118
 11
63.0623349422
 21
487.4508668115
  0
LINE
  5
218
100
AcDbEntity
  8
0
100
AcDbLine
 62
7
  6
CONTINUOUS
 10
140.3489980816
 20
490.1860143981
 11
99.3372471308
 21
466.5080102853
  0
LINE
  5
219
100
AcDbEntity
  8
0
100
AcDbLine
 62
7
  6
CONTINUOUS
 10
54.5976821323
 20
451.0935856805
 11
51.5597363663
 21
417.9658047736
  0
LINE
  5
21A
100
AcDbEntity
  8
0
100
AcDbLine
 62
7
  6
CONTINUOUS
 10
71.7598681701
 20
418.987516344
 11
71.9132383904
 21
419.0760641534
  0
LINE
  5
21B
100
AcDbEntity
  8
0
100
AcDbLine
 62
7
  6
CONTINUOUS
 10
51.5597363663
 20
337.8953422472
 11
54.6799636156
 21
307.4670204285
  0
LINE
  5
21C
100
AcDbEntity
  8
0
100
AcDbLine
 62
7
  6
CONTINUOUS
 10
70.7207913878
 20
414.5979144639
 11
71.1707646255
 21
419.5047218839
  0
LINE
  5
21D
100
AcDbEntity
  8
0
100
AcDbLine
 62
7
  6
CONTINUOUS
 10
71.1705493088
 20
316.2986920463
 11
71.0702540002
 21
317.2767675496
  0
LINE
  5
21E
100
AcDbEntity
  8
0
100
AcDbLine
 62
7
  6
CONTINUOUS
 10
339.4362131144
 20
116.2934916955
 11
58.0065425059
 21
278.7733119946
  0
LINE
  5
21F
100
AcDbEntity
  8
0
100
AcDbLine
 62
7
  6
CONTINUOUS
 10
71.5168521788
 20
316.4986289081
 11
71.1705493088
 21
316.2986920463
  0
LINE
  5
220
100
AcDbEntity
  8
0
100
AcDbLine
 62
7
  6
CONTINUOUS
 10
169.4824292415
 20
363.5484382155
 11
168.787262182
 21
363.1470857224
  0
LINE
  5
221
100
AcDbEntity
  8
0
100
AcDbLine
 62
7
  6
CONTINUOUS
 10
54.6799636147
 20
307.4670204377
 11
336.1096342232
 21
144.9872001386
  0
LINE
  5
222
100
AcDbEntity
  8
0
100
AcDbLine
 62
7
  6
CONTINUOUS
 10
168.787262182
 20
363.1470857224
 11
169.3612958441
 21
369.4067305135
  0
LINE
  5
223
100
AcDbEntity
  8
0
100
AcDbLine
 62
7
  6
CONTINUOUS
 10
67.4881045383
 20
328.7059211327
 11
51.5597363661
 21
337.8953422495
  0
LINE
  5
224
100
AcDbEntity
  8
0
100
AcDbLine
 62
7
  6
CONTINUOUS
 10
315.6183812921
 20
175.1698632086
 11
71.1705493088
 21
316.2986920463
  0
LINE
  5
225
100
AcDbEntity
  8
0
100
AcDbLine
 62
7
  6
CONTINUOUS
 10
315.2222103972
 20
175.7984578009
 11
71.2693552215
 21
316.6415181104
  0
LINE
  5
226
100
AcDbEntity
  8
0
100
AcDbLine
 62
7
  6
CONTINUOUS
 10
332.9894069746
 20
175.4155219504
 11
314.4976502511
 21
186.0991840758
  0
LINE
  5
227
100
AcDbEntity
  8
0
100
AcDbLine
 62
7
  6
CONTINUOUS
 10
169.4824292415
 20
363.5484382155
 11
169.4824292415
 21
367.6309503012
  0
LINE
  5
228
100
AcDbEntity
  8
0
100
AcDbLine
 62
7
  6
CONTINUOUS
 10
190.6956621165
 20
363.5485766307
 11
190.6956621165
 21
359.4660646638
  0
LINE
  5
229
100
AcDbEntity
  8
0
100
AcDbLine
 62
7
  6
CONTINUOUS
 10
211.6261099809
 20
347.38213833
 11
211.6261099809
 21
351.4646503563
  0
LINE
  5
22A
100
AcDbEntity
  8
0
100
AcDbLine
 62
7
  6
CONTINUOUS
 10
218.5761327143
 20
340.9931739989
 11
218.0020990523
 21
334.7335292078
  0
LINE
  5
22B
100
AcDbEntity
  8
0
100
AcDbLine
 62
7
  6
CONTINUOUS
 10
69.1181605454
 20
407.8275665178
 11
51.5597363661
 21
417.9658047711
  0
LINE
  5
22C
100
AcDbEntity
  8
0
100
AcDbLine
 62
7
  6
CONTINUOUS
 10
332.9894069746
 20
255.485984472
 11
314.4983861618
 21
266.1603733769
  0
LINE
  5
22D
100
AcDbEntity
  8
0
100
AcDbLine
 62
7
  6
CONTINUOUS
 10
370.4425026444
 20
357.3444728772
 11
329.4307516936
 21
333.6664687644
  0
LINE
  5
22E
100
AcDbEntity
  8
0
100
AcDbLine
 62
7
  6
CONTINUOUS
 10
71.7598681701
 20
418.987516344
 11
315.6031729796
 21
278.2077035371
  0
LINE
  5
22F
100
AcDbEntity
  8
0
100
AcDbLine
 62
7
  6
CONTINUOUS
 10
71.1707646255
 20
419.5047218839
 11
168.787262182
 21
363.1470857224
  0
LINE
  5
230
100
AcDbEntity
  8
0
100
AcDbLine
 62
7
  6
CONTINUOUS
 10
218.0020990523
 20
334.7335292078
 11
315.6185966088
 21
278.3758930462
  0
LINE
  5
231
100
AcDbEntity
  8
0
100
AcDbLine
 62
7
  6
CONTINUOUS
 10
213.0453186563
 20
346.3994654182
 11
188.9789078502
 21
360.2938998415
  0
LINE
  5
232
100
AcDbEntity
  8
0
100
AcDbLine
 62
7
  6
CONTINUOUS
 10
211.6261099809
 20
347.38213833
 11
190.6956621165
 21
359.4660646638
  0
LINE
  5
233
100
AcDbEntity
  8
0
100
AcDbLine
 62
7
  6
CONTINUOUS
 10
339.4577963399
 20
322.0645618189
 11
344.4920055507
 21
324.9710465124
  0
LINE
  5
234
100
AcDbEntity
  8
0
100
AcDbLine
 62
7
  6
CONTINUOUS
 10
183.8669072808
 20
375.843143986
 11
184.7984953974
 21
375.3635116884
  0
LINE
  5
235
100
AcDbEntity
  8
0
100
AcDbLine
 62
7
  6
CONTINUOUS
 10
190.6956621165
 20
363.5485766307
 11
211.6261099809
 21
351.4646503563
  0
LINE
  5
236
100
AcDbEntity
  8
0
100
AcDbLine
 62
7
  6
CONTINUOUS
 10
184.7984953974
 20
375.3635116884
 11
205.7289432618
 21
363.2795853546
  0
LINE
  5
237
100
AcDbEntity
  8
0
100
AcDbLine
 62
7
  6
CONTINUOUS
 10
336.0273527399
 20
288.6137653715
 11
54.5976821314
 21
451.0935856706
  0
LINE
  5
238
100
AcDbEntity
  8
0
100
AcDbLine
 62
7
  6
CONTINUOUS
 10
384.7968300649
 20
332.4821864927
 11
344.4920055507
 21
309.2123241121
  0
LINE
  5
239
100
AcDbEntity
  8
0
100
AcDbLine
 62
7
  6
CONTINUOUS
 10
314.4976496763
 20
186.0991893661
 11
315.6183812921
 21
175.1698632086
  0
LINE
  5
23A
100
AcDbEntity
  8
0
100
AcDbLine
 62
7
  6
CONTINUOUS
 10
58.0281257315
 20
484.544382118
 11
339.45779634
 21
322.0645618189
  0
LINE
  5
23B
100
AcDbEntity
  8
0
100
AcDbLine
 62
7
  6
CONTINUOUS
 10
344.4920055507
 20
324.9710465124
 11
63.0623349422
 21
487.4508668115
  0
LINE
  5
23C
100
AcDbEntity
  8
0
100
AcDbLine
 62
7
  6
CONTINUOUS
 10
336.1096342241
 20
144.9872001294
 11
332.9894069748
 21
175.4155219482
  0
LINE
  5
23D
100
AcDbEntity
  8
0
100
AcDbLine
 62
7
  6
CONTINUOUS
 10
315.6185966088
 20
278.3758930462
 11
314.4983861536
 21
266.1603732919
  0
LINE
  5
23E
100
AcDbEntity
  8
0
100
AcDbLine
 62
7
  6
CONTINUOUS
 10
344.4920055507
 20
324.9710465124
 11
344.4920055507
 21
119.2124373958
  0
LINE
  5
23F
100
AcDbEntity
  8
0
100
AcDbLine
 62
7
  6
CONTINUOUS
 10
332.9894069748
 20
255.4859844745
 11
336.0273527408
 21
288.6137653814
  0
LINE
  5
240
100
AcDbEntity
  8
0
100
AcDbLine
 62
7
  6
CONTINUOUS
 10
370.4425026444
 20
357.3444728772
 11
140.3489980816
 21
490.1860143981
  0
LINE
  5
241
100
AcDbEntity
  8
0
100
AcDbLine
 62
7
  6
CONTINUOUS
 10
384.7968300649
 20
184.3686480254
 11
384.7968300649
 21
332.4821864927
  0
LINE
  5
242
100
AcDbEntity
  8
0
100
AcDbLine
 62
7
  6
CONTINUOUS
 10
315.5353822205
 20
175.9792665581
 11
315.2222103972
 21
175.7984578009
  0
LINE
  5
243
100
AcDbEntity
  8
0
100
AcDbLine
 62
7
  6
CONTINUOUS
 10
384.7968300649
 20
332.4821864927
 11
370.4425026444
 21
357.3444728772
  0
LINE
  5
244
100
AcDbEntity
  8
0
100
AcDbLine
 62
7
  6
CONTINUOUS
 10
384.7968300649
 20
184.3686480254
 11
344.4920055507
 21
161.0987856448
  0
LINE
  5
245
100
AcDbEntity
  8
0
100
AcDbLine
 62
7
  6
CONTINUOUS
 10
344.4920055507
 20
119.2124373958
 11
339.4362131144
 21
116.2934916955
  0
ARC
  5
246
100
AcDbEntity
  8
0
100
AcDbCircle
 62
7
  6
CONTINUOUS
 10
1626.7749408992
 20
306.7650773797
 40
1578.788159093
100
AcDbArc
 50
173.5345006581
 51
174.7548529848
  0
ARC
  5
247
100
AcDbEntity
  8
0
100
AcDbCircle
 62
7
  6
CONTINUOUS
 10
1898.849296172
 20
145.2446626861
 40
1569.3843144615
100
AcDbArc
 50
173.5308443066
 51
174.7585093364
  0
ARC
  5
248
100
AcDbEntity
  8
0
100
AcDbCircle
 62
7
  6
CONTINUOUS
 10
1137.0102950908
 20
418.4063130918
 40
1088.0011365287
100
AcDbArc
 50
185.8524017085
 51
187.3736212436
  0
ARC
  5
249
100
AcDbEntity
  8
0
100
AcDbCircle
 62
7
  6
CONTINUOUS
 10
1410.4133822552
 20
254.9959381693
 40
1079.9215089435
100
AcDbArc
 50
185.8467107312
 51
187.3793122209
  0
ARC
  5
24A
100
AcDbEntity
  8
0
100
AcDbCircle
 62
7
  6
CONTINUOUS
 10
206.1550739211
 20
333.6091676703
 40
14.0741280439
100
AcDbArc
 50
29.6903035082
 51
30.6389188837
  0
ARC
  5
24B
100
AcDbEntity
  8
0
100
AcDbCircle
 62
7
  6
CONTINUOUS
 10
206.6664840735
 20
333.9005109058
 40
13.4855524944
100
AcDbArc
 50
28.4003529383
 51
29.691208771
  0
SPLINE
  5
24C
100
AcDbEntity
  8
0
100
AcDbSpline
 62
7
  6
CONTINUOUS
 70
0
 71
3
 72
9
 73
5
 74
0
 42
0.0000001
 43
0.0000001
 44
0.0000000001
 40
0.0
 40
0.0
 40
0.0
 40
0.0
 40
0.518154641
 40
1.0
 40
1.0
 40
1.0
 40
1.0
 10
71.7598681701
 20
418.987516344
 30
0.0
 10
69.0904992238
 20
409.4506370621
 30
0.0
 10
64.9905001951
 20
390.7285553815
 30
0.0
 10
63.416042891
 20
371.601317064
 30
0.0
 10
63.416042891
 20
362.3918776257
 30
0.0
  0
SPLINE
  5
24D
100
AcDbEntity
  8
0
100
AcDbSpline
 62
7
  6
CONTINUOUS
 70
0
 71
3
 72
9
 73
5
 74
0
 42
0.0000001
 43
0.0000001
 44
0.0000000001
 40
0.0
 40
0.0
 40
0.0
 40
0.0
 40
0.5251657199
 40
1.0
 40
1.0
 40
1.0
 40
1.0
 10
63.416042891
 20
362.3918776257
 30
0.0
 10
63.416042891
 20
354.2300952397
 30
0.0
 10
64.5464200063
 20
338.6539612928
 30
0.0
 10
68.5474475524
 20
323.5007588923
 30
0.0
 10
71.2693552215
 20
316.6415181104
 30
0.0
  0
SPLINE
  5
24E
100
AcDbEntity
  8
0
100
AcDbSpline
 62
7
  6
CONTINUOUS
 70
0
 71
3
 72
9
 73
5
 74
0
 42
0.0000001
 43
0.0000001
 44
0.0000000001
 40
0.0
 40
0.0
 40
0.0
 40
0.0
 40
0.4748342801
 40
1.0
 40
1.0
 40
1.0
 40
1.0
 10
315.2222103972
 20
175.7984578009
 30
0.0
 10
312.5003027281
 20
182.6576985828
 30
0.0
 10
308.499275182
 20
197.8109009833
 30
0.0
 10
307.3688980667
 20
213.3870349302
 30
0.0
 10
307.3688980667
 20
221.5488173162
 30
0.0
  0
SPLINE
  5
24F
100
AcDbEntity
  8
0
100
AcDbSpline
 62
7
  6
CONTINUOUS
 70
0
 71
3
 72
9
 73
5
 74
0
 42
0.0000001
 43
0.0000001
 44
0.0000000001
 40
0.0
 40
0.0
 40
0.0
 40
0.0
 40
0.4820179071
 40
1.0
 40
1.0
 40
1.0
 40
1.0
 10
307.3688980667
 20
221.5488173162
 30
0.0
 10
307.3688980667
 20
230.6283672255
 30
0.0
 10
308.8990201529
 20
249.4788983316
 30
0.0
 10
312.8908106112
 20
267.9398482515
 30
0.0
 10
315.4901413929
 20
277.3442274503
 30
0.0
  0
SPLINE
  5
250
100
AcDbEntity
  8
0
100
AcDbSpline
 62
7
  6
CONTINUOUS
 70
0
 71
3
 72
9
 73
5
 74
0
 42
0.0000001
 43
0.0000001
 44
0.0000000001
 40
0.0
 40
0.0
 40
0.0
 40
0.0
 40
0.2549114055
 40
1.0
 40
1.0
 40
1.0
 40
1.0
 10
51.5597363663
 20
417.9658047736
 30
0.0
 10
51.240006094
 20
414.4792970257
 30
0.0
 10
50.1333345125
 20
400.7890499578
 30
0.0
 10
49.6273890832
 20
387.0485242412
 30
0.0
 10
49.6273890832
 20
376.8149389458
 30
0.0
  0
SPLINE
  5
251
100
AcDbEntity
  8
0
100
AcDbSpline
 62
7
  6
CONTINUOUS
 70
0
 71
3
 72
9
 73
5
 74
0
 42
0.0000001
 43
0.0000001
 44
0.0000000001
 40
0.0
 40
0.0
 40
0.0
 40
0.0
 40
0.2555128723
 40
1.0
 40
1.0
 40
1.0
 40
1.0
 10
49.6273890832
 20
376.8149389458
 30
0.0
 10
49.6273890832
 20
373.4952368113
 30
0.0
 10
49.7829049471
 20
360.5036812825
 30
0.0
 10
50.5728209925
 20
347.5174686939
 30
0.0
 10
51.5597363663
 20
337.8953422472
 30
0.0
  0
SPLINE
  5
252
100
AcDbEntity
  8
0
100
AcDbSpline
 62
7
  6
CONTINUOUS
 70
0
 71
3
 72
9
 73
5
 74
0
 42
0.0000001
 43
0.0000001
 44
0.0000000001
 40
0.0
 40
0.0
 40
0.0
 40
0.0
 40
0.2307403179
 40
1.0
 40
1.0
 40
1.0
 40
1.0
 10
211.6261099809
 20
347.38213833
 30
0.0
 10
211.7428752338
 20
347.3147254049
 30
0.0
 10
212.2446397219
 20
347.0151850859
 30
0.0
 10
212.7288209067
 20
346.6864208814
 30
0.0
 10
213.0909814552
 20
346.4201685774
 30
0.0
  0
SPLINE
  5
253
100
AcDbEntity
  8
0
100
AcDbSpline
 62
7
  6
CONTINUOUS
 70
0
 71
3
 72
9
 73
5
 74
0
 42
0.0000001
 43
0.0000001
 44
0.0000000001
 40
0.0
 40
0.0
 40
0.0
 40
0.0
 40
0.4800752749
 40
1.0
 40
1.0
 40
1.0
 40
1.0
 10
213.0909814552
 20
346.4201685774
 30
0.0
 10
214.0821655125
 20
345.6914723125
 30
0.0
 10
215.9963281208
 20
343.9673510996
 30
0.0
 10
217.5854819683
 20
341.9280929276
 30
0.0
 10
218.2643981765
 20
340.7817088011
 30
0.0
  0
SPLINE
  5
254
100
AcDbEntity
  8
0
100
AcDbSpline
 62
7
  6
CONTINUOUS
 70
0
 71
3
 72
13
 73
9
 74
0
 42
0.0000001
 43
0.0000001
 44
0.0000000001
 40
0.0
 40
0.0
 40
0.0
 40
0.0
 40
0.0508530086
 40
0.1326052466
 40
0.2492853628
 40
0.3968788611
 40
0.72853839
 40
1.0
 40
1.0
 40
1.0
 40
1.0
 10
169.4824292415
 20
363.5484382155
 30
0.0
 10
169.7775422832
 20
363.7188207926
 30
0.0
 10
170.6509854957
 20
363.9629893953
 30
0.0
 10
172.3160393242
 20
364.0960918646
 30
0.0
 10
174.6392675621
 20
364.0051163424
 30
0.0
 10
178.6043023433
 20
363.5107094871
 30
0.0
 10
183.5203809997
 20
362.387927185
 30
0.0
 10
187.3559243433
 20
361.0691348354
 30
0.0
 10
189.0131908929
 20
360.3191512913
 30
0.0
  0
SPLINE
  5
255
100
AcDbEntity
  8
0
100
AcDbSpline
 62
7
  6
CONTINUOUS
 70
0
 71
3
 72
9
 73
5
 74
0
 42
0.0000001
 43
0.0000001
 44
0.0000000001
 40
0.0
 40
0.0
 40
0.0
 40
0.0
 40
0.2808583832
 40
1.0
 40
1.0
 40
1.0
 40
1.0
 10
189.0131908929
 20
360.3191512913
 30
0.0
 10
189.174120539
 20
360.2463237873
 30
0.0
 10
189.7443393371
 20
359.9810474786
 30
0.0
 10
190.3039629016
 20
359.692207195
 30
0.0
 10
190.6956621165
 20
359.4660646638
 30
0.0
  0
SPLINE
  5
256
100
AcDbEntity
  8
0
100
AcDbSpline
 62
7
  6
CONTINUOUS
 70
0
 71
3
 72
15
 73
11
 74
0
 42
0.0000001
 43
0.0000001
 44
0.0000000001
 40
0.0
 40
0.0
 40
0.0
 40
0.0
 40
0.1185251654
 40
0.2468155412
 40
0.3792381736
 40
0.5108764611
 40
0.6398830731
 40
0.7653888415
 40
0.8863083399
 40
1.0
 40
1.0
 40
1.0
 40
1.0
 10
218.5761327143
 20
340.9931739989
 30
0.0
 10
218.6728746815
 20
342.0482052991
 30
0.0
 10
218.7162556759
 20
344.2719583941
 30
0.0
 10
217.95527758
 20
347.6057808076
 30
0.0
 10
216.5700505382
 20
350.8402931604
 30
0.0
 10
214.7964169413
 20
353.8810763177
 30
0.0
 10
212.7789387446
 20
356.6867778391
 30
0.0
 10
210.5930742759
 20
359.2397524206
 30
0.0
 10
208.2842707013
 20
361.4854802304
 30
0.0
 10
206.6090485651
 20
362.771467816
 30
0.0
 10
205.7289432618
 20
363.2795853546
 30
0.0
  0
SPLINE
  5
257
100
AcDbEntity
  8
0
100
AcDbSpline
 62
7
  6
CONTINUOUS
 70
0
 71
3
 72
9
 73
5
 74
0
 42
0.0000001
 43
0.0000001
 44
0.0000000001
 40
0.0
 40
0.0
 40
0.0
 40
0.0
 40
0.2549113208
 40
1.0
 40
1.0
 40
1.0
 40
1.0
 10
314.4983861536
 20
266.1603732919
 30
0.0
 10
314.1786646081
 20
262.673960706
 30
0.0
 10
313.0720630438
 20
248.9840792713
 30
0.0
 10
312.5661403791
 20
235.2439249206
 30
0.0
 10
312.5661403791
 20
225.0106143774
 30
0.0
  0
SPLINE
  5
258
100
AcDbEntity
  8
0
100
AcDbSpline
 62
7
  6
CONTINUOUS
 70
0
 71
3
 72
9
 73
5
 74
0
 42
0.0000001
 43
0.0000001
 44
0.0000000001
 40
0.0
 40
0.0
 40
0.0
 40
0.0
 40
0.2555116141
 40
1.0
 40
1.0
 40
1.0
 40
1.0
 10
312.5661403791
 20
225.0106143774
 30
0.0
 10
312.5661403791
 20
221.6916277937
 30
0.0
 10
312.7215899906
 20
208.7028081905
 30
0.0
 10
313.5111667509
 20
195.7193286313
 30
0.0
 10
314.4976496763
 20
186.0991893661
 30
0.0
  0
SPLINE
  5
259
100
AcDbEntity
  8
0
100
AcDbSpline
 62
7
  6
CONTINUOUS
 70
0
 71
3
 72
10
 73
6
 74
0
 42
0.0000001
 43
0.0000001
 44
0.0000000001
 40
0.0
 40
0.0
 40
0.0
 40
0.0
 40
0.4569366433
 40
0.7332931259
 40
1.0
 40
1.0
 40
1.0
 40
1.0
 10
211.6261099809
 20
351.4646502147
 30
0.0
 10
212.9559780697
 20
350.6968678852
 30
0.0
 10
214.9055845378
 20
349.1337312887
 30
0.0
 10
217.1430818693
 20
346.622068605
 30
0.0
 10
218.1604830941
 20
345.0935254858
 30
0.0
 10
218.5801626128
 20
344.3015507941
 30
0.0
  0
SPLINE
  5
25A
100
AcDbEntity
  8
0
100
AcDbSpline
 62
7
  6
CONTINUOUS
 70
0
 71
3
 72
15
 73
11
 74
0
 42
0.0000001
 43
0.0000001
 44
0.0000000001
 40
0.0
 40
0.0
 40
0.0
 40
0.0
 40
0.0962979848
 40
0.2273820988
 40
0.3878131834
 40
0.561013355
 40
0.7234411244
 40
0.8546744238
 40
0.9457341927
 40
1.0
 40
1.0
 40
1.0
 40
1.0
 10
190.6955849256
 20
363.5485331883
 30
0.0
 10
190.0841996037
 20
363.9015086831
 30
0.0
 10
188.5815977683
 20
364.6319202995
 30
0.0
 10
185.9245526665
 20
365.6499229596
 30
0.0
 10
182.6608157835
 20
366.6367463018
 30
0.0
 10
179.1139762205
 20
367.4544182578
 30
0.0
 10
175.7313267207
 20
367.9869158942
 30
0.0
 10
172.9091553668
 20
368.1879493167
 30
0.0
 10
170.8868269072
 20
368.0907556406
 30
0.0
 10
169.8269615887
 20
367.8298513925
 30
0.0
 10
169.4824292426
 20
367.6309509037
 30
0.0
  0
SPLINE
  5
25B
100
AcDbEntity
  8
0
100
AcDbSpline
 62
7
  6
CONTINUOUS
 70
0
 71
3
 72
14
 73
10
 74
0
 42
0.0000001
 43
0.0000001
 44
0.0000000001
 40
0.0
 40
0.0
 40
0.0
 40
0.0
 40
0.1469221854
 40
0.2760063768
 40
0.3925630195
 40
0.5062037261
 40
0.621866078
 40
0.7416916908
 40
1.0
 40
1.0
 40
1.0
 40
1.0
 10
169.3612958441
 20
369.4067305135
 30
0.0
 10
169.4464882618
 20
370.3356437985
 30
0.0
 10
169.6908328265
 20
372.0864974023
 30
0.0
 10
170.8217648799
 20
374.3770944693
 30
0.0
 10
172.5918577079
 20
375.8975657199
 30
0.0
 10
174.6408578098
 20
376.7523094034
 30
0.0
 10
176.840086379
 20
377.1317751012
 30
0.0
 10
179.9823242229
 20
377.1124268797
 30
0.0
 10
182.3759509607
 20
376.5264459115
 30
0.0
 10
183.8669096555
 20
375.8433235785
 30
0.0
  0
SPLINE
  5
25C
100
AcDbEntity
  8
0
100
AcDbSpline
 62
7
  6
CONTINUOUS
 70
0
 71
3
 72
11
 73
7
 74
0
 42
0.0000001
 43
0.0000001
 44
0.0000000001
 40
0.0
 40
0.0
 40
0.0
 40
0.0
 40
0.217824698
 40
0.4511923481
 40
0.710520559
 40
1.0
 40
1.0
 40
1.0
 40
1.0
 10
185.6233194683
 20
374.9310874359
 30
0.0
 10
186.4334145551
 20
374.4471270822
 30
0.0
 10
187.9461422205
 20
373.1431040326
 30
0.0
 10
189.5521181366
 20
370.469454645
 30
0.0
 10
190.5080201422
 20
367.1881653254
 30
0.0
 10
190.6956621213
 20
364.8026434276
 30
0.0
 10
190.6956621165
 20
363.5485766604
 30
0.0
  0
SPLINE
  5
25D
100
AcDbEntity
  8
0
100
AcDbSpline
 62
7
  6
CONTINUOUS
 70
0
 71
3
 72
9
 73
5
 74
0
 42
0.0000001
 43
0.0000001
 44
0.0000000001
 40
0.0
 40
0.0
 40
0.0
 40
0.0
 40
0.244535071
 40
1.0
 40
1.0
 40
1.0
 40
1.0
 10
332.9894069748
 20
175.4155219482
 30
0.0
 10
332.6652413307
 20
178.576038949
 30
0.0
 10
331.5161191623
 20
191.5184025822
 30
0.0
 10
331.0570596917
 20
204.519814725
 30
0.0
 10
331.0570596917
 20
214.3351186467
 30
0.0
  0
SPLINE
  5
25E
100
AcDbEntity
  8
0
100
AcDbSpline
 62
7
  6
CONTINUOUS
 70
0
 71
3
 72
9
 73
5
 74
0
 42
0.0000001
 43
0.0000001
 44
0.0000000001
 40
0.0
 40
0.0
 40
0.0
 40
0.0
 40
0.2450877303
 40
1.0
 40
1.0
 40
1.0
 40
1.0
 10
331.0570596917
 20
214.3351186467
 30
0.0
 10
331.0570596917
 20
217.701347955
 30
0.0
 10
331.2237864231
 20
231.4358395603
 30
0.0
 10
332.04253077
 20
245.1607462665
 30
0.0
 10
332.9894069748
 20
255.4859844745
 30
0.0
  0
SPLINE
  5
25F
100
AcDbEntity
  8
0
100
AcDbSpline
 62
7
  6
CONTINUOUS
 70
0
 71
3
 72
9
 73
5
 74
0
 42
0.0000001
 43
0.0000001
 44
0.0000000001
 40
0.0
 40
0.0
 40
0.0
 40
0.0
 40
0.2424522693
 40
1.0
 40
1.0
 40
1.0
 40
1.0
 10
169.3612958441
 20
369.4067305135
 30
0.0
 10
169.3816561455
 20
369.2642608006
 30
0.0
 10
169.4544679041
 20
368.675063312
 30
0.0
 10
169.4824292223
 20
368.0806229315
 30
0.0
 10
169.4824292415
 20
367.6309503012
 30
0.0
  0
SPLINE
  5
260
100
AcDbEntity
  8
0
100
AcDbSpline
 62
7
  6
CONTINUOUS
 70
0
 71
3
 72
11
 73
7
 74
0
 42
0.0000001
 43
0.0000001
 44
0.0000000001
 40
0.0
 40
0.0
 40
0.0
 40
0.0
 40
0.2890030251
 40
0.5484368388
 40
0.7821665597
 40
1.0
 40
1.0
 40
1.0
 40
1.0
 10
211.6261099809
 20
351.4646503266
 30
0.0
 10
211.6261099856
 20
352.6978987604
 30
0.0
 10
211.4443820169
 20
355.0457645165
 30
0.0
 10
210.521141417
 20
358.2817971289
 30
0.0
 10
208.9712162251
 20
360.9341784485
 30
0.0
 10
207.5080743604
 20
362.2488501931
 30
0.0
 10
206.7215287579
 20
362.744238056
 30
0.0
  0
ENDSEC
  0
SECTION
  2
OBJECTS
  0
DICTIONARY
  5
C
100
AcDbDictionary
280
0
281
1
  3
ACAD_GROUP
350
D
  3
ACAD_MLINESTYLE
350
17
  3
ACAD_LAYOUT
350
1A
  3
ACAD_PLOTSETTINGS
350
19
  3
ACAD_PLOTSTYLENAME
350
E
  0
DICTIONARY
  5
D
102
{ACAD_REACTORS
330
C
102
}
100
AcDbDictionary
280
0
281
1
  0
ACDBDICTIONARYWDFLT
  5
E
102
{ACAD_REACTORS
330
C
102
}
100
AcDbDictionary
281
1
  3
Normal
350
F
100
AcDbDictionaryWithDefault
340
F
  0
DICTIONARY
  5
17
102
{ACAD_REACTORS
330
C
102
}
100
AcDbDictionary
280
0
281
1
  3
Standard
350
18
  0
DICTIONARY
  5
19
102
{ACAD_REACTORS
330
C
102
}
100
AcDbDictionary
281
1
  0
DICTIONARY
  5
1A
102
{ACAD_REACTORS
330
C
102
}
100
AcDbDictionary
281
1
  3
Model
350
261
  3
Layout1
350
262
  0
ACDBPLACEHOLDER
  5
F
102
{ACAD_REACTORS
330
E
102
}
  0
MLINESTYLE
  5
18
102
{ACAD_REACTORS
330
17
102
}
100
AcDbMlineStyle
  2
STANDARD
 70
0
  3

 62
256
 51
90.0
 52
90.0
 71
2
 49
0.5
 62
256
  6
BYLAYER
 49
-0.5
 62
256
  6
BYLAYER
  0
LAYOUT
  5
261
102
{ACAD_REACTORS
330
1A
102
}
100
AcDbPlotSettings
  1

  2
none_device
  4

  6

 40
0.0
 41
0.0
 42
0.0
 43
0.0
 44
210.0
 45
297.0
 46
0.0
 47
0.0
 48
0.0
 49
0.0
140
0.0
141
0.0
142
1.0
143
1.0
 70
1024
 72
1
 73
0
 74
0
  7

 75
0
147
1.0
148
0.0
149
0.0
100
AcDbLayout
  1
Model
 70
0
 71
0
 10
0.0
 20
0.0
 11
210.0
 21
297.0
 12
0.0
 22
0.0
 32
0.0
 14
0.0
 24
0.0
 34
0.0
 15
0.0
 25
0.0
 35
0.0
146
0.0
 13
0.0
 23
0.0
 33
0.0
 16
1.0
 26
0.0
 36
0.0
 17
0.0
 27
1.0
 37
0.0
 76
0
330
210
345
0
346
0
  0
LAYOUT
  5
262
102
{ACAD_REACTORS
330
1A
102
}
100
AcDbPlotSettings
  1

  2
none_device
  4

  6

 40
0.0
 41
0.0
 42
0.0
 43
0.0
 44
210.0
 45
297.0
 46
0.0
 47
0.0
 48
0.0
 49
0.0
140
0.0
141
0.0
142
1.0
143
1.0
 70
0
 72
1
 73
0
 74
0
  7

 75
0
147
1.0
148
0.0
149
0.0
100
AcDbLayout
  1
Layout1
 70
0
 71
1
 10
0.0
 20
0.0
 11
210.0
 21
297.0
 12
0.0
 22
0.0
 32
0.0
 14
0.0
 24
0.0
 34
0.0
 15
0.0
 25
0.0
 35
0.0
146
0.0
 13
0.0
 23
0.0
 33
0.0
 16
1.0
 26
0.0
 36
0.0
 17
0.0
 27
1.0
 37
0.0
 76
0
330
211
345
0
346
0
  0
ENDSEC
  0
EOF
