999
DXF file: C:\Users\sesa63760\Dev\_Creo\CAD\MCADFD0002092_3D-CAD\drw0001_1.dxf
999
Pro/ENGINEER 2019471 by Parametric Technology Corporation
  0
SECTION
  2
HEADER
  9
$ACADVER
  1
AC1024
  9
$DWGCODEPAGE
  3
ANSI_1252
  9
$EXTMAX
 10
341.373812665
 20
482.8001064834
 30
0.0
  9
$EXTMIN
 10
0.0
 20
0.0
 30
0.0
  9
$LIMMIN
 10
0.0
 20
0.0
  9
$LIMMAX
 10
341.373812665
 20
482.8001064834
  9
$VIEWCTR
 10
170.6869063325
 20
241.4000532417
  9
$VIEWSIZE
 40
482.8001064834
  9
$CLAYER
  8
0
  9
$LTSCALE
 40
31.4714143485
  9
$CELTYPE
  6
BYLAYER
  9
$DIMSCALE
 40
1.0
  9
$DIMASZ
 40
4.0639739603
  9
$DIMEXO
 40
1.0
  9
$DIMDLI
 40
21.7438862772
  9
$DIMEXE
 40
1.0
  9
$DIMCEN
 40
5.1498678025
  9
$DIMLFAC
 40
1.0
  9
$DIMBLK
  1
_FILLED
  9
$DIMALT
 70
0
  9
$DIMALTF
 40
0.0393700787
  9
$DIMTXT
 40
5.6895635444
  9
$DIMTOL
 70
1
  9
$DIMLIM
 70
0
  9
$DIMTFAC
 40
1.0
  9
$DIMTP
 40
0.01
  9
$DIMTM
 40
0.01
  9
$DIMGAP
 40
0.625
  9
$DIMDSEP
 70
46
  9
$AUNITS
 70
0
  9
$PDMODE
 70
3
  9
$PDSIZE
 40
0.3125
  9
$HANDSEED
  5
28F
  9
$TILEMODE
 70
1
  9
$MEASUREMENT
 70
1
  9
$INSUNITS
 70
4
  0
ENDSEC
  0
SECTION
  2
CLASSES
  0
CLASS
  1
ACDBDICTIONARYWDFLT
  2
AcDbDictionaryWithDefault
  3
AutoCAD 2000
 90
0
 91
1
280
0
281
0
  0
CLASS
  1
ACDBPLACEHOLDER
  2
AcDbPlaceHolder
  3
AutoCAD 2000
 90
0
 91
1
280
0
281
0
  0
CLASS
  1
LAYOUT
  2
AcDbLayout
  3
AutoCAD 2000
 90
0
 91
0
280
0
281
0
  0
ENDSEC
  0
SECTION
  2
TABLES
  0
TABLE
  2
VPORT
  5
8
100
AcDbSymbolTable
 70
2
  0
VPORT
  5
1F4
100
AcDbSymbolTableRecord
100
AcDbViewportTableRecord
  2
*ACTIVE
 70
0
 10
0.0
 20
0.0
 11
1.0
 21
1.0
 12
170.6869063325
 22
241.4000532417
 13
0.0
 23
0.0
 14
1.0
 24
1.0
 15
0.0
 25
0.0
 16
0.0
 26
0.0
 36
1.0
 17
0.0
 27
0.0
 37
0.0
 40
482.8001064834
 41
0.7070707071
 42
50.0
 43
0.0
 44
0.0
 50
0.0
 51
0.0
 71
0
 72
100
 73
1
 74
1
 75
0
 76
0
 77
0
 78
0
  0
ENDTAB
  0
TABLE
  2
LTYPE
  5
5
100
AcDbSymbolTable
 70
6
  0
LTYPE
  5
14
100
AcDbSymbolTableRecord
100
AcDbLinetypeTableRecord
  2
BYBLOCK
 70
0
  3

 72
65
 73
0
 40
0.0
  0
LTYPE
  5
15
100
AcDbSymbolTableRecord
100
AcDbLinetypeTableRecord
  2
BYLAYER
 70
0
  3

 72
65
 73
0
 40
0.0
  0
LTYPE
  5
16
100
AcDbSymbolTableRecord
100
AcDbLinetypeTableRecord
  2
CONTINUOUS
 70
64
  3
Solid line
 72
65
 73
0
 40
0.0
  0
LTYPE
  5
1F5
100
AcDbSymbolTableRecord
100
AcDbLinetypeTableRecord
  2
CENTER
 70
64
  3
____ _ ____ _ ____ _ ____ _ ____ _ ____ _ ____
 72
65
 73
4
 40
0.6
 49
0.375
 74
0
 49
-0.075
 74
0
 49
0.075
 74
0
 49
-0.075
 74
0
  0
LTYPE
  5
1F6
100
AcDbSymbolTableRecord
100
AcDbLinetypeTableRecord
  2
HIDDEN
 70
64
  3
- - - - - - - - - - - - - - - - - - - -
 72
65
 73
2
 40
0.2
 49
0.1
 74
0
 49
-0.1
 74
0
  0
LTYPE
  5
1F7
100
AcDbSymbolTableRecord
100
AcDbLinetypeTableRecord
  2
PHANTOM
 70
64
  3
_____ _ _ _____ _ _ _____ _ _ _____
 72
65
 73
6
 40
0.8
 49
0.45
 74
0
 49
-0.05
 74
0
 49
0.1
 74
0
 49
-0.05
 74
0
 49
0.1
 74
0
 49
-0.05
 74
0
  0
LTYPE
  5
1F8
100
AcDbSymbolTableRecord
100
AcDbLinetypeTableRecord
  2
DOT
 70
64
  3
. . . . . . . . . . . . . . . . . . . .
 72
65
 73
2
 40
0.2
 49
0.1
 74
0
 49
-0.1
 74
0
  0
LTYPE
  5
1F9
100
AcDbSymbolTableRecord
100
AcDbLinetypeTableRecord
  2
DASHED
 70
64
  3
- - - - - - - - - - - - - - - - - - - -
 72
65
 73
2
 40
0.2
 49
0.1
 74
0
 49
-0.1
 74
0
  0
ENDTAB
  0
TABLE
  2
LAYER
  5
2
100
AcDbSymbolTable
 70
36
  0
LAYER
  5
10
100
AcDbSymbolTableRecord
100
AcDbLayerTableRecord
  2
0
 70
0
 62
7
  6
CONTINUOUS
370
-3
390
F
  0
LAYER
  5
1FA
100
AcDbSymbolTableRecord
100
AcDbLayerTableRecord
  2
DEFAULT_1
 70
0
 62
7
  6
CENTER
370
-3
390
F
  0
LAYER
  5
1FB
100
AcDbSymbolTableRecord
100
AcDbLayerTableRecord
  2
DEFAULT_2
 70
0
 62
8
  6
HIDDEN
370
-3
390
F
  0
LAYER
  5
1FC
100
AcDbSymbolTableRecord
100
AcDbLayerTableRecord
  2
DEFAULT_3
 70
0
 62
7
  6
PHANTOM
370
-3
390
F
  0
LAYER
  5
1FD
100
AcDbSymbolTableRecord
100
AcDbLayerTableRecord
  2
00_COMPONENTS
 70
0
 62
7
  6
CONTINUOUS
370
-3
390
F
  0
LAYER
  5
1FE
100
AcDbSymbolTableRecord
100
AcDbLayerTableRecord
  2
01_1_DEFAULT_DATUMS
 70
0
 62
7
  6
CONTINUOUS
370
-3
390
F
  0
LAYER
  5
1FF
100
AcDbSymbolTableRecord
100
AcDbLayerTableRecord
  2
01_PLANES
 70
0
 62
7
  6
CONTINUOUS
370
-3
390
F
  0
LAYER
  5
200
100
AcDbSymbolTableRecord
100
AcDbLayerTableRecord
  2
02_COORD_SYS
 70
0
 62
7
  6
CONTINUOUS
370
-3
390
F
  0
LAYER
  5
201
100
AcDbSymbolTableRecord
100
AcDbLayerTableRecord
  2
03_AXES
 70
0
 62
7
  6
CONTINUOUS
370
-3
390
F
  0
LAYER
  5
202
100
AcDbSymbolTableRecord
100
AcDbLayerTableRecord
  2
04_POINTS
 70
0
 62
7
  6
CONTINUOUS
370
-3
390
F
  0
LAYER
  5
203
100
AcDbSymbolTableRecord
100
AcDbLayerTableRecord
  2
05_CURVES
 70
0
 62
7
  6
CONTINUOUS
370
-3
390
F
  0
LAYER
  5
204
100
AcDbSymbolTableRecord
100
AcDbLayerTableRecord
  2
06_SURFS
 70
0
 62
7
  6
CONTINUOUS
370
-3
390
F
  0
LAYER
  5
205
100
AcDbSymbolTableRecord
100
AcDbLayerTableRecord
  2
07_COSMETICS
 70
0
 62
7
  6
CONTINUOUS
370
-3
390
F
  0
LAYER
  5
206
100
AcDbSymbolTableRecord
100
AcDbLayerTableRecord
  2
10_NOTES
 70
0
 62
7
  6
CONTINUOUS
370
-3
390
F
  0
LAYER
  5
207
100
AcDbSymbolTableRecord
100
AcDbLayerTableRecord
  2
11_NOTES_PUB
 70
0
 62
7
  6
CONTINUOUS
370
-3
390
F
  0
LAYER
  5
208
100
AcDbSymbolTableRecord
100
AcDbLayerTableRecord
  2
13_REF_GTOL
 70
0
 62
7
  6
CONTINUOUS
370
-3
390
F
  0
LAYER
  5
209
100
AcDbSymbolTableRecord
100
AcDbLayerTableRecord
  2
16_MISC
 70
0
 62
7
  6
CONTINUOUS
370
-3
390
F
  0
LAYER
  5
20A
100
AcDbSymbolTableRecord
100
AcDbLayerTableRecord
  2
17_NO_PRINT
 70
0
 62
7
  6
CONTINUOUS
370
-3
390
F
  0
LAYER
  5
20B
100
AcDbSymbolTableRecord
100
AcDbLayerTableRecord
  2
18_DATUM_CAMS_JOINTS
 70
0
 62
7
  6
CONTINUOUS
370
-3
390
F
  0
LAYER
  5
20C
100
AcDbSymbolTableRecord
100
AcDbLayerTableRecord
  2
19_DATUM_FUNCTIONAL
 70
0
 62
7
  6
CONTINUOUS
370
-3
390
F
  0
LAYER
  5
20D
100
AcDbSymbolTableRecord
100
AcDbLayerTableRecord
  2
20_DATUM_KINEMATIC_SCHEME
 70
0
 62
7
  6
CONTINUOUS
370
-3
390
F
  0
ENDTAB
  0
TABLE
  2
STYLE
  5
3
100
AcDbSymbolTable
 70
1
  0
STYLE
  5
11
100
AcDbSymbolTableRecord
100
AcDbTextStyleTableRecord
  2
STANDARD
 70
0
 40
0.0
 41
0.8
 50
0.0
 71
0
 42
0.2
  3
txt
  4

  0
STYLE
  5
20E
100
AcDbSymbolTableRecord
100
AcDbTextStyleTableRecord
  2
TEXTSTYLE_1
 70
0
 40
0.0
 41
0.8
 50
0.0
 71
0
 42
0.2
  3
gdt
  4

  0
ENDTAB
  0
TABLE
  2
VIEW
  5
6
100
AcDbSymbolTable
 70
0
  0
ENDTAB
  0
TABLE
  2
UCS
  5
7
100
AcDbSymbolTable
 70
0
  0
ENDTAB
  0
TABLE
  2
APPID
  5
9
100
AcDbSymbolTable
 70
1
  0
APPID
  5
20F
100
AcDbSymbolTableRecord
100
AcDbRegAppTableRecord
  2
ACAD
 70
0
  0
ENDTAB
  0
TABLE
  2
BLOCK_RECORD
  5
1
100
AcDbSymbolTable
 70
0
  0
BLOCK_RECORD
  5
210
100
AcDbSymbolTableRecord
100
AcDbBlockTableRecord
  2
*Model_Space
  0
BLOCK_RECORD
  5
211
100
AcDbSymbolTableRecord
100
AcDbBlockTableRecord
  2
*Paper_Space
  0
BLOCK_RECORD
  5
212
100
AcDbSymbolTableRecord
100
AcDbBlockTableRecord
  2
_FILLED
  0
ENDTAB
  0
TABLE
  2
DIMSTYLE
  5
A
100
AcDbSymbolTable
 70
1
100
AcDbDimStyleTable
 71
0
  0
DIMSTYLE
105
213
100
AcDbSymbolTableRecord
100
AcDbDimStyleTableRecord
  2
STANDARD
 70
0
  3

  4

 40
1.0
 41
4.0639739603
 42
1.0
 43
0.38
 44
1.0
 45
0.0
 46
0.0
 47
0.01
 48
0.01
140
5.6895635444
141
0.09
142
0.0
143
25.4
144
1.0
145
0.0
146
1.0
147
0.625
 71
1
 72
0
 73
0
 74
0
 75
0
 76
0
 77
1
 78
8
 79
2
170
0
171
1
172
0
173
0
174
0
175
0
176
0
177
0
178
0
270
2
179
2
271
2
272
2
273
2
274
2
275
0
280
0
281
0
282
0
283
1
284
8
285
0
286
0
287
3
288
0
340
11
278
46
341
212
342
212
343
212
344
212
  0
ENDTAB
  0
ENDSEC
  0
SECTION
  2
BLOCKS
  0
BLOCK
  5
20
100
AcDbEntity
  8
0
100
AcDbBlockBegin
  2
*Model_Space
 70
0
 10
0.0
 20
0.0
 30
0.0
  3
*Model_Space
  1

  0
ENDBLK
  5
21
100
AcDbEntity
  8
0
100
AcDbBlockEnd
  0
BLOCK
  5
1C
100
AcDbEntity
  8
0
100
AcDbBlockBegin
  2
*Paper_Space
 70
0
 10
0.0
 20
0.0
 30
0.0
  3
*Paper_Space
  1

  0
ENDBLK
  5
1D
100
AcDbEntity
  8
0
100
AcDbBlockEnd
  0
BLOCK
  5
214
100
AcDbEntity
  8
0
100
AcDbBlockBegin
  2
_FILLED
 70
64
 10
0.0
 20
0.0
  3
_FILLED
  1

  0
SOLID
  5
215
100
AcDbEntity
  8
0
  6
BYBLOCK
 62
0
100
AcDbTrace
 10
0.0
 20
0.0
 11
-1.0
 21
0.25
 12
-1.0
 22
-0.25
 13
-1.0
 23
-0.25
  0
ENDBLK
  5
216
100
AcDbEntity
  8
0
  6
BYBLOCK
 62
0
100
AcDbBlockEnd
  0
ENDSEC
  0
SECTION
  2
ENTITIES
  0
LINE
  5
217
100
AcDbEntity
  8
0
100
AcDbLine
 62
7
  6
CONTINUOUS
 10
48.5334190754
 20
441.4286557326
 11
53.3063246727
 21
444.1842776152
  0
LINE
  5
218
100
AcDbEntity
  8
0
100
AcDbLine
 62
7
  6
CONTINUOUS
 10
132.3607503491
 20
446.7152907151
 11
90.6419136683
 21
422.6290529026
  0
LINE
  5
219
100
AcDbEntity
  8
0
100
AcDbLine
 62
7
  6
CONTINUOUS
 10
65.0263084383
 20
381.9975996123
 11
65.3617872819
 21
382.1912872568
  0
LINE
  5
21A
100
AcDbEntity
  8
0
100
AcDbLine
 62
7
  6
CONTINUOUS
 10
39.8713517656
 20
244.5495706662
 11
39.8713517656
 21
346.6123728074
  0
LINE
  5
21B
100
AcDbEntity
  8
0
100
AcDbLine
 62
7
  6
CONTINUOUS
 10
260.6663366195
 20
37.2630954668
 11
48.5334190754
 21
159.7353218229
  0
LINE
  5
21C
100
AcDbEntity
  8
0
100
AcDbLine
 62
7
  6
CONTINUOUS
 10
61.897819704
 20
273.3125196036
 11
61.897819704
 21
278.6184596644
  0
LINE
  5
21D
100
AcDbEntity
  8
0
100
AcDbLine
 62
7
  6
CONTINUOUS
 10
61.897819704
 20
287.1100848025
 11
61.897819704
 21
290.5381017555
  0
LINE
  5
21E
100
AcDbEntity
  8
0
100
AcDbLine
 62
7
  6
CONTINUOUS
 10
64.3011184175
 20
185.6999673626
 11
232.3811000849
 21
88.6611400131
  0
LINE
  5
21F
100
AcDbEntity
  8
0
100
AcDbLine
 62
7
  6
CONTINUOUS
 10
232.0456255181
 20
89.0390015915
 11
65.0263084383
 21
185.4654678092
  0
LINE
  5
220
100
AcDbEntity
  8
0
100
AcDbLine
 62
7
  6
CONTINUOUS
 10
61.897819704
 20
287.1100848025
 11
62.0317841657
 21
287.1874287589
  0
LINE
  5
221
100
AcDbEntity
  8
0
100
AcDbLine
 62
7
  6
CONTINUOUS
 10
230.4511942853
 20
108.3878735844
 11
236.0020056277
 21
105.1831836615
  0
LINE
  5
222
100
AcDbEntity
  8
0
100
AcDbLine
 62
7
  6
CONTINUOUS
 10
224.9243711499
 20
125.3979333995
 11
230.4751824923
 21
122.1932434765
  0
LINE
  5
223
100
AcDbEntity
  8
0
100
AcDbLine
 62
7
  6
CONTINUOUS
 10
230.4661603342
 20
122.4203146637
 11
224.9153489918
 21
125.6250045867
  0
LINE
  5
224
100
AcDbEntity
  8
0
100
AcDbLine
 62
7
  6
CONTINUOUS
 10
235.28112431
 20
124.967938716
 11
235.0799609656
 21
125.0840777997
  0
LINE
  5
225
100
AcDbEntity
  8
0
100
AcDbLine
 62
7
  6
CONTINUOUS
 10
39.8713517656
 20
244.5495706662
 11
57.9204909101
 21
234.1291310643
  0
LINE
  5
226
100
AcDbEntity
  8
0
100
AcDbLine
 62
7
  6
CONTINUOUS
 10
235.28112431
 20
131.7322381545
 11
252.0042693097
 21
122.0773443101
  0
LINE
  5
227
100
AcDbEntity
  8
0
100
AcDbLine
 62
7
  6
CONTINUOUS
 10
224.9153489918
 20
138.6890432607
 11
230.4661603342
 21
135.4843533378
  0
LINE
  5
228
100
AcDbEntity
  8
0
100
AcDbLine
 62
7
  6
CONTINUOUS
 10
230.4751824923
 20
135.7004396919
 11
224.9243711499
 21
138.9051296149
  0
LINE
  5
229
100
AcDbEntity
  8
0
100
AcDbLine
 62
7
  6
CONTINUOUS
 10
235.28112431
 20
138.2642574915
 11
235.0984964792
 21
138.3696953335
  0
LINE
  5
22A
100
AcDbEntity
  8
0
100
AcDbLine
 62
7
  6
CONTINUOUS
 10
292.4503921224
 20
354.2895838917
 11
250.7315554415
 21
330.2033460792
  0
LINE
  5
22B
100
AcDbEntity
  8
0
100
AcDbLine
 62
7
  6
CONTINUOUS
 10
227.133308004
 20
160.6025598849
 11
60.1139909243
 21
257.0290261026
  0
LINE
  5
22C
100
AcDbEntity
  8
0
100
AcDbLine
 62
7
  6
CONTINUOUS
 10
229.7303129676
 20
160.6395449856
 11
235.28112431
 21
157.4348550626
  0
LINE
  5
22D
100
AcDbEntity
  8
0
100
AcDbLine
 62
7
  6
CONTINUOUS
 10
260.6663366195
 20
318.9564293765
 11
265.4392422168
 21
321.7120512591
  0
LINE
  5
22E
100
AcDbEntity
  8
0
100
AcDbLine
 62
7
  6
CONTINUOUS
 10
61.897819704
 20
278.6184596644
 11
229.9778013714
 21
181.5796323149
  0
LINE
  5
22F
100
AcDbEntity
  8
0
100
AcDbLine
 62
7
  6
CONTINUOUS
 10
61.897819704
 20
287.1100848025
 11
229.9778013714
 21
190.0712574531
  0
LINE
  5
230
100
AcDbEntity
  8
0
100
AcDbLine
 62
7
  6
CONTINUOUS
 10
306.8047195429
 20
329.4272975072
 11
265.4392422168
 21
305.5450705955
  0
LINE
  5
231
100
AcDbEntity
  8
0
100
AcDbLine
 62
7
  6
CONTINUOUS
 10
232.0456255181
 20
285.5711333946
 11
232.3811022232
 21
285.7648198045
  0
LINE
  5
232
100
AcDbEntity
  8
0
100
AcDbLine
 62
7
  6
CONTINUOUS
 10
64.8556861176
 20
186.0201452624
 11
64.3011184175
 21
185.6999673626
  0
LINE
  5
233
100
AcDbEntity
  8
0
100
AcDbLine
 62
7
  6
CONTINUOUS
 10
227.133308004
 20
208.3353532817
 11
60.1139909243
 21
304.7618194994
  0
LINE
  5
234
100
AcDbEntity
  8
0
100
AcDbLine
 62
7
  6
CONTINUOUS
 10
235.28112431
 20
208.0883169519
 11
229.7303129676
 21
211.2930068749
  0
LINE
  5
235
100
AcDbEntity
  8
0
100
AcDbLine
 62
7
  6
CONTINUOUS
 10
224.9243711499
 20
227.4780317667
 11
230.4751824923
 21
224.2733418437
  0
LINE
  5
236
100
AcDbEntity
  8
0
100
AcDbLine
 62
7
  6
CONTINUOUS
 10
230.4661603342
 20
224.4831168049
 11
224.9153489918
 21
227.6878067279
  0
LINE
  5
237
100
AcDbEntity
  8
0
100
AcDbLine
 62
7
  6
CONTINUOUS
 10
235.0949401508
 20
227.1555281258
 11
235.28112431
 21
227.0480370832
  0
LINE
  5
238
100
AcDbEntity
  8
0
100
AcDbLine
 62
7
  6
CONTINUOUS
 10
224.9153489918
 20
240.7518454019
 11
225.1105553091
 21
240.864547149
  0
LINE
  5
239
100
AcDbEntity
  8
0
100
AcDbLine
 62
7
  6
CONTINUOUS
 10
235.28112431
 20
240.5420435082
 11
230.4751824923
 21
237.7673482687
  0
LINE
  5
23A
100
AcDbEntity
  8
0
100
AcDbLine
 62
7
  6
CONTINUOUS
 10
230.4661603342
 20
237.547155479
 11
235.28112431
 21
240.3270596327
  0
LINE
  5
23B
100
AcDbEntity
  8
0
100
AcDbLine
 62
7
  6
CONTINUOUS
 10
252.0042693097
 20
224.1401464513
 11
235.28112431
 21
233.7950402957
  0
LINE
  5
23C
100
AcDbEntity
  8
0
100
AcDbLine
 62
7
  6
CONTINUOUS
 10
58.035514395
 20
336.1255258679
 11
39.8713517656
 21
346.6123728074
  0
LINE
  5
23D
100
AcDbEntity
  8
0
100
AcDbLine
 62
7
  6
CONTINUOUS
 10
224.9153489918
 20
240.7518454019
 11
230.4661603342
 21
237.547155479
  0
LINE
  5
23E
100
AcDbEntity
  8
0
100
AcDbLine
 62
7
  6
CONTINUOUS
 10
230.4751824923
 20
237.7673482687
 11
224.9243711499
 21
240.9720381917
  0
LINE
  5
23F
100
AcDbEntity
  8
0
100
AcDbLine
 62
7
  6
CONTINUOUS
 10
235.28112431
 20
240.3270596327
 11
235.0949401508
 21
240.4345506754
  0
LINE
  5
240
100
AcDbEntity
  8
0
100
AcDbLine
 62
7
  6
CONTINUOUS
 10
232.3235691938
 20
89.1982339022
 11
232.3811000849
 21
88.6611400131
  0
LINE
  5
241
100
AcDbEntity
  8
0
100
AcDbLine
 62
7
  6
CONTINUOUS
 10
224.9356540504
 20
125.3989468573
 11
224.9153489918
 21
125.6250045867
  0
LINE
  5
242
100
AcDbEntity
  8
0
100
AcDbLine
 62
7
  6
CONTINUOUS
 10
232.3328268827
 20
89.2048163869
 11
232.3811000849
 21
88.6611400131
  0
LINE
  5
243
100
AcDbEntity
  8
0
100
AcDbLine
 62
7
  6
CONTINUOUS
 10
224.9291030712
 20
227.4783424795
 11
224.9153489918
 21
227.6878067279
  0
LINE
  5
244
100
AcDbEntity
  8
0
100
AcDbLine
 62
7
  6
CONTINUOUS
 10
224.9253704788
 20
125.3924228261
 11
224.9153489918
 21
125.6250045867
  0
LINE
  5
245
100
AcDbEntity
  8
0
100
AcDbLine
 62
7
  6
CONTINUOUS
 10
224.9244857032
 20
227.4754139821
 11
224.9153489918
 21
227.6878067279
  0
LINE
  5
246
100
AcDbEntity
  8
0
100
AcDbLine
 62
7
  6
CONTINUOUS
 10
224.9243711499
 20
227.4780317667
 11
225.101533151
 21
227.5803156852
  0
LINE
  5
247
100
AcDbEntity
  8
0
100
AcDbLine
 62
7
  6
CONTINUOUS
 10
235.28112431
 20
227.2630209586
 11
230.4661603342
 21
224.4831168049
  0
LINE
  5
248
100
AcDbEntity
  8
0
100
AcDbLine
 62
7
  6
CONTINUOUS
 10
230.4751824923
 20
224.2733418437
 11
235.28112431
 21
227.0480370832
  0
LINE
  5
249
100
AcDbEntity
  8
0
100
AcDbLine
 62
7
  6
CONTINUOUS
 10
230.4511942853
 20
264.3638855626
 11
236.0020056277
 21
261.1591956396
  0
LINE
  5
24A
100
AcDbEntity
  8
0
100
AcDbLine
 62
7
  6
CONTINUOUS
 10
229.9778013714
 20
160.4966607215
 11
229.9778013714
 21
181.5796323149
  0
LINE
  5
24B
100
AcDbEntity
  8
0
100
AcDbLine
 62
7
  6
CONTINUOUS
 10
229.9778013714
 20
190.0712574531
 11
229.9778013714
 21
211.1501226108
  0
LINE
  5
24C
100
AcDbEntity
  8
0
100
AcDbLine
 62
7
  6
CONTINUOUS
 10
235.28112431
 20
240.3270596327
 11
235.28112431
 21
227.2630209586
  0
LINE
  5
24D
100
AcDbEntity
  8
0
100
AcDbLine
 62
7
  6
CONTINUOUS
 10
235.28112431
 20
227.0480370832
 11
235.28112431
 21
208.0883169519
  0
LINE
  5
24E
100
AcDbEntity
  8
0
100
AcDbLine
 62
7
  6
CONTINUOUS
 10
235.28112431
 20
157.4348550627
 11
235.28112431
 21
138.4751349314
  0
LINE
  5
24F
100
AcDbEntity
  8
0
100
AcDbLine
 62
7
  6
CONTINUOUS
 10
235.28112431
 20
138.2642574915
 11
235.28112431
 21
125.2002188175
  0
LINE
  5
250
100
AcDbEntity
  8
0
100
AcDbLine
 62
7
  6
CONTINUOUS
 10
224.9153489918
 20
240.751845402
 11
224.9241451495
 21
240.9666003279
  0
LINE
  5
251
100
AcDbEntity
  8
0
100
AcDbLine
 62
7
  6
CONTINUOUS
 10
224.9153489918
 20
138.6890432608
 11
224.9240939242
 21
138.9025710367
  0
LINE
  5
252
100
AcDbEntity
  8
0
100
AcDbLine
 62
7
  6
CONTINUOUS
 10
230.8083887106
 20
264.3463333156
 11
230.7993734116
 21
264.1628687979
  0
LINE
  5
253
100
AcDbEntity
  8
0
100
AcDbLine
 62
7
  6
CONTINUOUS
 10
230.7526706649
 20
264.3184313466
 11
230.7424705422
 21
264.1343446346
  0
LINE
  5
254
100
AcDbEntity
  8
0
100
AcDbLine
 62
7
  6
CONTINUOUS
 10
224.9153489918
 20
138.6890432608
 11
224.9285224405
 21
138.9048762393
  0
LINE
  5
255
100
AcDbEntity
  8
0
100
AcDbLine
 62
7
  6
CONTINUOUS
 10
224.9153489918
 20
240.751845402
 11
224.9332101247
 21
240.9713188605
  0
LINE
  5
256
100
AcDbEntity
  8
0
100
AcDbLine
 62
7
  6
CONTINUOUS
 10
65.0263084383
 20
381.9975996123
 11
232.0456255181
 21
285.5711333946
  0
LINE
  5
257
100
AcDbEntity
  8
0
100
AcDbLine
 62
7
  6
CONTINUOUS
 10
252.0042693097
 20
122.0773443101
 11
252.0042693097
 21
224.1401464513
  0
LINE
  5
258
100
AcDbEntity
  8
0
100
AcDbLine
 62
7
  6
CONTINUOUS
 10
232.3811000849
 20
285.7648235082
 11
64.3011184175
 21
382.8036508577
  0
LINE
  5
259
100
AcDbEntity
  8
0
100
AcDbLine
 62
7
  6
CONTINUOUS
 10
265.4392422168
 20
321.7120512591
 11
265.4392422168
 21
40.0187173494
  0
LINE
  5
25A
100
AcDbEntity
  8
0
100
AcDbLine
 62
7
  6
CONTINUOUS
 10
224.9153489918
 20
138.6890432607
 11
225.1069989807
 21
138.7996917729
  0
LINE
  5
25B
100
AcDbEntity
  8
0
100
AcDbLine
 62
7
  6
CONTINUOUS
 10
48.5334190754
 20
441.4286557326
 11
260.6663366195
 21
318.9564293765
  0
LINE
  5
25C
100
AcDbEntity
  8
0
100
AcDbLine
 62
7
  6
CONTINUOUS
 10
265.4392422168
 20
321.7120512591
 11
53.3063246727
 21
444.1842776152
  0
LINE
  5
25D
100
AcDbEntity
  8
0
100
AcDbLine
 62
7
  6
CONTINUOUS
 10
235.28112431
 20
138.4751349314
 11
230.4751824923
 21
135.7004396919
  0
LINE
  5
25E
100
AcDbEntity
  8
0
100
AcDbLine
 62
7
  6
CONTINUOUS
 10
230.4661603342
 20
135.4843533378
 11
235.28112431
 21
138.2642574915
  0
LINE
  5
25F
100
AcDbEntity
  8
0
100
AcDbLine
 62
7
  6
CONTINUOUS
 10
224.9243711499
 20
125.3979333995
 11
225.1165123362
 21
125.508865503
  0
LINE
  5
260
100
AcDbEntity
  8
0
100
AcDbLine
 62
7
  6
CONTINUOUS
 10
235.28112431
 20
125.2002188175
 11
230.4661603342
 21
122.4203146637
  0
LINE
  5
261
100
AcDbEntity
  8
0
100
AcDbLine
 62
7
  6
CONTINUOUS
 10
230.4751824923
 20
122.1932434765
 11
235.28112431
 21
124.967938716
  0
LINE
  5
262
100
AcDbEntity
  8
0
100
AcDbLine
 62
7
  6
CONTINUOUS
 10
306.8047195429
 20
107.0120390811
 11
306.8047195429
 21
329.4272975072
  0
LINE
  5
263
100
AcDbEntity
  8
0
100
AcDbLine
 62
7
  6
CONTINUOUS
 10
232.3328268827
 20
89.2048163869
 11
232.0456255181
 21
89.0390015916
  0
LINE
  5
264
100
AcDbEntity
  8
0
100
AcDbLine
 62
7
  6
CONTINUOUS
 10
292.4503921224
 20
354.2895838917
 11
132.3607503491
 21
446.7152907151
  0
LINE
  5
265
100
AcDbEntity
  8
0
100
AcDbLine
 62
7
  6
CONTINUOUS
 10
306.8047195429
 20
329.4272975072
 11
292.4503921224
 21
354.2895838917
  0
LINE
  5
266
100
AcDbEntity
  8
0
100
AcDbLine
 62
7
  6
CONTINUOUS
 10
306.8047195429
 20
107.0120390811
 11
265.4392422168
 21
83.1298121694
  0
LINE
  5
267
100
AcDbEntity
  8
0
100
AcDbLine
 62
7
  6
CONTINUOUS
 10
265.4392422168
 20
40.0187173494
 11
260.6663366195
 21
37.2630954668
  0
ARC
  5
268
100
AcDbEntity
  8
0
100
AcDbCircle
 62
7
  6
CONTINUOUS
 10
611.0854286738
 20
330.3653985752
 40
549.293047694
100
AcDbArc
 50
174.5219169005
 51
175.1743622349
  0
ARC
  5
269
100
AcDbEntity
  8
0
100
AcDbCircle
 62
7
  6
CONTINUOUS
 10
456.5478815455
 20
227.9854872048
 40
394.5194397906
100
AcDbArc
 50
185.7214848613
 51
186.1529155856
  0
ARC
  5
26A
100
AcDbEntity
  8
0
100
AcDbCircle
 62
7
  6
CONTINUOUS
 10
399.5194731695
 20
233.6864730751
 40
174.7470423761
100
AcDbArc
 50
175.4913992246
 51
177.6123125402
  0
ARC
  5
26B
100
AcDbEntity
  8
0
100
AcDbCircle
 62
7
  6
CONTINUOUS
 10
398.553899991
 20
131.6716839647
 40
173.7803075226
100
AcDbArc
 50
175.9611938404
 51
177.6152709174
  0
ARC
  5
26C
100
AcDbEntity
  8
0
100
AcDbCircle
 62
7
  6
CONTINUOUS
 10
-79.4260605226
 20
282.0950963099
 40
141.6070858241
100
AcDbArc
 50
358.6034742796
 51
359.9974599095
  0
SPLINE
  5
26D
100
AcDbEntity
  8
0
100
AcDbSpline
 62
7
  6
CONTINUOUS
 70
0
 71
3
 72
9
 73
5
 74
0
 42
0.0000001
 43
0.0000001
 44
0.0000000001
 40
0.0
 40
0.0
 40
0.0
 40
0.0
 40
0.2519430257
 40
1.0
 40
1.0
 40
1.0
 40
1.0
 10
235.28112431
 20
124.967938716
 30
0.0
 10
235.3120760564
 20
123.3055304063
 30
0.0
 10
235.4639230144
 20
116.7077582211
 30
0.0
 10
235.7326098102
 20
110.1126251864
 30
0.0
 10
236.0020056277
 20
105.1831836614
 30
0.0
  0
SPLINE
  5
26E
100
AcDbEntity
  8
0
100
AcDbSpline
 62
7
  6
CONTINUOUS
 70
0
 71
3
 72
14
 73
10
 74
0
 42
0.0000001
 43
0.0000001
 44
0.0000000001
 40
0.0
 40
0.0
 40
0.0
 40
0.0
 40
0.1441554842
 40
0.2825332318
 40
0.541727375
 40
0.6631449577
 40
0.7795541548
 40
0.8915714774
 40
1.0
 40
1.0
 40
1.0
 40
1.0
 10
224.9243711499
 20
125.3979333995
 30
0.0
 10
224.9243711499
 20
124.5188031577
 30
0.0
 10
224.9802761022
 20
122.7948293756
 30
0.0
 10
225.3232446047
 20
119.5075022903
 30
0.0
 10
226.0110222545
 20
116.3991109631
 30
0.0
 10
227.078905068
 20
113.5579347574
 30
0.0
 10
228.0295650696
 20
111.6432993003
 30
0.0
 10
229.1417794002
 20
109.9111487156
 30
0.0
 10
229.999192128
 20
108.8705177836
 30
0.0
 10
230.4511942853
 20
108.3878735844
 30
0.0
  0
SPLINE
  5
26F
100
AcDbEntity
  8
0
100
AcDbSpline
 62
7
  6
CONTINUOUS
 70
0
 71
3
 72
14
 73
10
 74
0
 42
0.0000001
 43
0.0000001
 44
0.0000000001
 40
0.0
 40
0.0
 40
0.0
 40
0.0
 40
0.1084285224
 40
0.2204458449
 40
0.3368550419
 40
0.4582726246
 40
0.7174667678
 40
0.8558445156
 40
1.0
 40
1.0
 40
1.0
 40
1.0
 10
236.0020056277
 20
105.1831836614
 30
0.0
 10
235.5500034711
 20
105.6658278599
 30
0.0
 10
234.6925907443
 20
106.7064587904
 30
0.0
 10
233.5803764147
 20
108.4386093728
 30
0.0
 10
232.6297164131
 20
110.3532448281
 30
0.0
 10
231.5618335988
 20
113.1944210332
 30
0.0
 10
230.874055948
 20
116.3028123613
 30
0.0
 10
230.5310874448
 20
119.5901394492
 30
0.0
 10
230.4751824923
 20
121.3141132335
 30
0.0
 10
230.4751824923
 20
122.1932434765
 30
0.0
  0
SPLINE
  5
270
100
AcDbEntity
  8
0
100
AcDbSpline
 62
7
  6
CONTINUOUS
 70
0
 71
3
 72
13
 73
9
 74
0
 42
0.0000001
 43
0.0000001
 44
0.0000000001
 40
0.0
 40
0.0
 40
0.0
 40
0.0
 40
0.280314638
 40
0.5392724064
 40
0.6611070843
 40
0.7781695755
 40
0.8909278202
 40
1.0
 40
1.0
 40
1.0
 40
1.0
 10
224.9243711499
 20
227.4780317667
 30
0.0
 10
224.9243711499
 20
225.8709489987
 30
0.0
 10
225.1067572441
 20
222.7747977998
 30
0.0
 10
225.8679788227
 20
219.0447485722
 30
0.0
 10
226.7936980359
 20
216.3411785024
 30
0.0
 10
227.6197064826
 20
214.4986195753
 30
0.0
 10
228.5873292916
 20
212.8101008669
 30
0.0
 10
229.3351020931
 20
211.7776107576
 30
0.0
 10
229.7303129676
 20
211.2930068749
 30
0.0
  0
SPLINE
  5
271
100
AcDbEntity
  8
0
100
AcDbSpline
 62
7
  6
CONTINUOUS
 70
0
 71
3
 72
13
 73
9
 74
0
 42
0.0000001
 43
0.0000001
 44
0.0000000001
 40
0.0
 40
0.0
 40
0.0
 40
0.0
 40
0.1090721797
 40
0.2218304243
 40
0.3388929154
 40
0.4607275933
 40
0.7196853617
 40
1.0
 40
1.0
 40
1.0
 40
1.0
 10
235.28112431
 20
208.0883169519
 30
0.0
 10
234.8859134359
 20
208.5729208341
 30
0.0
 10
234.1381406352
 20
209.6054109423
 30
0.0
 10
233.1705178267
 20
211.2939296491
 30
0.0
 10
232.3445093801
 20
213.1364885749
 30
0.0
 10
231.4187901664
 20
215.8400586442
 30
0.0
 10
230.6575685868
 20
219.5701078734
 30
0.0
 10
230.4751824923
 20
222.6662590742
 30
0.0
 10
230.4751824923
 20
224.2733418437
 30
0.0
  0
SPLINE
  5
272
100
AcDbEntity
  8
0
100
AcDbSpline
 62
7
  6
CONTINUOUS
 70
0
 71
3
 72
11
 73
7
 74
0
 42
0.0000001
 43
0.0000001
 44
0.0000000001
 40
0.0
 40
0.0
 40
0.0
 40
0.0
 40
0.2661562422
 40
0.5234299992
 40
0.7688434871
 40
1.0
 40
1.0
 40
1.0
 40
1.0
 10
229.7303129676
 20
160.6395449856
 30
0.0
 10
228.9609805843
 20
158.8078535891
 30
0.0
 10
227.597463697
 20
155.1403385378
 30
0.0
 10
226.0814163783
 20
149.5969360571
 30
0.0
 10
225.1499995262
 20
144.1901385742
 30
0.0
 10
224.9243711499
 20
140.630574747
 30
0.0
 10
224.9243711499
 20
138.9051296149
 30
0.0
  0
SPLINE
  5
273
100
AcDbEntity
  8
0
100
AcDbSpline
 62
7
  6
CONTINUOUS
 70
0
 71
3
 72
11
 73
7
 74
0
 42
0.0000001
 43
0.0000001
 44
0.0000000001
 40
0.0
 40
0.0
 40
0.0
 40
0.0
 40
0.2311565126
 40
0.4765700004
 40
0.7338437576
 40
1.0
 40
1.0
 40
1.0
 40
1.0
 10
230.4751824923
 20
135.7004396919
 30
0.0
 10
230.4751824923
 20
137.4258848222
 30
0.0
 10
230.7008108683
 20
140.985448647
 30
0.0
 10
231.6322277194
 20
146.3922461281
 30
0.0
 10
233.148275038
 20
151.9356486107
 30
0.0
 10
234.511791926
 20
155.6031636643
 30
0.0
 10
235.28112431
 20
157.4348550627
 30
0.0
  0
SPLINE
  5
274
100
AcDbEntity
  8
0
100
AcDbSpline
 62
7
  6
CONTINUOUS
 70
0
 71
3
 72
9
 73
5
 74
0
 42
0.0000001
 43
0.0000001
 44
0.0000000001
 40
0.0
 40
0.0
 40
0.0
 40
0.0
 40
0.2517874071
 40
1.0
 40
1.0
 40
1.0
 40
1.0
 10
236.0020056277
 20
261.1591956397
 30
0.0
 10
235.9131137707
 20
259.4299974163
 30
0.0
 10
235.5879189706
 20
252.5609078047
 30
0.0
 10
235.3748905144
 20
245.6864673368
 30
0.0
 10
235.28112431
 20
240.5420435082
 30
0.0
  0
SPLINE
  5
275
100
AcDbEntity
  8
0
100
AcDbSpline
 62
7
  6
CONTINUOUS
 70
0
 71
3
 72
11
 73
7
 74
0
 42
0.0000001
 43
0.0000001
 44
0.0000000001
 40
0.0
 40
0.0
 40
0.0
 40
0.0
 40
0.2664143885
 40
0.5241168847
 40
0.7695904981
 40
1.0
 40
1.0
 40
1.0
 40
1.0
 10
230.4511942853
 20
264.3638855627
 30
0.0
 10
229.5694261815
 20
262.4041687813
 30
0.0
 10
228.0047551875
 20
258.4692908164
 30
0.0
 10
226.2608899873
 20
252.5014683079
 30
0.0
 10
225.1864182975
 20
246.6718178354
 30
0.0
 10
224.9243711499
 20
242.8305695836
 30
0.0
 10
224.9243711499
 20
240.9720381917
 30
0.0
  0
SPLINE
  5
276
100
AcDbEntity
  8
0
100
AcDbSpline
 62
7
  6
CONTINUOUS
 70
0
 71
3
 72
11
 73
7
 74
0
 42
0.0000001
 43
0.0000001
 44
0.0000000001
 40
0.0
 40
0.0
 40
0.0
 40
0.0
 40
0.2304095016
 40
0.4758831148
 40
0.7335856112
 40
1.0
 40
1.0
 40
1.0
 40
1.0
 10
230.4751824923
 20
237.7673482687
 30
0.0
 10
230.4751824923
 20
239.6258796581
 30
0.0
 10
230.7372296393
 20
243.4671279064
 30
0.0
 10
231.8117013277
 20
249.2967783763
 30
0.0
 10
233.5555665276
 20
255.2646008874
 30
0.0
 10
235.1202375227
 20
259.1994788558
 30
0.0
 10
236.0020056277
 20
261.1591956397
 30
0.0
  0
SPLINE
  5
277
100
AcDbEntity
  8
0
100
AcDbSpline
 62
7
  6
CONTINUOUS
 70
0
 71
3
 72
9
 73
5
 74
0
 42
0.0000001
 43
0.0000001
 44
0.0000000001
 40
0.0
 40
0.0
 40
0.0
 40
0.0
 40
0.5175686452
 40
1.0
 40
1.0
 40
1.0
 40
1.0
 10
65.0263084384
 20
381.9975996123
 30
0.0
 10
62.6984310748
 20
373.3247995414
 30
0.0
 10
59.1254463514
 20
356.3010201742
 30
0.0
 10
57.7612690274
 20
338.9386391246
 30
0.0
 10
57.7612690274
 20
330.5684873593
 30
0.0
  0
SPLINE
  5
278
100
AcDbEntity
  8
0
100
AcDbSpline
 62
7
  6
CONTINUOUS
 70
0
 71
3
 72
9
 73
5
 74
0
 42
0.0000001
 43
0.0000001
 44
0.0000000001
 40
0.0
 40
0.0
 40
0.0
 40
0.0
 40
0.2602591648
 40
1.0
 40
1.0
 40
1.0
 40
1.0
 10
57.7612690274
 20
330.5684873593
 30
0.0
 10
57.7612690274
 20
328.3185090081
 30
0.0
 10
57.9454109056
 20
319.6756183732
 30
0.0
 10
58.8922389953
 20
311.0391983541
 30
0.0
 10
60.1139909243
 20
304.7618194994
 30
0.0
  0
SPLINE
  5
279
100
AcDbEntity
  8
0
100
AcDbSpline
 62
7
  6
CONTINUOUS
 70
0
 71
3
 72
9
 73
5
 74
0
 42
0.0000001
 43
0.0000001
 44
0.0000000001
 40
0.0
 40
0.0
 40
0.0
 40
0.0
 40
0.2399735252
 40
1.0
 40
1.0
 40
1.0
 40
1.0
 10
60.1139909243
 20
304.7618194994
 30
0.0
 10
60.4622192846
 20
302.972617212
 30
0.0
 10
61.7106848172
 20
295.4777502079
 30
0.0
 10
62.1810251622
 20
287.8617764129
 30
0.0
 10
62.1810251622
 20
282.0888184511
 30
0.0
  0
SPLINE
  5
27A
100
AcDbEntity
  8
0
100
AcDbSpline
 62
7
  6
CONTINUOUS
 70
0
 71
3
 72
9
 73
5
 74
0
 42
0.0000001
 43
0.0000001
 44
0.0000000001
 40
0.0
 40
0.0
 40
0.0
 40
0.0
 40
0.2429798602
 40
1.0
 40
1.0
 40
1.0
 40
1.0
 10
62.1389636712
 20
278.6439109208
 30
0.0
 10
62.0963209421
 20
276.8853571646
 30
0.0
 10
61.7892735221
 20
269.6513781271
 30
0.0
 10
60.9741270826
 20
262.4416117216
 30
0.0
 10
60.1139909243
 20
257.0290261026
 30
0.0
  0
SPLINE
  5
27B
100
AcDbEntity
  8
0
100
AcDbSpline
 62
7
  6
CONTINUOUS
 70
0
 71
3
 72
9
 73
5
 74
0
 42
0.0000001
 43
0.0000001
 44
0.0000000001
 40
0.0
 40
0.0
 40
0.0
 40
0.0
 40
0.258297703
 40
1.0
 40
1.0
 40
1.0
 40
1.0
 10
60.1139909243
 20
257.0290261026
 30
0.0
 10
59.7270319843
 20
254.5940065148
 30
0.0
 10
58.3979339411
 20
245.1415316295
 30
0.0
 10
57.7612690274
 20
235.5855866202
 30
0.0
 10
57.7612690274
 20
228.5056852181
 30
0.0
  0
SPLINE
  5
27C
100
AcDbEntity
  8
0
100
AcDbSpline
 62
7
  6
CONTINUOUS
 70
0
 71
3
 72
9
 73
5
 74
0
 42
0.0000001
 43
0.0000001
 44
0.0000000001
 40
0.0
 40
0.0
 40
0.0
 40
0.0
 40
0.5247714228
 40
1.0
 40
1.0
 40
1.0
 40
1.0
 10
57.7612690274
 20
228.5056852181
 30
0.0
 10
57.7612690274
 20
220.8379744578
 30
0.0
 10
58.8095071998
 20
206.1948653174
 30
0.0
 10
62.5091268679
 20
191.9369709613
 30
0.0
 10
65.0263084384
 20
185.4654678092
 30
0.0
  0
SPLINE
  5
27D
100
AcDbEntity
  8
0
100
AcDbSpline
 62
7
  6
CONTINUOUS
 70
0
 71
3
 72
9
 73
5
 74
0
 42
0.0000001
 43
0.0000001
 44
0.0000000001
 40
0.0
 40
0.0
 40
0.0
 40
0.0
 40
0.2478226994
 40
1.0
 40
1.0
 40
1.0
 40
1.0
 10
230.3313974495
 20
128.8745290774
 30
0.0
 10
230.3313974495
 20
129.4206849548
 30
0.0
 10
230.342796112
 20
131.624490095
 30
0.0
 10
230.3993702697
 20
133.828038308
 30
0.0
 10
230.4661603342
 20
135.4843533378
 30
0.0
  0
SPLINE
  5
27E
100
AcDbEntity
  8
0
100
AcDbSpline
 62
7
  6
CONTINUOUS
 70
0
 71
3
 72
9
 73
5
 74
0
 42
0.0000001
 43
0.0000001
 44
0.0000000001
 40
0.0
 40
0.0
 40
0.0
 40
0.0
 40
0.2477183662
 40
1.0
 40
1.0
 40
1.0
 40
1.0
 10
230.4661603342
 20
224.4831168049
 30
0.0
 10
230.4436344491
 20
225.0157217602
 30
0.0
 10
230.3643789472
 20
227.1662452884
 30
0.0
 10
230.3313974495
 20
229.3184479545
 30
0.0
 10
230.3313974495
 20
230.9373312186
 30
0.0
  0
SPLINE
  5
27F
100
AcDbEntity
  8
0
100
AcDbSpline
 62
7
  6
CONTINUOUS
 70
0
 71
3
 72
9
 73
5
 74
0
 42
0.0000001
 43
0.0000001
 44
0.0000000001
 40
0.0
 40
0.0
 40
0.0
 40
0.0
 40
0.2478226994
 40
1.0
 40
1.0
 40
1.0
 40
1.0
 10
230.3313974495
 20
230.9373312186
 30
0.0
 10
230.3313974495
 20
231.483487096
 30
0.0
 10
230.342796112
 20
233.6872922362
 30
0.0
 10
230.3993702697
 20
235.8908404492
 30
0.0
 10
230.4661603342
 20
237.547155479
 30
0.0
  0
SPLINE
  5
280
100
AcDbEntity
  8
0
100
AcDbSpline
 62
7
  6
CONTINUOUS
 70
0
 71
3
 72
9
 73
5
 74
0
 42
0.0000001
 43
0.0000001
 44
0.0000000001
 40
0.0
 40
0.0
 40
0.0
 40
0.0
 40
0.4881088055
 40
1.0
 40
1.0
 40
1.0
 40
1.0
 10
225.3131776766
 20
247.4231185847
 30
0.0
 10
225.8072610811
 20
253.7130647724
 30
0.0
 10
227.4896339295
 20
266.5523475958
 30
0.0
 10
230.3303336567
 20
279.1805977034
 30
0.0
 10
232.0456255181
 20
285.5711333946
 30
0.0
  0
SPLINE
  5
281
100
AcDbEntity
  8
0
100
AcDbSpline
 62
7
  6
CONTINUOUS
 70
0
 71
3
 72
9
 73
5
 74
0
 42
0.0000001
 43
0.0000001
 44
0.0000000001
 40
0.0
 40
0.0
 40
0.0
 40
0.0
 40
0.2477183662
 40
1.0
 40
1.0
 40
1.0
 40
1.0
 10
230.4661603342
 20
122.4203146637
 30
0.0
 10
230.4436344491
 20
122.952919619
 30
0.0
 10
230.3643789472
 20
125.1034431472
 30
0.0
 10
230.3313974495
 20
127.2556458133
 30
0.0
 10
230.3313974495
 20
128.8745290774
 30
0.0
  0
SPLINE
  5
282
100
AcDbEntity
  8
0
100
AcDbSpline
 62
7
  6
CONTINUOUS
 70
0
 71
3
 72
9
 73
5
 74
0
 42
0.0000001
 43
0.0000001
 44
0.0000000001
 40
0.0
 40
0.0
 40
0.0
 40
0.0
 40
0.2366443798
 40
1.0
 40
1.0
 40
1.0
 40
1.0
 10
232.0456255181
 20
89.0390015916
 30
0.0
 10
231.155152516
 20
91.3283473056
 30
0.0
 10
227.7970352517
 20
101.1594907549
 30
0.0
 10
225.9997066867
 20
111.4873107383
 30
0.0
 10
225.3159045627
 20
119.3815782167
 30
0.0
  0
SPLINE
  5
283
100
AcDbEntity
  8
0
100
AcDbSpline
 62
7
  6
CONTINUOUS
 70
0
 71
3
 72
9
 73
5
 74
0
 42
0.0000001
 43
0.0000001
 44
0.0000000001
 40
0.0
 40
0.0
 40
0.0
 40
0.0
 40
0.2454611203
 40
1.0
 40
1.0
 40
1.0
 40
1.0
 10
225.2051627019
 20
143.9113964994
 30
0.0
 10
225.3017631445
 20
145.2830063525
 30
0.0
 10
225.7597648237
 20
150.8662406342
 30
0.0
 10
226.4699458534
 20
156.4282156233
 30
0.0
 10
227.1333080035
 20
160.6025598813
 30
0.0
  0
SPLINE
  5
284
100
AcDbEntity
  8
0
100
AcDbSpline
 62
7
  6
CONTINUOUS
 70
0
 71
3
 72
9
 73
5
 74
0
 42
0.0000001
 43
0.0000001
 44
0.0000000001
 40
0.0
 40
0.0
 40
0.0
 40
0.0
 40
0.258297703
 40
1.0
 40
1.0
 40
1.0
 40
1.0
 10
227.1333080035
 20
160.6025598813
 30
0.0
 10
227.4732790723
 20
162.7418985195
 30
0.0
 10
228.6409866391
 20
171.0465728841
 30
0.0
 10
229.200342242
 20
179.4421531435
 30
0.0
 10
229.200342242
 20
185.6623522334
 30
0.0
  0
SPLINE
  5
285
100
AcDbEntity
  8
0
100
AcDbSpline
 62
7
  6
CONTINUOUS
 70
0
 71
3
 72
9
 73
5
 74
0
 42
0.0000001
 43
0.0000001
 44
0.0000000001
 40
0.0
 40
0.0
 40
0.0
 40
0.0
 40
0.2602591648
 40
1.0
 40
1.0
 40
1.0
 40
1.0
 10
229.200342242
 20
185.6623522334
 30
0.0
 10
229.200342242
 20
187.6391189279
 30
0.0
 10
229.0385604489
 20
195.232515701
 30
0.0
 10
228.2067043412
 20
202.8202275759
 30
0.0
 10
227.1333080035
 20
208.3353532847
 30
0.0
  0
SPLINE
  5
286
100
AcDbEntity
  8
0
100
AcDbSpline
 62
7
  6
CONTINUOUS
 70
0
 71
3
 72
9
 73
5
 74
0
 42
0.0000001
 43
0.0000001
 44
0.0000000001
 40
0.0
 40
0.0
 40
0.0
 40
0.0
 40
0.244048123
 40
1.0
 40
1.0
 40
1.0
 40
1.0
 10
227.1333080035
 20
208.3353532847
 30
0.0
 10
226.9065461137
 20
209.5004591123
 30
0.0
 10
226.0515994326
 20
214.2888320935
 30
0.0
 10
225.4868580247
 20
219.1278400301
 30
0.0
 10
225.205648452
 20
222.7937652677
 30
0.0
  0
SPLINE
  5
287
100
AcDbEntity
  8
0
100
AcDbSpline
 62
7
  6
CONTINUOUS
 70
0
 71
3
 72
9
 73
5
 74
0
 42
0.0000001
 43
0.0000001
 44
0.0000000001
 40
0.0
 40
0.0
 40
0.0
 40
0.0
 40
0.5151664593
 40
1.0
 40
1.0
 40
1.0
 40
1.0
 10
39.8713517656
 20
244.5495706662
 30
0.0
 10
39.8713517656
 20
229.8879633366
 30
0.0
 10
41.1936969489
 20
201.4063887347
 30
0.0
 10
45.5670055906
 20
173.2110191634
 30
0.0
 10
48.5334190754
 20
159.7353218229
 30
0.0
  0
SPLINE
  5
288
100
AcDbEntity
  8
0
100
AcDbSpline
 62
7
  6
CONTINUOUS
 70
0
 71
3
 72
9
 73
5
 74
0
 42
0.0000001
 43
0.0000001
 44
0.0000000001
 40
0.0
 40
0.0
 40
0.0
 40
0.0
 40
0.5121730653
 40
1.0
 40
1.0
 40
1.0
 40
1.0
 10
48.5334190754
 20
441.4286557326
 30
0.0
 10
45.7207332756
 20
425.4035155775
 30
0.0
 10
41.4326041346
 20
393.8881914768
 30
0.0
 10
39.8713517656
 20
362.1090789237
 30
0.0
 10
39.8713517656
 20
346.6123728074
 30
0.0
  0
SPLINE
  5
289
100
AcDbEntity
  8
0
100
AcDbSpline
 62
7
  6
CONTINUOUS
 70
0
 71
3
 72
9
 73
5
 74
0
 42
0.0000001
 43
0.0000001
 44
0.0000000001
 40
0.0
 40
0.0
 40
0.0
 40
0.0
 40
0.2521218324
 40
1.0
 40
1.0
 40
1.0
 40
1.0
 10
232.3811000849
 20
285.7648235082
 30
0.0
 10
232.2085833553
 20
283.9654510343
 30
0.0
 10
231.5591768479
 20
276.8252452935
 30
0.0
 10
231.0502730003
 20
269.6721861004
 30
0.0
 10
230.7526706649
 20
264.3184313466
 30
0.0
  0
SPLINE
  5
28A
100
AcDbEntity
  8
0
100
AcDbSpline
 62
7
  6
CONTINUOUS
 70
0
 71
3
 72
9
 73
5
 74
0
 42
0.0000001
 43
0.0000001
 44
0.0000000001
 40
0.0
 40
0.0
 40
0.0
 40
0.0
 40
0.252481338
 40
1.0
 40
1.0
 40
1.0
 40
1.0
 10
230.7576769536
 20
108.1430553503
 30
0.0
 10
230.8528620256
 20
106.5459670455
 30
0.0
 10
231.2655492506
 20
100.2225877845
 30
0.0
 10
231.8223048236
 20
93.9085087604
 30
0.0
 10
232.3235691938
 20
89.1982339022
 30
0.0
  0
SPLINE
  5
28B
100
AcDbEntity
  8
0
100
AcDbSpline
 62
7
  6
CONTINUOUS
 70
0
 71
3
 72
9
 73
5
 74
0
 42
0.0000001
 43
0.0000001
 44
0.0000000001
 40
0.0
 40
0.0
 40
0.0
 40
0.0
 40
0.4848335407
 40
1.0
 40
1.0
 40
1.0
 40
1.0
 10
260.6663366195
 20
37.2630954668
 30
0.0
 10
257.6999231347
 20
50.7387928073
 30
0.0
 10
253.326614493
 20
78.9341623786
 30
0.0
 10
252.0042693097
 20
107.4157369805
 30
0.0
 10
252.0042693097
 20
122.0773443101
 30
0.0
  0
SPLINE
  5
28C
100
AcDbEntity
  8
0
100
AcDbSpline
 62
7
  6
CONTINUOUS
 70
0
 71
3
 72
9
 73
5
 74
0
 42
0.0000001
 43
0.0000001
 44
0.0000000001
 40
0.0
 40
0.0
 40
0.0
 40
0.0
 40
0.4878269347
 40
1.0
 40
1.0
 40
1.0
 40
1.0
 10
252.0042693097
 20
224.1401464513
 30
0.0
 10
252.0042693097
 20
239.6368525676
 30
0.0
 10
253.5655216787
 20
271.4159651207
 30
0.0
 10
257.8536508197
 20
302.9312892214
 30
0.0
 10
260.6663366195
 20
318.9564293765
 30
0.0
  0
ENDSEC
  0
SECTION
  2
OBJECTS
  0
DICTIONARY
  5
C
100
AcDbDictionary
280
0
281
1
  3
ACAD_GROUP
350
D
  3
ACAD_MLINESTYLE
350
17
  3
ACAD_LAYOUT
350
1A
  3
ACAD_PLOTSETTINGS
350
19
  3
ACAD_PLOTSTYLENAME
350
E
  0
DICTIONARY
  5
D
102
{ACAD_REACTORS
330
C
102
}
100
AcDbDictionary
280
0
281
1
  0
ACDBDICTIONARYWDFLT
  5
E
102
{ACAD_REACTORS
330
C
102
}
100
AcDbDictionary
281
1
  3
Normal
350
F
100
AcDbDictionaryWithDefault
340
F
  0
DICTIONARY
  5
17
102
{ACAD_REACTORS
330
C
102
}
100
AcDbDictionary
280
0
281
1
  3
Standard
350
18
  0
DICTIONARY
  5
19
102
{ACAD_REACTORS
330
C
102
}
100
AcDbDictionary
281
1
  0
DICTIONARY
  5
1A
102
{ACAD_REACTORS
330
C
102
}
100
AcDbDictionary
281
1
  3
Model
350
28D
  3
Layout1
350
28E
  0
ACDBPLACEHOLDER
  5
F
102
{ACAD_REACTORS
330
E
102
}
  0
MLINESTYLE
  5
18
102
{ACAD_REACTORS
330
17
102
}
100
AcDbMlineStyle
  2
STANDARD
 70
0
  3

 62
256
 51
90.0
 52
90.0
 71
2
 49
0.5
 62
256
  6
BYLAYER
 49
-0.5
 62
256
  6
BYLAYER
  0
LAYOUT
  5
28D
102
{ACAD_REACTORS
330
1A
102
}
100
AcDbPlotSettings
  1

  2
none_device
  4

  6

 40
0.0
 41
0.0
 42
0.0
 43
0.0
 44
210.0
 45
297.0
 46
0.0
 47
0.0
 48
0.0
 49
0.0
140
0.0
141
0.0
142
1.0
143
1.0
 70
1024
 72
1
 73
0
 74
0
  7

 75
0
147
1.0
148
0.0
149
0.0
100
AcDbLayout
  1
Model
 70
0
 71
0
 10
0.0
 20
0.0
 11
210.0
 21
297.0
 12
0.0
 22
0.0
 32
0.0
 14
0.0
 24
0.0
 34
0.0
 15
0.0
 25
0.0
 35
0.0
146
0.0
 13
0.0
 23
0.0
 33
0.0
 16
1.0
 26
0.0
 36
0.0
 17
0.0
 27
1.0
 37
0.0
 76
0
330
210
345
0
346
0
  0
LAYOUT
  5
28E
102
{ACAD_REACTORS
330
1A
102
}
100
AcDbPlotSettings
  1

  2
none_device
  4

  6

 40
0.0
 41
0.0
 42
0.0
 43
0.0
 44
210.0
 45
297.0
 46
0.0
 47
0.0
 48
0.0
 49
0.0
140
0.0
141
0.0
142
1.0
143
1.0
 70
0
 72
1
 73
0
 74
0
  7

 75
0
147
1.0
148
0.0
149
0.0
100
AcDbLayout
  1
Layout1
 70
0
 71
1
 10
0.0
 20
0.0
 11
210.0
 21
297.0
 12
0.0
 22
0.0
 32
0.0
 14
0.0
 24
0.0
 34
0.0
 15
0.0
 25
0.0
 35
0.0
146
0.0
 13
0.0
 23
0.0
 33
0.0
 16
1.0
 26
0.0
 36
0.0
 17
0.0
 27
1.0
 37
0.0
 76
0
330
211
345
0
346
0
  0
ENDSEC
  0
EOF
