999
DXF file: C:\Users\sesa63760\Dev\_Creo\CAD\MCADFD0002095_3D-CAD\drw0001_1.dxf
999
Pro/ENGINEER 2019471 by Parametric Technology Corporation
  0
SECTION
  2
HEADER
  9
$ACADVER
  1
AC1024
  9
$DWGCODEPAGE
  3
ANSI_1252
  9
$EXTMAX
 10
426.4669402696
 20
603.1461012384
 30
0.0
  9
$EXTMIN
 10
0.0
 20
0.0
 30
0.0
  9
$LIMMIN
 10
0.0
 20
0.0
  9
$LIMMAX
 10
426.4669402696
 20
603.1461012384
  9
$VIEWCTR
 10
213.2334701348
 20
301.5730506192
  9
$VIEWSIZE
 40
603.1461012384
  9
$CLAYER
  8
0
  9
$LTSCALE
 40
39.3161903029
  9
$CELTYPE
  6
BYLAYER
  9
$DIMSCALE
 40
1.0
  9
$DIMASZ
 40
5.0769873842
  9
$DIMEXO
 40
1.0
  9
$DIMDLI
 40
27.1639133002
  9
$DIMEXE
 40
1.0
  9
$DIMCEN
 40
6.4335584132
  9
$DIMLFAC
 40
1.0
  9
$DIMBLK
  1
_FILLED
  9
$DIMALT
 70
0
  9
$DIMALTF
 40
0.0393700787
  9
$DIMTXT
 40
7.1077823378
  9
$DIMTOL
 70
1
  9
$DIMLIM
 70
0
  9
$DIMTFAC
 40
1.0
  9
$DIMTP
 40
0.01
  9
$DIMTM
 40
0.01
  9
$DIMGAP
 40
0.625
  9
$DIMDSEP
 70
46
  9
$AUNITS
 70
0
  9
$PDMODE
 70
3
  9
$PDSIZE
 40
0.3125
  9
$HANDSEED
  5
2AB
  9
$TILEMODE
 70
1
  9
$MEASUREMENT
 70
1
  9
$INSUNITS
 70
4
  0
ENDSEC
  0
SECTION
  2
CLASSES
  0
CLASS
  1
ACDBDICTIONARYWDFLT
  2
AcDbDictionaryWithDefault
  3
AutoCAD 2000
 90
0
 91
1
280
0
281
0
  0
CLASS
  1
ACDBPLACEHOLDER
  2
AcDbPlaceHolder
  3
AutoCAD 2000
 90
0
 91
1
280
0
281
0
  0
CLASS
  1
LAYOUT
  2
AcDbLayout
  3
AutoCAD 2000
 90
0
 91
0
280
0
281
0
  0
ENDSEC
  0
SECTION
  2
TABLES
  0
TABLE
  2
VPORT
  5
8
100
AcDbSymbolTable
 70
2
  0
VPORT
  5
1F4
100
AcDbSymbolTableRecord
100
AcDbViewportTableRecord
  2
*ACTIVE
 70
0
 10
0.0
 20
0.0
 11
1.0
 21
1.0
 12
213.2334701348
 22
301.5730506192
 13
0.0
 23
0.0
 14
1.0
 24
1.0
 15
0.0
 25
0.0
 16
0.0
 26
0.0
 36
1.0
 17
0.0
 27
0.0
 37
0.0
 40
603.1461012384
 41
0.7070707071
 42
50.0
 43
0.0
 44
0.0
 50
0.0
 51
0.0
 71
0
 72
100
 73
1
 74
1
 75
0
 76
0
 77
0
 78
0
  0
ENDTAB
  0
TABLE
  2
LTYPE
  5
5
100
AcDbSymbolTable
 70
6
  0
LTYPE
  5
14
100
AcDbSymbolTableRecord
100
AcDbLinetypeTableRecord
  2
BYBLOCK
 70
0
  3

 72
65
 73
0
 40
0.0
  0
LTYPE
  5
15
100
AcDbSymbolTableRecord
100
AcDbLinetypeTableRecord
  2
BYLAYER
 70
0
  3

 72
65
 73
0
 40
0.0
  0
LTYPE
  5
16
100
AcDbSymbolTableRecord
100
AcDbLinetypeTableRecord
  2
CONTINUOUS
 70
64
  3
Solid line
 72
65
 73
0
 40
0.0
  0
LTYPE
  5
1F5
100
AcDbSymbolTableRecord
100
AcDbLinetypeTableRecord
  2
CENTER
 70
64
  3
____ _ ____ _ ____ _ ____ _ ____ _ ____ _ ____
 72
65
 73
4
 40
0.6
 49
0.375
 74
0
 49
-0.075
 74
0
 49
0.075
 74
0
 49
-0.075
 74
0
  0
LTYPE
  5
1F6
100
AcDbSymbolTableRecord
100
AcDbLinetypeTableRecord
  2
HIDDEN
 70
64
  3
- - - - - - - - - - - - - - - - - - - -
 72
65
 73
2
 40
0.2
 49
0.1
 74
0
 49
-0.1
 74
0
  0
LTYPE
  5
1F7
100
AcDbSymbolTableRecord
100
AcDbLinetypeTableRecord
  2
PHANTOM
 70
64
  3
_____ _ _ _____ _ _ _____ _ _ _____
 72
65
 73
6
 40
0.8
 49
0.45
 74
0
 49
-0.05
 74
0
 49
0.1
 74
0
 49
-0.05
 74
0
 49
0.1
 74
0
 49
-0.05
 74
0
  0
LTYPE
  5
1F8
100
AcDbSymbolTableRecord
100
AcDbLinetypeTableRecord
  2
DOT
 70
64
  3
. . . . . . . . . . . . . . . . . . . .
 72
65
 73
2
 40
0.2
 49
0.1
 74
0
 49
-0.1
 74
0
  0
LTYPE
  5
1F9
100
AcDbSymbolTableRecord
100
AcDbLinetypeTableRecord
  2
DASHED
 70
64
  3
- - - - - - - - - - - - - - - - - - - -
 72
65
 73
2
 40
0.2
 49
0.1
 74
0
 49
-0.1
 74
0
  0
ENDTAB
  0
TABLE
  2
LAYER
  5
2
100
AcDbSymbolTable
 70
36
  0
LAYER
  5
10
100
AcDbSymbolTableRecord
100
AcDbLayerTableRecord
  2
0
 70
0
 62
7
  6
CONTINUOUS
370
-3
390
F
  0
LAYER
  5
1FA
100
AcDbSymbolTableRecord
100
AcDbLayerTableRecord
  2
DEFAULT_1
 70
0
 62
7
  6
CENTER
370
-3
390
F
  0
LAYER
  5
1FB
100
AcDbSymbolTableRecord
100
AcDbLayerTableRecord
  2
DEFAULT_2
 70
0
 62
8
  6
HIDDEN
370
-3
390
F
  0
LAYER
  5
1FC
100
AcDbSymbolTableRecord
100
AcDbLayerTableRecord
  2
DEFAULT_3
 70
0
 62
7
  6
PHANTOM
370
-3
390
F
  0
LAYER
  5
1FD
100
AcDbSymbolTableRecord
100
AcDbLayerTableRecord
  2
00_COMPONENTS
 70
0
 62
7
  6
CONTINUOUS
370
-3
390
F
  0
LAYER
  5
1FE
100
AcDbSymbolTableRecord
100
AcDbLayerTableRecord
  2
01_1_DEFAULT_DATUMS
 70
0
 62
7
  6
CONTINUOUS
370
-3
390
F
  0
LAYER
  5
1FF
100
AcDbSymbolTableRecord
100
AcDbLayerTableRecord
  2
01_PLANES
 70
0
 62
7
  6
CONTINUOUS
370
-3
390
F
  0
LAYER
  5
200
100
AcDbSymbolTableRecord
100
AcDbLayerTableRecord
  2
02_COORD_SYS
 70
0
 62
7
  6
CONTINUOUS
370
-3
390
F
  0
LAYER
  5
201
100
AcDbSymbolTableRecord
100
AcDbLayerTableRecord
  2
03_AXES
 70
0
 62
7
  6
CONTINUOUS
370
-3
390
F
  0
LAYER
  5
202
100
AcDbSymbolTableRecord
100
AcDbLayerTableRecord
  2
04_POINTS
 70
0
 62
7
  6
CONTINUOUS
370
-3
390
F
  0
LAYER
  5
203
100
AcDbSymbolTableRecord
100
AcDbLayerTableRecord
  2
05_CURVES
 70
0
 62
7
  6
CONTINUOUS
370
-3
390
F
  0
LAYER
  5
204
100
AcDbSymbolTableRecord
100
AcDbLayerTableRecord
  2
06_SURFS
 70
0
 62
7
  6
CONTINUOUS
370
-3
390
F
  0
LAYER
  5
205
100
AcDbSymbolTableRecord
100
AcDbLayerTableRecord
  2
07_COSMETICS
 70
0
 62
7
  6
CONTINUOUS
370
-3
390
F
  0
LAYER
  5
206
100
AcDbSymbolTableRecord
100
AcDbLayerTableRecord
  2
10_NOTES
 70
0
 62
7
  6
CONTINUOUS
370
-3
390
F
  0
LAYER
  5
207
100
AcDbSymbolTableRecord
100
AcDbLayerTableRecord
  2
11_NOTES_PUB
 70
0
 62
7
  6
CONTINUOUS
370
-3
390
F
  0
LAYER
  5
208
100
AcDbSymbolTableRecord
100
AcDbLayerTableRecord
  2
13_REF_GTOL
 70
0
 62
7
  6
CONTINUOUS
370
-3
390
F
  0
LAYER
  5
209
100
AcDbSymbolTableRecord
100
AcDbLayerTableRecord
  2
16_MISC
 70
0
 62
7
  6
CONTINUOUS
370
-3
390
F
  0
LAYER
  5
20A
100
AcDbSymbolTableRecord
100
AcDbLayerTableRecord
  2
17_NO_PRINT
 70
0
 62
7
  6
CONTINUOUS
370
-3
390
F
  0
LAYER
  5
20B
100
AcDbSymbolTableRecord
100
AcDbLayerTableRecord
  2
18_DATUM_CAMS_JOINTS
 70
0
 62
7
  6
CONTINUOUS
370
-3
390
F
  0
LAYER
  5
20C
100
AcDbSymbolTableRecord
100
AcDbLayerTableRecord
  2
19_DATUM_FUNCTIONAL
 70
0
 62
7
  6
CONTINUOUS
370
-3
390
F
  0
LAYER
  5
20D
100
AcDbSymbolTableRecord
100
AcDbLayerTableRecord
  2
20_DATUM_KINEMATIC_SCHEME
 70
0
 62
7
  6
CONTINUOUS
370
-3
390
F
  0
ENDTAB
  0
TABLE
  2
STYLE
  5
3
100
AcDbSymbolTable
 70
1
  0
STYLE
  5
11
100
AcDbSymbolTableRecord
100
AcDbTextStyleTableRecord
  2
STANDARD
 70
0
 40
0.0
 41
0.8
 50
0.0
 71
0
 42
0.2
  3
txt
  4

  0
STYLE
  5
20E
100
AcDbSymbolTableRecord
100
AcDbTextStyleTableRecord
  2
TEXTSTYLE_1
 70
0
 40
0.0
 41
0.8
 50
0.0
 71
0
 42
0.2
  3
gdt
  4

  0
ENDTAB
  0
TABLE
  2
VIEW
  5
6
100
AcDbSymbolTable
 70
0
  0
ENDTAB
  0
TABLE
  2
UCS
  5
7
100
AcDbSymbolTable
 70
0
  0
ENDTAB
  0
TABLE
  2
APPID
  5
9
100
AcDbSymbolTable
 70
1
  0
APPID
  5
20F
100
AcDbSymbolTableRecord
100
AcDbRegAppTableRecord
  2
ACAD
 70
0
  0
ENDTAB
  0
TABLE
  2
BLOCK_RECORD
  5
1
100
AcDbSymbolTable
 70
0
  0
BLOCK_RECORD
  5
210
100
AcDbSymbolTableRecord
100
AcDbBlockTableRecord
  2
*Model_Space
  0
BLOCK_RECORD
  5
211
100
AcDbSymbolTableRecord
100
AcDbBlockTableRecord
  2
*Paper_Space
  0
BLOCK_RECORD
  5
212
100
AcDbSymbolTableRecord
100
AcDbBlockTableRecord
  2
_FILLED
  0
ENDTAB
  0
TABLE
  2
DIMSTYLE
  5
A
100
AcDbSymbolTable
 70
1
100
AcDbDimStyleTable
 71
0
  0
DIMSTYLE
105
213
100
AcDbSymbolTableRecord
100
AcDbDimStyleTableRecord
  2
STANDARD
 70
0
  3

  4

 40
1.0
 41
5.0769873842
 42
1.0
 43
0.38
 44
1.0
 45
0.0
 46
0.0
 47
0.01
 48
0.01
140
7.1077823378
141
0.09
142
0.0
143
25.4
144
1.0
145
0.0
146
1.0
147
0.625
 71
1
 72
0
 73
0
 74
0
 75
0
 76
0
 77
1
 78
8
 79
2
170
0
171
1
172
0
173
0
174
0
175
0
176
0
177
0
178
0
270
2
179
2
271
2
272
2
273
2
274
2
275
0
280
0
281
0
282
0
283
1
284
8
285
0
286
0
287
3
288
0
340
11
278
46
341
212
342
212
343
212
344
212
  0
ENDTAB
  0
ENDSEC
  0
SECTION
  2
BLOCKS
  0
BLOCK
  5
20
100
AcDbEntity
  8
0
100
AcDbBlockBegin
  2
*Model_Space
 70
0
 10
0.0
 20
0.0
 30
0.0
  3
*Model_Space
  1

  0
ENDBLK
  5
21
100
AcDbEntity
  8
0
100
AcDbBlockEnd
  0
BLOCK
  5
1C
100
AcDbEntity
  8
0
100
AcDbBlockBegin
  2
*Paper_Space
 70
0
 10
0.0
 20
0.0
 30
0.0
  3
*Paper_Space
  1

  0
ENDBLK
  5
1D
100
AcDbEntity
  8
0
100
AcDbBlockEnd
  0
BLOCK
  5
214
100
AcDbEntity
  8
0
100
AcDbBlockBegin
  2
_FILLED
 70
64
 10
0.0
 20
0.0
  3
_FILLED
  1

  0
SOLID
  5
215
100
AcDbEntity
  8
0
  6
BYBLOCK
 62
0
100
AcDbTrace
 10
0.0
 20
0.0
 11
-1.0
 21
0.25
 12
-1.0
 22
-0.25
 13
-1.0
 23
-0.25
  0
ENDBLK
  5
216
100
AcDbEntity
  8
0
  6
BYBLOCK
 62
0
100
AcDbBlockEnd
  0
ENDSEC
  0
SECTION
  2
ENTITIES
  0
LINE
  5
217
100
AcDbEntity
  8
0
100
AcDbLine
 62
7
  6
CONTINUOUS
 10
91.740821165
 20
552.7799071334
 11
96.5137267622
 21
555.535529016
  0
LINE
  5
218
100
AcDbEntity
  8
0
100
AcDbLine
 62
7
  6
CONTINUOUS
 10
175.5681524387
 20
558.0665421159
 11
133.8493157578
 21
533.9803043034
  0
LINE
  5
219
100
AcDbEntity
  8
0
100
AcDbLine
 62
7
  6
CONTINUOUS
 10
108.2337105278
 20
493.3488510131
 11
108.5691893714
 21
493.5425386576
  0
LINE
  5
21A
100
AcDbEntity
  8
0
100
AcDbLine
 62
7
  6
CONTINUOUS
 10
303.873738709
 20
46.5515447265
 11
91.740821165
 21
169.0237710825
  0
LINE
  5
21B
100
AcDbEntity
  8
0
100
AcDbLine
 62
7
  6
CONTINUOUS
 10
83.0787538551
 20
253.8380199258
 11
83.0787538551
 21
457.9636242082
  0
LINE
  5
21C
100
AcDbEntity
  8
0
100
AcDbLine
 62
7
  6
CONTINUOUS
 10
105.1052217935
 20
398.4613362033
 11
105.2391862552
 21
398.5386801597
  0
LINE
  5
21D
100
AcDbEntity
  8
0
100
AcDbLine
 62
7
  6
CONTINUOUS
 10
107.508520507
 20
194.9884166222
 11
275.5885021744
 21
97.9495892728
  0
LINE
  5
21E
100
AcDbEntity
  8
0
100
AcDbLine
 62
7
  6
CONTINUOUS
 10
275.2530276076
 20
98.3274508511
 11
108.2337105278
 21
194.7539170688
  0
LINE
  5
21F
100
AcDbEntity
  8
0
100
AcDbLine
 62
7
  6
CONTINUOUS
 10
105.3223594179
 20
391.1066664285
 11
105.3190383007
 21
390.9893702239
  0
LINE
  5
220
100
AcDbEntity
  8
0
100
AcDbLine
 62
7
  6
CONTINUOUS
 10
273.7151374435
 20
117.6156070187
 11
279.2659487859
 21
114.4109170958
  0
LINE
  5
221
100
AcDbEntity
  8
0
100
AcDbLine
 62
7
  6
CONTINUOUS
 10
268.1294089641
 20
134.7131721494
 11
273.6802203065
 21
131.5084822265
  0
LINE
  5
222
100
AcDbEntity
  8
0
100
AcDbLine
 62
7
  6
CONTINUOUS
 10
273.6735624237
 20
131.7087639233
 11
268.1227510813
 21
134.9134538463
  0
LINE
  5
223
100
AcDbEntity
  8
0
100
AcDbLine
 62
7
  6
CONTINUOUS
 10
278.5366569305
 20
134.312330482
 11
278.3598764444
 21
134.4143924342
  0
LINE
  5
224
100
AcDbEntity
  8
0
100
AcDbLine
 62
7
  6
CONTINUOUS
 10
105.1052217935
 20
282.6009688633
 11
105.1052217935
 21
287.906908924
  0
LINE
  5
225
100
AcDbEntity
  8
0
100
AcDbLine
 62
7
  6
CONTINUOUS
 10
105.1052217935
 20
295.2554306782
 11
105.1052217935
 21
299.826551015
  0
LINE
  5
226
100
AcDbEntity
  8
0
100
AcDbLine
 62
7
  6
CONTINUOUS
 10
105.1052217935
 20
384.6637710045
 11
105.1052217935
 21
391.1128144492
  0
LINE
  5
227
100
AcDbEntity
  8
0
100
AcDbLine
 62
7
  6
CONTINUOUS
 10
105.1052217935
 20
398.4613362033
 11
105.1052217935
 21
401.8893531562
  0
LINE
  5
228
100
AcDbEntity
  8
0
100
AcDbLine
 62
7
  6
CONTINUOUS
 10
105.3694714063
 20
391.1328293434
 11
105.3675173346
 21
391.0162386509
  0
LINE
  5
229
100
AcDbEntity
  8
0
100
AcDbLine
 62
7
  6
CONTINUOUS
 10
105.3463657607
 20
287.9323601805
 11
105.3439145179
 21
287.8326846103
  0
LINE
  5
22A
100
AcDbEntity
  8
0
100
AcDbLine
 62
7
  6
CONTINUOUS
 10
105.2900195886
 20
287.9016765712
 11
105.2871931087
 21
287.8018501129
  0
LINE
  5
22B
100
AcDbEntity
  8
0
100
AcDbLine
 62
7
  6
CONTINUOUS
 10
83.0787538551
 20
253.8380199258
 11
101.1278929996
 21
243.417580324
  0
LINE
  5
22C
100
AcDbEntity
  8
0
100
AcDbLine
 62
7
  6
CONTINUOUS
 10
278.4885263995
 20
141.0206874141
 11
295.2116713992
 21
131.3657935697
  0
LINE
  5
22D
100
AcDbEntity
  8
0
100
AcDbLine
 62
7
  6
CONTINUOUS
 10
268.1227510813
 20
147.9774925204
 11
273.6735624237
 21
144.7728025974
  0
LINE
  5
22E
100
AcDbEntity
  8
0
100
AcDbLine
 62
7
  6
CONTINUOUS
 10
273.6802203065
 20
144.9807721091
 11
268.1294089641
 21
148.1854620321
  0
LINE
  5
22F
100
AcDbEntity
  8
0
100
AcDbLine
 62
7
  6
CONTINUOUS
 10
278.4885263995
 20
147.5527067511
 11
278.3117459134
 21
147.6547687034
  0
LINE
  5
230
100
AcDbEntity
  8
0
100
AcDbLine
 62
7
  6
CONTINUOUS
 10
335.6577942119
 20
465.6408352925
 11
293.938957531
 21
441.55459748
  0
LINE
  5
231
100
AcDbEntity
  8
0
100
AcDbLine
 62
7
  6
CONTINUOUS
 10
270.3407100935
 20
169.8910091445
 11
103.3213930138
 21
266.3174753622
  0
LINE
  5
232
100
AcDbEntity
  8
0
100
AcDbLine
 62
7
  6
CONTINUOUS
 10
272.9377150571
 20
169.9484955396
 11
278.4885263995
 21
166.7438056166
  0
LINE
  5
233
100
AcDbEntity
  8
0
100
AcDbLine
 62
7
  6
CONTINUOUS
 10
303.873738709
 20
430.3076807774
 11
308.6466443063
 21
433.0633026599
  0
LINE
  5
234
100
AcDbEntity
  8
0
100
AcDbLine
 62
7
  6
CONTINUOUS
 10
105.1052217935
 20
287.906908924
 11
273.1852034609
 21
190.8680815745
  0
LINE
  5
235
100
AcDbEntity
  8
0
100
AcDbLine
 62
7
  6
CONTINUOUS
 10
105.1052217935
 20
295.2554306782
 11
273.1852034609
 21
198.2166033287
  0
LINE
  5
236
100
AcDbEntity
  8
0
100
AcDbLine
 62
7
  6
CONTINUOUS
 10
350.0121216324
 20
440.778548908
 11
308.6466443063
 21
416.8963219963
  0
LINE
  5
237
100
AcDbEntity
  8
0
100
AcDbLine
 62
7
  6
CONTINUOUS
 10
275.2530276076
 20
396.9223847954
 11
275.5885043127
 21
397.1160712053
  0
LINE
  5
238
100
AcDbEntity
  8
0
100
AcDbLine
 62
7
  6
CONTINUOUS
 10
105.1052217935
 20
295.2554306782
 11
105.272089885
 21
295.3517714407
  0
LINE
  5
239
100
AcDbEntity
  8
0
100
AcDbLine
 62
7
  6
CONTINUOUS
 10
270.3407100935
 20
217.6238025413
 11
103.3213930138
 21
314.050268759
  0
LINE
  5
23A
100
AcDbEntity
  8
0
100
AcDbLine
 62
7
  6
CONTINUOUS
 10
268.1227510813
 20
352.1030968027
 11
268.3061894502
 21
352.2090043622
  0
LINE
  5
23B
100
AcDbEntity
  8
0
100
AcDbLine
 62
7
  6
CONTINUOUS
 10
278.5366569306
 20
351.910224647
 11
273.6802203065
 21
349.1063763915
  0
LINE
  5
23C
100
AcDbEntity
  8
0
100
AcDbLine
 62
7
  6
CONTINUOUS
 10
273.6735624237
 20
348.8984068798
 11
278.4885263995
 21
351.6783110335
  0
LINE
  5
23D
100
AcDbEntity
  8
0
100
AcDbLine
 62
7
  6
CONTINUOUS
 10
268.1294089641
 20
338.8387764318
 11
268.2995315674
 21
338.9369961764
  0
LINE
  5
23E
100
AcDbEntity
  8
0
100
AcDbLine
 62
7
  6
CONTINUOUS
 10
278.4885263995
 20
338.6142723594
 11
273.6735624237
 21
335.8343682057
  0
LINE
  5
23F
100
AcDbEntity
  8
0
100
AcDbLine
 62
7
  6
CONTINUOUS
 10
273.6802203065
 20
335.6340865089
 11
278.4885263995
 21
338.4101467552
  0
LINE
  5
240
100
AcDbEntity
  8
0
100
AcDbLine
 62
7
  6
CONTINUOUS
 10
270.3407100935
 20
271.9538112857
 11
103.3213930138
 21
368.3802775034
  0
LINE
  5
241
100
AcDbEntity
  8
0
100
AcDbLine
 62
7
  6
CONTINUOUS
 10
105.1052217935
 20
391.1128144492
 11
273.1852034609
 21
294.0739870997
  0
LINE
  5
242
100
AcDbEntity
  8
0
100
AcDbLine
 62
7
  6
CONTINUOUS
 10
275.5309712833
 20
98.4866831618
 11
275.5885021744
 21
97.9495892728
  0
LINE
  5
243
100
AcDbEntity
  8
0
100
AcDbLine
 62
7
  6
CONTINUOUS
 10
268.1406501787
 20
134.7141818629
 11
268.1227510813
 21
134.9134538463
  0
LINE
  5
244
100
AcDbEntity
  8
0
100
AcDbLine
 62
7
  6
CONTINUOUS
 10
275.5402289722
 20
98.4932656465
 11
275.5885021744
 21
97.9495892728
  0
LINE
  5
245
100
AcDbEntity
  8
0
100
AcDbLine
 62
7
  6
CONTINUOUS
 10
108.0630882071
 20
195.308594522
 11
107.508520507
 21
194.9884166222
  0
LINE
  5
246
100
AcDbEntity
  8
0
100
AcDbLine
 62
7
  6
CONTINUOUS
 10
105.1052217935
 20
398.4613362033
 11
273.1852034609
 21
301.4225088539
  0
LINE
  5
247
100
AcDbEntity
  8
0
100
AcDbLine
 62
7
  6
CONTINUOUS
 10
268.1358743292
 20
338.839200968
 11
268.1227510813
 21
339.0390581287
  0
LINE
  5
248
100
AcDbEntity
  8
0
100
AcDbLine
 62
7
  6
CONTINUOUS
 10
273.9554094358
 20
117.5942739275
 11
273.9667970861
 21
117.4026944235
  0
LINE
  5
249
100
AcDbEntity
  8
0
100
AcDbLine
 62
7
  6
CONTINUOUS
 10
274.0116765563
 20
117.6310552566
 11
274.0217016971
 21
117.4386160685
  0
LINE
  5
24A
100
AcDbEntity
  8
0
100
AcDbLine
 62
7
  6
CONTINUOUS
 10
268.1315662335
 20
134.7084210618
 11
268.1227510813
 21
134.9134538463
  0
LINE
  5
24B
100
AcDbEntity
  8
0
100
AcDbLine
 62
7
  6
CONTINUOUS
 10
268.131462166
 20
338.836402991
 11
268.1227510813
 21
339.0390581287
  0
LINE
  5
24C
100
AcDbEntity
  8
0
100
AcDbLine
 62
7
  6
CONTINUOUS
 10
273.1852034609
 20
169.8056112755
 11
273.1852034609
 21
190.8680815745
  0
LINE
  5
24D
100
AcDbEntity
  8
0
100
AcDbLine
 62
7
  6
CONTINUOUS
 10
273.1852034609
 20
198.2166033287
 11
273.1852034609
 21
294.0739870997
  0
LINE
  5
24E
100
AcDbEntity
  8
0
100
AcDbLine
 62
7
  6
CONTINUOUS
 10
273.1852034609
 20
301.4225088539
 11
273.1852034609
 21
322.4849791529
  0
LINE
  5
24F
100
AcDbEntity
  8
0
100
AcDbLine
 62
7
  6
CONTINUOUS
 10
268.1227510813
 20
352.1030968028
 11
268.1310454926
 21
352.3057781868
  0
LINE
  5
250
100
AcDbEntity
  8
0
100
AcDbLine
 62
7
  6
CONTINUOUS
 10
268.1227510813
 20
147.9774925204
 11
268.1311574856
 21
148.1828747997
  0
LINE
  5
251
100
AcDbEntity
  8
0
100
AcDbLine
 62
7
  6
CONTINUOUS
 10
274.0229516668
 20
375.8433108839
 11
274.0151826843
 21
375.6852093458
  0
LINE
  5
252
100
AcDbEntity
  8
0
100
AcDbLine
 62
7
  6
CONTINUOUS
 10
273.9682227851
 20
375.8159263151
 11
273.9593825967
 21
375.657264383
  0
LINE
  5
253
100
AcDbEntity
  8
0
100
AcDbLine
 62
7
  6
CONTINUOUS
 10
268.1227510813
 20
352.1030968028
 11
268.1396084518
 21
352.3102362624
  0
LINE
  5
254
100
AcDbEntity
  8
0
100
AcDbLine
 62
7
  6
CONTINUOUS
 10
270.3407100935
 20
319.6866046825
 11
103.3213930138
 21
416.1130709002
  0
LINE
  5
255
100
AcDbEntity
  8
0
100
AcDbLine
 62
7
  6
CONTINUOUS
 10
278.4885263995
 20
319.423173494
 11
272.9377150571
 21
322.6278634169
  0
LINE
  5
256
100
AcDbEntity
  8
0
100
AcDbLine
 62
7
  6
CONTINUOUS
 10
268.1294089641
 20
338.8387764318
 11
273.6802203065
 21
335.6340865089
  0
LINE
  5
257
100
AcDbEntity
  8
0
100
AcDbLine
 62
7
  6
CONTINUOUS
 10
273.6735624237
 20
335.8343682057
 11
268.1227510813
 21
339.0390581287
  0
LINE
  5
258
100
AcDbEntity
  8
0
100
AcDbLine
 62
7
  6
CONTINUOUS
 10
278.4885263995
 20
351.6783110335
 11
278.4885263995
 21
338.6142723594
  0
LINE
  5
259
100
AcDbEntity
  8
0
100
AcDbLine
 62
7
  6
CONTINUOUS
 10
278.4885263995
 20
338.4101467552
 11
278.4885263995
 21
319.4231734939
  0
LINE
  5
25A
100
AcDbEntity
  8
0
100
AcDbLine
 62
7
  6
CONTINUOUS
 10
278.4885263995
 20
166.7438056167
 11
278.4885263995
 21
147.7568323554
  0
LINE
  5
25B
100
AcDbEntity
  8
0
100
AcDbLine
 62
7
  6
CONTINUOUS
 10
278.4885263995
 20
147.5527067511
 11
278.4885263995
 21
134.4886680771
  0
LINE
  5
25C
100
AcDbEntity
  8
0
100
AcDbLine
 62
7
  6
CONTINUOUS
 10
295.2116713992
 20
131.3657935697
 11
295.2116713992
 21
335.4913978521
  0
LINE
  5
25D
100
AcDbEntity
  8
0
100
AcDbLine
 62
7
  6
CONTINUOUS
 10
268.1227510813
 20
147.9774925204
 11
268.1354221792
 21
148.1850950132
  0
LINE
  5
25E
100
AcDbEntity
  8
0
100
AcDbLine
 62
7
  6
CONTINUOUS
 10
278.3117459134
 20
338.5122087075
 11
278.4885263995
 21
338.4101467552
  0
LINE
  5
25F
100
AcDbEntity
  8
0
100
AcDbLine
 62
7
  6
CONTINUOUS
 10
295.2116713992
 20
335.4913978521
 11
278.4885263995
 21
345.1462916965
  0
LINE
  5
260
100
AcDbEntity
  8
0
100
AcDbLine
 62
7
  6
CONTINUOUS
 10
101.2429164845
 20
447.4767772687
 11
83.0787538551
 21
457.9636242082
  0
LINE
  5
261
100
AcDbEntity
  8
0
100
AcDbLine
 62
7
  6
CONTINUOUS
 10
268.1227510813
 20
352.1030968027
 11
273.6735624237
 21
348.8984068798
  0
LINE
  5
262
100
AcDbEntity
  8
0
100
AcDbLine
 62
7
  6
CONTINUOUS
 10
273.6802203065
 20
349.1063763915
 11
268.1294089641
 21
352.3110663145
  0
LINE
  5
263
100
AcDbEntity
  8
0
100
AcDbLine
 62
7
  6
CONTINUOUS
 10
278.4885263995
 20
351.6783110335
 11
278.3117459134
 21
351.7803729858
  0
LINE
  5
264
100
AcDbEntity
  8
0
100
AcDbLine
 62
7
  6
CONTINUOUS
 10
308.6466443063
 20
433.0633026599
 11
308.6466443063
 21
49.307166609
  0
LINE
  5
265
100
AcDbEntity
  8
0
100
AcDbLine
 62
7
  6
CONTINUOUS
 10
273.7151374435
 20
375.8584366275
 11
279.2659487859
 21
372.6537467045
  0
LINE
  5
266
100
AcDbEntity
  8
0
100
AcDbLine
 62
7
  6
CONTINUOUS
 10
108.2337105278
 20
493.3488510131
 11
275.2530276076
 21
396.9223847954
  0
LINE
  5
267
100
AcDbEntity
  8
0
100
AcDbLine
 62
7
  6
CONTINUOUS
 10
275.5885021744
 20
397.116074909
 11
107.508520507
 21
494.1549022585
  0
LINE
  5
268
100
AcDbEntity
  8
0
100
AcDbLine
 62
7
  6
CONTINUOUS
 10
350.0121216324
 20
116.3004883407
 11
350.0121216324
 21
440.778548908
  0
LINE
  5
269
100
AcDbEntity
  8
0
100
AcDbLine
 62
7
  6
CONTINUOUS
 10
91.740821165
 20
552.7799071334
 11
303.873738709
 21
430.3076807774
  0
LINE
  5
26A
100
AcDbEntity
  8
0
100
AcDbLine
 62
7
  6
CONTINUOUS
 10
268.1227510813
 20
147.9774925204
 11
268.3061894502
 21
148.0834000798
  0
LINE
  5
26B
100
AcDbEntity
  8
0
100
AcDbLine
 62
7
  6
CONTINUOUS
 10
278.4885263995
 20
147.7568323554
 11
273.6802203065
 21
144.9807721091
  0
LINE
  5
26C
100
AcDbEntity
  8
0
100
AcDbLine
 62
7
  6
CONTINUOUS
 10
273.6735624237
 20
144.7728025974
 11
278.4885263995
 21
147.5527067511
  0
LINE
  5
26D
100
AcDbEntity
  8
0
100
AcDbLine
 62
7
  6
CONTINUOUS
 10
268.1294089641
 20
134.7131721494
 11
268.2995315674
 21
134.811391894
  0
LINE
  5
26E
100
AcDbEntity
  8
0
100
AcDbLine
 62
7
  6
CONTINUOUS
 10
308.6466443063
 20
433.0633026599
 11
96.5137267622
 21
555.535529016
  0
LINE
  5
26F
100
AcDbEntity
  8
0
100
AcDbLine
 62
7
  6
CONTINUOUS
 10
278.4885263995
 20
134.4886680771
 11
273.6735624237
 21
131.7087639233
  0
LINE
  5
270
100
AcDbEntity
  8
0
100
AcDbLine
 62
7
  6
CONTINUOUS
 10
273.6802203065
 20
131.5084822265
 11
278.5366569306
 21
134.312330482
  0
LINE
  5
271
100
AcDbEntity
  8
0
100
AcDbLine
 62
7
  6
CONTINUOUS
 10
350.0121216324
 20
440.778548908
 11
335.6577942119
 21
465.6408352925
  0
LINE
  5
272
100
AcDbEntity
  8
0
100
AcDbLine
 62
7
  6
CONTINUOUS
 10
275.5402289722
 20
98.4932656465
 11
275.2530276076
 21
98.3274508512
  0
LINE
  5
273
100
AcDbEntity
  8
0
100
AcDbLine
 62
7
  6
CONTINUOUS
 10
335.6577942119
 20
465.6408352925
 11
175.5681524387
 21
558.0665421159
  0
LINE
  5
274
100
AcDbEntity
  8
0
100
AcDbLine
 62
7
  6
CONTINUOUS
 10
350.0121216324
 20
116.3004883407
 11
308.6466443063
 21
92.418261429
  0
LINE
  5
275
100
AcDbEntity
  8
0
100
AcDbLine
 62
7
  6
CONTINUOUS
 10
308.6466443063
 20
49.307166609
 11
303.873738709
 21
46.5515447265
  0
ARC
  5
276
100
AcDbEntity
  8
0
100
AcDbCircle
 62
7
  6
CONTINUOUS
 10
655.148012354
 20
441.6395467686
 40
550.1516841678
100
AcDbArc
 50
174.5224260505
 51
175.173853085
  0
ARC
  5
277
100
AcDbEntity
  8
0
100
AcDbCircle
 62
7
  6
CONTINUOUS
 10
499.7552836359
 20
237.2739364645
 40
394.5194397916
100
AcDbArc
 50
185.7214848613
 51
186.1529155856
  0
ARC
  5
278
100
AcDbEntity
  8
0
100
AcDbCircle
 62
7
  6
CONTINUOUS
 10
442.7286722179
 20
345.03781363
 40
174.7488328055
100
AcDbArc
 50
175.4848832866
 51
177.6163283217
  0
ARC
  5
279
100
AcDbEntity
  8
0
100
AcDbCircle
 62
7
  6
CONTINUOUS
 10
441.7686901964
 20
140.9598731589
 40
173.7876995607
100
AcDbArc
 50
175.9539730778
 51
177.6179743957
  0
ARC
  5
27A
100
AcDbEntity
  8
0
100
AcDbCircle
 62
7
  6
CONTINUOUS
 10
442.7514791911
 20
342.0800029023
 40
169.2153437818
100
AcDbArc
 50
177.6906848082
 51
177.9304820885
  0
ARC
  5
27B
100
AcDbEntity
  8
0
100
AcDbCircle
 62
7
  6
CONTINUOUS
 10
442.7514791897
 20
137.95439862
 40
169.2153437804
100
AcDbArc
 50
177.6906848082
 51
177.9304820885
  0
ARC
  5
27C
100
AcDbEntity
  8
0
100
AcDbCircle
 62
7
  6
CONTINUOUS
 10
436.1572928165
 20
342.2730340714
 40
162.6184940208
100
AcDbArc
 50
177.9145480939
 51
179.9945217413
  0
ARC
  5
27D
100
AcDbEntity
  8
0
100
AcDbCircle
 62
7
  6
CONTINUOUS
 10
436.1572928157
 20
138.147429789
 40
162.61849402
100
AcDbArc
 50
177.9145480939
 51
179.9945217413
  0
ARC
  5
27E
100
AcDbEntity
  8
0
100
AcDbCircle
 62
7
  6
CONTINUOUS
 10
129.6768800282
 20
194.9706389742
 40
142.7308656818
100
AcDbArc
 50
358.5690026583
 51
359.9920367333
  0
ARC
  5
27F
100
AcDbEntity
  8
0
100
AcDbCircle
 62
7
  6
CONTINUOUS
 10
410.1469578507
 20
345.0064061115
 40
142.1494634288
100
AcDbArc
 50
182.4877071476
 51
184.3877872504
  0
ARC
  5
280
100
AcDbEntity
  8
0
100
AcDbCircle
 62
7
  6
CONTINUOUS
 10
-36.2186584326
 20
291.3835455695
 40
141.6070858235
100
AcDbArc
 50
358.6034742796
 51
359.9974599095
  0
ARC
  5
281
100
AcDbEntity
  8
0
100
AcDbCircle
 62
7
  6
CONTINUOUS
 10
131.1933405438
 20
297.0198268488
 40
141.2144039248
100
AcDbArc
 50
359.0139905654
 51
359.9974750173
  0
ARC
  5
282
100
AcDbEntity
  8
0
100
AcDbCircle
 62
7
  6
CONTINUOUS
 10
-35.7228671425
 20
393.4457150548
 40
141.1112945072
100
AcDbArc
 50
359.0608510507
 51
359.9977078638
  0
SPLINE
  5
283
100
AcDbEntity
  8
0
100
AcDbSpline
 62
7
  6
CONTINUOUS
 70
0
 71
3
 72
9
 73
5
 74
0
 42
0.0000001
 43
0.0000001
 44
0.0000000001
 40
0.0
 40
0.0
 40
0.0
 40
0.0
 40
0.2524318146
 40
1.0
 40
1.0
 40
1.0
 40
1.0
 10
278.5366569306
 20
134.312330482
 30
0.0
 10
278.5608026738
 20
132.6367180742
 30
0.0
 10
278.6927438267
 20
125.9994217865
 30
0.0
 10
278.9711765864
 20
119.3649391579
 30
0.0
 10
279.2659487859
 20
114.4109170957
 30
0.0
  0
SPLINE
  5
284
100
AcDbEntity
  8
0
100
AcDbSpline
 62
7
  6
CONTINUOUS
 70
0
 71
3
 72
13
 73
9
 74
0
 42
0.0000001
 43
0.0000001
 44
0.0000000001
 40
0.0
 40
0.0
 40
0.0
 40
0.0
 40
0.2825291976
 40
0.5417840095
 40
0.66319788
 40
0.7795891303
 40
0.8915845795
 40
1.0
 40
1.0
 40
1.0
 40
1.0
 10
268.1294089641
 20
134.7131721494
 30
0.0
 10
268.1294089641
 20
132.9802561026
 30
0.0
 10
268.340046826
 20
129.6515172528
 30
0.0
 10
269.227699298
 20
125.6594401683
 30
0.0
 10
270.3072373479
 20
122.8033954617
 30
0.0
 10
271.2680727528
 20
120.8803788955
 30
0.0
 10
272.3921141417
 20
119.14206456
 30
0.0
 10
273.2584887321
 20
118.0989946039
 30
0.0
 10
273.7151374435
 20
117.6156070187
 30
0.0
  0
SPLINE
  5
285
100
AcDbEntity
  8
0
100
AcDbSpline
 62
7
  6
CONTINUOUS
 70
0
 71
3
 72
13
 73
9
 74
0
 42
0.0000001
 43
0.0000001
 44
0.0000000001
 40
0.0
 40
0.0
 40
0.0
 40
0.0
 40
0.1084154203
 40
0.2204108694
 40
0.3368021196
 40
0.4582159901
 40
0.7174708021
 40
1.0
 40
1.0
 40
1.0
 40
1.0
 10
279.2659487859
 20
114.4109170957
 30
0.0
 10
278.8093000752
 20
114.8943046802
 30
0.0
 10
277.9429254858
 20
115.9373746348
 30
0.0
 10
276.8188840979
 20
117.6756889679
 30
0.0
 10
275.8580486931
 20
119.5987055323
 30
0.0
 10
274.7785106424
 20
122.4547502382
 30
0.0
 10
273.8908581689
 20
126.4468273249
 30
0.0
 10
273.6802203065
 20
129.7755661774
 30
0.0
 10
273.6802203065
 20
131.5084822265
 30
0.0
  0
SPLINE
  5
286
100
AcDbEntity
  8
0
100
AcDbSpline
 62
7
  6
CONTINUOUS
 70
0
 71
3
 72
11
 73
7
 74
0
 42
0.0000001
 43
0.0000001
 44
0.0000000001
 40
0.0
 40
0.0
 40
0.0
 40
0.0
 40
0.266152319
 40
0.5234208522
 40
0.7688339823
 40
1.0
 40
1.0
 40
1.0
 40
1.0
 10
272.9377150571
 20
169.9484955397
 30
0.0
 10
272.167973582
 20
168.1142724891
 30
0.0
 10
270.8037508251
 20
164.4418026849
 30
0.0
 10
269.2869625746
 20
158.8911252224
 30
0.0
 10
268.3551218206
 20
153.4773166119
 30
0.0
 10
268.1294089641
 20
149.9131685224
 30
0.0
 10
268.1294089641
 20
148.1854620321
 30
0.0
  0
SPLINE
  5
287
100
AcDbEntity
  8
0
100
AcDbSpline
 62
7
  6
CONTINUOUS
 70
0
 71
3
 72
11
 73
7
 74
0
 42
0.0000001
 43
0.0000001
 44
0.0000000001
 40
0.0
 40
0.0
 40
0.0
 40
0.0
 40
0.2311660174
 40
0.4765791475
 40
0.7338476807
 40
1.0
 40
1.0
 40
1.0
 40
1.0
 10
273.6802203065
 20
144.9807721091
 30
0.0
 10
273.6802203065
 20
146.7084785976
 30
0.0
 10
273.9059331626
 20
150.2726266847
 30
0.0
 10
274.8377739156
 20
155.6864352934
 30
0.0
 10
276.3545621661
 20
161.2371127578
 30
0.0
 10
277.7187849236
 20
164.9095825643
 30
0.0
 10
278.4885263995
 20
166.7438056167
 30
0.0
  0
SPLINE
  5
288
100
AcDbEntity
  8
0
100
AcDbSpline
 62
7
  6
CONTINUOUS
 70
0
 71
3
 72
13
 73
9
 74
0
 42
0.0000001
 43
0.0000001
 44
0.0000000001
 40
0.0
 40
0.0
 40
0.0
 40
0.0
 40
0.280288976
 40
0.5392426321
 40
0.6610818356
 40
0.7781519445
 40
0.8909192827
 40
1.0
 40
1.0
 40
1.0
 40
1.0
 10
268.1294089641
 20
338.8387764318
 30
0.0
 10
268.1294089641
 20
337.2294855443
 30
0.0
 10
268.3118979728
 20
334.128976583
 30
0.0
 10
269.0734676101
 20
330.3934909801
 30
0.0
 10
269.9996082391
 20
327.6855984877
 30
0.0
 10
270.8260163101
 20
325.8398505663
 30
0.0
 10
271.7941215782
 20
324.1481635976
 30
0.0
 10
272.5422860013
 20
323.1135350241
 30
0.0
 10
272.9377150571
 20
322.6278634169
 30
0.0
  0
SPLINE
  5
289
100
AcDbEntity
  8
0
100
AcDbSpline
 62
7
  6
CONTINUOUS
 70
0
 71
3
 72
13
 73
9
 74
0
 42
0.0000001
 43
0.0000001
 44
0.0000000001
 40
0.0
 40
0.0
 40
0.0
 40
0.0
 40
0.1090807172
 40
0.2218480553
 40
0.3389181641
 40
0.4607573676
 40
0.7197110237
 40
1.0
 40
1.0
 40
1.0
 40
1.0
 10
278.4885263995
 20
319.4231734939
 30
0.0
 10
278.0930973441
 20
319.9088451006
 30
0.0
 10
277.3449329217
 20
320.943473673
 30
0.0
 10
276.3768276542
 20
322.6351606401
 30
0.0
 10
275.5504195833
 20
324.4809085602
 30
0.0
 10
274.6242789538
 20
327.1888010521
 30
0.0
 10
273.8627093155
 20
330.9242866567
 30
0.0
 10
273.6802203065
 20
334.0247956198
 30
0.0
 10
273.6802203065
 20
335.6340865089
 30
0.0
  0
SPLINE
  5
28A
100
AcDbEntity
  8
0
100
AcDbSpline
 62
7
  6
CONTINUOUS
 70
0
 71
3
 72
9
 73
5
 74
0
 42
0.0000001
 43
0.0000001
 44
0.0000000001
 40
0.0
 40
0.0
 40
0.0
 40
0.0
 40
0.2522353598
 40
1.0
 40
1.0
 40
1.0
 40
1.0
 10
279.2659487859
 20
372.6537467046
 30
0.0
 10
279.168931072
 20
370.9112147783
 30
0.0
 10
278.8191531867
 20
364.0009714108
 30
0.0
 10
278.6099846701
 20
357.0835305588
 30
0.0
 10
278.5366569306
 20
351.910224647
 30
0.0
  0
SPLINE
  5
28B
100
AcDbEntity
  8
0
100
AcDbSpline
 62
7
  6
CONTINUOUS
 70
0
 71
3
 72
11
 73
7
 74
0
 42
0.0000001
 43
0.0000001
 44
0.0000000001
 40
0.0
 40
0.0
 40
0.0
 40
0.0
 40
0.26642594
 40
0.5241546836
 40
0.7696340306
 40
1.0
 40
1.0
 40
1.0
 40
1.0
 10
273.7151374435
 20
375.8584366276
 30
0.0
 10
272.8241597146
 20
373.8864817491
 30
0.0
 10
271.2430249417
 20
369.9262837572
 30
0.0
 10
269.4805509877
 20
363.9187087945
 30
0.0
 10
268.394413304
 20
358.0495827007
 30
0.0
 10
268.1294089641
 20
354.1820856203
 30
0.0
 10
268.1294089641
 20
352.3110663145
 30
0.0
  0
SPLINE
  5
28C
100
AcDbEntity
  8
0
100
AcDbSpline
 62
7
  6
CONTINUOUS
 70
0
 71
3
 72
11
 73
7
 74
0
 42
0.0000001
 43
0.0000001
 44
0.0000000001
 40
0.0
 40
0.0
 40
0.0
 40
0.0
 40
0.2303659691
 40
0.4758453159
 40
0.7335740597
 40
1.0
 40
1.0
 40
1.0
 40
1.0
 10
273.6802203065
 20
349.1063763915
 30
0.0
 10
273.6802203065
 20
350.9773956948
 30
0.0
 10
273.9452246458
 20
354.8448927715
 30
0.0
 10
275.0313623279
 20
360.7140188627
 30
0.0
 10
276.7938362818
 20
366.7215938282
 30
0.0
 10
278.3749710558
 20
370.6817918235
 30
0.0
 10
279.2659487859
 20
372.6537467046
 30
0.0
  0
SPLINE
  5
28D
100
AcDbEntity
  8
0
100
AcDbSpline
 62
7
  6
CONTINUOUS
 70
0
 71
3
 72
9
 73
5
 74
0
 42
0.0000001
 43
0.0000001
 44
0.0000000001
 40
0.0
 40
0.0
 40
0.0
 40
0.0
 40
0.5175686452
 40
1.0
 40
1.0
 40
1.0
 40
1.0
 10
108.2337105279
 20
493.3488510131
 30
0.0
 10
105.9058331643
 20
484.6760509422
 30
0.0
 10
102.3328484409
 20
467.652271575
 30
0.0
 10
100.9686711169
 20
450.2898905254
 30
0.0
 10
100.9686711169
 20
441.9197387601
 30
0.0
  0
SPLINE
  5
28E
100
AcDbEntity
  8
0
100
AcDbSpline
 62
7
  6
CONTINUOUS
 70
0
 71
3
 72
9
 73
5
 74
0
 42
0.0000001
 43
0.0000001
 44
0.0000000001
 40
0.0
 40
0.0
 40
0.0
 40
0.0
 40
0.2602591648
 40
1.0
 40
1.0
 40
1.0
 40
1.0
 10
100.9686711169
 20
441.9197387601
 30
0.0
 10
100.9686711169
 20
439.6697604089
 30
0.0
 10
101.1528129951
 20
431.026869774
 30
0.0
 10
102.0996410848
 20
422.3904497549
 30
0.0
 10
103.3213930138
 20
416.1130709002
 30
0.0
  0
SPLINE
  5
28F
100
AcDbEntity
  8
0
100
AcDbSpline
 62
7
  6
CONTINUOUS
 70
0
 71
3
 72
9
 73
5
 74
0
 42
0.0000001
 43
0.0000001
 44
0.0000000001
 40
0.0
 40
0.0
 40
0.0
 40
0.0
 40
0.2399735252
 40
1.0
 40
1.0
 40
1.0
 40
1.0
 10
103.3213930138
 20
416.1130709002
 30
0.0
 10
103.6696213741
 20
414.3238686128
 30
0.0
 10
104.9180869067
 20
406.8290016087
 30
0.0
 10
105.3884272518
 20
399.2130278137
 30
0.0
 10
105.3884272518
 20
393.4400698519
 30
0.0
  0
SPLINE
  5
290
100
AcDbEntity
  8
0
100
AcDbSpline
 62
7
  6
CONTINUOUS
 70
0
 71
3
 72
9
 73
5
 74
0
 42
0.0000001
 43
0.0000001
 44
0.0000000001
 40
0.0
 40
0.0
 40
0.0
 40
0.0
 40
0.2425944516
 40
1.0
 40
1.0
 40
1.0
 40
1.0
 10
105.3675173346
 20
391.0162386509
 30
0.0
 10
105.3359555805
 20
389.1777302831
 30
0.0
 10
105.0600852465
 20
381.6020167828
 30
0.0
 10
104.2223913101
 20
374.0499966219
 30
0.0
 10
103.3213930138
 20
368.3802775034
 30
0.0
  0
SPLINE
  5
291
100
AcDbEntity
  8
0
100
AcDbSpline
 62
7
  6
CONTINUOUS
 70
0
 71
3
 72
9
 73
5
 74
0
 42
0.0000001
 43
0.0000001
 44
0.0000000001
 40
0.0
 40
0.0
 40
0.0
 40
0.0
 40
0.258297703
 40
1.0
 40
1.0
 40
1.0
 40
1.0
 10
103.3213930138
 20
368.3802775034
 30
0.0
 10
102.9344340738
 20
365.9452579156
 30
0.0
 10
101.6053360306
 20
356.4927830303
 30
0.0
 10
100.9686711169
 20
346.936838021
 30
0.0
 10
100.9686711169
 20
339.8569366189
 30
0.0
  0
SPLINE
  5
292
100
AcDbEntity
  8
0
100
AcDbSpline
 62
7
  6
CONTINUOUS
 70
0
 71
3
 72
9
 73
5
 74
0
 42
0.0000001
 43
0.0000001
 44
0.0000000001
 40
0.0
 40
0.0
 40
0.0
 40
0.0
 40
0.2602591648
 40
1.0
 40
1.0
 40
1.0
 40
1.0
 10
100.9686711169
 20
339.8569366189
 30
0.0
 10
100.9686711169
 20
337.6069582677
 30
0.0
 10
101.1528129951
 20
328.9640676328
 30
0.0
 10
102.0996410848
 20
320.3276476137
 30
0.0
 10
103.3213930138
 20
314.050268759
 30
0.0
  0
SPLINE
  5
293
100
AcDbEntity
  8
0
100
AcDbSpline
 62
7
  6
CONTINUOUS
 70
0
 71
3
 72
9
 73
5
 74
0
 42
0.0000001
 43
0.0000001
 44
0.0000000001
 40
0.0
 40
0.0
 40
0.0
 40
0.0
 40
0.2399735252
 40
1.0
 40
1.0
 40
1.0
 40
1.0
 10
103.3213930138
 20
314.050268759
 30
0.0
 10
103.6696213741
 20
312.2610664716
 30
0.0
 10
104.9180869067
 20
304.7661994675
 30
0.0
 10
105.3884272518
 20
297.1502256725
 30
0.0
 10
105.3884272518
 20
291.3772677107
 30
0.0
  0
SPLINE
  5
294
100
AcDbEntity
  8
0
100
AcDbSpline
 62
7
  6
CONTINUOUS
 70
0
 71
3
 72
9
 73
5
 74
0
 42
0.0000001
 43
0.0000001
 44
0.0000000001
 40
0.0
 40
0.0
 40
0.0
 40
0.0
 40
0.243017122
 40
1.0
 40
1.0
 40
1.0
 40
1.0
 10
105.3439145179
 20
287.8326846103
 30
0.0
 10
105.3002591734
 20
286.0819569457
 30
0.0
 10
104.9904118708
 20
278.8813453503
 30
0.0
 10
104.177542319
 20
271.7049728788
 30
0.0
 10
103.3213930138
 20
266.3174753622
 30
0.0
  0
SPLINE
  5
295
100
AcDbEntity
  8
0
100
AcDbSpline
 62
7
  6
CONTINUOUS
 70
0
 71
3
 72
9
 73
5
 74
0
 42
0.0000001
 43
0.0000001
 44
0.0000000001
 40
0.0
 40
0.0
 40
0.0
 40
0.0
 40
0.258297703
 40
1.0
 40
1.0
 40
1.0
 40
1.0
 10
103.3213930138
 20
266.3174753622
 30
0.0
 10
102.9344340738
 20
263.8824557744
 30
0.0
 10
101.6053360306
 20
254.4299808891
 30
0.0
 10
100.9686711169
 20
244.8740358798
 30
0.0
 10
100.9686711169
 20
237.7941344777
 30
0.0
  0
SPLINE
  5
296
100
AcDbEntity
  8
0
100
AcDbSpline
 62
7
  6
CONTINUOUS
 70
0
 71
3
 72
9
 73
5
 74
0
 42
0.0000001
 43
0.0000001
 44
0.0000000001
 40
0.0
 40
0.0
 40
0.0
 40
0.0
 40
0.5247714228
 40
1.0
 40
1.0
 40
1.0
 40
1.0
 10
100.9686711169
 20
237.7941344777
 30
0.0
 10
100.9686711169
 20
230.1264237174
 30
0.0
 10
102.0169092894
 20
215.483314577
 30
0.0
 10
105.7165289574
 20
201.2254202209
 30
0.0
 10
108.2337105279
 20
194.7539170689
 30
0.0
  0
SPLINE
  5
297
100
AcDbEntity
  8
0
100
AcDbSpline
 62
7
  6
CONTINUOUS
 70
0
 71
3
 72
9
 73
5
 74
0
 42
0.0000001
 43
0.0000001
 44
0.0000000001
 40
0.0
 40
0.0
 40
0.0
 40
0.0
 40
0.2416518416
 40
1.0
 40
1.0
 40
1.0
 40
1.0
 10
267.9879881966
 20
243.4304704012
 30
0.0
 10
267.9879881966
 20
245.7372116773
 30
0.0
 10
268.1966180145
 20
255.2824858106
 30
0.0
 10
269.2045901879
 20
264.8045405535
 30
0.0
 10
270.3407100935
 20
271.9538112857
 30
0.0
  0
SPLINE
  5
298
100
AcDbEntity
  8
0
100
AcDbSpline
 62
7
  6
CONTINUOUS
 70
0
 71
3
 72
9
 73
5
 74
0
 42
0.0000001
 43
0.0000001
 44
0.0000000001
 40
0.0
 40
0.0
 40
0.0
 40
0.0
 40
0.2573611894
 40
1.0
 40
1.0
 40
1.0
 40
1.0
 10
270.3407100935
 20
271.9538112857
 30
0.0
 10
270.646857522
 20
273.8803076346
 30
0.0
 10
271.7155975762
 20
281.3841431571
 30
0.0
 10
272.2902182072
 20
288.9617675933
 30
0.0
 10
272.3868344143
 20
294.5897724332
 30
0.0
  0
SPLINE
  5
299
100
AcDbEntity
  8
0
100
AcDbSpline
 62
7
  6
CONTINUOUS
 70
0
 71
3
 72
9
 73
5
 74
0
 42
0.0000001
 43
0.0000001
 44
0.0000000001
 40
0.0
 40
0.0
 40
0.0
 40
0.0
 40
0.2602591648
 40
1.0
 40
1.0
 40
1.0
 40
1.0
 10
272.4077443315
 20
297.0136036342
 30
0.0
 10
272.4077443315
 20
298.9903703287
 30
0.0
 10
272.2459625384
 20
306.5837671018
 30
0.0
 10
271.4141064307
 20
314.1714789767
 30
0.0
 10
270.340710093
 20
319.6866046855
 30
0.0
  0
SPLINE
  5
29A
100
AcDbEntity
  8
0
100
AcDbSpline
 62
7
  6
CONTINUOUS
 70
0
 71
3
 72
9
 73
5
 74
0
 42
0.0000001
 43
0.0000001
 44
0.0000000001
 40
0.0
 40
0.0
 40
0.0
 40
0.0
 40
0.2440534383
 40
1.0
 40
1.0
 40
1.0
 40
1.0
 10
270.340710093
 20
319.6866046855
 30
0.0
 10
270.1141608542
 20
320.850617909
 30
0.0
 10
269.2599650125
 20
325.6343829513
 30
0.0
 10
268.6954301431
 20
330.4686943693
 30
0.0
 10
268.4141227799
 20
334.1310479164
 30
0.0
  0
SPLINE
  5
29B
100
AcDbEntity
  8
0
100
AcDbSpline
 62
7
  6
CONTINUOUS
 70
0
 71
3
 72
9
 73
5
 74
0
 42
0.0000001
 43
0.0000001
 44
0.0000000001
 40
0.0
 40
0.0
 40
0.0
 40
0.0
 40
0.2409870844
 40
1.0
 40
1.0
 40
1.0
 40
1.0
 10
268.5221551727
 20
358.7944115338
 30
0.0
 10
268.7662504143
 20
361.8974711641
 30
0.0
 10
270.1104431352
 20
374.747066767
 30
0.0
 10
272.7115904078
 20
387.4539406791
 30
0.0
 10
275.2530276076
 20
396.9223847954
 30
0.0
  0
SPLINE
  5
29C
100
AcDbEntity
  8
0
100
AcDbSpline
 62
7
  6
CONTINUOUS
 70
0
 71
3
 72
9
 73
5
 74
0
 42
0.0000001
 43
0.0000001
 44
0.0000000001
 40
0.0
 40
0.0
 40
0.0
 40
0.0
 40
0.2477183662
 40
1.0
 40
1.0
 40
1.0
 40
1.0
 10
273.6735624237
 20
335.8343682057
 30
0.0
 10
273.6510365386
 20
336.366973161
 30
0.0
 10
273.5717810367
 20
338.5174966892
 30
0.0
 10
273.538799539
 20
340.6696993553
 30
0.0
 10
273.538799539
 20
342.2885826194
 30
0.0
  0
SPLINE
  5
29D
100
AcDbEntity
  8
0
100
AcDbSpline
 62
7
  6
CONTINUOUS
 70
0
 71
3
 72
9
 73
5
 74
0
 42
0.0000001
 43
0.0000001
 44
0.0000000001
 40
0.0
 40
0.0
 40
0.0
 40
0.0
 40
0.2477183662
 40
1.0
 40
1.0
 40
1.0
 40
1.0
 10
273.6735624237
 20
131.7087639233
 30
0.0
 10
273.6510365386
 20
132.2413688786
 30
0.0
 10
273.5717810367
 20
134.3918924068
 30
0.0
 10
273.538799539
 20
136.5440950729
 30
0.0
 10
273.538799539
 20
138.162978337
 30
0.0
  0
SPLINE
  5
29E
100
AcDbEntity
  8
0
100
AcDbSpline
 62
7
  6
CONTINUOUS
 70
0
 71
3
 72
9
 73
5
 74
0
 42
0.0000001
 43
0.0000001
 44
0.0000000001
 40
0.0
 40
0.0
 40
0.0
 40
0.0
 40
0.2366393284
 40
1.0
 40
1.0
 40
1.0
 40
1.0
 10
275.2530276076
 20
98.3274508512
 30
0.0
 10
274.3621931403
 20
100.6177258678
 30
0.0
 10
271.002805244
 20
110.4531344317
 30
0.0
 10
269.2054819271
 20
120.7855715302
 30
0.0
 10
268.5221549415
 20
128.683331154
 30
0.0
  0
SPLINE
  5
29F
100
AcDbEntity
  8
0
100
AcDbSpline
 62
7
  6
CONTINUOUS
 70
0
 71
3
 72
9
 73
5
 74
0
 42
0.0000001
 43
0.0000001
 44
0.0000000001
 40
0.0
 40
0.0
 40
0.0
 40
0.0
 40
0.2454677255
 40
1.0
 40
1.0
 40
1.0
 40
1.0
 10
268.4141231921
 20
153.2219536245
 30
0.0
 10
268.5107686292
 20
154.591780264
 30
0.0
 10
268.9687609865
 20
160.1676048604
 30
0.0
 10
269.6782282117
 20
165.7222041576
 30
0.0
 10
270.340710093
 20
169.891009141
 30
0.0
  0
SPLINE
  5
2A0
100
AcDbEntity
  8
0
100
AcDbSpline
 62
7
  6
CONTINUOUS
 70
0
 71
3
 72
9
 73
5
 74
0
 42
0.0000001
 43
0.0000001
 44
0.0000000001
 40
0.0
 40
0.0
 40
0.0
 40
0.0
 40
0.2569394246
 40
1.0
 40
1.0
 40
1.0
 40
1.0
 10
270.340710093
 20
169.891009141
 30
0.0
 10
270.631304676
 20
171.7196359759
 30
0.0
 10
271.6532591286
 20
178.8531401048
 30
0.0
 10
272.229751019
 20
186.0531935922
 30
0.0
 10
272.3632315977
 20
191.4062183926
 30
0.0
  0
SPLINE
  5
2A1
100
AcDbEntity
  8
0
100
AcDbSpline
 62
7
  6
CONTINUOUS
 70
0
 71
3
 72
9
 73
5
 74
0
 42
0.0000001
 43
0.0000001
 44
0.0000000001
 40
0.0
 40
0.0
 40
0.0
 40
0.0
 40
0.2602591648
 40
1.0
 40
1.0
 40
1.0
 40
1.0
 10
272.4077443315
 20
194.950801493
 30
0.0
 10
272.4077443315
 20
196.9275681873
 30
0.0
 10
272.2459625385
 20
204.5209649594
 30
0.0
 10
271.4141064311
 20
212.1086768332
 30
0.0
 10
270.3407100935
 20
217.6238025413
 30
0.0
  0
SPLINE
  5
2A2
100
AcDbEntity
  8
0
100
AcDbSpline
 62
7
  6
CONTINUOUS
 70
0
 71
3
 72
9
 73
5
 74
0
 42
0.0000001
 43
0.0000001
 44
0.0000000001
 40
0.0
 40
0.0
 40
0.0
 40
0.0
 40
0.2399735252
 40
1.0
 40
1.0
 40
1.0
 40
1.0
 10
270.3407100935
 20
217.6238025413
 30
0.0
 10
269.9443526102
 20
219.6602929498
 30
0.0
 10
268.5233349308
 20
228.1910358813
 30
0.0
 10
267.9879881966
 20
236.8596239406
 30
0.0
 10
267.9879881966
 20
243.4304704012
 30
0.0
  0
SPLINE
  5
2A3
100
AcDbEntity
  8
0
100
AcDbSpline
 62
7
  6
CONTINUOUS
 70
0
 71
3
 72
9
 73
5
 74
0
 42
0.0000001
 43
0.0000001
 44
0.0000000001
 40
0.0
 40
0.0
 40
0.0
 40
0.0
 40
0.5151664593
 40
1.0
 40
1.0
 40
1.0
 40
1.0
 10
83.0787538551
 20
253.8380199258
 30
0.0
 10
83.0787538551
 20
239.1764125962
 30
0.0
 10
84.4010990384
 20
210.6948379943
 30
0.0
 10
88.7744076801
 20
182.499468423
 30
0.0
 10
91.740821165
 20
169.0237710825
 30
0.0
  0
SPLINE
  5
2A4
100
AcDbEntity
  8
0
100
AcDbSpline
 62
7
  6
CONTINUOUS
 70
0
 71
3
 72
9
 73
5
 74
0
 42
0.0000001
 43
0.0000001
 44
0.0000000001
 40
0.0
 40
0.0
 40
0.0
 40
0.0
 40
0.5121730653
 40
1.0
 40
1.0
 40
1.0
 40
1.0
 10
91.740821165
 20
552.7799071334
 30
0.0
 10
88.9281353651
 20
536.7547669783
 30
0.0
 10
84.6400062241
 20
505.2394428776
 30
0.0
 10
83.0787538551
 20
473.4603303245
 30
0.0
 10
83.0787538551
 20
457.9636242082
 30
0.0
  0
SPLINE
  5
2A5
100
AcDbEntity
  8
0
100
AcDbSpline
 62
7
  6
CONTINUOUS
 70
0
 71
3
 72
9
 73
5
 74
0
 42
0.0000001
 43
0.0000001
 44
0.0000000001
 40
0.0
 40
0.0
 40
0.0
 40
0.0
 40
0.2524776975
 40
1.0
 40
1.0
 40
1.0
 40
1.0
 10
273.9667970861
 20
117.4026944235
 30
0.0
 10
274.0619445038
 20
115.808059966
 30
0.0
 10
274.4743832858
 20
109.4943044472
 30
0.0
 10
275.0304654015
 20
103.1898306651
 30
0.0
 10
275.5309712833
 20
98.4866831618
 30
0.0
  0
SPLINE
  5
2A6
100
AcDbEntity
  8
0
100
AcDbSpline
 62
7
  6
CONTINUOUS
 70
0
 71
3
 72
9
 73
5
 74
0
 42
0.0000001
 43
0.0000001
 44
0.0000000001
 40
0.0
 40
0.0
 40
0.0
 40
0.0
 40
0.2521066459
 40
1.0
 40
1.0
 40
1.0
 40
1.0
 10
275.5885021744
 20
397.116074909
 30
0.0
 10
275.417170456
 20
395.3290622603
 30
0.0
 10
274.7719480717
 20
388.2374971923
 30
0.0
 10
274.2653054351
 20
381.1332509456
 30
0.0
 10
273.9682227851
 20
375.8159263151
 30
0.0
  0
SPLINE
  5
2A7
100
AcDbEntity
  8
0
100
AcDbSpline
 62
7
  6
CONTINUOUS
 70
0
 71
3
 72
9
 73
5
 74
0
 42
0.0000001
 43
0.0000001
 44
0.0000000001
 40
0.0
 40
0.0
 40
0.0
 40
0.0
 40
0.4878269347
 40
1.0
 40
1.0
 40
1.0
 40
1.0
 10
295.2116713992
 20
335.4913978521
 30
0.0
 10
295.2116713992
 20
350.9881039684
 30
0.0
 10
296.7729237682
 20
382.7672165215
 30
0.0
 10
301.0610529092
 20
414.2825406223
 30
0.0
 10
303.873738709
 20
430.3076807774
 30
0.0
  0
SPLINE
  5
2A8
100
AcDbEntity
  8
0
100
AcDbSpline
 62
7
  6
CONTINUOUS
 70
0
 71
3
 72
9
 73
5
 74
0
 42
0.0000001
 43
0.0000001
 44
0.0000000001
 40
0.0
 40
0.0
 40
0.0
 40
0.0
 40
0.4848335407
 40
1.0
 40
1.0
 40
1.0
 40
1.0
 10
303.873738709
 20
46.5515447265
 30
0.0
 10
300.9073252242
 20
60.0272420669
 30
0.0
 10
296.5340165825
 20
88.2226116382
 30
0.0
 10
295.2116713992
 20
116.7041862401
 30
0.0
 10
295.2116713992
 20
131.3657935697
 30
0.0
  0
ENDSEC
  0
SECTION
  2
OBJECTS
  0
DICTIONARY
  5
C
100
AcDbDictionary
280
0
281
1
  3
ACAD_GROUP
350
D
  3
ACAD_MLINESTYLE
350
17
  3
ACAD_LAYOUT
350
1A
  3
ACAD_PLOTSETTINGS
350
19
  3
ACAD_PLOTSTYLENAME
350
E
  0
DICTIONARY
  5
D
102
{ACAD_REACTORS
330
C
102
}
100
AcDbDictionary
280
0
281
1
  0
ACDBDICTIONARYWDFLT
  5
E
102
{ACAD_REACTORS
330
C
102
}
100
AcDbDictionary
281
1
  3
Normal
350
F
100
AcDbDictionaryWithDefault
340
F
  0
DICTIONARY
  5
17
102
{ACAD_REACTORS
330
C
102
}
100
AcDbDictionary
280
0
281
1
  3
Standard
350
18
  0
DICTIONARY
  5
19
102
{ACAD_REACTORS
330
C
102
}
100
AcDbDictionary
281
1
  0
DICTIONARY
  5
1A
102
{ACAD_REACTORS
330
C
102
}
100
AcDbDictionary
281
1
  3
Model
350
2A9
  3
Layout1
350
2AA
  0
ACDBPLACEHOLDER
  5
F
102
{ACAD_REACTORS
330
E
102
}
  0
MLINESTYLE
  5
18
102
{ACAD_REACTORS
330
17
102
}
100
AcDbMlineStyle
  2
STANDARD
 70
0
  3

 62
256
 51
90.0
 52
90.0
 71
2
 49
0.5
 62
256
  6
BYLAYER
 49
-0.5
 62
256
  6
BYLAYER
  0
LAYOUT
  5
2A9
102
{ACAD_REACTORS
330
1A
102
}
100
AcDbPlotSettings
  1

  2
none_device
  4

  6

 40
0.0
 41
0.0
 42
0.0
 43
0.0
 44
210.0
 45
297.0
 46
0.0
 47
0.0
 48
0.0
 49
0.0
140
0.0
141
0.0
142
1.0
143
1.0
 70
1024
 72
1
 73
0
 74
0
  7

 75
0
147
1.0
148
0.0
149
0.0
100
AcDbLayout
  1
Model
 70
0
 71
0
 10
0.0
 20
0.0
 11
210.0
 21
297.0
 12
0.0
 22
0.0
 32
0.0
 14
0.0
 24
0.0
 34
0.0
 15
0.0
 25
0.0
 35
0.0
146
0.0
 13
0.0
 23
0.0
 33
0.0
 16
1.0
 26
0.0
 36
0.0
 17
0.0
 27
1.0
 37
0.0
 76
0
330
210
345
0
346
0
  0
LAYOUT
  5
2AA
102
{ACAD_REACTORS
330
1A
102
}
100
AcDbPlotSettings
  1

  2
none_device
  4

  6

 40
0.0
 41
0.0
 42
0.0
 43
0.0
 44
210.0
 45
297.0
 46
0.0
 47
0.0
 48
0.0
 49
0.0
140
0.0
141
0.0
142
1.0
143
1.0
 70
0
 72
1
 73
0
 74
0
  7

 75
0
147
1.0
148
0.0
149
0.0
100
AcDbLayout
  1
Layout1
 70
0
 71
1
 10
0.0
 20
0.0
 11
210.0
 21
297.0
 12
0.0
 22
0.0
 32
0.0
 14
0.0
 24
0.0
 34
0.0
 15
0.0
 25
0.0
 35
0.0
146
0.0
 13
0.0
 23
0.0
 33
0.0
 16
1.0
 26
0.0
 36
0.0
 17
0.0
 27
1.0
 37
0.0
 76
0
330
211
345
0
346
0
  0
ENDSEC
  0
EOF
