999
DXF file: C:\Users\sesa63760\Dev\_Creo\CAD\MCADFD0002572_3D-CAD\drw0001_1.dxf
999
Pro/ENGINEER 2019471 by Parametric Technology Corporation
  0
SECTION
  2
HEADER
  9
$ACADVER
  1
AC1024
  9
$DWGCODEPAGE
  3
ANSI_1252
  9
$EXTMAX
 10
202.388238203
 20
286.23479403
 30
0.0
  9
$EXTMIN
 10
0.0
 20
0.0
 30
0.0
  9
$LIMMIN
 10
0.0
 20
0.0
  9
$LIMMAX
 10
202.388238203
 20
286.23479403
  9
$VIEWCTR
 10
101.1941191015
 20
143.117397015
  9
$VIEWSIZE
 40
286.23479403
  9
$CLAYER
  8
0
  9
$LTSCALE
 40
18.6582680553
  9
$CELTYPE
  6
BYLAYER
  9
$DIMSCALE
 40
1.0
  9
$DIMASZ
 40
2.4093837881
  9
$DIMEXO
 40
1.0
  9
$DIMDLI
 40
12.89116702
  9
$DIMEXE
 40
1.0
  9
$DIMCEN
 40
3.0531711363
  9
$DIMLFAC
 40
1.0
  9
$DIMBLK
  1
_FILLED
  9
$DIMALT
 70
0
  9
$DIMALTF
 40
0.0393700787
  9
$DIMTXT
 40
3.3731373034
  9
$DIMTOL
 70
1
  9
$DIMLIM
 70
0
  9
$DIMTFAC
 40
1.0
  9
$DIMTP
 40
0.01
  9
$DIMTM
 40
0.01
  9
$DIMGAP
 40
0.625
  9
$DIMDSEP
 70
46
  9
$AUNITS
 70
0
  9
$PDMODE
 70
3
  9
$PDSIZE
 40
0.3125
  9
$HANDSEED
  5
4C2
  9
$TILEMODE
 70
1
  9
$MEASUREMENT
 70
1
  9
$INSUNITS
 70
4
  0
ENDSEC
  0
SECTION
  2
CLASSES
  0
CLASS
  1
ACDBDICTIONARYWDFLT
  2
AcDbDictionaryWithDefault
  3
AutoCAD 2000
 90
0
 91
1
280
0
281
0
  0
CLASS
  1
ACDBPLACEHOLDER
  2
AcDbPlaceHolder
  3
AutoCAD 2000
 90
0
 91
1
280
0
281
0
  0
CLASS
  1
LAYOUT
  2
AcDbLayout
  3
AutoCAD 2000
 90
0
 91
0
280
0
281
0
  0
ENDSEC
  0
SECTION
  2
TABLES
  0
TABLE
  2
VPORT
  5
8
100
AcDbSymbolTable
 70
2
  0
VPORT
  5
1F4
100
AcDbSymbolTableRecord
100
AcDbViewportTableRecord
  2
*ACTIVE
 70
0
 10
0.0
 20
0.0
 11
1.0
 21
1.0
 12
101.1941191015
 22
143.117397015
 13
0.0
 23
0.0
 14
1.0
 24
1.0
 15
0.0
 25
0.0
 16
0.0
 26
0.0
 36
1.0
 17
0.0
 27
0.0
 37
0.0
 40
286.23479403
 41
0.7070707071
 42
50.0
 43
0.0
 44
0.0
 50
0.0
 51
0.0
 71
0
 72
100
 73
1
 74
1
 75
0
 76
0
 77
0
 78
0
  0
ENDTAB
  0
TABLE
  2
LTYPE
  5
5
100
AcDbSymbolTable
 70
6
  0
LTYPE
  5
14
100
AcDbSymbolTableRecord
100
AcDbLinetypeTableRecord
  2
BYBLOCK
 70
0
  3

 72
65
 73
0
 40
0.0
  0
LTYPE
  5
15
100
AcDbSymbolTableRecord
100
AcDbLinetypeTableRecord
  2
BYLAYER
 70
0
  3

 72
65
 73
0
 40
0.0
  0
LTYPE
  5
16
100
AcDbSymbolTableRecord
100
AcDbLinetypeTableRecord
  2
CONTINUOUS
 70
64
  3
Solid line
 72
65
 73
0
 40
0.0
  0
LTYPE
  5
1F5
100
AcDbSymbolTableRecord
100
AcDbLinetypeTableRecord
  2
CENTER
 70
64
  3
____ _ ____ _ ____ _ ____ _ ____ _ ____ _ ____
 72
65
 73
4
 40
0.6
 49
0.375
 74
0
 49
-0.075
 74
0
 49
0.075
 74
0
 49
-0.075
 74
0
  0
LTYPE
  5
1F6
100
AcDbSymbolTableRecord
100
AcDbLinetypeTableRecord
  2
HIDDEN
 70
64
  3
- - - - - - - - - - - - - - - - - - - -
 72
65
 73
2
 40
0.2
 49
0.1
 74
0
 49
-0.1
 74
0
  0
LTYPE
  5
1F7
100
AcDbSymbolTableRecord
100
AcDbLinetypeTableRecord
  2
PHANTOM
 70
64
  3
_____ _ _ _____ _ _ _____ _ _ _____
 72
65
 73
6
 40
0.8
 49
0.45
 74
0
 49
-0.05
 74
0
 49
0.1
 74
0
 49
-0.05
 74
0
 49
0.1
 74
0
 49
-0.05
 74
0
  0
LTYPE
  5
1F8
100
AcDbSymbolTableRecord
100
AcDbLinetypeTableRecord
  2
DOT
 70
64
  3
. . . . . . . . . . . . . . . . . . . .
 72
65
 73
2
 40
0.2
 49
0.1
 74
0
 49
-0.1
 74
0
  0
LTYPE
  5
1F9
100
AcDbSymbolTableRecord
100
AcDbLinetypeTableRecord
  2
DASHED
 70
64
  3
- - - - - - - - - - - - - - - - - - - -
 72
65
 73
2
 40
0.2
 49
0.1
 74
0
 49
-0.1
 74
0
  0
ENDTAB
  0
TABLE
  2
LAYER
  5
2
100
AcDbSymbolTable
 70
36
  0
LAYER
  5
10
100
AcDbSymbolTableRecord
100
AcDbLayerTableRecord
  2
0
 70
0
 62
7
  6
CONTINUOUS
370
-3
390
F
  0
LAYER
  5
1FA
100
AcDbSymbolTableRecord
100
AcDbLayerTableRecord
  2
DEFAULT_1
 70
0
 62
7
  6
CENTER
370
-3
390
F
  0
LAYER
  5
1FB
100
AcDbSymbolTableRecord
100
AcDbLayerTableRecord
  2
DEFAULT_2
 70
0
 62
8
  6
HIDDEN
370
-3
390
F
  0
LAYER
  5
1FC
100
AcDbSymbolTableRecord
100
AcDbLayerTableRecord
  2
DEFAULT_3
 70
0
 62
7
  6
PHANTOM
370
-3
390
F
  0
LAYER
  5
1FD
100
AcDbSymbolTableRecord
100
AcDbLayerTableRecord
  2
00_COMPONENTS
 70
0
 62
7
  6
CONTINUOUS
370
-3
390
F
  0
LAYER
  5
1FE
100
AcDbSymbolTableRecord
100
AcDbLayerTableRecord
  2
01_1_DEFAULT_DATUMS
 70
0
 62
7
  6
CONTINUOUS
370
-3
390
F
  0
LAYER
  5
1FF
100
AcDbSymbolTableRecord
100
AcDbLayerTableRecord
  2
01_PLANES
 70
0
 62
7
  6
CONTINUOUS
370
-3
390
F
  0
LAYER
  5
200
100
AcDbSymbolTableRecord
100
AcDbLayerTableRecord
  2
02_COORD_SYS
 70
0
 62
7
  6
CONTINUOUS
370
-3
390
F
  0
LAYER
  5
201
100
AcDbSymbolTableRecord
100
AcDbLayerTableRecord
  2
03_AXES
 70
0
 62
7
  6
CONTINUOUS
370
-3
390
F
  0
LAYER
  5
202
100
AcDbSymbolTableRecord
100
AcDbLayerTableRecord
  2
04_POINTS
 70
0
 62
7
  6
CONTINUOUS
370
-3
390
F
  0
LAYER
  5
203
100
AcDbSymbolTableRecord
100
AcDbLayerTableRecord
  2
05_CURVES
 70
0
 62
7
  6
CONTINUOUS
370
-3
390
F
  0
LAYER
  5
204
100
AcDbSymbolTableRecord
100
AcDbLayerTableRecord
  2
06_SURFS
 70
0
 62
7
  6
CONTINUOUS
370
-3
390
F
  0
LAYER
  5
205
100
AcDbSymbolTableRecord
100
AcDbLayerTableRecord
  2
07_COSMETICS
 70
0
 62
7
  6
CONTINUOUS
370
-3
390
F
  0
LAYER
  5
206
100
AcDbSymbolTableRecord
100
AcDbLayerTableRecord
  2
10_NOTES
 70
0
 62
7
  6
CONTINUOUS
370
-3
390
F
  0
LAYER
  5
207
100
AcDbSymbolTableRecord
100
AcDbLayerTableRecord
  2
11_NOTES_PUB
 70
0
 62
7
  6
CONTINUOUS
370
-3
390
F
  0
LAYER
  5
208
100
AcDbSymbolTableRecord
100
AcDbLayerTableRecord
  2
13_REF_GTOL
 70
0
 62
7
  6
CONTINUOUS
370
-3
390
F
  0
LAYER
  5
209
100
AcDbSymbolTableRecord
100
AcDbLayerTableRecord
  2
16_MISC
 70
0
 62
7
  6
CONTINUOUS
370
-3
390
F
  0
LAYER
  5
20A
100
AcDbSymbolTableRecord
100
AcDbLayerTableRecord
  2
17_NO_PRINT
 70
0
 62
7
  6
CONTINUOUS
370
-3
390
F
  0
LAYER
  5
20B
100
AcDbSymbolTableRecord
100
AcDbLayerTableRecord
  2
18_DATUM_CAMS_JOINTS
 70
0
 62
7
  6
CONTINUOUS
370
-3
390
F
  0
LAYER
  5
20C
100
AcDbSymbolTableRecord
100
AcDbLayerTableRecord
  2
19_DATUM_FUNCTIONAL
 70
0
 62
7
  6
CONTINUOUS
370
-3
390
F
  0
LAYER
  5
20D
100
AcDbSymbolTableRecord
100
AcDbLayerTableRecord
  2
20_DATUM_KINEMATIC_SCHEME
 70
0
 62
7
  6
CONTINUOUS
370
-3
390
F
  0
ENDTAB
  0
TABLE
  2
STYLE
  5
3
100
AcDbSymbolTable
 70
1
  0
STYLE
  5
11
100
AcDbSymbolTableRecord
100
AcDbTextStyleTableRecord
  2
STANDARD
 70
0
 40
0.0
 41
0.8
 50
0.0
 71
0
 42
0.2
  3
txt
  4

  0
STYLE
  5
20E
100
AcDbSymbolTableRecord
100
AcDbTextStyleTableRecord
  2
TEXTSTYLE_1
 70
0
 40
0.0
 41
0.8
 50
0.0
 71
0
 42
0.2
  3
gdt
  4

  0
ENDTAB
  0
TABLE
  2
VIEW
  5
6
100
AcDbSymbolTable
 70
0
  0
ENDTAB
  0
TABLE
  2
UCS
  5
7
100
AcDbSymbolTable
 70
0
  0
ENDTAB
  0
TABLE
  2
APPID
  5
9
100
AcDbSymbolTable
 70
1
  0
APPID
  5
20F
100
AcDbSymbolTableRecord
100
AcDbRegAppTableRecord
  2
ACAD
 70
0
  0
ENDTAB
  0
TABLE
  2
BLOCK_RECORD
  5
1
100
AcDbSymbolTable
 70
0
  0
BLOCK_RECORD
  5
210
100
AcDbSymbolTableRecord
100
AcDbBlockTableRecord
  2
*Model_Space
  0
BLOCK_RECORD
  5
211
100
AcDbSymbolTableRecord
100
AcDbBlockTableRecord
  2
*Paper_Space
  0
BLOCK_RECORD
  5
212
100
AcDbSymbolTableRecord
100
AcDbBlockTableRecord
  2
_FILLED
  0
ENDTAB
  0
TABLE
  2
DIMSTYLE
  5
A
100
AcDbSymbolTable
 70
1
100
AcDbDimStyleTable
 71
0
  0
DIMSTYLE
105
213
100
AcDbSymbolTableRecord
100
AcDbDimStyleTableRecord
  2
STANDARD
 70
0
  3

  4

 40
1.0
 41
2.4093837881
 42
1.0
 43
0.38
 44
1.0
 45
0.0
 46
0.0
 47
0.01
 48
0.01
140
3.3731373034
141
0.09
142
0.0
143
25.4
144
1.0
145
0.0
146
1.0
147
0.625
 71
1
 72
0
 73
0
 74
0
 75
0
 76
0
 77
1
 78
8
 79
2
170
0
171
1
172
0
173
0
174
0
175
0
176
0
177
0
178
0
270
2
179
2
271
2
272
2
273
2
274
2
275
0
280
0
281
0
282
0
283
1
284
8
285
0
286
0
287
3
288
0
340
11
278
46
341
212
342
212
343
212
344
212
  0
ENDTAB
  0
ENDSEC
  0
SECTION
  2
BLOCKS
  0
BLOCK
  5
20
100
AcDbEntity
  8
0
100
AcDbBlockBegin
  2
*Model_Space
 70
0
 10
0.0
 20
0.0
 30
0.0
  3
*Model_Space
  1

  0
ENDBLK
  5
21
100
AcDbEntity
  8
0
100
AcDbBlockEnd
  0
BLOCK
  5
1C
100
AcDbEntity
  8
0
100
AcDbBlockBegin
  2
*Paper_Space
 70
0
 10
0.0
 20
0.0
 30
0.0
  3
*Paper_Space
  1

  0
ENDBLK
  5
1D
100
AcDbEntity
  8
0
100
AcDbBlockEnd
  0
BLOCK
  5
214
100
AcDbEntity
  8
0
100
AcDbBlockBegin
  2
_FILLED
 70
64
 10
0.0
 20
0.0
  3
_FILLED
  1

  0
SOLID
  5
215
100
AcDbEntity
  8
0
  6
BYBLOCK
 62
0
100
AcDbTrace
 10
0.0
 20
0.0
 11
-1.0
 21
0.25
 12
-1.0
 22
-0.25
 13
-1.0
 23
-0.25
  0
ENDBLK
  5
216
100
AcDbEntity
  8
0
  6
BYBLOCK
 62
0
100
AcDbBlockEnd
  0
ENDSEC
  0
SECTION
  2
ENTITIES
  0
LINE
  5
217
100
AcDbEntity
  8
0
100
AcDbLine
 62
7
  6
CONTINUOUS
 10
97.2865848435
 20
262.4055279064
 11
99.4078963551
 21
263.630260368
  0
LINE
  5
218
100
AcDbEntity
  8
0
100
AcDbLine
 62
7
  6
CONTINUOUS
 10
38.9252283628
 20
220.7696035204
 11
41.7639240619
 21
223.6082859316
  0
LINE
  5
219
100
AcDbEntity
  8
0
100
AcDbLine
 62
7
  6
CONTINUOUS
 10
38.9252283628
 20
220.7614384962
 11
36.5810060069
 21
218.4172271136
  0
LINE
  5
21A
100
AcDbEntity
  8
0
100
AcDbLine
 62
7
  6
CONTINUOUS
 10
36.5810060069
 20
214.4980155113
 11
41.763924062
 21
219.6809093053
  0
LINE
  5
21B
100
AcDbEntity
  8
0
100
AcDbLine
 62
7
  6
CONTINUOUS
 10
40.4109702088
 20
223.3667905194
 11
30.989516807
 21
217.9273443308
  0
LINE
  5
21C
100
AcDbEntity
  8
0
100
AcDbLine
 62
7
  6
CONTINUOUS
 10
39.6831808229
 20
221.9906650938
 11
35.3052073112
 21
219.4630559961
  0
LINE
  5
21D
100
AcDbEntity
  8
0
100
AcDbLine
 62
7
  6
CONTINUOUS
 10
40.4109702088
 20
222.2338605102
 11
30.9893005744
 21
216.7942894805
  0
LINE
  5
21E
100
AcDbEntity
  8
0
100
AcDbLine
 62
7
  6
CONTINUOUS
 10
40.4510178083
 20
222.1334076029
 11
31.0284316741
 21
216.6933074349
  0
LINE
  5
21F
100
AcDbEntity
  8
0
100
AcDbLine
 62
7
  6
CONTINUOUS
 10
40.7655489357
 20
227.0812906294
 11
38.2346695385
 21
226.0581502035
  0
LINE
  5
220
100
AcDbEntity
  8
0
100
AcDbLine
 62
7
  6
CONTINUOUS
 10
38.2346695463
 20
223.2003917467
 11
40.7655489357
 21
224.2235321695
  0
LINE
  5
221
100
AcDbEntity
  8
0
100
AcDbLine
 62
7
  6
CONTINUOUS
 10
110.0145598961
 20
255.057194325
 11
112.1358714077
 21
256.2819267866
  0
LINE
  5
222
100
AcDbEntity
  8
0
100
AcDbLine
 62
7
  6
CONTINUOUS
 10
99.939631765
 20
249.1728532466
 11
100.2931836836
 21
249.3769753235
  0
LINE
  5
223
100
AcDbEntity
  8
0
100
AcDbLine
 62
7
  6
CONTINUOUS
 10
99.939631765
 20
248.1662104303
 11
100.2931836836
 21
248.3703325072
  0
LINE
  5
224
100
AcDbEntity
  8
0
100
AcDbLine
 62
7
  6
CONTINUOUS
 10
98.5369074349
 20
247.3440045822
 11
100.8221158054
 21
248.6633623745
  0
LINE
  5
225
100
AcDbEntity
  8
0
100
AcDbLine
 62
7
  6
CONTINUOUS
 10
112.1358714077
 20
254.4856214689
 11
112.065161024
 21
254.4447970535
  0
LINE
  5
226
100
AcDbEntity
  8
0
100
AcDbLine
 62
7
  6
CONTINUOUS
 10
98.4325283121
 20
246.277098811
 11
100.8221158054
 21
247.6567195582
  0
LINE
  5
227
100
AcDbEntity
  8
0
100
AcDbLine
 62
7
  6
CONTINUOUS
 10
41.7678687133
 20
211.0588767247
 11
35.5937906123
 21
207.4935674543
  0
LINE
  5
228
100
AcDbEntity
  8
0
100
AcDbLine
 62
7
  6
CONTINUOUS
 10
33.3879847721
 20
205.057925271
 11
42.3148721674
 21
210.211835347
  0
LINE
  5
229
100
AcDbEntity
  8
0
100
AcDbLine
 62
7
  6
CONTINUOUS
 10
112.065161024
 20
255.4670018244
 11
81.1647233379
 21
238.2495491885
  0
LINE
  5
22A
100
AcDbEntity
  8
0
100
AcDbLine
 62
7
  6
CONTINUOUS
 10
101.5563533659
 20
234.4668989726
 11
104.618840285
 21
236.2350160656
  0
LINE
  5
22B
100
AcDbEntity
  8
0
100
AcDbLine
 62
7
  6
CONTINUOUS
 10
47.8117576755
 20
82.3541361249
 11
134.7415387565
 21
32.1663390169
  0
LINE
  5
22C
100
AcDbEntity
  8
0
100
AcDbLine
 62
7
  6
CONTINUOUS
 10
29.0488999842
 20
122.2710010444
 11
29.0488999842
 21
232.429495205
  0
LINE
  5
22D
100
AcDbEntity
  8
0
100
AcDbLine
 62
7
  6
CONTINUOUS
 10
29.3903951704
 20
133.7253337767
 11
29.3903951704
 21
139.4408506966
  0
LINE
  5
22E
100
AcDbEntity
  8
0
100
AcDbLine
 62
7
  6
CONTINUOUS
 10
29.3903951704
 20
215.8491468916
 11
29.3903951704
 21
221.5646638115
  0
LINE
  5
22F
100
AcDbEntity
  8
0
100
AcDbLine
 62
7
  6
CONTINUOUS
 10
30.9895201942
 20
137.9264354139
 11
30.9895201942
 21
139.059355134
  0
LINE
  5
230
100
AcDbEntity
  8
0
100
AcDbLine
 62
7
  6
CONTINUOUS
 10
30.989520194
 20
216.7944189981
 11
30.989520194
 21
217.9273422444
  0
LINE
  5
231
100
AcDbEntity
  8
0
100
AcDbLine
 62
7
  6
CONTINUOUS
 10
31.7890541058
 20
123.9047763321
 11
31.7890541058
 21
133.5150097817
  0
LINE
  5
232
100
AcDbEntity
  8
0
100
AcDbLine
 62
7
  6
CONTINUOUS
 10
31.7890541058
 20
221.3543398165
 11
31.7890541058
 21
231.1768638946
  0
LINE
  5
233
100
AcDbEntity
  8
0
100
AcDbLine
 62
7
  6
CONTINUOUS
 10
33.3877394133
 20
147.8454822457
 11
33.3877361446
 21
205.0578070444
  0
LINE
  5
234
100
AcDbEntity
  8
0
100
AcDbLine
 62
7
  6
CONTINUOUS
 10
33.5058952536
 20
142.0644976112
 11
33.5058952536
 21
218.2753022678
  0
LINE
  5
235
100
AcDbEntity
  8
0
100
AcDbLine
 62
7
  6
CONTINUOUS
 10
34.8762663899
 20
125.7942992772
 11
34.8762663899
 21
135.3963677026
  0
LINE
  5
236
100
AcDbEntity
  8
0
100
AcDbLine
 62
7
  6
CONTINUOUS
 10
34.8762663899
 20
223.2520277858
 11
34.8762663899
 21
233.0663868397
  0
LINE
  5
237
100
AcDbEntity
  8
0
100
AcDbLine
 62
7
  6
CONTINUOUS
 10
35.5937881195
 20
207.4935652872
 11
35.5937881195
 21
150.2732744009
  0
LINE
  5
238
100
AcDbEntity
  8
0
100
AcDbLine
 62
7
  6
CONTINUOUS
 10
36.581006007
 20
218.4172271135
 11
36.581006007
 21
214.4980155113
  0
LINE
  5
239
100
AcDbEntity
  8
0
100
AcDbLine
 62
7
  6
CONTINUOUS
 10
36.581006007
 20
134.497108681
 11
36.581006007
 21
130.5778970787
  0
LINE
  5
23A
100
AcDbEntity
  8
0
100
AcDbLine
 62
7
  6
CONTINUOUS
 10
37.3818292399
 20
139.5918280095
 11
37.3818292399
 21
140.1307196048
  0
LINE
  5
23B
100
AcDbEntity
  8
0
100
AcDbLine
 62
7
  6
CONTINUOUS
 10
37.3818292399
 20
222.2545327197
 11
37.3818292399
 21
222.793424315
  0
LINE
  5
23C
100
AcDbEntity
  8
0
100
AcDbLine
 62
7
  6
CONTINUOUS
 10
105.8963232411
 20
228.3744074419
 11
108.3419413843
 21
229.7863773069
  0
LINE
  5
23D
100
AcDbEntity
  8
0
100
AcDbLine
 62
7
  6
CONTINUOUS
 10
124.683900799
 20
46.8152582343
 11
73.0648908633
 21
76.6168333143
  0
LINE
  5
23E
100
AcDbEntity
  8
0
100
AcDbLine
 62
7
  6
CONTINUOUS
 10
38.2346695413
 20
226.0663152288
 11
38.2346695463
 21
223.2003917467
  0
LINE
  5
23F
100
AcDbEntity
  8
0
100
AcDbLine
 62
7
  6
CONTINUOUS
 10
38.2346695463
 20
141.0765786318
 11
38.2346695469
 21
138.2106551479
  0
LINE
  5
240
100
AcDbEntity
  8
0
100
AcDbLine
 62
7
  6
CONTINUOUS
 10
38.9252283628
 20
132.9139434372
 11
38.9252283628
 21
220.7696035203
  0
LINE
  5
241
100
AcDbEntity
  8
0
100
AcDbLine
 62
7
  6
CONTINUOUS
 10
39.6005699009
 20
139.914546338
 11
39.6005699009
 21
145.6300632579
  0
LINE
  5
242
100
AcDbEntity
  8
0
100
AcDbLine
 62
7
  6
CONTINUOUS
 10
39.6005699009
 20
222.0383594529
 11
39.6005699009
 21
227.7538763728
  0
LINE
  5
243
100
AcDbEntity
  8
0
100
AcDbLine
 62
7
  6
CONTINUOUS
 10
39.8962558602
 20
227.9378309165
 11
39.8962558602
 21
140.0821708333
  0
LINE
  5
244
100
AcDbEntity
  8
0
100
AcDbLine
 62
7
  6
CONTINUOUS
 10
40.4109702088
 20
143.365883689
 11
40.4109702088
 21
144.4988101725
  0
LINE
  5
245
100
AcDbEntity
  8
0
100
AcDbLine
 62
7
  6
CONTINUOUS
 10
40.4109702088
 20
222.2338605103
 11
40.4109702088
 21
223.3667905194
  0
LINE
  5
246
100
AcDbEntity
  8
0
100
AcDbLine
 62
7
  6
CONTINUOUS
 10
40.7655489357
 20
227.0812906294
 11
40.7655489357
 21
224.2235321695
  0
LINE
  5
247
100
AcDbEntity
  8
0
100
AcDbLine
 62
7
  6
CONTINUOUS
 10
40.7655489357
 20
139.2419605946
 11
40.7655489357
 21
142.0997190546
  0
LINE
  5
248
100
AcDbEntity
  8
0
100
AcDbLine
 62
7
  6
CONTINUOUS
 10
40.7960486902
 20
136.4483146116
 11
40.7960486902
 21
139.3142380957
  0
LINE
  5
249
100
AcDbEntity
  8
0
100
AcDbLine
 62
7
  6
CONTINUOUS
 10
40.7960486902
 20
221.4380512106
 11
40.7960486902
 21
224.3039746947
  0
LINE
  5
24A
100
AcDbEntity
  8
0
100
AcDbLine
 62
7
  6
CONTINUOUS
 10
41.0010905504
 20
224.0875452312
 11
41.0010905504
 21
223.026092089
  0
LINE
  5
24B
100
AcDbEntity
  8
0
100
AcDbLine
 62
7
  6
CONTINUOUS
 10
41.0010905504
 20
143.0251852586
 11
41.0010905504
 21
141.9637321164
  0
LINE
  5
24C
100
AcDbEntity
  8
0
100
AcDbLine
 62
7
  6
CONTINUOUS
 10
41.0011045289
 20
217.7396752773
 11
41.0011045289
 21
220.669157315
  0
LINE
  5
24D
100
AcDbEntity
  8
0
100
AcDbLine
 62
7
  6
CONTINUOUS
 10
41.0011076359
 20
145.3820427296
 11
41.0010964537
 21
148.3166768682
  0
LINE
  5
24E
100
AcDbEntity
  8
0
100
AcDbLine
 62
7
  6
CONTINUOUS
 10
41.3818292399
 20
137.2647961206
 11
41.3818292399
 21
139.5918280095
  0
LINE
  5
24F
100
AcDbEntity
  8
0
100
AcDbLine
 62
7
  6
CONTINUOUS
 10
41.3818292399
 20
222.793424315
 11
41.3818292399
 21
225.1204562038
  0
LINE
  5
250
100
AcDbEntity
  8
0
100
AcDbLine
 62
7
  6
CONTINUOUS
 10
41.5389104818
 20
138.7277650686
 11
41.5389104818
 21
226.5834251518
  0
LINE
  5
251
100
AcDbEntity
  8
0
100
AcDbLine
 62
7
  6
CONTINUOUS
 10
41.7430983627
 20
219.051182221
 11
41.7430983627
 21
119.9604488782
  0
LINE
  5
252
100
AcDbEntity
  8
0
100
AcDbLine
 62
7
  6
CONTINUOUS
 10
41.763924062
 20
219.6809093053
 11
41.763924062
 21
139.6800024749
  0
LINE
  5
253
100
AcDbEntity
  8
0
100
AcDbLine
 62
7
  6
CONTINUOUS
 10
41.8483941
 20
223.6964165339
 11
41.8483941
 21
220.8304930498
  0
LINE
  5
254
100
AcDbEntity
  8
0
100
AcDbLine
 62
7
  6
CONTINUOUS
 10
41.8483941
 20
138.7066799349
 11
41.8483941
 21
135.8407564508
  0
LINE
  5
255
100
AcDbEntity
  8
0
100
AcDbLine
 62
7
  6
CONTINUOUS
 10
42.3148728469
 20
152.9995253431
 11
42.3148728469
 21
210.2118190597
  0
LINE
  5
256
100
AcDbEntity
  8
0
100
AcDbLine
 62
7
  6
CONTINUOUS
 10
42.4069921317
 20
224.9938967768
 11
42.4069921317
 21
222.1279732927
  0
LINE
  5
257
100
AcDbEntity
  8
0
100
AcDbLine
 62
7
  6
CONTINUOUS
 10
42.4069921317
 20
221.0665201504
 11
42.4069921317
 21
141.06561332
  0
LINE
  5
258
100
AcDbEntity
  8
0
100
AcDbLine
 62
7
  6
CONTINUOUS
 10
42.4069921317
 20
140.0041601778
 11
42.4069921317
 21
137.1382366937
  0
LINE
  5
259
100
AcDbEntity
  8
0
100
AcDbLine
 62
7
  6
CONTINUOUS
 10
128.4857982105
 20
232.8363143393
 11
131.1479142811
 21
234.3732785949
  0
LINE
  5
25A
100
AcDbEntity
  8
0
100
AcDbLine
 62
7
  6
CONTINUOUS
 10
126.5381261838
 20
231.1778591269
 11
129.1768864729
 21
232.7013389962
  0
LINE
  5
25B
100
AcDbEntity
  8
0
100
AcDbLine
 62
7
  6
CONTINUOUS
 10
128.7118933583
 20
231.9631540065
 11
125.9687539465
 21
230.3794111823
  0
LINE
  5
25C
100
AcDbEntity
  8
0
100
AcDbLine
 62
7
  6
CONTINUOUS
 10
115.8157754874
 20
216.0222554662
 11
137.0288906038
 21
228.2695800824
  0
LINE
  5
25D
100
AcDbEntity
  8
0
100
AcDbLine
 62
7
  6
CONTINUOUS
 10
132.7837332737
 20
56.0645894226
 11
81.164723338
 21
85.8661645026
  0
LINE
  5
25E
100
AcDbEntity
  8
0
100
AcDbLine
 62
7
  6
CONTINUOUS
 10
47.8119687384
 20
82.3540077959
 11
47.8119687384
 21
244.0214912458
  0
LINE
  5
25F
100
AcDbEntity
  8
0
100
AcDbLine
 62
7
  6
CONTINUOUS
 10
55.9210604139
 20
224.6265225896
 11
55.9210604139
 21
125.5357892468
  0
LINE
  5
260
100
AcDbEntity
  8
0
100
AcDbLine
 62
7
  6
CONTINUOUS
 10
40.4109702088
 20
144.4988101725
 11
40.4510227074
 21
144.5530211676
  0
LINE
  5
261
100
AcDbEntity
  8
0
100
AcDbLine
 62
7
  6
CONTINUOUS
 10
136.3557767221
 20
226.7817757721
 11
115.1426616057
 21
214.534451156
  0
LINE
  5
262
100
AcDbEntity
  8
0
100
AcDbLine
 62
7
  6
CONTINUOUS
 10
114.4407816431
 20
211.463558335
 11
135.6538967595
 21
223.7108829512
  0
LINE
  5
263
100
AcDbEntity
  8
0
100
AcDbLine
 62
7
  6
CONTINUOUS
 10
115.1426616057
 20
211.7122597458
 11
136.3557767221
 21
223.9595843619
  0
LINE
  5
264
100
AcDbEntity
  8
0
100
AcDbLine
 62
7
  6
CONTINUOUS
 10
119.7388748192
 20
211.8808862516
 11
140.9519899356
 21
224.1282108677
  0
LINE
  5
265
100
AcDbEntity
  8
0
100
AcDbLine
 62
7
  6
CONTINUOUS
 10
140.9519899356
 20
221.3060194575
 11
119.7388748192
 21
209.0586948414
  0
LINE
  5
266
100
AcDbEntity
  8
0
100
AcDbLine
 62
7
  6
CONTINUOUS
 10
123.8232133205
 20
89.5714566122
 11
125.883482058
 21
89.4673956126
  0
LINE
  5
267
100
AcDbEntity
  8
0
100
AcDbLine
 62
7
  6
CONTINUOUS
 10
125.883482058
 20
95.1829125325
 11
123.8232133139
 21
95.2869735324
  0
LINE
  5
268
100
AcDbEntity
  8
0
100
AcDbLine
 62
7
  6
CONTINUOUS
 10
41.763924062
 20
139.6800024749
 11
36.5810060069
 21
134.497108681
  0
LINE
  5
269
100
AcDbEntity
  8
0
100
AcDbLine
 62
7
  6
CONTINUOUS
 10
36.5810060069
 20
130.5778970788
 11
41.7639240619
 21
135.7607908726
  0
LINE
  5
26A
100
AcDbEntity
  8
0
100
AcDbLine
 62
7
  6
CONTINUOUS
 10
102.5528882289
 20
192.457758767
 11
65.4092494313
 21
164.30326554
  0
LINE
  5
26B
100
AcDbEntity
  8
0
100
AcDbLine
 62
7
  6
CONTINUOUS
 10
147.4237763476
 20
222.1667305399
 11
144.7850160585
 21
220.6432506706
  0
LINE
  5
26C
100
AcDbEntity
  8
0
100
AcDbLine
 62
7
  6
CONTINUOUS
 10
145.1456300503
 20
219.3078870728
 11
147.8887694622
 21
220.891629897
  0
LINE
  5
26D
100
AcDbEntity
  8
0
100
AcDbLine
 62
7
  6
CONTINUOUS
 10
161.6335698318
 20
225.255619245
 11
163.7548813435
 21
226.4803517066
  0
LINE
  5
26E
100
AcDbEntity
  8
0
100
AcDbLine
 62
7
  6
CONTINUOUS
 10
120.4407547818
 20
201.0712379813
 11
141.6538698982
 21
213.3185625974
  0
LINE
  5
26F
100
AcDbEntity
  8
0
100
AcDbLine
 62
7
  6
CONTINUOUS
 10
163.7548813435
 20
224.684046389
 11
163.6841709597
 21
224.6432219736
  0
LINE
  5
270
100
AcDbEntity
  8
0
100
AcDbLine
 62
7
  6
CONTINUOUS
 10
35.5937951649
 20
150.2735660611
 11
41.7678707008
 21
153.8381489561
  0
LINE
  5
271
100
AcDbEntity
  8
0
100
AcDbLine
 62
7
  6
CONTINUOUS
 10
42.3148706388
 20
152.9995313123
 11
33.3877937529
 21
147.8455118345
  0
LINE
  5
272
100
AcDbEntity
  8
0
100
AcDbLine
 62
7
  6
CONTINUOUS
 10
132.7837332737
 20
208.4479741085
 11
163.6841709597
 21
225.6654267444
  0
LINE
  5
273
100
AcDbEntity
  8
0
100
AcDbLine
 62
7
  6
CONTINUOUS
 10
124.3647780035
 20
90.9093099571
 11
126.7107248172
 21
89.960947705
  0
LINE
  5
274
100
AcDbEntity
  8
0
100
AcDbLine
 62
7
  6
CONTINUOUS
 10
40.7960486902
 20
136.4564796358
 11
41.8483941
 21
135.8489214749
  0
LINE
  5
275
100
AcDbEntity
  8
0
100
AcDbLine
 62
7
  6
CONTINUOUS
 10
39.8962558602
 20
140.0821708333
 11
41.5389104818
 21
138.7277650686
  0
LINE
  5
276
100
AcDbEntity
  8
0
100
AcDbLine
 62
7
  6
CONTINUOUS
 10
70.1440361354
 20
161.5696783989
 11
70.1440361354
 21
146.6873201615
  0
LINE
  5
277
100
AcDbEntity
  8
0
100
AcDbLine
 62
7
  6
CONTINUOUS
 10
111.7217417635
 20
187.164201007
 11
70.1440361354
 21
161.5696783989
  0
LINE
  5
278
100
AcDbEntity
  8
0
100
AcDbLine
 62
7
  6
CONTINUOUS
 10
106.772014903
 20
187.8471618215
 11
111.7217417635
 21
190.7048708986
  0
LINE
  5
279
100
AcDbEntity
  8
0
100
AcDbLine
 62
7
  6
CONTINUOUS
 10
41.1968439978
 20
148.9272109079
 11
34.9327758509
 21
145.3099911864
  0
LINE
  5
27A
100
AcDbEntity
  8
0
100
AcDbLine
 62
7
  6
CONTINUOUS
 10
41.1781791591
 20
148.8634752813
 11
34.9138703043
 21
145.2467964663
  0
LINE
  5
27B
100
AcDbEntity
  8
0
100
AcDbLine
 62
7
  6
CONTINUOUS
 10
108.4901791281
 20
186.8552016848
 11
113.4399059886
 21
189.7129107619
  0
LINE
  5
27C
100
AcDbEntity
  8
0
100
AcDbLine
 62
7
  6
CONTINUOUS
 10
143.6377039646
 20
206.9155295132
 11
146.1598523766
 21
208.3716838857
  0
LINE
  5
27D
100
AcDbEntity
  8
0
100
AcDbLine
 62
7
  6
CONTINUOUS
 10
35.3820172891
 20
143.1011705696
 11
39.68139307
 21
145.5834010351
  0
LINE
  5
27E
100
AcDbEntity
  8
0
100
AcDbLine
 62
7
  6
CONTINUOUS
 10
31.0282430135
 20
139.1128084683
 11
40.4510231319
 21
144.5530206325
  0
LINE
  5
27F
100
AcDbEntity
  8
0
100
AcDbLine
 62
7
  6
CONTINUOUS
 10
40.4109702088
 20
144.4988101725
 11
30.9893005627
 21
139.059239136
  0
LINE
  5
280
100
AcDbEntity
  8
0
100
AcDbLine
 62
7
  6
CONTINUOUS
 10
40.4109702088
 20
143.365883689
 11
30.989516807
 21
137.9264375004
  0
LINE
  5
281
100
AcDbEntity
  8
0
100
AcDbLine
 62
7
  6
CONTINUOUS
 10
132.3709714291
 20
196.3323077346
 11
133.0780752663
 21
196.7405518884
  0
LINE
  5
282
100
AcDbEntity
  8
0
100
AcDbLine
 62
7
  6
CONTINUOUS
 10
132.7250199455
 20
195.7190740553
 11
133.4321237827
 21
196.1273182092
  0
LINE
  5
283
100
AcDbEntity
  8
0
100
AcDbLine
 62
7
  6
CONTINUOUS
 10
174.3615448845
 20
217.9072856636
 11
176.4828563961
 21
219.1320181253
  0
LINE
  5
284
100
AcDbEntity
  8
0
100
AcDbLine
 62
7
  6
CONTINUOUS
 10
119.2116101722
 20
178.8948550607
 11
114.2948213566
 21
177.2559331274
  0
LINE
  5
285
100
AcDbEntity
  8
0
100
AcDbLine
 62
7
  6
CONTINUOUS
 10
110.2344895977
 20
175.8943305191
 11
114.2948213566
 21
177.2477681032
  0
LINE
  5
286
100
AcDbEntity
  8
0
100
AcDbLine
 62
7
  6
CONTINUOUS
 10
120.9763168382
 20
91.7529864259
 11
113.9052195867
 21
95.8353939711
  0
LINE
  5
287
100
AcDbEntity
  8
0
100
AcDbLine
 62
7
  6
CONTINUOUS
 10
40.7655489357
 20
139.2419605946
 11
39.6005699009
 21
139.914546338
  0
LINE
  5
288
100
AcDbEntity
  8
0
100
AcDbLine
 62
7
  6
CONTINUOUS
 10
40.7960486902
 20
139.3142380957
 11
41.8483941
 21
138.7066799349
  0
LINE
  5
289
100
AcDbEntity
  8
0
100
AcDbLine
 62
7
  6
CONTINUOUS
 10
95.8958719516
 20
108.889483514
 11
110.014561569
 21
100.7382386687
  0
LINE
  5
28A
100
AcDbEntity
  8
0
100
AcDbLine
 62
7
  6
CONTINUOUS
 10
161.6335807253
 20
70.9366700988
 11
175.7521968147
 21
62.7854677039
  0
LINE
  5
28B
100
AcDbEntity
  8
0
100
AcDbLine
 62
7
  6
CONTINUOUS
 10
41.0010905504
 20
141.9637321164
 11
40.7655489357
 21
142.0997190546
  0
LINE
  5
28C
100
AcDbEntity
  8
0
100
AcDbLine
 62
7
  6
CONTINUOUS
 10
174.3615448845
 20
65.2213336604
 11
161.6335698318
 21
72.5696672418
  0
LINE
  5
28D
100
AcDbEntity
  8
0
100
AcDbLine
 62
7
  6
CONTINUOUS
 10
110.0145598961
 20
102.3712423218
 11
97.2865848435
 21
109.7195759031
  0
LINE
  5
28E
100
AcDbEntity
  8
0
100
AcDbLine
 62
7
  6
CONTINUOUS
 10
41.0010905504
 20
143.0251852586
 11
40.4109702088
 21
143.365883689
  0
LINE
  5
28F
100
AcDbEntity
  8
0
100
AcDbLine
 62
7
  6
CONTINUOUS
 10
113.9052195867
 20
101.1426596825
 11
120.9763168382
 21
97.0602521373
  0
LINE
  5
290
100
AcDbEntity
  8
0
100
AcDbLine
 62
7
  6
CONTINUOUS
 10
176.4828563961
 20
66.446066122
 11
163.7548813435
 21
73.7943997034
  0
LINE
  5
291
100
AcDbEntity
  8
0
100
AcDbLine
 62
7
  6
CONTINUOUS
 10
112.1358714077
 20
103.5959747834
 11
99.4078963551
 21
110.9443083648
  0
LINE
  5
292
100
AcDbEntity
  8
0
100
AcDbLine
 62
7
  6
CONTINUOUS
 10
39.6005699009
 20
145.6300632579
 11
39.68139307
 21
145.5834010351
  0
LINE
  5
293
100
AcDbEntity
  8
0
100
AcDbLine
 62
7
  6
CONTINUOUS
 10
163.6841709597
 20
74.5276758349
 11
112.065161024
 21
104.3292509149
  0
LINE
  5
294
100
AcDbEntity
  8
0
100
AcDbLine
 62
7
  6
CONTINUOUS
 10
163.6841709597
 20
75.5498806057
 11
112.065161024
 21
105.3514556857
  0
LINE
  5
295
100
AcDbEntity
  8
0
100
AcDbLine
 62
7
  6
CONTINUOUS
 10
112.1358714077
 20
105.3922801011
 11
163.7548813435
 21
75.5907050211
  0
LINE
  5
296
100
AcDbEntity
  8
0
100
AcDbLine
 62
7
  6
CONTINUOUS
 10
40.4510185783
 20
222.1334071301
 11
40.4109702088
 21
222.2338605103
  0
LINE
  5
297
100
AcDbEntity
  8
0
100
AcDbLine
 62
7
  6
CONTINUOUS
 10
65.4188932264
 20
149.4153203726
 11
102.5646094502
 21
174.3890996846
  0
LINE
  5
298
100
AcDbEntity
  8
0
100
AcDbLine
 62
7
  6
CONTINUOUS
 10
114.1066318732
 20
174.733705865
 11
111.0759573997
 21
172.9839555866
  0
LINE
  5
299
100
AcDbEntity
  8
0
100
AcDbLine
 62
7
  6
CONTINUOUS
 10
116.3561732413
 20
175.2232546041
 11
111.7986565191
 21
172.5919868042
  0
LINE
  5
29A
100
AcDbEntity
  8
0
100
AcDbLine
 62
7
  6
CONTINUOUS
 10
172.7834285753
 20
204.4787253575
 11
175.0686369459
 21
205.7980831499
  0
LINE
  5
29B
100
AcDbEntity
  8
0
100
AcDbLine
 62
7
  6
CONTINUOUS
 10
70.1440361354
 20
146.6873201615
 11
111.7217417635
 21
169.1023100487
  0
LINE
  5
29C
100
AcDbEntity
  8
0
100
AcDbLine
 62
7
  6
CONTINUOUS
 10
40.7655489357
 20
142.0997190546
 11
38.2346695463
 21
141.0765786318
  0
LINE
  5
29D
100
AcDbEntity
  8
0
100
AcDbLine
 62
7
  6
CONTINUOUS
 10
38.2346711656
 20
138.2188208265
 11
40.7655489357
 21
139.2419605946
  0
LINE
  5
29E
100
AcDbEntity
  8
0
100
AcDbLine
 62
7
  6
CONTINUOUS
 10
119.2116101722
 20
176.4371827852
 11
116.1147505752
 21
175.404901085
  0
LINE
  5
29F
100
AcDbEntity
  8
0
100
AcDbLine
 62
7
  6
CONTINUOUS
 10
114.1066318732
 20
174.733705865
 11
110.2344895976
 21
173.4429978151
  0
LINE
  5
2A0
100
AcDbEntity
  8
0
100
AcDbLine
 62
7
  6
CONTINUOUS
 10
100.8221158054
 20
113.920193237
 11
175.0686369459
 21
71.0549140124
  0
LINE
  5
2A1
100
AcDbEntity
  8
0
100
AcDbLine
 62
7
  6
CONTINUOUS
 10
172.7834285753
 20
80.0936063231
 11
145.1730800789
 21
96.0340878381
  0
LINE
  5
2A2
100
AcDbEntity
  8
0
100
AcDbLine
 62
7
  6
CONTINUOUS
 10
126.1500621634
 20
107.0167838906
 11
98.5369074349
 21
122.9588855477
  0
LINE
  5
2A3
100
AcDbEntity
  8
0
100
AcDbLine
 62
7
  6
CONTINUOUS
 10
98.4325283121
 20
123.9052654092
 11
125.6614276512
 21
108.1850086858
  0
LINE
  5
2A4
100
AcDbEntity
  8
0
100
AcDbLine
 62
7
  6
CONTINUOUS
 10
145.4529563456
 20
96.7586227658
 11
172.6790494526
 21
81.0399861845
  0
LINE
  5
2A5
100
AcDbEntity
  8
0
100
AcDbLine
 62
7
  6
CONTINUOUS
 10
109.7115162375
 20
167.3867879108
 11
114.6612430977
 21
170.2499040211
  0
LINE
  5
2A6
100
AcDbEntity
  8
0
100
AcDbLine
 62
7
  6
CONTINUOUS
 10
108.4974459469
 20
161.7077194318
 11
113.4458056045
 21
164.5663303978
  0
LINE
  5
2A7
100
AcDbEntity
  8
0
100
AcDbLine
 62
7
  6
CONTINUOUS
 10
125.0360691295
 20
175.979118495
 11
123.7995739206
 21
175.2652319146
  0
LINE
  5
2A8
100
AcDbEntity
  8
0
100
AcDbLine
 62
7
  6
CONTINUOUS
 10
121.478674044
 20
173.9252677446
 11
115.5967338897
 21
170.529348284
  0
LINE
  5
2A9
100
AcDbEntity
  8
0
100
AcDbLine
 62
7
  6
CONTINUOUS
 10
172.6790494526
 20
203.4118195863
 11
175.0686369459
 21
204.7914403336
  0
LINE
  5
2AA
100
AcDbEntity
  8
0
100
AcDbLine
 62
7
  6
CONTINUOUS
 10
175.9539272183
 20
205.2869721356
 11
176.307479137
 21
205.4910942126
  0
LINE
  5
2AB
100
AcDbEntity
  8
0
100
AcDbLine
 62
7
  6
CONTINUOUS
 10
175.9539272183
 20
204.2803293193
 11
176.307479137
 21
204.4844513963
  0
LINE
  5
2AC
100
AcDbEntity
  8
0
100
AcDbLine
 62
7
  6
CONTINUOUS
 10
165.9036941333
 20
197.3136640554
 11
168.9658252734
 21
199.0815757404
  0
LINE
  5
2AD
100
AcDbEntity
  8
0
100
AcDbLine
 62
7
  6
CONTINUOUS
 10
106.772014903
 20
162.7039309462
 11
111.7217417635
 21
165.5616400233
  0
LINE
  5
2AE
100
AcDbEntity
  8
0
100
AcDbLine
 62
7
  6
CONTINUOUS
 10
123.7995739206
 20
171.9992222461
 11
121.478674044
 21
170.6592580761
  0
LINE
  5
2AF
100
AcDbEntity
  8
0
100
AcDbLine
 62
7
  6
CONTINUOUS
 10
136.7673208216
 20
176.6372967602
 11
131.8175939611
 21
173.7795876831
  0
LINE
  5
2B0
100
AcDbEntity
  8
0
100
AcDbLine
 62
7
  6
CONTINUOUS
 10
143.1685390378
 20
177.6302604025
 11
143.875642875
 21
178.0385045564
  0
LINE
  5
2B1
100
AcDbEntity
  8
0
100
AcDbLine
 62
7
  6
CONTINUOUS
 10
139.1327727337
 20
175.2716333575
 11
134.1830458732
 21
172.4139242804
  0
LINE
  5
2B2
100
AcDbEntity
  8
0
100
AcDbLine
 62
7
  6
CONTINUOUS
 10
143.5225875542
 20
177.0170267233
 11
144.2296913915
 21
177.4252708771
  0
LINE
  5
2B3
100
AcDbEntity
  8
0
100
AcDbLine
 62
7
  6
CONTINUOUS
 10
175.9539272183
 20
80.9018531012
 11
175.0686369459
 21
81.4129641155
  0
LINE
  5
2B4
100
AcDbEntity
  8
0
100
AcDbLine
 62
7
  6
CONTINUOUS
 10
100.8221158054
 20
124.2782433401
 11
99.939631765
 21
124.7877342122
  0
LINE
  5
2B5
100
AcDbEntity
  8
0
100
AcDbLine
 62
7
  6
CONTINUOUS
 10
176.307479137
 20
81.1059751781
 11
147.811840368
 21
97.5575677074
  0
LINE
  5
2B6
100
AcDbEntity
  8
0
100
AcDbLine
 62
7
  6
CONTINUOUS
 10
128.7888224525
 20
108.5402637599
 11
100.2931836836
 21
124.9918562891
  0
LINE
  5
2B7
100
AcDbEntity
  8
0
100
AcDbLine
 62
7
  6
CONTINUOUS
 10
99.939631765
 20
125.7943770285
 11
100.8221158054
 21
125.2848861565
  0
LINE
  5
2B8
100
AcDbEntity
  8
0
100
AcDbLine
 62
7
  6
CONTINUOUS
 10
175.0686369459
 20
82.4196069318
 11
175.9539272183
 21
81.9084959175
  0
LINE
  5
2B9
100
AcDbEntity
  8
0
100
AcDbLine
 62
7
  6
CONTINUOUS
 10
100.2931836836
 20
125.9984991054
 11
128.4045670631
 21
109.76875151
  0
LINE
  5
2BA
100
AcDbEntity
  8
0
100
AcDbLine
 62
7
  6
CONTINUOUS
 10
148.1960957575
 20
98.34236559
 11
176.307479137
 21
82.1126179945
  0
LINE
  5
2BB
100
AcDbEntity
  8
0
100
AcDbLine
 62
7
  6
CONTINUOUS
 10
142.1894319546
 20
104.0003110421
 11
135.1183347031
 21
108.0827185873
  0
LINE
  5
2BC
100
AcDbEntity
  8
0
100
AcDbLine
 62
7
  6
CONTINUOUS
 10
70.1440361354
 20
146.6873201615
 11
65.418891891
 21
149.4153217472
  0
LINE
  5
2BD
100
AcDbEntity
  8
0
100
AcDbLine
 62
7
  6
CONTINUOUS
 10
122.5913053595
 20
116.4075601764
 11
127.3164496038
 21
113.6795585904
  0
LINE
  5
2BE
100
AcDbEntity
  8
0
100
AcDbLine
 62
7
  6
CONTINUOUS
 10
135.1183347031
 20
113.3899842986
 11
142.1894319546
 21
109.3075767534
  0
LINE
  5
2BF
100
AcDbEntity
  8
0
100
AcDbLine
 62
7
  6
CONTINUOUS
 10
95.895388091
 20
264.8405935067
 11
95.895388091
 21
108.8903111653
  0
LINE
  5
2C0
100
AcDbEntity
  8
0
100
AcDbLine
 62
7
  6
CONTINUOUS
 10
97.2865848435
 20
262.4055279064
 11
97.2865848435
 21
109.7195759031
  0
LINE
  5
2C1
100
AcDbEntity
  8
0
100
AcDbLine
 62
7
  6
CONTINUOUS
 10
99.4078963551
 20
263.630260368
 11
99.4078963551
 21
110.9443083648
  0
LINE
  5
2C2
100
AcDbEntity
  8
0
100
AcDbLine
 62
7
  6
CONTINUOUS
 10
99.939631765
 20
124.7877342122
 11
99.939631765
 21
125.7943770285
  0
LINE
  5
2C3
100
AcDbEntity
  8
0
100
AcDbLine
 62
7
  6
CONTINUOUS
 10
99.939631765
 20
248.1662104303
 11
99.939631765
 21
249.1728532466
  0
LINE
  5
2C4
100
AcDbEntity
  8
0
100
AcDbLine
 62
7
  6
CONTINUOUS
 10
100.2931836836
 20
124.9918562891
 11
100.2931836836
 21
125.9984991054
  0
LINE
  5
2C5
100
AcDbEntity
  8
0
100
AcDbLine
 62
7
  6
CONTINUOUS
 10
100.2931836836
 20
248.3703325072
 11
100.2931836836
 21
249.3769753235
  0
LINE
  5
2C6
100
AcDbEntity
  8
0
100
AcDbLine
 62
7
  6
CONTINUOUS
 10
100.8221158054
 20
259.0214124776
 11
100.8221158054
 21
248.6633623745
  0
LINE
  5
2C7
100
AcDbEntity
  8
0
100
AcDbLine
 62
7
  6
CONTINUOUS
 10
100.8221158054
 20
247.6567195582
 11
100.8221158054
 21
226.5975268009
  0
LINE
  5
2C8
100
AcDbEntity
  8
0
100
AcDbLine
 62
7
  6
CONTINUOUS
 10
100.8221158054
 20
113.920193237
 11
100.8221158054
 21
124.2782433401
  0
LINE
  5
2C9
100
AcDbEntity
  8
0
100
AcDbLine
 62
7
  6
CONTINUOUS
 10
100.8221158054
 20
125.2848861565
 11
100.8221158054
 21
146.3440789138
  0
LINE
  5
2CA
100
AcDbEntity
  8
0
100
AcDbLine
 62
7
  6
CONTINUOUS
 10
140.1289188284
 20
167.9236380785
 11
135.1791875484
 21
165.0594070848
  0
LINE
  5
2CB
100
AcDbEntity
  8
0
100
AcDbLine
 62
7
  6
CONTINUOUS
 10
135.7656160703
 20
170.4427791375
 11
130.8149177279
 21
167.5790624403
  0
LINE
  5
2CC
100
AcDbEntity
  8
0
100
AcDbLine
 62
7
  6
CONTINUOUS
 10
170.2439686368
 20
191.2213484007
 11
172.6889263728
 21
192.6329369817
  0
LINE
  5
2CD
100
AcDbEntity
  8
0
100
AcDbLine
 62
7
  6
CONTINUOUS
 10
65.409296821
 20
164.3033031128
 11
70.1440361354
 21
161.5696783989
  0
LINE
  5
2CE
100
AcDbEntity
  8
0
100
AcDbLine
 62
7
  6
CONTINUOUS
 10
127.3261072332
 20
128.5563411194
 11
122.5913053595
 21
131.2899184138
  0
LINE
  5
2CF
100
AcDbEntity
  8
0
100
AcDbLine
 62
7
  6
CONTINUOUS
 10
122.8768120961
 20
87.4183660655
 11
122.3484692858
 21
88.5567513704
  0
LINE
  5
2D0
100
AcDbEntity
  8
0
100
AcDbLine
 62
7
  6
CONTINUOUS
 10
122.3484693253
 20
94.2722682052
 11
122.8768120961
 21
93.1338829854
  0
LINE
  5
2D1
100
AcDbEntity
  8
0
100
AcDbLine
 62
7
  6
CONTINUOUS
 10
106.772014903
 20
162.7039309462
 11
106.772014903
 21
187.8471618215
  0
LINE
  5
2D2
100
AcDbEntity
  8
0
100
AcDbLine
 62
7
  6
CONTINUOUS
 10
109.7115164998
 20
179.7321917659
 11
109.7115162375
 21
167.3867879108
  0
LINE
  5
2D3
100
AcDbEntity
  8
0
100
AcDbLine
 62
7
  6
CONTINUOUS
 10
110.0145598961
 20
256.6901991593
 11
110.0145598961
 21
255.057194325
  0
LINE
  5
2D4
100
AcDbEntity
  8
0
100
AcDbLine
 62
7
  6
CONTINUOUS
 10
110.0145598961
 20
100.7382374875
 11
110.0145598961
 21
102.3712423218
  0
LINE
  5
2D5
100
AcDbEntity
  8
0
100
AcDbLine
 62
7
  6
CONTINUOUS
 10
110.2344895976
 20
88.0550004843
 11
110.2344895976
 21
90.502682283
  0
LINE
  5
2D6
100
AcDbEntity
  8
0
100
AcDbLine
 62
7
  6
CONTINUOUS
 10
110.2344895977
 20
173.4429978151
 11
110.2344895977
 21
175.8943305191
  0
LINE
  5
2D7
100
AcDbEntity
  8
0
100
AcDbLine
 62
7
  6
CONTINUOUS
 10
111.0759573997
 20
90.0436400545
 11
111.0759573997
 21
172.9839555866
  0
LINE
  5
2D8
100
AcDbEntity
  8
0
100
AcDbLine
 62
7
  6
CONTINUOUS
 10
111.3183623428
 20
178.8827935635
 11
111.3183623428
 21
79.7920602207
  0
LINE
  5
2D9
100
AcDbEntity
  8
0
100
AcDbLine
 62
7
  6
CONTINUOUS
 10
111.7217417635
 20
165.5616400233
 11
111.7217417635
 21
169.1023100487
  0
LINE
  5
2DA
100
AcDbEntity
  8
0
100
AcDbLine
 62
7
  6
CONTINUOUS
 10
111.7217417635
 20
187.164201007
 11
111.7217417635
 21
190.7048708986
  0
LINE
  5
2DB
100
AcDbEntity
  8
0
100
AcDbLine
 62
7
  6
CONTINUOUS
 10
111.7986565191
 20
172.5919868042
 11
111.7986565191
 21
89.6516712722
  0
LINE
  5
2DC
100
AcDbEntity
  8
0
100
AcDbLine
 62
7
  6
CONTINUOUS
 10
112.065161024
 20
255.4670018244
 11
112.065161024
 21
254.4447970535
  0
LINE
  5
2DD
100
AcDbEntity
  8
0
100
AcDbLine
 62
7
  6
CONTINUOUS
 10
112.065161024
 20
104.3292509149
 11
112.065161024
 21
105.3514556857
  0
LINE
  5
2DE
100
AcDbEntity
  8
0
100
AcDbLine
 62
7
  6
CONTINUOUS
 10
112.1358714077
 20
256.2819267866
 11
112.1358714077
 21
254.4856214689
  0
LINE
  5
2DF
100
AcDbEntity
  8
0
100
AcDbLine
 62
7
  6
CONTINUOUS
 10
112.1358714077
 20
103.5959747834
 11
112.1358714077
 21
105.3922801011
  0
LINE
  5
2E0
100
AcDbEntity
  8
0
100
AcDbLine
 62
7
  6
CONTINUOUS
 10
108.4974456846
 20
161.7077192803
 11
109.7115164998
 21
167.3867880623
  0
LINE
  5
2E1
100
AcDbEntity
  8
0
100
AcDbLine
 62
7
  6
CONTINUOUS
 10
114.6608836616
 20
170.2501118401
 11
113.4458053419
 21
164.5663302462
  0
LINE
  5
2E2
100
AcDbEntity
  8
0
100
AcDbLine
 62
7
  6
CONTINUOUS
 10
135.7731408024
 20
157.8894506372
 11
130.8234183625
 21
155.0252132622
  0
LINE
  5
2E3
100
AcDbEntity
  8
0
100
AcDbLine
 62
7
  6
CONTINUOUS
 10
140.1214069257
 20
155.3790753219
 11
135.1706872197
 21
152.5153731759
  0
LINE
  5
2E4
100
AcDbEntity
  8
0
100
AcDbLine
 62
7
  6
CONTINUOUS
 10
102.1725619915
 20
136.8388433455
 11
104.618840285
 21
138.2511943462
  0
LINE
  5
2E5
100
AcDbEntity
  8
0
100
AcDbLine
 62
7
  6
CONTINUOUS
 10
136.7607862592
 20
150.7134975311
 11
131.8110593987
 21
147.855788454
  0
LINE
  5
2E6
100
AcDbEntity
  8
0
100
AcDbLine
 62
7
  6
CONTINUOUS
 10
175.0686369458
 20
103.4787996891
 11
100.8221158054
 21
146.3440789138
  0
LINE
  5
2E7
100
AcDbEntity
  8
0
100
AcDbLine
 62
7
  6
CONTINUOUS
 10
114.1066318732
 20
174.733705865
 11
114.1066318732
 21
91.793390333
  0
LINE
  5
2E8
100
AcDbEntity
  8
0
100
AcDbLine
 62
7
  6
CONTINUOUS
 10
114.2948213566
 20
177.2559331274
 11
114.2948213566
 21
89.4002730443
  0
LINE
  5
2E9
100
AcDbEntity
  8
0
100
AcDbLine
 62
7
  6
CONTINUOUS
 10
114.6594448671
 20
182.6120993616
 11
114.6608836616
 21
170.2501118401
  0
LINE
  5
2EA
100
AcDbEntity
  8
0
100
AcDbLine
 62
7
  6
CONTINUOUS
 10
115.1426616057
 20
211.7122597457
 11
115.1426616057
 21
214.534451156
  0
LINE
  5
2EB
100
AcDbEntity
  8
0
100
AcDbLine
 62
7
  6
CONTINUOUS
 10
115.3205189399
 20
72.4631853747
 11
115.3218306567
 21
182.9502838831
  0
LINE
  5
2EC
100
AcDbEntity
  8
0
100
AcDbLine
 62
7
  6
CONTINUOUS
 10
115.5967338897
 20
87.589032752
 11
115.5967338897
 21
170.5293482841
  0
LINE
  5
2ED
100
AcDbEntity
  8
0
100
AcDbLine
 62
7
  6
CONTINUOUS
 10
116.1147505751
 20
175.404901085
 11
116.1147505751
 21
92.464585553
  0
LINE
  5
2EE
100
AcDbEntity
  8
0
100
AcDbLine
 62
7
  6
CONTINUOUS
 10
116.3567124592
 20
175.2235671114
 11
116.3567124592
 21
92.2832515794
  0
LINE
  5
2EF
100
AcDbEntity
  8
0
100
AcDbLine
 62
7
  6
CONTINUOUS
 10
116.4147512962
 20
175.304902755
 11
116.4147512962
 21
92.3645872229
  0
LINE
  5
2F0
100
AcDbEntity
  8
0
100
AcDbLine
 62
7
  6
CONTINUOUS
 10
118.0011750713
 20
172.4622625822
 11
118.0011750713
 21
166.7467456623
  0
LINE
  5
2F1
100
AcDbEntity
  8
0
100
AcDbLine
 62
7
  6
CONTINUOUS
 10
118.0011750713
 20
84.6229325474
 11
118.0011750713
 21
90.3384494674
  0
LINE
  5
2F2
100
AcDbEntity
  8
0
100
AcDbLine
 62
7
  6
CONTINUOUS
 10
118.5946014942
 20
77.4605894232
 11
118.5946014942
 21
87.0708228728
  0
LINE
  5
2F3
100
AcDbEntity
  8
0
100
AcDbLine
 62
7
  6
CONTINUOUS
 10
118.5946014942
 20
174.9101529076
 11
118.5946014942
 21
184.7326769857
  0
LINE
  5
2F4
100
AcDbEntity
  8
0
100
AcDbLine
 62
7
  6
CONTINUOUS
 10
119.2116101723
 20
93.4968672532
 11
119.2116101723
 21
176.4371827852
  0
LINE
  5
2F5
100
AcDbEntity
  8
0
100
AcDbLine
 62
7
  6
CONTINUOUS
 10
119.7388748192
 20
211.8808862516
 11
119.7388748192
 21
209.0586948414
  0
LINE
  5
2F6
100
AcDbEntity
  8
0
100
AcDbLine
 62
7
  6
CONTINUOUS
 10
119.830823192
 20
91.9909560324
 11
119.830823192
 21
92.1215964191
  0
LINE
  5
2F7
100
AcDbEntity
  8
0
100
AcDbLine
 62
7
  6
CONTINUOUS
 10
119.830823192
 20
175.0619119511
 11
119.830823192
 21
175.1925523379
  0
LINE
  5
2F8
100
AcDbEntity
  8
0
100
AcDbLine
 62
7
  6
CONTINUOUS
 10
120.9751551275
 20
187.0683731738
 11
120.9751551275
 21
87.9776398309
  0
LINE
  5
2F9
100
AcDbEntity
  8
0
100
AcDbLine
 62
7
  6
CONTINUOUS
 10
121.478674044
 20
173.9252677446
 11
121.478674044
 21
170.659258076
  0
LINE
  5
2FA
100
AcDbEntity
  8
0
100
AcDbLine
 62
7
  6
CONTINUOUS
 10
121.478674044
 20
94.2509618811
 11
121.478674044
 21
90.9849522125
  0
LINE
  5
2FB
100
AcDbEntity
  8
0
100
AcDbLine
 62
7
  6
CONTINUOUS
 10
122.3484693253
 20
88.5485862611
 11
122.3484693253
 21
94.2722682052
  0
LINE
  5
2FC
100
AcDbEntity
  8
0
100
AcDbLine
 62
7
  6
CONTINUOUS
 10
122.3484693253
 20
170.6805644002
 11
122.3484693253
 21
176.4042463443
  0
LINE
  5
2FD
100
AcDbEntity
  8
0
100
AcDbLine
 62
7
  6
CONTINUOUS
 10
122.5913053595
 20
131.2899184138
 11
122.5913053595
 21
116.4075601764
  0
LINE
  5
2FE
100
AcDbEntity
  8
0
100
AcDbLine
 62
7
  6
CONTINUOUS
 10
122.8768120961
 20
175.2576961003
 11
122.8768120961
 21
169.5421791804
  0
LINE
  5
2FF
100
AcDbEntity
  8
0
100
AcDbLine
 62
7
  6
CONTINUOUS
 10
122.8768120961
 20
93.1338829854
 11
122.8768120961
 21
87.4183660655
  0
LINE
  5
300
100
AcDbEntity
  8
0
100
AcDbLine
 62
7
  6
CONTINUOUS
 10
105.279098931
 20
130.0342332281
 11
108.3419413843
 21
131.8025555875
  0
LINE
  5
301
100
AcDbEntity
  8
0
100
AcDbLine
 62
7
  6
CONTINUOUS
 10
139.1225868281
 20
149.3499421846
 11
134.1728599676
 21
146.4922331075
  0
LINE
  5
302
100
AcDbEntity
  8
0
100
AcDbLine
 62
7
  6
CONTINUOUS
 10
99.939631765
 20
125.7943770285
 11
100.2931836836
 21
125.9984991054
  0
LINE
  5
303
100
AcDbEntity
  8
0
100
AcDbLine
 62
7
  6
CONTINUOUS
 10
157.5011199021
 20
158.5593619731
 11
162.4508467626
 21
161.4170710502
  0
LINE
  5
304
100
AcDbEntity
  8
0
100
AcDbLine
 62
7
  6
CONTINUOUS
 10
99.939631765
 20
124.7877342122
 11
100.2931836836
 21
124.9918562891
  0
LINE
  5
305
100
AcDbEntity
  8
0
100
AcDbLine
 62
7
  6
CONTINUOUS
 10
98.4325283121
 20
123.9052654092
 11
100.8221158054
 21
125.2848861565
  0
LINE
  5
306
100
AcDbEntity
  8
0
100
AcDbLine
 62
7
  6
CONTINUOUS
 10
98.5369074349
 20
122.9588855477
 11
100.8221158054
 21
124.2782433401
  0
LINE
  5
307
100
AcDbEntity
  8
0
100
AcDbLine
 62
7
  6
CONTINUOUS
 10
159.2192841272
 20
157.5674018364
 11
164.1690109877
 21
160.4251109135
  0
LINE
  5
308
100
AcDbEntity
  8
0
100
AcDbLine
 62
7
  6
CONTINUOUS
 10
134.1728599676
 20
146.4922331075
 11
131.8110593987
 21
147.855788454
  0
LINE
  5
309
100
AcDbEntity
  8
0
100
AcDbLine
 62
7
  6
CONTINUOUS
 10
157.4938533457
 20
133.4202700755
 11
159.2192841272
 21
132.4241709611
  0
LINE
  5
30A
100
AcDbEntity
  8
0
100
AcDbLine
 62
7
  6
CONTINUOUS
 10
108.4974459469
 20
161.7077757075
 11
106.772014903
 21
162.7039309462
  0
LINE
  5
30B
100
AcDbEntity
  8
0
100
AcDbLine
 62
7
  6
CONTINUOUS
 10
113.4399059886
 20
189.7129107619
 11
114.6594448671
 21
182.6120993616
  0
LINE
  5
30C
100
AcDbEntity
  8
0
100
AcDbLine
 62
7
  6
CONTINUOUS
 10
109.7115164998
 20
179.7321917659
 11
108.4901791281
 21
186.8552016848
  0
LINE
  5
30D
100
AcDbEntity
  8
0
100
AcDbLine
 62
7
  6
CONTINUOUS
 10
130.8234183625
 20
155.0252132622
 11
130.8149177279
 21
167.5790624403
  0
LINE
  5
30E
100
AcDbEntity
  8
0
100
AcDbLine
 62
7
  6
CONTINUOUS
 10
123.7995739206
 20
92.3249163826
 11
123.7995739206
 21
95.5909260511
  0
LINE
  5
30F
100
AcDbEntity
  8
0
100
AcDbLine
 62
7
  6
CONTINUOUS
 10
123.7995739206
 20
171.9992222461
 11
123.7995739206
 21
175.2652319146
  0
LINE
  5
310
100
AcDbEntity
  8
0
100
AcDbLine
 62
7
  6
CONTINUOUS
 10
123.8232133139
 20
177.4189516715
 11
123.8232133139
 21
171.6952697274
  0
LINE
  5
311
100
AcDbEntity
  8
0
100
AcDbLine
 62
7
  6
CONTINUOUS
 10
123.8232133139
 20
89.5632915883
 11
123.830823192
 21
95.3876060876
  0
LINE
  5
312
100
AcDbEntity
  8
0
100
AcDbLine
 62
7
  6
CONTINUOUS
 10
124.3647780035
 20
178.756805016
 11
124.3647780035
 21
90.9174749812
  0
LINE
  5
313
100
AcDbEntity
  8
0
100
AcDbLine
 62
7
  6
CONTINUOUS
 10
125.0360691295
 20
175.979118495
 11
125.0360691295
 21
93.0388029629
  0
LINE
  5
314
100
AcDbEntity
  8
0
100
AcDbLine
 62
7
  6
CONTINUOUS
 10
125.883482058
 20
89.4673956126
 11
125.883482058
 21
95.1829125325
  0
LINE
  5
315
100
AcDbEntity
  8
0
100
AcDbLine
 62
7
  6
CONTINUOUS
 10
125.883482058
 20
171.5912087275
 11
125.883482058
 21
177.3067256474
  0
LINE
  5
316
100
AcDbEntity
  8
0
100
AcDbLine
 62
7
  6
CONTINUOUS
 10
126.1013270888
 20
89.6276236944
 11
126.1013270888
 21
177.4669537292
  0
LINE
  5
317
100
AcDbEntity
  8
0
100
AcDbLine
 62
7
  6
CONTINUOUS
 10
126.7107248172
 20
89.960947705
 11
126.7107248172
 21
177.8166077882
  0
LINE
  5
318
100
AcDbEntity
  8
0
100
AcDbLine
 62
7
  6
CONTINUOUS
 10
131.8175939611
 20
173.7795876831
 11
130.8149177279
 21
167.5790624404
  0
LINE
  5
319
100
AcDbEntity
  8
0
100
AcDbLine
 62
7
  6
CONTINUOUS
 10
135.7658353458
 20
170.4426093001
 11
136.7673208216
 21
176.6372967602
  0
LINE
  5
31A
100
AcDbEntity
  8
0
100
AcDbLine
 62
7
  6
CONTINUOUS
 10
122.5913053595
 20
131.2899184138
 11
164.1690109877
 21
156.8844410218
  0
LINE
  5
31B
100
AcDbEntity
  8
0
100
AcDbLine
 62
7
  6
CONTINUOUS
 10
156.2797822681
 20
140.5011952157
 11
161.229868827
 21
143.3641036586
  0
LINE
  5
31C
100
AcDbEntity
  8
0
100
AcDbLine
 62
7
  6
CONTINUOUS
 10
97.2865848435
 20
109.7195759031
 11
99.4078963551
 21
110.9443083648
  0
LINE
  5
31D
100
AcDbEntity
  8
0
100
AcDbLine
 62
7
  6
CONTINUOUS
 10
127.3261061322
 20
128.5563426302
 11
173.3379397853
 21
151.5909268771
  0
LINE
  5
31E
100
AcDbEntity
  8
0
100
AcDbLine
 62
7
  6
CONTINUOUS
 10
123.8232133139
 20
171.6952697274
 11
125.883482058
 21
171.5912087275
  0
LINE
  5
31F
100
AcDbEntity
  8
0
100
AcDbLine
 62
7
  6
CONTINUOUS
 10
139.1225868281
 20
149.3499421846
 11
136.7607862592
 21
150.7134975311
  0
LINE
  5
320
100
AcDbEntity
  8
0
100
AcDbLine
 62
7
  6
CONTINUOUS
 10
162.4449476719
 20
136.2772462427
 11
164.1690109877
 21
135.2818800382
  0
LINE
  5
321
100
AcDbEntity
  8
0
100
AcDbLine
 62
7
  6
CONTINUOUS
 10
113.4458053419
 20
164.5663302462
 11
111.7217417635
 21
165.5616400233
  0
LINE
  5
322
100
AcDbEntity
  8
0
100
AcDbLine
 62
7
  6
CONTINUOUS
 10
164.1690109877
 20
138.8225500636
 11
173.3261741349
 21
133.5357790582
  0
LINE
  5
323
100
AcDbEntity
  8
0
100
AcDbLine
 62
7
  6
CONTINUOUS
 10
111.7217417635
 20
169.1023100487
 11
102.5645627851
 21
174.3890845152
  0
LINE
  5
324
100
AcDbEntity
  8
0
100
AcDbLine
 62
7
  6
CONTINUOUS
 10
41.5389104818
 20
226.5834251518
 11
39.8962558602
 21
227.9378309165
  0
LINE
  5
325
100
AcDbEntity
  8
0
100
AcDbLine
 62
7
  6
CONTINUOUS
 10
122.8768120961
 20
169.5421791804
 11
122.3484693253
 21
170.6805644002
  0
LINE
  5
326
100
AcDbEntity
  8
0
100
AcDbLine
 62
7
  6
CONTINUOUS
 10
130.8234183625
 20
155.0252132621
 11
131.8110593987
 21
147.855788454
  0
LINE
  5
327
100
AcDbEntity
  8
0
100
AcDbLine
 62
7
  6
CONTINUOUS
 10
135.7719485951
 20
157.8901378661
 11
135.7658353458
 21
170.4426093001
  0
LINE
  5
328
100
AcDbEntity
  8
0
100
AcDbLine
 62
7
  6
CONTINUOUS
 10
134.7410775006
 20
193.8340906227
 11
134.7410775006
 21
32.166607285
  0
LINE
  5
329
100
AcDbEntity
  8
0
100
AcDbLine
 62
7
  6
CONTINUOUS
 10
136.3557767221
 20
223.9595843619
 11
136.3557767221
 21
226.7817757721
  0
LINE
  5
32A
100
AcDbEntity
  8
0
100
AcDbLine
 62
7
  6
CONTINUOUS
 10
140.9519899356
 20
224.1282108677
 11
140.9519899356
 21
221.3060194576
  0
LINE
  5
32B
100
AcDbEntity
  8
0
100
AcDbLine
 62
7
  6
CONTINUOUS
 10
140.1277266281
 20
167.9243274568
 11
140.1216158574
 21
155.3789125759
  0
LINE
  5
32C
100
AcDbEntity
  8
0
100
AcDbLine
 62
7
  6
CONTINUOUS
 10
135.1791875484
 20
165.0594070848
 11
135.1706872197
 21
152.5153731759
  0
LINE
  5
32D
100
AcDbEntity
  8
0
100
AcDbLine
 62
7
  6
CONTINUOUS
 10
134.1728599676
 20
146.4922331075
 11
135.1706872197
 21
152.5153731759
  0
LINE
  5
32E
100
AcDbEntity
  8
0
100
AcDbLine
 62
7
  6
CONTINUOUS
 10
140.1216158574
 20
155.3789125759
 11
139.1225868281
 21
149.3499421846
  0
LINE
  5
32F
100
AcDbEntity
  8
0
100
AcDbLine
 62
7
  6
CONTINUOUS
 10
81.164723338
 20
85.8661645026
 11
112.065161024
 21
104.3292509149
  0
LINE
  5
330
100
AcDbEntity
  8
0
100
AcDbLine
 62
7
  6
CONTINUOUS
 10
128.4857982095
 20
120.1589807688
 11
131.1479142811
 21
121.6959450249
  0
LINE
  5
331
100
AcDbEntity
  8
0
100
AcDbLine
 62
7
  6
CONTINUOUS
 10
112.1358714077
 20
105.3922801011
 11
112.065161024
 21
105.3514556857
  0
LINE
  5
332
100
AcDbEntity
  8
0
100
AcDbLine
 62
7
  6
CONTINUOUS
 10
159.2192841272
 20
132.4241709611
 11
164.1690109877
 21
135.2818800382
  0
LINE
  5
333
100
AcDbEntity
  8
0
100
AcDbLine
 62
7
  6
CONTINUOUS
 10
157.493853608
 20
133.4203265027
 11
162.4449476719
 21
136.2772462427
  0
LINE
  5
334
100
AcDbEntity
  8
0
100
AcDbLine
 62
7
  6
CONTINUOUS
 10
164.1690109877
 20
138.8225500636
 11
122.5913053595
 21
116.4075601764
  0
LINE
  5
335
100
AcDbEntity
  8
0
100
AcDbLine
 62
7
  6
CONTINUOUS
 10
173.3261724021
 20
133.5357820538
 11
127.3164485018
 21
113.6795586232
  0
LINE
  5
336
100
AcDbEntity
  8
0
100
AcDbLine
 62
7
  6
CONTINUOUS
 10
125.883482058
 20
177.3067256474
 11
123.8232133126
 21
177.4107866474
  0
LINE
  5
337
100
AcDbEntity
  8
0
100
AcDbLine
 62
7
  6
CONTINUOUS
 10
39.6005699009
 20
222.0383594529
 11
39.6831808229
 21
221.9906650938
  0
LINE
  5
338
100
AcDbEntity
  8
0
100
AcDbLine
 62
7
  6
CONTINUOUS
 10
40.7960486902
 20
221.4380512106
 11
41.8483941
 21
220.8304930498
  0
LINE
  5
339
100
AcDbEntity
  8
0
100
AcDbLine
 62
7
  6
CONTINUOUS
 10
41.0010905504
 20
223.026092089
 11
40.4109702088
 21
223.3667905194
  0
LINE
  5
33A
100
AcDbEntity
  8
0
100
AcDbLine
 62
7
  6
CONTINUOUS
 10
41.0010905504
 20
224.0875452313
 11
40.7655489357
 21
224.2235321695
  0
LINE
  5
33B
100
AcDbEntity
  8
0
100
AcDbLine
 62
7
  6
CONTINUOUS
 10
40.7960487062
 20
224.2958096613
 11
41.8483941281
 21
223.6882514935
  0
LINE
  5
33C
100
AcDbEntity
  8
0
100
AcDbLine
 62
7
  6
CONTINUOUS
 10
122.3484693254
 20
176.3960813198
 11
122.8768120961
 21
175.2576961003
  0
LINE
  5
33D
100
AcDbEntity
  8
0
100
AcDbLine
 62
7
  6
CONTINUOUS
 10
136.7607862592
 20
150.7134975311
 11
135.7719485951
 21
157.8901378661
  0
LINE
  5
33E
100
AcDbEntity
  8
0
100
AcDbLine
 62
7
  6
CONTINUOUS
 10
135.1791875484
 20
165.0594070847
 11
134.1830458732
 21
172.4139242804
  0
LINE
  5
33F
100
AcDbEntity
  8
0
100
AcDbLine
 62
7
  6
CONTINUOUS
 10
112.1358714077
 20
103.5959747834
 11
110.0145598961
 21
102.3712423218
  0
LINE
  5
340
100
AcDbEntity
  8
0
100
AcDbLine
 62
7
  6
CONTINUOUS
 10
112.2802268617
 20
101.3036135893
 11
133.4933419781
 21
113.5509382054
  0
LINE
  5
341
100
AcDbEntity
  8
0
100
AcDbLine
 62
7
  6
CONTINUOUS
 10
125.6614276512
 20
108.1850086858
 11
128.4045670631
 21
109.76875151
  0
LINE
  5
342
100
AcDbEntity
  8
0
100
AcDbLine
 62
7
  6
CONTINUOUS
 10
113.9052195867
 20
101.1426596825
 11
135.1183347031
 21
113.3899842986
  0
LINE
  5
343
100
AcDbEntity
  8
0
100
AcDbLine
 62
7
  6
CONTINUOUS
 10
128.7888224525
 20
108.5402637599
 11
126.1500621634
 21
107.0167838906
  0
LINE
  5
344
100
AcDbEntity
  8
0
100
AcDbLine
 62
7
  6
CONTINUOUS
 10
135.1183347031
 20
108.0827185873
 11
113.9052195867
 21
95.8353939711
  0
LINE
  5
345
100
AcDbEntity
  8
0
100
AcDbLine
 62
7
  6
CONTINUOUS
 10
126.7107248172
 20
177.8166077882
 11
124.3647780036
 21
178.7649700402
  0
LINE
  5
346
100
AcDbEntity
  8
0
100
AcDbLine
 62
7
  6
CONTINUOUS
 10
159.2192841272
 20
157.5674018364
 11
157.5011199021
 21
158.5593619731
  0
LINE
  5
347
100
AcDbEntity
  8
0
100
AcDbLine
 62
7
  6
CONTINUOUS
 10
106.772014903
 20
187.8471618215
 11
108.4901791281
 21
186.8552016848
  0
LINE
  5
348
100
AcDbEntity
  8
0
100
AcDbLine
 62
7
  6
CONTINUOUS
 10
131.8175939611
 20
173.7795876831
 11
134.1830458732
 21
172.4139242804
  0
LINE
  5
349
100
AcDbEntity
  8
0
100
AcDbLine
 62
7
  6
CONTINUOUS
 10
40.7655489357
 20
227.0812906294
 11
39.6005699009
 21
227.7538763728
  0
LINE
  5
34A
100
AcDbEntity
  8
0
100
AcDbLine
 62
7
  6
CONTINUOUS
 10
173.3380597122
 20
151.5909851977
 11
164.1690109877
 21
156.8844410219
  0
LINE
  5
34B
100
AcDbEntity
  8
0
100
AcDbLine
 62
7
  6
CONTINUOUS
 10
102.552841555
 20
192.4577539333
 11
111.7217417635
 21
187.164201007
  0
LINE
  5
34C
100
AcDbEntity
  8
0
100
AcDbLine
 62
7
  6
CONTINUOUS
 10
164.1690109877
 20
160.4251109135
 11
162.4508467626
 21
161.4170710502
  0
LINE
  5
34D
100
AcDbEntity
  8
0
100
AcDbLine
 62
7
  6
CONTINUOUS
 10
111.7217417635
 20
190.7048708986
 11
113.4399059886
 21
189.7129107619
  0
LINE
  5
34E
100
AcDbEntity
  8
0
100
AcDbLine
 62
7
  6
CONTINUOUS
 10
136.7673208216
 20
176.6372967602
 11
139.1327727337
 21
175.2716333575
  0
LINE
  5
34F
100
AcDbEntity
  8
0
100
AcDbLine
 62
7
  6
CONTINUOUS
 10
139.1327727337
 20
175.2716333575
 11
140.1277266281
 21
167.9243274568
  0
LINE
  5
350
100
AcDbEntity
  8
0
100
AcDbLine
 62
7
  6
CONTINUOUS
 10
156.2797825304
 20
152.8465990709
 11
156.2797825304
 21
140.5011953671
  0
LINE
  5
351
100
AcDbEntity
  8
0
100
AcDbLine
 62
7
  6
CONTINUOUS
 10
159.2192841272
 20
132.4241709611
 11
159.2192841272
 21
157.5674018364
  0
LINE
  5
352
100
AcDbEntity
  8
0
100
AcDbLine
 62
7
  6
CONTINUOUS
 10
157.5011199021
 20
158.5593619731
 11
156.2797825304
 21
152.8465990709
  0
LINE
  5
353
100
AcDbEntity
  8
0
100
AcDbLine
 62
7
  6
CONTINUOUS
 10
161.2313078841
 20
155.7244299923
 11
162.4508467626
 21
161.4170710502
  0
LINE
  5
354
100
AcDbEntity
  8
0
100
AcDbLine
 62
7
  6
CONTINUOUS
 10
142.1894319546
 20
109.3075767534
 11
120.9763168382
 21
97.0602521373
  0
LINE
  5
355
100
AcDbEntity
  8
0
100
AcDbLine
 62
7
  6
CONTINUOUS
 10
114.1066318731
 20
91.7933903329
 11
111.0759573997
 21
90.0436400545
  0
LINE
  5
356
100
AcDbEntity
  8
0
100
AcDbLine
 62
7
  6
CONTINUOUS
 10
116.3572537506
 20
92.2835629007
 11
111.7986565191
 21
89.6516712722
  0
LINE
  5
357
100
AcDbEntity
  8
0
100
AcDbLine
 62
7
  6
CONTINUOUS
 10
123.7995739206
 20
95.5909260511
 11
121.478674044
 21
94.2509618811
  0
LINE
  5
358
100
AcDbEntity
  8
0
100
AcDbLine
 62
7
  6
CONTINUOUS
 10
120.9763168382
 20
91.7529864259
 11
142.1894319546
 21
104.0003110421
  0
LINE
  5
359
100
AcDbEntity
  8
0
100
AcDbLine
 62
7
  6
CONTINUOUS
 10
125.0360691295
 20
93.0388029629
 11
123.7995739206
 21
92.3249163826
  0
LINE
  5
35A
100
AcDbEntity
  8
0
100
AcDbLine
 62
7
  6
CONTINUOUS
 10
121.478674044
 20
90.9849522125
 11
115.5967338897
 21
87.589032752
  0
LINE
  5
35B
100
AcDbEntity
  8
0
100
AcDbLine
 62
7
  6
CONTINUOUS
 10
122.6013095633
 20
91.5920325191
 11
143.8144246797
 21
103.8393571353
  0
LINE
  5
35C
100
AcDbEntity
  8
0
100
AcDbLine
 62
7
  6
CONTINUOUS
 10
116.1147505751
 20
92.4645855529
 11
119.2116101722
 21
93.4968672532
  0
LINE
  5
35D
100
AcDbEntity
  8
0
100
AcDbLine
 62
7
  6
CONTINUOUS
 10
110.2344895977
 20
90.502682283
 11
114.1066318731
 21
91.7933903329
  0
LINE
  5
35E
100
AcDbEntity
  8
0
100
AcDbLine
 62
7
  6
CONTINUOUS
 10
119.2116101722
 20
91.0473600018
 11
114.2948213566
 21
89.4084380684
  0
LINE
  5
35F
100
AcDbEntity
  8
0
100
AcDbLine
 62
7
  6
CONTINUOUS
 10
114.2948213566
 20
89.4084380684
 11
110.2344895977
 21
88.0550004843
  0
LINE
  5
360
100
AcDbEntity
  8
0
100
AcDbLine
 62
7
  6
CONTINUOUS
 10
156.2797825304
 20
140.5011953671
 11
157.4938533457
 21
133.4202700755
  0
LINE
  5
361
100
AcDbEntity
  8
0
100
AcDbLine
 62
7
  6
CONTINUOUS
 10
162.4449474093
 20
136.2773023668
 11
161.2298690896
 21
143.3641038102
  0
LINE
  5
362
100
AcDbEntity
  8
0
100
AcDbLine
 62
7
  6
CONTINUOUS
 10
161.2295093909
 20
155.7254683294
 11
161.2295091283
 21
143.364311326
  0
LINE
  5
363
100
AcDbEntity
  8
0
100
AcDbLine
 62
7
  6
CONTINUOUS
 10
161.6335698318
 20
226.8886240793
 11
161.6335698318
 21
225.255619245
  0
LINE
  5
364
100
AcDbEntity
  8
0
100
AcDbLine
 62
7
  6
CONTINUOUS
 10
161.6335698318
 20
70.9366624075
 11
161.6335698318
 21
72.5696672418
  0
LINE
  5
365
100
AcDbEntity
  8
0
100
AcDbLine
 62
7
  6
CONTINUOUS
 10
163.6841709597
 20
225.6654267444
 11
163.6841709597
 21
224.6432219736
  0
LINE
  5
366
100
AcDbEntity
  8
0
100
AcDbLine
 62
7
  6
CONTINUOUS
 10
163.6841709597
 20
74.5276758349
 11
163.6841709597
 21
75.5498806057
  0
LINE
  5
367
100
AcDbEntity
  8
0
100
AcDbLine
 62
7
  6
CONTINUOUS
 10
163.7548813435
 20
226.4803517066
 11
163.7548813435
 21
224.684046389
  0
LINE
  5
368
100
AcDbEntity
  8
0
100
AcDbLine
 62
7
  6
CONTINUOUS
 10
163.7548813435
 20
73.7943997034
 11
163.7548813435
 21
75.5907050211
  0
LINE
  5
369
100
AcDbEntity
  8
0
100
AcDbLine
 62
7
  6
CONTINUOUS
 10
164.1690109877
 20
135.2818800382
 11
164.1690109877
 21
138.8225500636
  0
LINE
  5
36A
100
AcDbEntity
  8
0
100
AcDbLine
 62
7
  6
CONTINUOUS
 10
164.1690109877
 20
156.8844410218
 11
164.1690109877
 21
160.4251109135
  0
LINE
  5
36B
100
AcDbEntity
  8
0
100
AcDbLine
 62
7
  6
CONTINUOUS
 10
148.1960957575
 20
98.34236559
 11
145.4529563456
 21
96.7586227658
  0
LINE
  5
36C
100
AcDbEntity
  8
0
100
AcDbLine
 62
7
  6
CONTINUOUS
 10
145.1730800789
 20
96.0340878381
 11
147.811840368
 21
97.5575677074
  0
LINE
  5
36D
100
AcDbEntity
  8
0
100
AcDbLine
 62
7
  6
CONTINUOUS
 10
143.6377039656
 20
94.2381959438
 11
146.1598523766
 21
95.6943503158
  0
LINE
  5
36E
100
AcDbEntity
  8
0
100
AcDbLine
 62
7
  6
CONTINUOUS
 10
47.811970138
 20
244.021492054
 11
134.7410833152
 21
193.8340805516
  0
LINE
  5
36F
100
AcDbEntity
  8
0
100
AcDbLine
 62
7
  6
CONTINUOUS
 10
73.0648908633
 20
238.1460552863
 11
124.683900799
 21
208.3444802063
  0
LINE
  5
370
100
AcDbEntity
  8
0
100
AcDbLine
 62
7
  6
CONTINUOUS
 10
174.3615448845
 20
217.9072856636
 11
174.3615448845
 21
65.2213336604
  0
LINE
  5
371
100
AcDbEntity
  8
0
100
AcDbLine
 62
7
  6
CONTINUOUS
 10
175.0686369459
 20
216.156133253
 11
175.0686369459
 21
205.7980831499
  0
LINE
  5
372
100
AcDbEntity
  8
0
100
AcDbLine
 62
7
  6
CONTINUOUS
 10
175.0686369459
 20
204.7914403336
 11
175.0686369459
 21
183.7322475763
  0
LINE
  5
373
100
AcDbEntity
  8
0
100
AcDbLine
 62
7
  6
CONTINUOUS
 10
175.0686369459
 20
71.0549140124
 11
175.0686369459
 21
81.4129641155
  0
LINE
  5
374
100
AcDbEntity
  8
0
100
AcDbLine
 62
7
  6
CONTINUOUS
 10
175.0686369459
 20
82.4196069318
 11
175.0686369459
 21
103.4787996891
  0
LINE
  5
375
100
AcDbEntity
  8
0
100
AcDbLine
 62
7
  6
CONTINUOUS
 10
175.7527665078
 20
62.7862824097
 11
175.7527665078
 21
218.7365647527
  0
LINE
  5
376
100
AcDbEntity
  8
0
100
AcDbLine
 62
7
  6
CONTINUOUS
 10
175.9539272183
 20
205.2869721356
 11
175.9539272183
 21
204.2803293193
  0
LINE
  5
377
100
AcDbEntity
  8
0
100
AcDbLine
 62
7
  6
CONTINUOUS
 10
175.9539272183
 20
81.9084959175
 11
175.9539272183
 21
80.9018531012
  0
LINE
  5
378
100
AcDbEntity
  8
0
100
AcDbLine
 62
7
  6
CONTINUOUS
 10
176.307479137
 20
205.4910942126
 11
176.307479137
 21
204.4844513963
  0
LINE
  5
379
100
AcDbEntity
  8
0
100
AcDbLine
 62
7
  6
CONTINUOUS
 10
176.307479137
 20
82.1126179945
 11
176.307479137
 21
81.1059751781
  0
LINE
  5
37A
100
AcDbEntity
  8
0
100
AcDbLine
 62
7
  6
CONTINUOUS
 10
176.4828563961
 20
219.1320181253
 11
176.4828563961
 21
66.446066122
  0
LINE
  5
37B
100
AcDbEntity
  8
0
100
AcDbLine
 62
7
  6
CONTINUOUS
 10
166.5195469799
 20
99.6889346841
 11
168.9658252734
 21
101.1012856848
  0
LINE
  5
37C
100
AcDbEntity
  8
0
100
AcDbLine
 62
7
  6
CONTINUOUS
 10
100.8221158054
 20
226.5975268009
 11
175.0686369458
 21
183.7322475763
  0
LINE
  5
37D
100
AcDbEntity
  8
0
100
AcDbLine
 62
7
  6
CONTINUOUS
 10
81.164723338
 20
238.2495491885
 11
132.7837332737
 21
208.4479741085
  0
LINE
  5
37E
100
AcDbEntity
  8
0
100
AcDbLine
 62
7
  6
CONTINUOUS
 10
80.3976287161
 20
238.7939994107
 11
132.0166386519
 21
208.9924243307
  0
LINE
  5
37F
100
AcDbEntity
  8
0
100
AcDbLine
 62
7
  6
CONTINUOUS
 10
169.6260839195
 20
92.8843245667
 11
172.6889263728
 21
94.6526469262
  0
LINE
  5
380
100
AcDbEntity
  8
0
100
AcDbLine
 62
7
  6
CONTINUOUS
 10
163.6841709597
 20
74.5276758349
 11
132.7837332737
 21
56.0645894226
  0
LINE
  5
381
100
AcDbEntity
  8
0
100
AcDbLine
 62
7
  6
CONTINUOUS
 10
172.6790494526
 20
81.0399861845
 11
175.0686369459
 21
82.4196069318
  0
LINE
  5
382
100
AcDbEntity
  8
0
100
AcDbLine
 62
7
  6
CONTINUOUS
 10
163.7548813435
 20
75.5907050211
 11
163.6841709597
 21
75.5498806057
  0
LINE
  5
383
100
AcDbEntity
  8
0
100
AcDbLine
 62
7
  6
CONTINUOUS
 10
172.7834285753
 20
80.0936063231
 11
175.0686369459
 21
81.4129641155
  0
LINE
  5
384
100
AcDbEntity
  8
0
100
AcDbLine
 62
7
  6
CONTINUOUS
 10
175.9539272183
 20
81.9084959175
 11
176.307479137
 21
82.1126179945
  0
LINE
  5
385
100
AcDbEntity
  8
0
100
AcDbLine
 62
7
  6
CONTINUOUS
 10
175.9539272183
 20
80.9018531012
 11
176.307479137
 21
81.1059751781
  0
LINE
  5
386
100
AcDbEntity
  8
0
100
AcDbLine
 62
7
  6
CONTINUOUS
 10
163.7548813435
 20
73.7943997034
 11
161.6335698318
 21
72.5696672418
  0
LINE
  5
387
100
AcDbEntity
  8
0
100
AcDbLine
 62
7
  6
CONTINUOUS
 10
172.6790494526
 20
203.4118195863
 11
145.1456300503
 21
219.3078870728
  0
LINE
  5
388
100
AcDbEntity
  8
0
100
AcDbLine
 62
7
  6
CONTINUOUS
 10
125.9687539465
 20
230.3794111823
 11
98.4325283121
 21
246.277098811
  0
LINE
  5
389
100
AcDbEntity
  8
0
100
AcDbLine
 62
7
  6
CONTINUOUS
 10
98.5369074349
 20
247.3440045822
 11
126.5381261838
 21
231.1778591269
  0
LINE
  5
38A
100
AcDbEntity
  8
0
100
AcDbLine
 62
7
  6
CONTINUOUS
 10
144.7850160585
 20
220.6432506706
 11
172.7834285753
 21
204.4787253575
  0
LINE
  5
38B
100
AcDbEntity
  8
0
100
AcDbLine
 62
7
  6
CONTINUOUS
 10
175.9539272183
 20
204.2803293193
 11
175.0686369459
 21
204.7914403336
  0
LINE
  5
38C
100
AcDbEntity
  8
0
100
AcDbLine
 62
7
  6
CONTINUOUS
 10
100.8221158054
 20
247.6567195582
 11
99.939631765
 21
248.1662104303
  0
LINE
  5
38D
100
AcDbEntity
  8
0
100
AcDbLine
 62
7
  6
CONTINUOUS
 10
176.307479137
 20
204.4844513963
 11
147.8887694622
 21
220.891629897
  0
LINE
  5
38E
100
AcDbEntity
  8
0
100
AcDbLine
 62
7
  6
CONTINUOUS
 10
128.7118933583
 20
231.9631540065
 11
100.2931836836
 21
248.3703325072
  0
LINE
  5
38F
100
AcDbEntity
  8
0
100
AcDbLine
 62
7
  6
CONTINUOUS
 10
99.939631765
 20
249.1728532466
 11
100.8221158054
 21
248.6633623745
  0
LINE
  5
390
100
AcDbEntity
  8
0
100
AcDbLine
 62
7
  6
CONTINUOUS
 10
175.0686369459
 20
205.7980831499
 11
175.9539272183
 21
205.2869721356
  0
LINE
  5
391
100
AcDbEntity
  8
0
100
AcDbLine
 62
7
  6
CONTINUOUS
 10
100.2931836836
 20
249.3769753235
 11
129.1768864729
 21
232.7013389962
  0
LINE
  5
392
100
AcDbEntity
  8
0
100
AcDbLine
 62
7
  6
CONTINUOUS
 10
147.4237763476
 20
222.1667305399
 11
176.307479137
 21
205.4910942126
  0
LINE
  5
393
100
AcDbEntity
  8
0
100
AcDbLine
 62
7
  6
CONTINUOUS
 10
174.3615448845
 20
65.2213336604
 11
176.4828563961
 21
66.446066122
  0
LINE
  5
394
100
AcDbEntity
  8
0
100
AcDbLine
 62
7
  6
CONTINUOUS
 10
175.0686369458
 20
216.156133253
 11
100.8221158054
 21
259.0214124776
  0
LINE
  5
395
100
AcDbEntity
  8
0
100
AcDbLine
 62
7
  6
CONTINUOUS
 10
174.3615448845
 20
217.9072856636
 11
161.6335698318
 21
225.255619245
  0
LINE
  5
396
100
AcDbEntity
  8
0
100
AcDbLine
 62
7
  6
CONTINUOUS
 10
110.0145598961
 20
255.057194325
 11
97.2865848435
 21
262.4055279064
  0
LINE
  5
397
100
AcDbEntity
  8
0
100
AcDbLine
 62
7
  6
CONTINUOUS
 10
112.065161024
 20
254.4447970535
 11
163.6841709597
 21
224.6432219736
  0
LINE
  5
398
100
AcDbEntity
  8
0
100
AcDbLine
 62
7
  6
CONTINUOUS
 10
163.7548813435
 20
224.684046389
 11
112.1358714077
 21
254.4856214689
  0
LINE
  5
399
100
AcDbEntity
  8
0
100
AcDbLine
 62
7
  6
CONTINUOUS
 10
112.065161024
 20
255.4670018244
 11
163.6841709597
 21
225.6654267444
  0
LINE
  5
39A
100
AcDbEntity
  8
0
100
AcDbLine
 62
7
  6
CONTINUOUS
 10
175.7522611129
 20
218.7373799904
 11
161.6335715054
 21
226.8886248301
  0
LINE
  5
39B
100
AcDbEntity
  8
0
100
AcDbLine
 62
7
  6
CONTINUOUS
 10
110.0145707901
 20
256.6902040468
 11
95.895954713
 21
264.8414064347
  0
LINE
  5
39C
100
AcDbEntity
  8
0
100
AcDbLine
 62
7
  6
CONTINUOUS
 10
176.4828563961
 20
219.1320181253
 11
163.7548813435
 21
226.4803517066
  0
LINE
  5
39D
100
AcDbEntity
  8
0
100
AcDbLine
 62
7
  6
CONTINUOUS
 10
112.1358714077
 20
256.2819267866
 11
99.4078963551
 21
263.630260368
  0
ARC
  5
39E
100
AcDbEntity
  8
0
100
AcDbCircle
 62
7
  6
CONTINUOUS
 10
-4636.0797756079
 20
8194.9256580554
 40
9367.6390192068
100
AcDbArc
 50
299.8727054412
 51
300.0005101897
  0
ARC
  5
39F
100
AcDbEntity
  8
0
100
AcDbCircle
 62
7
  6
CONTINUOUS
 10
-208.6015993988
 20
606.4227895552
 40
651.3369467562
100
AcDbArc
 50
300.0019462967
 51
300.7767623813
  0
ARC
  5
3A0
100
AcDbEntity
  8
0
100
AcDbCircle
 62
7
  6
CONTINUOUS
 10
-259.3632132764
 20
634.7623595722
 40
649.6420976024
100
AcDbArc
 50
300.0009349838
 51
300.7777724939
  0
ARC
  5
3A1
100
AcDbEntity
  8
0
100
AcDbCircle
 62
7
  6
CONTINUOUS
 10
232.8776320166
 20
-76.5105731836
 40
370.1217597686
100
AcDbArc
 50
120.0008566079
 51
123.415546441
  0
ARC
  5
3A2
100
AcDbEntity
  8
0
100
AcDbCircle
 62
7
  6
CONTINUOUS
 10
-43.2241926851
 20
340.4074258971
 40
355.9270077499
100
AcDbArc
 50
296.5777625265
 51
300.0003276938
  0
ARC
  5
3A3
100
AcDbEntity
  8
0
100
AcDbCircle
 62
7
  6
CONTINUOUS
 10
174.8096916533
 20
6.1728075768
 40
254.8612008591
100
AcDbArc
 50
123.187068404
 51
123.6717630726
  0
ARC
  5
3A4
100
AcDbEntity
  8
0
100
AcDbCircle
 62
7
  6
CONTINUOUS
 10
87.5887376834
 20
231.27182337
 40
66.2079276035
100
AcDbArc
 50
297.345899539
 51
299.973409189
  0
ARC
  5
3A5
100
AcDbEntity
  8
0
100
AcDbCircle
 62
7
  6
CONTINUOUS
 10
87.588737679
 20
149.1480102528
 40
66.2079276036
100
AcDbArc
 50
297.3458995432
 51
299.9734091933
  0
ARC
  5
3A6
100
AcDbEntity
  8
0
100
AcDbCircle
 62
7
  6
CONTINUOUS
 10
87.8975899066
 20
142.8707024965
 40
65.5669262572
100
AcDbArc
 50
297.330803958
 51
299.9813058625
  0
ARC
  5
3A7
100
AcDbEntity
  8
0
100
AcDbCircle
 62
7
  6
CONTINUOUS
 10
87.8975899068
 20
224.9945156111
 40
65.5669262569
100
AcDbArc
 50
297.330803958
 51
299.9813058625
  0
ARC
  5
3A8
100
AcDbEntity
  8
0
100
AcDbCircle
 62
7
  6
CONTINUOUS
 10
90.0953596293
 20
226.8913474884
 40
61.1609551452
100
AcDbArc
 50
299.9894260884
 51
302.4108686293
  0
ARC
  5
3A9
100
AcDbEntity
  8
0
100
AcDbCircle
 62
7
  6
CONTINUOUS
 10
90.0953596292
 20
144.7675343737
 40
61.1609551454
100
AcDbArc
 50
299.9894260884
 51
302.4108686293
  0
ARC
  5
3AA
100
AcDbEntity
  8
0
100
AcDbCircle
 62
7
  6
CONTINUOUS
 10
90.3268046046
 20
138.6686248924
 40
60.7131835476
100
AcDbArc
 50
299.977241788
 51
302.4204015201
  0
ARC
  5
3AB
100
AcDbEntity
  8
0
100
AcDbCircle
 62
7
  6
CONTINUOUS
 10
90.3268046046
 20
220.7924380073
 40
60.7131835476
100
AcDbArc
 50
299.977241788
 51
302.4204015201
  0
ARC
  5
3AC
100
AcDbEntity
  8
0
100
AcDbCircle
 62
7
  6
CONTINUOUS
 10
95.0151180113
 20
219.5033665129
 40
52.2820466396
100
AcDbArc
 50
306.1868157323
 51
306.4831738486
  0
ARC
  5
3AD
100
AcDbEntity
  8
0
100
AcDbCircle
 62
7
  6
CONTINUOUS
 10
95.015118021
 20
137.3795533848
 40
52.2820466231
100
AcDbArc
 50
306.1868157323
 51
306.4831738483
  0
ARC
  5
3AE
100
AcDbEntity
  8
0
100
AcDbCircle
 62
7
  6
CONTINUOUS
 10
95.0450723566
 20
131.6233106876
 40
52.2314912906
100
AcDbArc
 50
306.1866723397
 51
306.483317304
  0
ARC
  5
3AF
100
AcDbEntity
  8
0
100
AcDbCircle
 62
7
  6
CONTINUOUS
 10
95.0450723888
 20
213.7471237586
 40
52.2314912361
100
AcDbArc
 50
306.1866723396
 51
306.4833173038
  0
ARC
  5
3B0
100
AcDbEntity
  8
0
100
AcDbCircle
 62
7
  6
CONTINUOUS
 10
4.2210222557
 20
207.6855479645
 40
39.0045317173
100
AcDbArc
 50
19.4435174097
 51
21.741208342
  0
ARC
  5
3B1
100
AcDbEntity
  8
0
100
AcDbCircle
 62
7
  6
CONTINUOUS
 10
125.3555901095
 20
213.3964602052
 40
23.7470311127
100
AcDbArc
 50
18.3985773474
 51
21.6737095014
  0
ARC
  5
3B2
100
AcDbEntity
  8
0
100
AcDbCircle
 62
7
  6
CONTINUOUS
 10
18.3714225364
 20
212.0868326813
 40
23.3250273091
100
AcDbArc
 50
11.8825242942
 51
14.0219177405
  0
ARC
  5
3B3
100
AcDbEntity
  8
0
100
AcDbCircle
 62
7
  6
CONTINUOUS
 10
150.1389603909
 20
115.8929841878
 40
22.5807396572
100
AcDbArc
 50
195.7365679265
 51
199.0030670215
  0
ARC
  5
3B4
100
AcDbEntity
  8
0
100
AcDbCircle
 62
7
  6
CONTINUOUS
 10
125.2461476325
 20
100.4794389804
 40
20.7018034309
100
AcDbArc
 50
0.4686796193
 51
1.6159186534
  0
ARC
  5
3B5
100
AcDbEntity
  8
0
100
AcDbCircle
 62
7
  6
CONTINUOUS
 10
125.4942752992
 20
213.1598233992
 40
20.4536600026
100
AcDbArc
 50
0.4659055997
 51
1.6270159705
  0
ARC
  5
3B6
100
AcDbEntity
  8
0
100
AcDbCircle
 62
7
  6
CONTINUOUS
 10
65.3721432722
 20
89.5261819402
 40
15.0276294685
100
AcDbArc
 50
300.7909327382
 51
303.2381244043
  0
ARC
  5
3B7
100
AcDbEntity
  8
0
100
AcDbCircle
 62
7
  6
CONTINUOUS
 10
116.9911532079
 20
59.7246068602
 40
15.0276294685
100
AcDbArc
 50
300.7909327382
 51
303.2381244043
  0
ARC
  5
3B8
100
AcDbEntity
  8
0
100
AcDbCircle
 62
7
  6
CONTINUOUS
 10
131.1646490498
 20
196.7624231524
 40
13.2719306618
100
AcDbArc
 50
116.5706768317
 51
119.2292257455
  0
ARC
  5
3B9
100
AcDbEntity
  8
0
100
AcDbCircle
 62
7
  6
CONTINUOUS
 10
79.5456391141
 20
226.5639982323
 40
13.2719306619
100
AcDbArc
 50
116.5706768317
 51
119.2292257455
  0
ARC
  5
3BA
100
AcDbEntity
  8
0
100
AcDbCircle
 62
7
  6
CONTINUOUS
 10
30.1993104828
 20
152.1170266905
 40
11.4508151452
100
AcDbArc
 50
340.6287186976
 51
343.4929842531
  0
ARC
  5
3BB
100
AcDbEntity
  8
0
100
AcDbCircle
 62
7
  6
CONTINUOUS
 10
135.9902877203
 20
112.9915316088
 40
11.2736313529
100
AcDbArc
 50
178.3646705819
 51
180.4342565102
  0
ARC
  5
3BC
100
AcDbEntity
  8
0
100
AcDbCircle
 62
7
  6
CONTINUOUS
 10
135.823497143
 20
225.6696821641
 40
11.1068476706
100
AcDbArc
 50
178.3444170165
 51
180.4457132042
  0
ARC
  5
3BD
100
AcDbEntity
  8
0
100
AcDbCircle
 62
7
  6
CONTINUOUS
 10
24.4686631558
 20
148.4070497884
 40
10.9128092437
100
AcDbArc
 50
343.166495093
 51
343.5128634974
  0
ARC
  5
3BE
100
AcDbEntity
  8
0
100
AcDbCircle
 62
7
  6
CONTINUOUS
 10
32.3456255303
 20
150.5290180104
 40
10.0702974934
100
AcDbArc
 50
323.5991634942
 51
329.2614665163
  0
ARC
  5
3BF
100
AcDbEntity
  8
0
100
AcDbCircle
 62
7
  6
CONTINUOUS
 10
32.7777521075
 20
151.3581618202
 40
8.7630256233
100
AcDbArc
 50
343.4600768678
 51
343.894309743
  0
ARC
  5
3C0
100
AcDbEntity
  8
0
100
AcDbCircle
 62
7
  6
CONTINUOUS
 10
39.7503777722
 20
137.7670842105
 40
2.8482294769
100
AcDbArc
 50
314.9870263558
 51
317.4428410178
  0
ARC
  5
3C1
100
AcDbEntity
  8
0
100
AcDbCircle
 62
7
  6
CONTINUOUS
 10
39.7503777735
 20
225.6227442924
 40
2.8482294751
100
AcDbArc
 50
314.987026356
 51
317.4428410182
  0
ARC
  5
3C2
100
AcDbEntity
  8
0
100
AcDbCircle
 62
7
  6
CONTINUOUS
 10
39.0297363078
 20
136.2291667243
 40
2.1350474342
100
AcDbArc
 50
111.862940936
 51
119.8328955485
  0
ARC
  5
3C3
100
AcDbEntity
  8
0
100
AcDbCircle
 62
7
  6
CONTINUOUS
 10
-251.7335839445
 20
764.8390126963
 40
773.7378878868
100
AcDbArc
 50
298.3196897556
 51
298.7187857333
  0
ARC
  5
3C4
100
AcDbEntity
  8
0
100
AcDbCircle
 62
7
  6
CONTINUOUS
 10
-251.2392600687
 20
851.7686376521
 40
772.7025559632
100
AcDbArc
 50
298.319422465
 51
298.7190531858
  0
ARC
  5
3C5
100
AcDbEntity
  8
0
100
AcDbCircle
 62
7
  6
CONTINUOUS
 10
-250.6140746089
 20
844.8971953582
 40
771.388400416
100
AcDbArc
 50
298.3192734992
 51
298.945771162
  0
ARC
  5
3C6
100
AcDbEntity
  8
0
100
AcDbCircle
 62
7
  6
CONTINUOUS
 10
-251.4858526432
 20
753.0943597159
 40
770.3509169483
100
AcDbArc
 50
298.4346837254
 51
298.7118584272
  0
ARC
  5
3C7
100
AcDbEntity
  8
0
100
AcDbCircle
 62
7
  6
CONTINUOUS
 10
-251.4858526388
 20
850.5439231921
 40
770.350916939
100
AcDbArc
 50
298.4346837254
 51
298.7118584272
  0
ARC
  5
3C8
100
AcDbEntity
  8
0
100
AcDbCircle
 62
7
  6
CONTINUOUS
 10
-249.8374237922
 20
767.0663338477
 40
769.7676490917
100
AcDbArc
 50
298.3186142634
 51
298.946431026
  0
ARC
  5
3C9
100
AcDbEntity
  8
0
100
AcDbCircle
 62
7
  6
CONTINUOUS
 10
-251.1434048899
 20
762.0758010224
 40
769.6349222869
100
AcDbArc
 50
298.434554824
 51
298.7119873828
  0
ARC
  5
3CA
100
AcDbEntity
  8
0
100
AcDbCircle
 62
7
  6
CONTINUOUS
 10
-251.1434048784
 20
859.7376551141
 40
769.6349222628
100
AcDbArc
 50
298.434554824
 51
298.7119873828
  0
ARC
  5
3CB
100
AcDbEntity
  8
0
100
AcDbCircle
 62
7
  6
CONTINUOUS
 10
-246.4306131311
 20
755.1531535245
 40
762.7025230477
100
AcDbArc
 50
298.7187552204
 51
299.2903620306
  0
ARC
  5
3CC
100
AcDbEntity
  8
0
100
AcDbCircle
 62
7
  6
CONTINUOUS
 10
-245.7211433873
 20
841.7291298908
 40
761.2393388212
100
AcDbArc
 50
298.7182061127
 51
299.290911616
  0
ARC
  5
3CD
100
AcDbEntity
  8
0
100
AcDbCircle
 62
7
  6
CONTINUOUS
 10
-245.3922682374
 20
835.4217700521
 40
760.5693960459
100
AcDbArc
 50
298.9470098372
 51
299.2139607463
  0
ARC
  5
3CE
100
AcDbEntity
  8
0
100
AcDbCircle
 62
7
  6
CONTINUOUS
 10
-245.0610275768
 20
758.4178739019
 40
759.887884285
100
AcDbArc
 50
298.9468901528
 51
299.2140804792
  0
ARC
  5
3CF
100
AcDbEntity
  8
0
100
AcDbCircle
 62
7
  6
CONTINUOUS
 10
-283.3654867816
 20
717.7384664178
 40
657.1209887422
100
AcDbArc
 50
298.8299468399
 51
299.0168419872
  0
ARC
  5
3D0
100
AcDbEntity
  8
0
100
AcDbCircle
 62
7
  6
CONTINUOUS
 10
406.5351497467
 20
-476.9706214984
 40
717.7591723495
100
AcDbArc
 50
120.7178293299
 51
121.3130472957
  0
ARC
  5
3D1
100
AcDbEntity
  8
0
100
AcDbCircle
 62
7
  6
CONTINUOUS
 10
405.7963344016
 20
-387.8861097761
 40
716.3253335903
100
AcDbArc
 50
120.7172338867
 51
121.3136432792
  0
ARC
  5
3D2
100
AcDbEntity
  8
0
100
AcDbCircle
 62
7
  6
CONTINUOUS
 10
401.9491947845
 20
-387.2639248569
 40
708.9043973074
100
AcDbArc
 50
121.1444898133
 51
121.7047155396
  0
ARC
  5
3D3
100
AcDbEntity
  8
0
100
AcDbCircle
 62
7
  6
CONTINUOUS
 10
401.2907344692
 20
-462.594226135
 40
707.6412184154
100
AcDbArc
 50
121.1367374306
 51
121.7052284169
  0
ARC
  5
3D4
100
AcDbEntity
  8
0
100
AcDbCircle
 62
7
  6
CONTINUOUS
 10
400.8956332605
 20
-467.669047629
 40
706.8884966067
100
AcDbArc
 50
121.3140073176
 51
121.7052753853
  0
ARC
  5
3D5
100
AcDbEntity
  8
0
100
AcDbCircle
 62
7
  6
CONTINUOUS
 10
400.4109533753
 20
-379.0390887642
 40
705.961133161
100
AcDbArc
 50
121.3137504053
 51
121.7055324506
  0
ARC
  5
3D6
100
AcDbEntity
  8
0
100
AcDbCircle
 62
7
  6
CONTINUOUS
 10
401.8045045809
 20
-477.1813808475
 40
705.8441776279
100
AcDbArc
 50
121.321728769
 51
121.6155406971
  0
ARC
  5
3D7
100
AcDbEntity
  8
0
100
AcDbCircle
 62
7
  6
CONTINUOUS
 10
401.804504578
 20
-379.7318173583
 40
705.8441776223
100
AcDbArc
 50
121.321728769
 51
121.615540697
  0
ARC
  5
3D8
100
AcDbEntity
  8
0
100
AcDbCircle
 62
7
  6
CONTINUOUS
 10
401.4414745894
 20
-466.9780069358
 40
705.1487607641
100
AcDbArc
 50
121.3215839228
 51
121.615685608
  0
ARC
  5
3D9
100
AcDbEntity
  8
0
100
AcDbCircle
 62
7
  6
CONTINUOUS
 10
401.441474585
 20
-369.3161528156
 40
705.1487607555
100
AcDbArc
 50
121.3215839228
 51
121.615685608
  0
ARC
  5
3DA
100
AcDbEntity
  8
0
100
AcDbCircle
 62
7
  6
CONTINUOUS
 10
435.1627795639
 20
-346.8767902189
 40
636.135057429
100
AcDbArc
 50
119.2138532739
 51
120.0009593744
  0
ARC
  5
3DB
100
AcDbEntity
  8
0
100
AcDbCircle
 62
7
  6
CONTINUOUS
 10
382.7129781616
 20
-315.6132116927
 40
634.4535122392
100
AcDbArc
 50
119.2128095797
 51
120.0020018244
  0
ARC
  5
3DC
100
AcDbEntity
  8
0
100
AcDbCircle
 62
7
  6
CONTINUOUS
 10
998.4000403011
 20
1798.3448942994
 40
1846.5024937113
100
AcDbArc
 50
241.3929487652
 51
241.5448106463
  0
ARC
  5
3DD
100
AcDbEntity
  8
0
100
AcDbCircle
 62
7
  6
CONTINUOUS
 10
997.9509651519
 20
1709.6632106171
 40
1845.5622902158
100
AcDbArc
 50
241.3929100784
 51
241.544849324
  0
ARC
  5
3DE
100
AcDbEntity
  8
0
100
AcDbCircle
 62
7
  6
CONTINUOUS
 10
997.153876526
 20
1698.5929484037
 40
1843.8916796805
100
AcDbArc
 50
241.2874089153
 51
241.5448878954
  0
ARC
  5
3DF
100
AcDbEntity
  8
0
100
AcDbCircle
 62
7
  6
CONTINUOUS
 10
989.2004840849
 20
1783.6839645892
 40
1834.5166471444
100
AcDbArc
 50
241.4272576452
 51
241.5622434168
  0
ARC
  5
3E0
100
AcDbEntity
  8
0
100
AcDbCircle
 62
7
  6
CONTINUOUS
 10
988.8042598341
 20
1700.0140539741
 40
1833.6864049445
100
AcDbArc
 50
241.4272270832
 51
241.5622739726
  0
ARC
  5
3E1
100
AcDbEntity
  8
0
100
AcDbCircle
 62
7
  6
CONTINUOUS
 10
988.4034876094
 20
1696.8258804536
 40
1832.8460205689
100
AcDbArc
 50
241.3714932423
 51
241.5525212119
  0
ARC
  5
3E2
100
AcDbEntity
  8
0
100
AcDbCircle
 62
7
  6
CONTINUOUS
 10
987.8719973297
 20
1783.6878726887
 40
1831.73351467
100
AcDbArc
 50
241.371438261
 51
241.5525761782
  0
ARC
  5
3E3
100
AcDbEntity
  8
0
100
AcDbCircle
 62
7
  6
CONTINUOUS
 10
978.2416618461
 20
1761.70254415
 40
1804.6812806627
100
AcDbArc
 50
240.0063303029
 51
241.2901195759
  0
ARC
  5
3E4
100
AcDbEntity
  8
0
100
AcDbCircle
 62
7
  6
CONTINUOUS
 10
977.5461818089
 20
1770.2201041116
 40
1803.2102233418
100
AcDbArc
 50
240.004870792
 51
241.5529953521
  0
ARC
  5
3E5
100
AcDbEntity
  8
0
100
AcDbCircle
 62
7
  6
CONTINUOUS
 10
963.0207355485
 20
1637.037035032
 40
1773.5069124733
100
AcDbArc
 50
238.7034920554
 51
241.2991584679
  0
ARC
  5
3E6
100
AcDbEntity
  8
0
100
AcDbCircle
 62
7
  6
CONTINUOUS
 10
955.2905502961
 20
1622.0138422998
 40
1758.047799785
100
AcDbArc
 50
238.6920726029
 51
241.3105649119
  0
ARC
  5
3E7
100
AcDbEntity
  8
0
100
AcDbCircle
 62
7
  6
CONTINUOUS
 10
966.7444708146
 20
1628.0867234485
 40
1757.0608260016
100
AcDbArc
 50
238.7763968406
 51
241.2260841207
  0
ARC
  5
3E8
100
AcDbEntity
  8
0
100
AcDbCircle
 62
7
  6
CONTINUOUS
 10
959.5165452554
 20
1714.6574116966
 40
1742.6060363926
100
AcDbArc
 50
238.7662316463
 51
241.2362399478
  0
ARC
  5
3E9
100
AcDbEntity
  8
0
100
AcDbCircle
 62
7
  6
CONTINUOUS
 10
943.5067961124
 20
1701.3629638332
 40
1735.0581010633
100
AcDbArc
 50
238.685778773
 51
240.0036613745
  0
ARC
  5
3EA
100
AcDbEntity
  8
0
100
AcDbCircle
 62
7
  6
CONTINUOUS
 10
935.6171642389
 20
1697.8500720328
 40
1719.5712052859
100
AcDbArc
 50
238.4113528223
 51
240.0093252687
  0
ARC
  5
3EB
100
AcDbEntity
  8
0
100
AcDbCircle
 62
7
  6
CONTINUOUS
 10
920.5719479379
 20
1565.8675098624
 40
1690.641208959
100
AcDbArc
 50
238.4070219503
 51
238.6798322231
  0
ARC
  5
3EC
100
AcDbEntity
  8
0
100
AcDbCircle
 62
7
  6
CONTINUOUS
 10
918.9172724314
 20
1660.6254091925
 40
1687.4746632241
100
AcDbArc
 50
238.40685379
 51
238.568111911
  0
ARC
  5
3ED
100
AcDbEntity
  8
0
100
AcDbCircle
 62
7
  6
CONTINUOUS
 10
918.4403775301
 20
1571.9919085466
 40
1686.5622686978
100
AcDbArc
 50
238.4068101659
 51
238.5681555243
  0
ARC
  5
3EE
100
AcDbEntity
  8
0
100
AcDbCircle
 62
7
  6
CONTINUOUS
 10
909.8729883818
 20
1560.747248809
 40
1675.7157460505
100
AcDbArc
 50
238.3986952583
 51
238.5908687177
  0
ARC
  5
3EF
100
AcDbEntity
  8
0
100
AcDbCircle
 62
7
  6
CONTINUOUS
 10
909.4958092155
 20
1644.0510141356
 40
1674.993143346
100
AcDbArc
 50
238.3665196996
 51
238.5908926798
  0
ARC
  5
3F0
100
AcDbEntity
  8
0
100
AcDbCircle
 62
7
  6
CONTINUOUS
 10
909.3087344059
 20
1647.6659877356
 40
1674.6359920438
100
AcDbArc
 50
238.3986332954
 51
238.5909306624
  0
ARC
  5
3F1
100
AcDbEntity
  8
0
100
AcDbCircle
 62
7
  6
CONTINUOUS
 10
908.8370198945
 20
1562.9759563158
 40
1673.7330638512
100
AcDbArc
 50
238.3664352249
 51
238.5909771256
  0
SPLINE
  5
3F2
100
AcDbEntity
  8
0
100
AcDbSpline
 62
7
  6
CONTINUOUS
 70
0
 71
3
 72
10
 73
6
 74
0
 42
0.0000001
 43
0.0000001
 44
0.0000000001
 40
0.0
 40
0.0
 40
0.0
 40
0.0
 40
0.3368415804
 40
0.6701857279
 40
1.0
 40
1.0
 40
1.0
 40
1.0
 10
115.3205204415
 20
182.6216787365
 30
0.0
 10
105.4750413785
 20
187.9324856364
 30
0.0
 10
85.9852356953
 20
198.6837124538
 30
0.0
 10
57.2209785621
 20
215.2864275087
 30
0.0
 10
38.36705281
 20
226.6724636187
 30
0.0
 10
29.048905605
 20
232.4294918098
 30
0.0
  0
LINE
  5
3F3
100
AcDbEntity
  8
0
100
AcDbLine
 62
7
  6
CONTINUOUS
 10
115.3205189399
 20
182.621681261
 11
134.7410775006
 21
193.8340906227
  0
SPLINE
  5
3F4
100
AcDbEntity
  8
0
100
AcDbSpline
 62
7
  6
CONTINUOUS
 70
0
 71
3
 72
10
 73
6
 74
0
 42
0.0000001
 43
0.0000001
 44
0.0000000001
 40
0.0
 40
0.0
 40
0.0
 40
0.0
 40
0.3332758745
 40
0.6666092128
 40
1.0
 40
1.0
 40
1.0
 40
1.0
 10
118.5946014926
 20
174.9183179327
 30
0.0
 10
118.7569150753
 20
174.8303529948
 30
0.0
 10
119.0815965623
 20
174.6544565413
 30
0.0
 10
119.5687396956
 20
174.390734867
 30
0.0
 10
119.8935823534
 20
174.2150024176
 30
0.0
 10
120.0560308088
 20
174.1271529064
 30
0.0
  0
SPLINE
  5
3F5
100
AcDbEntity
  8
0
100
AcDbSpline
 62
7
  6
CONTINUOUS
 70
0
 71
3
 72
10
 73
6
 74
0
 42
0.0000001
 43
0.0000001
 44
0.0000000001
 40
0.0
 40
0.0
 40
0.0
 40
0.0
 40
0.3856763229
 40
0.7098255085
 40
1.0
 40
1.0
 40
1.0
 40
1.0
 10
123.2450308665
 20
178.3360725344
 30
0.0
 10
123.3720486851
 20
178.2614868559
 30
0.0
 10
123.5942006958
 20
178.0992762344
 30
0.0
 10
123.8135805911
 20
177.7732514834
 30
0.0
 10
123.8392586677
 20
177.5286073979
 30
0.0
 10
123.8232133131
 20
177.4189516663
 30
0.0
  0
SPLINE
  5
3F6
100
AcDbEntity
  8
0
100
AcDbSpline
 62
7
  6
CONTINUOUS
 70
0
 71
3
 72
12
 73
8
 74
0
 42
0.0000001
 43
0.0000001
 44
0.0000000001
 40
0.0
 40
0.0
 40
0.0
 40
0.0
 40
0.1537184628
 40
0.3277889438
 40
0.5282429918
 40
0.7537022371
 40
1.0
 40
1.0
 40
1.0
 40
1.0
 10
123.8232133131
 20
177.4189516663
 30
0.0
 10
123.8086534011
 20
177.3228654793
 30
0.0
 10
123.7316533984
 20
177.1237718693
 30
0.0
 10
123.507673134
 20
176.8696513778
 30
0.0
 10
123.1896613681
 20
176.6569696603
 30
0.0
 10
122.7944579422
 20
176.4948472021
 30
0.0
 10
122.5023518639
 20
176.428052112
 30
0.0
 10
122.3484693226
 20
176.4042463439
 30
0.0
  0
SPLINE
  5
3F7
100
AcDbEntity
  8
0
100
AcDbSpline
 62
7
  6
CONTINUOUS
 70
0
 71
3
 72
10
 73
6
 74
0
 42
0.0000001
 43
0.0000001
 44
0.0000000001
 40
0.0
 40
0.0
 40
0.0
 40
0.0
 40
0.3457699671
 40
0.6893426267
 40
1.0
 40
1.0
 40
1.0
 40
1.0
 10
122.3484693226
 20
176.4042463439
 30
0.0
 10
122.1222069728
 20
176.3700250491
 30
0.0
 10
121.6631617613
 20
176.3464810593
 30
0.0
 10
121.0039925167
 20
176.4424779086
 30
0.0
 10
120.5955719872
 20
176.6018785418
 30
0.0
 10
120.4166155176
 20
176.703095919
 30
0.0
  0
SPLINE
  5
3F8
100
AcDbEntity
  8
0
100
AcDbSpline
 62
7
  6
CONTINUOUS
 70
0
 71
3
 72
10
 73
6
 74
0
 42
0.0000001
 43
0.0000001
 44
0.0000000001
 40
0.0
 40
0.0
 40
0.0
 40
0.0
 40
0.3332758759
 40
0.6666092135
 40
1.0
 40
1.0
 40
1.0
 40
1.0
 10
118.5946014942
 20
87.0708228729
 30
0.0
 10
118.7569150773
 20
86.9828579347
 30
0.0
 10
119.0815965643
 20
86.8069614812
 30
0.0
 10
119.5687396971
 20
86.5432398072
 30
0.0
 10
119.8935823539
 20
86.3675073583
 30
0.0
 10
120.0560308088
 20
86.2796578474
 30
0.0
  0
SPLINE
  5
3F9
100
AcDbEntity
  8
0
100
AcDbSpline
 62
7
  6
CONTINUOUS
 70
0
 71
3
 72
10
 73
6
 74
0
 42
0.0000001
 43
0.0000001
 44
0.0000000001
 40
0.0
 40
0.0
 40
0.0
 40
0.0
 40
0.3481726372
 40
0.6824864016
 40
1.0
 40
1.0
 40
1.0
 40
1.0
 10
115.3205189398
 20
83.7064236603
 30
0.0
 10
115.6436157094
 20
83.7721343289
 30
0.0
 10
116.2721923446
 20
83.926307316
 30
0.0
 10
117.1699734288
 20
84.2311497811
 30
0.0
 10
117.7341167906
 20
84.4847769254
 30
0.0
 10
118.0011750707
 20
84.6229325471
 30
0.0
  0
SPLINE
  5
3FA
100
AcDbEntity
  8
0
100
AcDbSpline
 62
7
  6
CONTINUOUS
 70
0
 71
3
 72
10
 73
6
 74
0
 42
0.0000001
 43
0.0000001
 44
0.0000000001
 40
0.0
 40
0.0
 40
0.0
 40
0.0
 40
0.2974969479
 40
0.6309090788
 40
1.0
 40
1.0
 40
1.0
 40
1.0
 10
126.1013270888
 20
89.6276236945
 30
0.0
 10
125.9822348458
 20
89.809443809
 30
0.0
 10
125.6729261037
 20
90.1588439191
 30
0.0
 10
125.078400405
 20
90.5902307023
 30
0.0
 10
124.6147803065
 20
90.816410138
 30
0.0
 10
124.3647780035
 20
90.9174749812
 30
0.0
  0
SPLINE
  5
3FB
100
AcDbEntity
  8
0
100
AcDbSpline
 62
7
  6
CONTINUOUS
 70
0
 71
3
 72
11
 73
7
 74
0
 42
0.0000001
 43
0.0000001
 44
0.0000000001
 40
0.0
 40
0.0
 40
0.0
 40
0.0
 40
0.2602562969
 40
0.4907753689
 40
0.7267251596
 40
1.0
 40
1.0
 40
1.0
 40
1.0
 10
41.763924062
 20
219.6809093053
 30
0.0
 10
41.9734437617
 20
219.8904280242
 30
0.0
 10
42.3172046136
 20
220.3520223135
 30
0.0
 10
42.4722734565
 20
221.1995410469
 30
0.0
 10
42.1838735025
 20
222.024599535
 30
0.0
 10
41.778961538
 20
222.4581210182
 30
0.0
 10
41.5389104817
 20
222.6560485254
 30
0.0
  0
SPLINE
  5
3FC
100
AcDbEntity
  8
0
100
AcDbSpline
 62
7
  6
CONTINUOUS
 70
0
 71
3
 72
10
 73
6
 74
0
 42
0.0000001
 43
0.0000001
 44
0.0000000001
 40
0.0
 40
0.0
 40
0.0
 40
0.0
 40
0.3228771
 40
0.6562500967
 40
1.0
 40
1.0
 40
1.0
 40
1.0
 10
41.5389104817
 20
222.6560485254
 30
0.0
 10
41.4846452736
 20
222.7007914128
 30
0.0
 10
41.3715198337
 20
222.7883472354
 30
0.0
 10
41.191875948
 20
222.9117208503
 30
0.0
 10
41.0659380936
 20
222.9886531894
 30
0.0
 10
41.0010905504
 20
223.026092089
 30
0.0
  0
SPLINE
  5
3FD
100
AcDbEntity
  8
0
100
AcDbSpline
 62
7
  6
CONTINUOUS
 70
0
 71
3
 72
10
 73
6
 74
0
 42
0.0000001
 43
0.0000001
 44
0.0000000001
 40
0.0
 40
0.0
 40
0.0
 40
0.0
 40
0.3437499033
 40
0.6771229001
 40
1.0
 40
1.0
 40
1.0
 40
1.0
 10
41.0010905504
 20
143.0251852586
 30
0.0
 10
41.0659380937
 20
142.987746359
 30
0.0
 10
41.191875948
 20
142.9108140199
 30
0.0
 10
41.3715198337
 20
142.787440405
 30
0.0
 10
41.4846452736
 20
142.6998845824
 30
0.0
 10
41.5389104817
 20
142.6551416951
 30
0.0
  0
SPLINE
  5
3FE
100
AcDbEntity
  8
0
100
AcDbSpline
 62
7
  6
CONTINUOUS
 70
0
 71
3
 72
11
 73
7
 74
0
 42
0.0000001
 43
0.0000001
 44
0.0000000001
 40
0.0
 40
0.0
 40
0.0
 40
0.0
 40
0.2732748403
 40
0.5092246311
 40
0.7397437031
 40
1.0
 40
1.0
 40
1.0
 40
1.0
 10
41.5389104817
 20
142.6551416951
 30
0.0
 10
41.778961538
 20
142.4572141878
 30
0.0
 10
42.1838735025
 20
142.0236927047
 30
0.0
 10
42.4722734565
 20
141.1986342165
 30
0.0
 10
42.3172046136
 20
140.3511154831
 30
0.0
 10
41.9734437617
 20
139.8895211938
 30
0.0
 10
41.763924062
 20
139.6800024749
 30
0.0
  0
SPLINE
  5
3FF
100
AcDbEntity
  8
0
100
AcDbSpline
 62
7
  6
CONTINUOUS
 70
0
 71
3
 72
10
 73
6
 74
0
 42
0.0000001
 43
0.0000001
 44
0.0000000001
 40
0.0
 40
0.0
 40
0.0
 40
0.0
 40
0.3465491091
 40
0.6803264314
 40
1.0
 40
1.0
 40
1.0
 40
1.0
 10
39.6005699009
 20
139.914546338
 30
0.0
 10
38.9338609856
 20
139.7061476406
 30
0.0
 10
37.6376566326
 20
139.2547598931
 30
0.0
 10
35.7837062205
 20
138.4597166789
 30
0.0
 10
34.6145527173
 20
137.8495307518
 30
0.0
 10
34.0565294127
 20
137.5273577698
 30
0.0
  0
SPLINE
  5
400
100
AcDbEntity
  8
0
100
AcDbSpline
 62
7
  6
CONTINUOUS
 70
0
 71
3
 72
10
 73
6
 74
0
 42
0.0000001
 43
0.0000001
 44
0.0000000001
 40
0.0
 40
0.0
 40
0.0
 40
0.0
 40
0.3544190098
 40
0.6876455183
 40
1.0
 40
1.0
 40
1.0
 40
1.0
 10
34.0565294127
 20
137.5273577698
 30
0.0
 10
33.4378884788
 20
137.1701873921
 30
0.0
 10
32.2691181525
 20
136.4198269973
 30
0.0
 10
30.698696689
 20
135.150013303
 30
0.0
 10
29.7928643018
 20
134.2094475864
 30
0.0
 10
29.3903951704
 20
133.7253337767
 30
0.0
  0
SPLINE
  5
401
100
AcDbEntity
  8
0
100
AcDbSpline
 62
7
  6
CONTINUOUS
 70
0
 71
3
 72
10
 73
6
 74
0
 42
0.0000001
 43
0.0000001
 44
0.0000000001
 40
0.0
 40
0.0
 40
0.0
 40
0.0
 40
0.3332720628
 40
0.666605399
 40
1.0
 40
1.0
 40
1.0
 40
1.0
 10
33.5058966087
 20
136.2482706852
 30
0.0
 10
33.6580870528
 20
136.154466395
 30
0.0
 10
33.9625258711
 20
135.9668891535
 30
0.0
 10
34.4193158287
 20
135.685643167
 30
0.0
 10
34.7239302497
 20
135.4982257584
 30
0.0
 10
34.8762663894
 20
135.4045327271
 30
0.0
  0
SPLINE
  5
402
100
AcDbEntity
  8
0
100
AcDbSpline
 62
7
  6
CONTINUOUS
 70
0
 71
3
 72
11
 73
7
 74
0
 42
0.0000001
 43
0.0000001
 44
0.0000000001
 40
0.0
 40
0.0
 40
0.0
 40
0.0
 40
0.2753042921
 40
0.5134612693
 40
0.7441059763
 40
1.0
 40
1.0
 40
1.0
 40
1.0
 10
41.5389104818
 20
138.7277650686
 30
0.0
 10
41.7722509741
 20
138.5353705726
 30
0.0
 10
42.1667944381
 20
138.1155201564
 30
0.0
 10
42.4624634245
 20
137.3231657625
 30
0.0
 10
42.3467606886
 20
136.5039824446
 30
0.0
 10
42.0384647475
 20
136.047861202
 30
0.0
 10
41.8483921292
 20
135.8407543034
 30
0.0
  0
SPLINE
  5
403
100
AcDbEntity
  8
0
100
AcDbSpline
 62
7
  6
CONTINUOUS
 70
0
 71
3
 72
10
 73
6
 74
0
 42
0.0000001
 43
0.0000001
 44
0.0000000001
 40
0.0
 40
0.0
 40
0.0
 40
0.0
 40
0.3333946012
 40
0.6667279373
 40
1.0
 40
1.0
 40
1.0
 40
1.0
 10
34.8762663909
 20
135.396367702
 30
0.0
 10
34.7239302509
 20
135.4900607335
 30
0.0
 10
34.4193158296
 20
135.6774781423
 30
0.0
 10
33.9625258715
 20
135.9587241291
 30
0.0
 10
33.6580870529
 20
136.1463013708
 30
0.0
 10
33.5058966087
 20
136.240105661
 30
0.0
  0
SPLINE
  5
404
100
AcDbEntity
  8
0
100
AcDbSpline
 62
7
  6
CONTINUOUS
 70
0
 71
3
 72
16
 73
12
 74
0
 42
0.0000001
 43
0.0000001
 44
0.0000000001
 40
0.0
 40
0.0
 40
0.0
 40
0.0
 40
0.1033027806
 40
0.1882185365
 40
0.2677302998
 40
0.3604295324
 40
0.4730524055
 40
0.6025030682
 40
0.7398869695
 40
0.8764894282
 40
1.0
 40
1.0
 40
1.0
 40
1.0
 10
37.9676097896
 20
138.0812776297
 30
0.0
 10
37.8188417134
 20
137.9933027529
 30
0.0
 10
37.5610291768
 20
137.8009038011
 30
0.0
 10
37.3454078573
 20
137.3807126398
 30
0.0
 10
37.4208867769
 20
136.9294389441
 30
0.0
 10
37.7479344515
 20
136.5600890817
 30
0.0
 10
38.2448818367
 20
136.2877843843
 30
0.0
 10
38.8644776687
 20
136.1262631292
 30
0.0
 10
39.5427724245
 20
136.0915581739
 30
0.0
 10
40.2055661788
 20
136.186551326
 30
0.0
 10
40.6161688084
 20
136.3466063368
 30
0.0
 10
40.7960486902
 20
136.4483146116
 30
0.0
  0
SPLINE
  5
405
100
AcDbEntity
  8
0
100
AcDbSpline
 62
7
  6
CONTINUOUS
 70
0
 71
3
 72
16
 73
12
 74
0
 42
0.0000001
 43
0.0000001
 44
0.0000000001
 40
0.0
 40
0.0
 40
0.0
 40
0.0
 40
0.1045122422
 40
0.1910438564
 40
0.2705466929
 40
0.3603175903
 40
0.4686366836
 40
0.5944492244
 40
0.7307246832
 40
0.8696712178
 40
1.0
 40
1.0
 40
1.0
 40
1.0
 10
40.7960486902
 20
136.4483146116
 30
0.0
 10
40.9386276072
 20
136.5306320964
 30
0.0
 10
41.1837687493
 20
136.7151722705
 30
0.0
 10
41.4033173411
 20
137.1024530356
 30
0.0
 10
41.3707146167
 20
137.5277122937
 30
0.0
 10
41.1025111542
 20
137.8933357029
 30
0.0
 10
40.6688336003
 20
138.1747345671
 30
0.0
 10
40.1108318505
 20
138.3615620988
 30
0.0
 10
39.4798892009
 20
138.4382180328
 30
0.0
 10
38.8389376974
 20
138.3971941562
 30
0.0
 10
38.4250099843
 20
138.2876027086
 30
0.0
 10
38.2346711657
 20
138.2106558023
 30
0.0
  0
SPLINE
  5
406
100
AcDbEntity
  8
0
100
AcDbSpline
 62
7
  6
CONTINUOUS
 70
0
 71
3
 72
10
 73
6
 74
0
 42
0.0000001
 43
0.0000001
 44
0.0000000001
 40
0.0
 40
0.0
 40
0.0
 40
0.0
 40
0.3296723328
 40
0.6630454562
 40
1.0
 40
1.0
 40
1.0
 40
1.0
 10
29.0488999842
 20
122.2710010444
 30
0.0
 10
38.3685732724
 20
116.5255973605
 30
0.0
 10
57.2266906763
 20
105.1543445379
 30
0.0
 10
85.9905912437
 20
88.5518398864
 30
0.0
 10
105.4770201964
 20
77.7853550017
 30
0.0
 10
115.3205189399
 20
72.4631854051
 30
0.0
  0
LINE
  5
407
100
AcDbEntity
  8
0
100
AcDbLine
 62
7
  6
CONTINUOUS
 10
115.3205189399
 20
72.4631853747
 11
116.021828707
 21
22.0919523209
  0
SPLINE
  5
408
100
AcDbEntity
  8
0
100
AcDbSpline
 62
7
  6
CONTINUOUS
 70
0
 71
3
 72
10
 73
6
 74
0
 42
0.0000001
 43
0.0000001
 44
0.0000000001
 40
0.0
 40
0.0
 40
0.0
 40
0.0
 40
0.3370288704
 40
0.6703778315
 40
1.0
 40
1.0
 40
1.0
 40
1.0
 10
116.0218236597
 20
22.0919492121
 30
0.0
 10
106.1790179469
 20
27.4327895801
 30
0.0
 10
86.6922166573
 20
38.2256128082
 30
0.0
 10
57.9136072393
 20
54.8367611773
 30
0.0
 10
39.0361896962
 20
66.1930291907
 30
0.0
 10
29.7043071005
 20
71.926265622
 30
0.0
  0
LINE
  5
409
100
AcDbEntity
  8
0
100
AcDbLine
 62
7
  6
CONTINUOUS
 10
29.7043062789
 20
71.926266421
 11
29.0488999841
 21
122.2710010077
  0
SPLINE
  5
40A
100
AcDbEntity
  8
0
100
AcDbSpline
 62
7
  6
CONTINUOUS
 70
0
 71
3
 72
10
 73
6
 74
0
 42
0.0000001
 43
0.0000001
 44
0.0000000001
 40
0.0
 40
0.0
 40
0.0
 40
0.0
 40
0.3505800445
 40
0.6843555605
 40
1.0
 40
1.0
 40
1.0
 40
1.0
 10
134.7410775006
 20
193.8349092802
 30
0.0
 10
139.5972226383
 20
196.6385892469
 30
0.0
 10
149.0422529079
 20
202.1717840774
 30
0.0
 10
162.715891449
 20
210.4710135648
 30
0.0
 10
171.5076436135
 20
216.0039219651
 30
0.0
 10
175.7527665078
 20
218.7365647527
 30
0.0
  0
SPLINE
  5
40B
100
AcDbEntity
  8
0
100
AcDbSpline
 62
7
  6
CONTINUOUS
 70
0
 71
3
 72
10
 73
6
 74
0
 42
0.0000001
 43
0.0000001
 44
0.0000000001
 40
0.0
 40
0.0
 40
0.0
 40
0.0
 40
0.3324182141
 40
0.66550438
 40
1.0
 40
1.0
 40
1.0
 40
1.0
 10
175.7527665078
 20
62.7862824097
 30
0.0
 10
171.632692921
 20
58.8720120788
 30
0.0
 10
163.0737861848
 20
51.3543496134
 30
0.0
 10
149.3587035325
 20
41.1210902068
 30
0.0
 10
139.6934665893
 20
35.025479557
 30
0.0
 10
134.7410775006
 20
32.1662334509
 30
0.0
  0
SPLINE
  5
40C
100
AcDbEntity
  8
0
100
AcDbSpline
 62
7
  6
CONTINUOUS
 70
0
 71
3
 72
10
 73
6
 74
0
 42
0.0000001
 43
0.0000001
 44
0.0000000001
 40
0.0
 40
0.0
 40
0.0
 40
0.0
 40
0.3279802638
 40
0.6613285281
 40
1.0
 40
1.0
 40
1.0
 40
1.0
 10
161.6335698318
 20
226.8886240793
 30
0.0
 10
157.5701347593
 20
225.0655717007
 30
0.0
 10
149.4308263222
 20
221.2678460352
 30
0.0
 10
137.2924298417
 20
215.1774686005
 30
0.0
 10
129.2509104221
 20
210.8611112825
 30
0.0
 10
125.2280957017
 20
208.632615983
 30
0.0
  0
SPLINE
  5
40D
100
AcDbEntity
  8
0
100
AcDbSpline
 62
7
  6
CONTINUOUS
 70
0
 71
3
 72
11
 73
7
 74
0
 42
0.0000001
 43
0.0000001
 44
0.0000000001
 40
0.0
 40
0.0
 40
0.0
 40
0.0
 40
0.2882692406
 40
0.5444611662
 40
0.7766337912
 40
1.0
 40
1.0
 40
1.0
 40
1.0
 10
125.2280957017
 20
208.632615983
 30
0.0
 10
125.9155501237
 20
208.9761583382
 30
0.0
 10
127.2778913292
 20
209.5120017702
 30
0.0
 10
129.3540908074
 20
209.7949208429
 30
0.0
 10
131.2587274009
 20
209.4688091172
 30
0.0
 10
132.3320693877
 20
208.8360501628
 30
0.0
 10
132.7837332737
 20
208.4479741085
 30
0.0
  0
SPLINE
  5
40E
100
AcDbEntity
  8
0
100
AcDbSpline
 62
7
  6
CONTINUOUS
 70
0
 71
3
 72
10
 73
6
 74
0
 42
0.0000001
 43
0.0000001
 44
0.0000000001
 40
0.0
 40
0.0
 40
0.0
 40
0.0
 40
0.3203987816
 40
0.6541662138
 40
1.0
 40
1.0
 40
1.0
 40
1.0
 10
47.8119687384
 20
82.3531889019
 30
0.0
 10
52.891866358
 20
85.2860516532
 30
0.0
 10
63.3037239905
 20
91.2050022378
 30
0.0
 10
79.3366384608
 20
100.0441611433
 30
0.0
 10
90.2994244902
 20
105.928570454
 30
0.0
 10
95.895388091
 20
108.8903111653
 30
0.0
  0
SPLINE
  5
40F
100
AcDbEntity
  8
0
100
AcDbSpline
 62
7
  6
CONTINUOUS
 70
0
 71
3
 72
10
 73
6
 74
0
 42
0.0000001
 43
0.0000001
 44
0.0000000001
 40
0.0
 40
0.0
 40
0.0
 40
0.0
 40
0.3374820559
 40
0.6706555701
 40
1.0
 40
1.0
 40
1.0
 40
1.0
 10
95.895388091
 20
264.8405935067
 30
0.0
 10
90.2504624906
 20
263.1057840885
 30
0.0
 10
79.1492545921
 20
259.2610611746
 30
0.0
 10
63.075614959
 20
252.3064215946
 30
0.0
 10
52.8029559862
 20
246.9033953583
 30
0.0
 10
47.8119687384
 20
244.0218647276
 30
0.0
  0
SPLINE
  5
410
100
AcDbEntity
  8
0
100
AcDbSpline
 62
7
  6
CONTINUOUS
 70
0
 71
3
 72
10
 73
6
 74
0
 42
0.0000001
 43
0.0000001
 44
0.0000000001
 40
0.0
 40
0.0
 40
0.0
 40
0.0
 40
0.338005535
 40
0.671373939
 40
1.0
 40
1.0
 40
1.0
 40
1.0
 10
110.0145598961
 20
100.7382374875
 30
0.0
 10
106.0114618294
 20
97.9118678827
 30
0.0
 10
97.994037842
 20
92.3908211619
 30
0.0
 10
85.8567064254
 20
84.4593508511
 30
0.0
 10
77.6931595704
 20
79.4104993664
 30
0.0
 10
73.6090857659
 20
76.9570759338
 30
0.0
  0
SPLINE
  5
411
100
AcDbEntity
  8
0
100
AcDbSpline
 62
7
  6
CONTINUOUS
 70
0
 71
3
 72
11
 73
7
 74
0
 42
0.0000001
 43
0.0000001
 44
0.0000000001
 40
0.0
 40
0.0
 40
0.0
 40
0.0
 40
0.2312283298
 40
0.4792329811
 40
0.7378681004
 40
1.0
 40
1.0
 40
1.0
 40
1.0
 10
73.6090857659
 20
76.9570759338
 30
0.0
 10
74.3701561435
 20
77.4555485251
 30
0.0
 10
75.8594217625
 20
78.6264006303
 30
0.0
 10
77.8745083362
 20
80.7270662439
 30
0.0
 10
79.6838514264
 20
83.1600644997
 30
0.0
 10
80.7060324754
 20
84.9424033453
 30
0.0
 10
81.164723338
 20
85.8661645026
 30
0.0
  0
SPLINE
  5
412
100
AcDbEntity
  8
0
100
AcDbSpline
 62
7
  6
CONTINUOUS
 70
0
 71
3
 72
11
 73
7
 74
0
 42
0.0000001
 43
0.0000001
 44
0.0000000001
 40
0.0
 40
0.0
 40
0.0
 40
0.0
 40
0.2621318996
 40
0.5207670189
 40
0.7687716702
 40
1.0
 40
1.0
 40
1.0
 40
1.0
 10
132.7837332737
 20
56.0645894226
 30
0.0
 10
132.3250424111
 20
55.1408282653
 30
0.0
 10
131.3028613621
 20
53.3584894197
 30
0.0
 10
129.493518272
 20
50.925491164
 30
0.0
 10
127.4784316982
 20
48.8248255503
 30
0.0
 10
125.9891660793
 20
47.6539734451
 30
0.0
 10
125.2280957017
 20
47.1555008538
 30
0.0
  0
SPLINE
  5
413
100
AcDbEntity
  8
0
100
AcDbSpline
 62
7
  6
CONTINUOUS
 70
0
 71
3
 72
10
 73
6
 74
0
 42
0.0000001
 43
0.0000001
 44
0.0000000001
 40
0.0
 40
0.0
 40
0.0
 40
0.0
 40
0.328626061
 40
0.661994465
 40
1.0
 40
1.0
 40
1.0
 40
1.0
 10
125.2280957017
 20
47.1555008538
 30
0.0
 10
129.3121695061
 20
49.6089242864
 30
0.0
 10
137.4757163677
 20
54.6577757619
 30
0.0
 10
149.6130477543
 20
62.5892461151
 30
0.0
 10
157.630471816
 20
68.1102927307
 30
0.0
 10
161.6335698318
 20
70.9366624075
 30
0.0
  0
SPLINE
  5
414
100
AcDbEntity
  8
0
100
AcDbSpline
 62
7
  6
CONTINUOUS
 70
0
 71
3
 72
21
 73
17
 74
0
 42
0.0000001
 43
0.0000001
 44
0.0000000001
 40
0.0
 40
0.0
 40
0.0
 40
0.0
 40
0.0685227962
 40
0.1287806063
 40
0.1825426634
 40
0.2334932368
 40
0.2872338443
 40
0.3474915872
 40
0.4158680177
 40
0.4922500575
 40
0.5752635354
 40
0.6625897339
 40
0.751221496
 40
0.8392038593
 40
0.9230282155
 40
1.0
 40
1.0
 40
1.0
 40
1.0
 10
130.0613279762
 20
191.2272317912
 30
0.0
 10
130.0613279762
 20
191.8683732071
 30
0.0
 10
130.1700015301
 20
193.079125223
 30
0.0
 10
130.7362400592
 20
194.7132719211
 30
0.0
 10
131.6955277567
 20
195.9653807287
 30
0.0
 10
133.0121657775
 20
196.729063866
 30
0.0
 10
134.5752977805
 20
196.9392993189
 30
0.0
 10
136.2734980735
 20
196.6166866243
 30
0.0
 10
138.0286806887
 20
195.8074311112
 30
0.0
 10
139.7685712771
 20
194.5587989409
 30
0.0
 10
141.4167960421
 20
192.930882351
 30
0.0
 10
142.8954323579
 20
191.0023186786
 30
0.0
 10
144.1377768723
 20
188.8603104696
 30
0.0
 10
145.0821823407
 20
186.6059201557
 30
0.0
 10
145.6795292081
 20
184.3483831627
 30
0.0
 10
145.8322310071
 20
182.8422980121
 30
0.0
 10
145.8322310071
 20
182.1221026666
 30
0.0
  0
SPLINE
  5
415
100
AcDbEntity
  8
0
100
AcDbSpline
 62
7
  6
CONTINUOUS
 70
0
 71
3
 72
21
 73
17
 74
0
 42
0.0000001
 43
0.0000001
 44
0.0000000001
 40
0.0
 40
0.0
 40
0.0
 40
0.0
 40
0.0685227962
 40
0.1287806063
 40
0.1825426634
 40
0.2334932368
 40
0.2872338443
 40
0.3474915872
 40
0.4158680177
 40
0.4922500575
 40
0.5752635354
 40
0.6625897339
 40
0.751221496
 40
0.8392038593
 40
0.9230282155
 40
1.0
 40
1.0
 40
1.0
 40
1.0
 10
145.8322310071
 20
182.1221026666
 30
0.0
 10
145.8322310071
 20
181.4809612507
 30
0.0
 10
145.7235574532
 20
180.2702092348
 30
0.0
 10
145.1573189241
 20
178.6360625367
 30
0.0
 10
144.1980312266
 20
177.3839537291
 30
0.0
 10
142.8813932058
 20
176.6202705918
 30
0.0
 10
141.3182612028
 20
176.4100351389
 30
0.0
 10
139.6200609098
 20
176.7326478335
 30
0.0
 10
137.8648782946
 20
177.5419033466
 30
0.0
 10
136.1249877062
 20
178.7905355169
 30
0.0
 10
134.4767629412
 20
180.4184521068
 30
0.0
 10
132.9981266254
 20
182.3470157792
 30
0.0
 10
131.755782111
 20
184.4890239882
 30
0.0
 10
130.8113766426
 20
186.7434143021
 30
0.0
 10
130.2140297752
 20
189.0009512951
 30
0.0
 10
130.0613279762
 20
190.5070364457
 30
0.0
 10
130.0613279762
 20
191.2272317912
 30
0.0
  0
SPLINE
  5
416
100
AcDbEntity
  8
0
100
AcDbSpline
 62
7
  6
CONTINUOUS
 70
0
 71
3
 72
11
 73
7
 74
0
 42
0.0000001
 43
0.0000001
 44
0.0000000001
 40
0.0
 40
0.0
 40
0.0
 40
0.0
 40
0.2740495002
 40
0.5329557291
 40
0.7751384089
 40
1.0
 40
1.0
 40
1.0
 40
1.0
 10
102.5645627851
 20
174.3890845152
 30
0.0
 10
102.2233273478
 20
176.0184195911
 30
0.0
 10
101.7012666361
 20
179.2193147967
 30
0.0
 10
101.4181878654
 20
183.9283410839
 30
0.0
 10
101.6604378993
 20
188.3416933888
 30
0.0
 10
102.1914509419
 20
191.1405320322
 30
0.0
 10
102.552841555
 20
192.4577539333
 30
0.0
  0
SPLINE
  5
417
100
AcDbEntity
  8
0
100
AcDbSpline
 62
7
  6
CONTINUOUS
 70
0
 71
3
 72
11
 73
7
 74
0
 42
0.0000001
 43
0.0000001
 44
0.0000000001
 40
0.0
 40
0.0
 40
0.0
 40
0.0
 40
0.2740899518
 40
0.5330034187
 40
0.7751686194
 40
1.0
 40
1.0
 40
1.0
 40
1.0
 10
173.3379111966
 20
151.5908994529
 30
0.0
 10
173.6772657283
 20
149.9621522662
 30
0.0
 10
174.1955558867
 20
146.7627166577
 30
0.0
 10
174.4727632111
 20
142.056554261
 30
0.0
 10
174.2246212934
 20
137.6469484741
 30
0.0
 10
173.6895469605
 20
134.8512390403
 30
0.0
 10
173.3261741386
 20
133.535779056
 30
0.0
  0
SPLINE
  5
418
100
AcDbEntity
  8
0
100
AcDbSpline
 62
7
  6
CONTINUOUS
 70
0
 71
3
 72
11
 73
7
 74
0
 42
0.0000001
 43
0.0000001
 44
0.0000000001
 40
0.0
 40
0.0
 40
0.0
 40
0.0
 40
0.2233662088
 40
0.4555388338
 40
0.7117307594
 40
1.0
 40
1.0
 40
1.0
 40
1.0
 10
81.1647233379
 20
238.2495491885
 30
0.0
 10
80.7130594519
 20
238.6376252428
 30
0.0
 10
79.6397174652
 20
239.2703841972
 30
0.0
 10
77.7350808717
 20
239.5964959229
 30
0.0
 10
75.6588813934
 20
239.3135768502
 30
0.0
 10
74.2965401879
 20
238.7777334182
 30
0.0
 10
73.609085766
 20
238.434191063
 30
0.0
  0
SPLINE
  5
419
100
AcDbEntity
  8
0
100
AcDbSpline
 62
7
  6
CONTINUOUS
 70
0
 71
3
 72
10
 73
6
 74
0
 42
0.0000001
 43
0.0000001
 44
0.0000000001
 40
0.0
 40
0.0
 40
0.0
 40
0.0
 40
0.3386714719
 40
0.6720197362
 40
1.0
 40
1.0
 40
1.0
 40
1.0
 10
73.609085766
 20
238.434191063
 30
0.0
 10
77.6319004863
 20
240.6626863625
 30
0.0
 10
85.6734199002
 20
244.9790436932
 30
0.0
 10
97.8118164059
 20
251.0694210719
 30
0.0
 10
105.9511247826
 20
254.8671468719
 30
0.0
 10
110.0145598961
 20
256.6901991593
 30
0.0
  0
SPLINE
  5
41A
100
AcDbEntity
  8
0
100
AcDbSpline
 62
7
  6
CONTINUOUS
 70
0
 71
3
 72
21
 73
17
 74
0
 42
0.0000001
 43
0.0000001
 44
0.0000000001
 40
0.0
 40
0.0
 40
0.0
 40
0.0
 40
0.0766286308
 40
0.1598285102
 40
0.2471732101
 40
0.3354216382
 40
0.4228335788
 40
0.5061756492
 40
0.5827890561
 40
0.6512494819
 40
0.7115156933
 40
0.7653513853
 40
0.8165246907
 40
0.8705831915
 40
0.9312021709
 40
1.0
 40
1.0
 40
1.0
 40
1.0
 10
146.5393348443
 20
182.5303468204
 30
0.0
 10
146.5393348443
 20
183.2473266342
 30
0.0
 10
146.388216461
 20
184.744337373
 30
0.0
 10
145.7974469219
 20
186.9879123453
 30
0.0
 10
144.8634530553
 20
189.229809944
 30
0.0
 10
143.6310759215
 20
191.3673596714
 30
0.0
 10
142.1579688558
 20
193.3004728031
 30
0.0
 10
140.5104574325
 20
194.9377027393
 30
0.0
 10
138.7698258104
 20
196.1955539527
 30
0.0
 10
137.0153115474
 20
197.0131307263
 30
0.0
 10
135.3176516999
 20
197.3457477312
 30
0.0
 10
133.7501154467
 20
197.1478923942
 30
0.0
 10
132.4217194381
 20
196.3921199391
 30
0.0
 10
131.4504401051
 20
195.137738818
 30
0.0
 10
130.8780663748
 20
193.4959501832
 30
0.0
 10
130.7684318134
 20
192.2791864514
 30
0.0
 10
130.7684318134
 20
191.6354759451
 30
0.0
  0
SPLINE
  5
41B
100
AcDbEntity
  8
0
100
AcDbSpline
 62
7
  6
CONTINUOUS
 70
0
 71
3
 72
21
 73
17
 74
0
 42
0.0000001
 43
0.0000001
 44
0.0000000001
 40
0.0
 40
0.0
 40
0.0
 40
0.0
 40
0.0766286308
 40
0.1598285102
 40
0.2471732101
 40
0.3354216382
 40
0.4228335788
 40
0.5061756492
 40
0.5827890561
 40
0.6512494819
 40
0.7115156933
 40
0.7653513853
 40
0.8165246907
 40
0.8705831915
 40
0.9312021709
 40
1.0
 40
1.0
 40
1.0
 40
1.0
 10
130.7684318134
 20
191.6354759451
 30
0.0
 10
130.7684318134
 20
190.9184961313
 30
0.0
 10
130.9195501968
 20
189.4214853925
 30
0.0
 10
131.5103197359
 20
187.1779104203
 30
0.0
 10
132.4443136025
 20
184.9360128216
 30
0.0
 10
133.6766907363
 20
182.7984630941
 30
0.0
 10
135.1497978019
 20
180.8653499625
 30
0.0
 10
136.7973092252
 20
179.2281200263
 30
0.0
 10
138.5379408473
 20
177.9702688128
 30
0.0
 10
140.2924551103
 20
177.1526920393
 30
0.0
 10
141.9901149579
 20
176.8200750343
 30
0.0
 10
143.557651211
 20
177.0179303713
 30
0.0
 10
144.8860472196
 20
177.7737028265
 30
0.0
 10
145.8573265527
 20
179.0280839475
 30
0.0
 10
146.429700283
 20
180.6698725824
 30
0.0
 10
146.5393348443
 20
181.8866363142
 30
0.0
 10
146.5393348443
 20
182.5303468204
 30
0.0
  0
SPLINE
  5
41C
100
AcDbEntity
  8
0
100
AcDbSpline
 62
7
  6
CONTINUOUS
 70
0
 71
3
 72
21
 73
17
 74
0
 42
0.0000001
 43
0.0000001
 44
0.0000000001
 40
0.0
 40
0.0
 40
0.0
 40
0.0
 40
0.0685849114
 40
0.1288240086
 40
0.1825669899
 40
0.2334572863
 40
0.2871334114
 40
0.3473778656
 40
0.4157878118
 40
0.4922186161
 40
0.5752494461
 40
0.6625291998
 40
0.7511179118
 40
0.8391242377
 40
0.9229602925
 40
1.0
 40
1.0
 40
1.0
 40
1.0
 10
146.0386303044
 20
182.8194221815
 30
0.0
 10
146.0386303044
 20
182.2184466644
 30
0.0
 10
145.9367327141
 20
181.084171268
 30
0.0
 10
145.4059958121
 20
179.5537148593
 30
0.0
 10
144.5078748828
 20
178.382031716
 30
0.0
 10
143.2760709058
 20
177.6674791408
 30
0.0
 10
141.8135725986
 20
177.4700422515
 30
0.0
 10
140.223404593
 20
177.7713017744
 30
0.0
 10
138.5788705447
 20
178.5289619092
 30
0.0
 10
136.9485931292
 20
179.6986389688
 30
0.0
 10
135.4048392367
 20
181.2232519133
 30
0.0
 10
134.0203747591
 20
183.028768404
 30
0.0
 10
132.8569696243
 20
185.0341249639
 30
0.0
 10
131.9722599253
 20
187.1451905111
 30
0.0
 10
131.4123362905
 20
189.2601854232
 30
0.0
 10
131.2691363533
 20
190.6713398873
 30
0.0
 10
131.2691363533
 20
191.346400584
 30
0.0
  0
SPLINE
  5
41D
100
AcDbEntity
  8
0
100
AcDbSpline
 62
7
  6
CONTINUOUS
 70
0
 71
3
 72
21
 73
17
 74
0
 42
0.0000001
 43
0.0000001
 44
0.0000000001
 40
0.0
 40
0.0
 40
0.0
 40
0.0
 40
0.0685849114
 40
0.1288240086
 40
0.1825669899
 40
0.2334572863
 40
0.2871334114
 40
0.3473778656
 40
0.4157878118
 40
0.4922186161
 40
0.5752494461
 40
0.6625291998
 40
0.7511179118
 40
0.8391242377
 40
0.9229602925
 40
1.0
 40
1.0
 40
1.0
 40
1.0
 10
131.2691363533
 20
191.346400584
 30
0.0
 10
131.2691363533
 20
191.9473761011
 30
0.0
 10
131.3710339436
 20
193.0816514976
 30
0.0
 10
131.9017708457
 20
194.6121079063
 30
0.0
 10
132.7998917749
 20
195.7837910495
 30
0.0
 10
134.0316957519
 20
196.4983436247
 30
0.0
 10
135.4941940591
 20
196.695780514
 30
0.0
 10
137.0843620647
 20
196.3945209912
 30
0.0
 10
138.728896113
 20
195.6368608563
 30
0.0
 10
140.3591735286
 20
194.4671837967
 30
0.0
 10
141.902927421
 20
192.9425708522
 30
0.0
 10
143.2873918986
 20
191.1370543615
 30
0.0
 10
144.4507970335
 20
189.1316978016
 30
0.0
 10
145.3355067324
 20
187.0206322545
 30
0.0
 10
145.8954303673
 20
184.9056373423
 30
0.0
 10
146.0386303044
 20
183.4944828782
 30
0.0
 10
146.0386303044
 20
182.8194221815
 30
0.0
  0
SPLINE
  5
41E
100
AcDbEntity
  8
0
100
AcDbSpline
 62
7
  6
CONTINUOUS
 70
0
 71
3
 72
21
 73
17
 74
0
 42
0.0000001
 43
0.0000001
 44
0.0000000001
 40
0.0
 40
0.0
 40
0.0
 40
0.0
 40
0.0767064294
 40
0.15989465
 40
0.2472150848
 40
0.3353591888
 40
0.4226795591
 40
0.506032285
 40
0.5827079585
 40
0.6512236594
 40
0.7115058701
 40
0.7653158281
 40
0.8164644283
 40
0.8705308441
 40
0.9311478738
 40
1.0
 40
1.0
 40
1.0
 40
1.0
 10
130.5620325161
 20
190.9381564301
 30
0.0
 10
130.5620325161
 20
190.2660212087
 30
0.0
 10
130.7037540622
 20
188.8634839901
 30
0.0
 10
131.2573640386
 20
186.7620921103
 30
0.0
 10
132.1317459733
 20
184.6637593288
 30
0.0
 10
133.2848666939
 20
182.6636102166
 30
0.0
 10
134.6631501207
 20
180.8543322265
 30
0.0
 10
136.2055320192
 20
179.3207802138
 30
0.0
 10
137.8362543461
 20
178.1417132898
 30
0.0
 10
139.4803046665
 20
177.375248393
 30
0.0
 10
141.0705498709
 20
177.0635353757
 30
0.0
 10
142.538230186
 20
177.2485830911
 30
0.0
 10
143.7821804334
 20
177.9556821142
 30
0.0
 10
144.6921493727
 20
179.1299619781
 30
0.0
 10
145.2287323111
 20
180.6678861248
 30
0.0
 10
145.3315264672
 20
181.8078656402
 30
0.0
 10
145.3315264672
 20
182.4111780277
 30
0.0
  0
SPLINE
  5
41F
100
AcDbEntity
  8
0
100
AcDbSpline
 62
7
  6
CONTINUOUS
 70
0
 71
3
 72
21
 73
17
 74
0
 42
0.0000001
 43
0.0000001
 44
0.0000000001
 40
0.0
 40
0.0
 40
0.0
 40
0.0
 40
0.0767064294
 40
0.15989465
 40
0.2472150848
 40
0.3353591888
 40
0.4226795591
 40
0.506032285
 40
0.5827079585
 40
0.6512236594
 40
0.7115058701
 40
0.7653158281
 40
0.8164644283
 40
0.8705308441
 40
0.9311478738
 40
1.0
 40
1.0
 40
1.0
 40
1.0
 10
145.3315264672
 20
182.4111780277
 30
0.0
 10
145.3315264672
 20
183.0833132491
 30
0.0
 10
145.1898049211
 20
184.4858504677
 30
0.0
 10
144.6361949447
 20
186.5872423475
 30
0.0
 10
143.76181301
 20
188.685575129
 30
0.0
 10
142.6086922895
 20
190.6857242412
 30
0.0
 10
141.2304088627
 20
192.4950022313
 30
0.0
 10
139.6880269642
 20
194.028554244
 30
0.0
 10
138.0573046372
 20
195.207621168
 30
0.0
 10
136.4132543168
 20
195.9740860648
 30
0.0
 10
134.8230091124
 20
196.2857990821
 30
0.0
 10
133.3553287973
 20
196.1007513667
 30
0.0
 10
132.11137855
 20
195.3936523436
 30
0.0
 10
131.2014096106
 20
194.2193724797
 30
0.0
 10
130.6648266722
 20
192.681448333
 30
0.0
 10
130.5620325161
 20
191.5414688177
 30
0.0
 10
130.5620325161
 20
190.9381564301
 30
0.0
  0
SPLINE
  5
420
100
AcDbEntity
  8
0
100
AcDbSpline
 62
7
  6
CONTINUOUS
 70
0
 71
3
 72
10
 73
6
 74
0
 42
0.0000001
 43
0.0000001
 44
0.0000000001
 40
0.0
 40
0.0
 40
0.0
 40
0.0
 40
0.3088789378
 40
0.6428129207
 40
1.0
 40
1.0
 40
1.0
 40
1.0
 10
65.4092267936
 20
164.3032626828
 30
0.0
 10
65.0825824592
 20
162.7971077651
 30
0.0
 10
64.6639174613
 20
159.6028828059
 30
0.0
 10
64.6904772695
 20
154.6019082615
 30
0.0
 10
65.1124533833
 20
151.1709832245
 30
0.0
 10
65.41889189
 20
149.4153217477
 30
0.0
  0
SPLINE
  5
421
100
AcDbEntity
  8
0
100
AcDbSpline
 62
7
  6
CONTINUOUS
 70
0
 71
3
 72
10
 73
6
 74
0
 42
0.0000001
 43
0.0000001
 44
0.0000000001
 40
0.0
 40
0.0
 40
0.0
 40
0.0
 40
0.3414806667
 40
0.6780498969
 40
1.0
 40
1.0
 40
1.0
 40
1.0
 10
109.7115164998
 20
179.7321917659
 30
0.0
 10
110.2739779184
 20
180.0609449364
 30
0.0
 10
111.391145669
 20
180.7131525865
 30
0.0
 10
113.0413196841
 20
181.6706480179
 30
0.0
 10
114.1267465484
 20
182.3033170864
 30
0.0
 10
114.6573191758
 20
182.6127872343
 30
0.0
  0
SPLINE
  5
422
100
AcDbEntity
  8
0
100
AcDbSpline
 62
7
  6
CONTINUOUS
 70
0
 71
3
 72
10
 73
6
 74
0
 42
0.0000001
 43
0.0000001
 44
0.0000000001
 40
0.0
 40
0.0
 40
0.0
 40
0.0
 40
0.3088462771
 40
0.6427748514
 40
1.0
 40
1.0
 40
1.0
 40
1.0
 10
127.3164496038
 20
113.6795585904
 30
0.0
 10
127.6453003828
 20
115.1839098991
 30
0.0
 10
128.068441664
 20
118.3750177927
 30
0.0
 10
128.0483162936
 20
123.3723901897
 30
0.0
 10
127.630475772
 20
126.8014532464
 30
0.0
 10
127.3261072332
 20
128.5563411194
 30
0.0
  0
SPLINE
  5
423
100
AcDbEntity
  8
0
100
AcDbSpline
 62
7
  6
CONTINUOUS
 70
0
 71
3
 72
10
 73
6
 74
0
 42
0.0000001
 43
0.0000001
 44
0.0000000001
 40
0.0
 40
0.0
 40
0.0
 40
0.0
 40
0.3415088305
 40
0.6780440528
 40
1.0
 40
1.0
 40
1.0
 40
1.0
 10
156.2797825304
 20
152.8465990708
 30
0.0
 10
156.8428211717
 20
153.1750398071
 30
0.0
 10
157.9609770778
 20
153.8266621504
 30
0.0
 10
159.6122170841
 20
154.7839951938
 30
0.0
 10
160.6984824819
 20
155.4162178034
 30
0.0
 10
161.2295093909
 20
155.7254683294
 30
0.0
  0
SPLINE
  5
424
100
AcDbEntity
  8
0
100
AcDbSpline
 62
7
  6
CONTINUOUS
 70
0
 71
3
 72
10
 73
6
 74
0
 42
0.0000001
 43
0.0000001
 44
0.0000000001
 40
0.0
 40
0.0
 40
0.0
 40
0.0
 40
0.3182590634
 40
0.6513883068
 40
1.0
 40
1.0
 40
1.0
 40
1.0
 10
100.8221158054
 20
113.920193237
 30
0.0
 10
100.4424716865
 20
114.8364037182
 30
0.0
 10
99.7642276405
 20
116.7538195254
 30
0.0
 10
99.0057860162
 20
119.7801799452
 30
0.0
 10
98.6680088731
 20
121.8804895644
 30
0.0
 10
98.5369074349
 20
122.9588855477
 30
0.0
  0
SPLINE
  5
425
100
AcDbEntity
  8
0
100
AcDbSpline
 62
7
  6
CONTINUOUS
 70
0
 71
3
 72
18
 73
14
 74
0
 42
0.0000001
 43
0.0000001
 44
0.0000000001
 40
0.0
 40
0.0
 40
0.0
 40
0.0
 40
0.0608325677
 40
0.1160222709
 40
0.1746866278
 40
0.2442717739
 40
0.3282655089
 40
0.4252082289
 40
0.5335189851
 40
0.6481487887
 40
0.7665904764
 40
0.8853311462
 40
1.0
 40
1.0
 40
1.0
 40
1.0
 10
145.1730800789
 20
96.0340878381
 30
0.0
 10
144.9569736872
 20
95.5637738993
 30
0.0
 10
144.417333974
 20
94.7051569559
 30
0.0
 10
143.1194402019
 20
93.8777225156
 30
0.0
 10
141.5271279406
 20
93.7033313829
 30
0.0
 10
139.7420938168
 20
94.0697487257
 30
0.0
 10
137.7693812379
 20
94.9010971817
 30
0.0
 10
135.6476175669
 20
96.1589067451
 30
0.0
 10
133.4633197466
 20
97.7901489226
 30
0.0
 10
131.3089160337
 20
99.7446603941
 30
0.0
 10
129.2925137179
 20
101.9640122407
 30
0.0
 10
127.5236800219
 20
104.3867386757
 30
0.0
 10
126.5571234022
 20
106.1301096668
 30
0.0
 10
126.1500621634
 20
107.0167838906
 30
0.0
  0
SPLINE
  5
426
100
AcDbEntity
  8
0
100
AcDbSpline
 62
7
  6
CONTINUOUS
 70
0
 71
3
 72
10
 73
6
 74
0
 42
0.0000001
 43
0.0000001
 44
0.0000000001
 40
0.0
 40
0.0
 40
0.0
 40
0.0
 40
0.3490552462
 40
0.6831689125
 40
1.0
 40
1.0
 40
1.0
 40
1.0
 10
175.0686369459
 20
103.4787996891
 30
0.0
 10
174.5045930664
 20
101.4662719367
 30
0.0
 10
173.55347391
 20
97.4819921113
 30
0.0
 10
172.6650015036
 20
91.553290531
 30
0.0
 10
172.4523527482
 20
87.6534764681
 30
0.0
 10
172.4523527482
 20
85.7563534814
 30
0.0
  0
SPLINE
  5
427
100
AcDbEntity
  8
0
100
AcDbSpline
 62
7
  6
CONTINUOUS
 70
0
 71
3
 72
10
 73
6
 74
0
 42
0.0000001
 43
0.0000001
 44
0.0000000001
 40
0.0
 40
0.0
 40
0.0
 40
0.0
 40
0.3396157493
 40
0.6729731886
 40
1.0
 40
1.0
 40
1.0
 40
1.0
 10
172.4523527482
 20
85.7563534814
 30
0.0
 10
172.4523527482
 20
85.221626284
 30
0.0
 10
172.4687003739
 20
84.1619390258
 30
0.0
 10
172.5438160893
 20
82.588969807
 30
0.0
 10
172.6282296372
 20
81.552377991
 30
0.0
 10
172.6790494526
 20
81.0399861845
 30
0.0
  0
SPLINE
  5
428
100
AcDbEntity
  8
0
100
AcDbSpline
 62
7
  6
CONTINUOUS
 70
0
 71
3
 72
10
 73
6
 74
0
 42
0.0000001
 43
0.0000001
 44
0.0000000001
 40
0.0
 40
0.0
 40
0.0
 40
0.0
 40
0.3502634396
 40
0.6833097099
 40
1.0
 40
1.0
 40
1.0
 40
1.0
 10
125.6614276512
 20
108.1850086858
 30
0.0
 10
125.462126142
 20
108.7133860441
 30
0.0
 10
125.1235556808
 20
109.7643284827
 30
0.0
 10
124.8020846024
 20
111.3475824445
 30
0.0
 10
124.7210395315
 20
112.3955164124
 30
0.0
 10
124.7169777853
 20
112.9060872355
 30
0.0
  0
SPLINE
  5
429
100
AcDbEntity
  8
0
100
AcDbSpline
 62
7
  6
CONTINUOUS
 70
0
 71
3
 72
22
 73
18
 74
0
 42
0.0000001
 43
0.0000001
 44
0.0000000001
 40
0.0
 40
0.0
 40
0.0
 40
0.0
 40
0.0606649408
 40
0.1185249706
 40
0.1745280841
 40
0.2290505282
 40
0.2852274632
 40
0.3430897255
 40
0.4037685333
 40
0.4684193619
 40
0.537421439
 40
0.6112061427
 40
0.6900575566
 40
0.7708691418
 40
0.8527800781
 40
0.9304627113
 40
1.0
 40
1.0
 40
1.0
 40
1.0
 10
124.7212474272
 20
113.3132586035
 30
0.0
 10
124.7442381009
 20
114.0898976544
 30
0.0
 10
124.9569670497
 20
115.6105948214
 30
0.0
 10
125.8392070254
 20
117.6946340083
 30
0.0
 10
127.2325659424
 20
119.3830924606
 30
0.0
 10
129.0463550637
 20
120.5693811355
 30
0.0
 10
131.1550447984
 20
121.1676747331
 30
0.0
 10
133.4227252725
 20
121.126471261
 30
0.0
 10
135.6956512122
 20
120.4473123885
 30
0.0
 10
137.8591099489
 20
119.1752846261
 30
0.0
 10
139.83804315
 20
117.3794216382
 30
0.0
 10
141.5916153307
 20
115.1325949265
 30
0.0
 10
143.0805513654
 20
112.5297876231
 30
0.0
 10
144.2851007686
 20
109.6729721163
 30
0.0
 10
145.1760168583
 20
106.719858181
 30
0.0
 10
145.7410640544
 20
103.8356168058
 30
0.0
 10
145.9142285496
 20
101.9534655667
 30
0.0
 10
145.9397209116
 20
101.0632167066
 30
0.0
  0
SPLINE
  5
42A
100
AcDbEntity
  8
0
100
AcDbSpline
 62
7
  6
CONTINUOUS
 70
0
 71
3
 72
10
 73
6
 74
0
 42
0.0000001
 43
0.0000001
 44
0.0000000001
 40
0.0
 40
0.0
 40
0.0
 40
0.0
 40
0.3648288286
 40
0.6984193442
 40
1.0
 40
1.0
 40
1.0
 40
1.0
 10
145.9472591163
 20
100.6487779009
 30
0.0
 10
145.9510691464
 20
100.1701761571
 30
0.0
 10
145.9248717111
 20
99.2530162695
 30
0.0
 10
145.7681124877
 20
97.9486331189
 30
0.0
 10
145.5743509836
 20
97.1351807569
 30
0.0
 10
145.4529563456
 20
96.7586227658
 30
0.0
  0
SPLINE
  5
42B
100
AcDbEntity
  8
0
100
AcDbSpline
 62
7
  6
CONTINUOUS
 70
0
 71
3
 72
18
 73
14
 74
0
 42
0.0000001
 43
0.0000001
 44
0.0000000001
 40
0.0
 40
0.0
 40
0.0
 40
0.0
 40
0.0910328859
 40
0.1737660533
 40
0.2496519773
 40
0.3236923587
 40
0.4015700719
 40
0.4871188747
 40
0.5814207803
 40
0.683969643
 40
0.7917143448
 40
0.8992936354
 40
1.0
 40
1.0
 40
1.0
 40
1.0
 10
165.3938427041
 20
97.7798153476
 30
0.0
 10
165.4335389038
 20
98.0798596899
 30
0.0
 10
165.5800075664
 20
98.64774842
 30
0.0
 10
166.0319442039
 20
99.3632318889
 30
0.0
 10
166.6765236137
 20
99.8295038692
 30
0.0
 10
167.4417814896
 20
99.9823264925
 30
0.0
 10
168.2320430092
 20
99.8142758409
 30
0.0
 10
168.97592717
 20
99.3641932508
 30
0.0
 10
169.6300420895
 20
98.6784176225
 30
0.0
 10
170.1584937541
 20
97.8065832714
 30
0.0
 10
170.5282459211
 20
96.8100944107
 30
0.0
 10
170.7126898754
 20
95.7702641248
 30
0.0
 10
170.7030627255
 20
95.0718866576
 30
0.0
 10
170.6591482663
 20
94.7399585347
 30
0.0
  0
SPLINE
  5
42C
100
AcDbEntity
  8
0
100
AcDbSpline
 62
7
  6
CONTINUOUS
 70
0
 71
3
 72
18
 73
14
 74
0
 42
0.0000001
 43
0.0000001
 44
0.0000000001
 40
0.0
 40
0.0
 40
0.0
 40
0.0
 40
0.0918057719
 40
0.1712921438
 40
0.241954946
 40
0.3119172624
 40
0.3891275049
 40
0.477347272
 40
0.5759006029
 40
0.6817249083
 40
0.7905340057
 40
0.8980831361
 40
1.0
 40
1.0
 40
1.0
 40
1.0
 10
170.6591482663
 20
94.7399585347
 30
0.0
 10
170.6199537206
 20
94.443705952
 30
0.0
 10
170.4881480468
 20
93.8950272691
 30
0.0
 10
170.084863337
 20
93.2010829468
 30
0.0
 10
169.4934644957
 20
92.7555644237
 30
0.0
 10
168.7710235423
 20
92.6288695197
 30
0.0
 10
168.0106009665
 20
92.8130205184
 30
0.0
 10
167.2654067157
 20
93.2598802075
 30
0.0
 10
166.5786987736
 20
93.9301394469
 30
0.0
 10
166.0000229242
 20
94.776853237
 30
0.0
 10
165.5773021807
 20
95.7435936375
 30
0.0
 10
165.3512797923
 20
96.7614066846
 30
0.0
 10
165.3503314401
 20
97.4509347824
 30
0.0
 10
165.3938427041
 20
97.7798153476
 30
0.0
  0
SPLINE
  5
42D
100
AcDbEntity
  8
0
100
AcDbSpline
 62
7
  6
CONTINUOUS
 70
0
 71
3
 72
18
 73
14
 74
0
 42
0.0000001
 43
0.0000001
 44
0.0000000001
 40
0.0
 40
0.0
 40
0.0
 40
0.0
 40
0.0910328858
 40
0.1737660533
 40
0.2496519773
 40
0.3236923587
 40
0.4015700719
 40
0.4871188747
 40
0.5814207802
 40
0.683969643
 40
0.7917143448
 40
0.8992936354
 40
1.0
 40
1.0
 40
1.0
 40
1.0
 10
101.0468577157
 20
134.929724009
 30
0.0
 10
101.0865539154
 20
135.2297683512
 30
0.0
 10
101.233022578
 20
135.7976570813
 30
0.0
 10
101.6849592154
 20
136.5131405503
 30
0.0
 10
102.3295386254
 20
136.9794125305
 30
0.0
 10
103.0947965013
 20
137.1322351538
 30
0.0
 10
103.8850580209
 20
136.9641845022
 30
0.0
 10
104.6289421816
 20
136.5141019122
 30
0.0
 10
105.283057101
 20
135.828326284
 30
0.0
 10
105.8115087656
 20
134.956491933
 30
0.0
 10
106.1812609326
 20
133.9600030723
 30
0.0
 10
106.3657048871
 20
132.9201727863
 30
0.0
 10
106.3560777372
 20
132.221795319
 30
0.0
 10
106.3121632779
 20
131.889867196
 30
0.0
  0
SPLINE
  5
42E
100
AcDbEntity
  8
0
100
AcDbSpline
 62
7
  6
CONTINUOUS
 70
0
 71
3
 72
18
 73
14
 74
0
 42
0.0000001
 43
0.0000001
 44
0.0000000001
 40
0.0
 40
0.0
 40
0.0
 40
0.0
 40
0.0918057719
 40
0.1712921438
 40
0.2419549459
 40
0.3119172624
 40
0.3891275048
 40
0.4773472719
 40
0.5759006028
 40
0.6817249082
 40
0.7905340057
 40
0.8980831361
 40
1.0
 40
1.0
 40
1.0
 40
1.0
 10
106.3121632779
 20
131.889867196
 30
0.0
 10
106.2729687323
 20
131.5936146134
 30
0.0
 10
106.1411630584
 20
131.0449359306
 30
0.0
 10
105.7378783489
 20
130.3509916083
 30
0.0
 10
105.1464795077
 20
129.9054730852
 30
0.0
 10
104.4240385543
 20
129.778778181
 30
0.0
 10
103.6636159786
 20
129.9629291796
 30
0.0
 10
102.9184217277
 20
130.4097888685
 30
0.0
 10
102.2317137855
 20
131.080048108
 30
0.0
 10
101.6530379359
 20
131.9267618981
 30
0.0
 10
101.2303171923
 20
132.8935022988
 30
0.0
 10
101.004294804
 20
133.911315346
 30
0.0
 10
101.0033464518
 20
134.6008434438
 30
0.0
 10
101.0468577157
 20
134.929724009
 30
0.0
  0
SPLINE
  5
42F
100
AcDbEntity
  8
0
100
AcDbSpline
 62
7
  6
CONTINUOUS
 70
0
 71
3
 72
10
 73
6
 74
0
 42
0.0000001
 43
0.0000001
 44
0.0000000001
 40
0.0
 40
0.0
 40
0.0
 40
0.0
 40
0.3270268114
 40
0.6603842507
 40
1.0
 40
1.0
 40
1.0
 40
1.0
 10
98.4325283121
 20
123.9052654092
 30
0.0
 10
98.3817084967
 20
124.4176572157
 30
0.0
 10
98.2972949488
 20
125.4542490316
 30
0.0
 10
98.2221792335
 20
127.0272182505
 30
0.0
 10
98.2058316077
 20
128.0869055087
 30
0.0
 10
98.2058316077
 20
128.6216327061
 30
0.0
  0
SPLINE
  5
430
100
AcDbEntity
  8
0
100
AcDbSpline
 62
7
  6
CONTINUOUS
 70
0
 71
3
 72
10
 73
6
 74
0
 42
0.0000001
 43
0.0000001
 44
0.0000000001
 40
0.0
 40
0.0
 40
0.0
 40
0.0
 40
0.3168310875
 40
0.6509447538
 40
1.0
 40
1.0
 40
1.0
 40
1.0
 10
98.2058316077
 20
128.6216327061
 30
0.0
 10
98.2058316077
 20
130.5187556927
 30
0.0
 10
98.4184803632
 20
134.4185697557
 30
0.0
 10
99.3069527696
 20
140.3472713359
 30
0.0
 10
100.258071926
 20
144.3315511613
 30
0.0
 10
100.8221158054
 20
146.3440789138
 30
0.0
  0
SPLINE
  5
431
100
AcDbEntity
  8
0
100
AcDbSpline
 62
7
  6
CONTINUOUS
 70
0
 71
3
 72
10
 73
6
 74
0
 42
0.0000001
 43
0.0000001
 44
0.0000000001
 40
0.0
 40
0.0
 40
0.0
 40
0.0
 40
0.3387035925
 40
0.6719495543
 40
1.0
 40
1.0
 40
1.0
 40
1.0
 10
148.1960957575
 20
98.34236559
 30
0.0
 10
148.1580952669
 20
98.2512625081
 30
0.0
 10
148.0791915128
 20
98.0719634525
 30
0.0
 10
147.9510881014
 20
97.8101085636
 30
0.0
 10
147.8592124892
 20
97.6406122243
 30
0.0
 10
147.811840368
 20
97.5575677074
 30
0.0
  0
SPLINE
  5
432
100
AcDbEntity
  8
0
100
AcDbSpline
 62
7
  6
CONTINUOUS
 70
0
 71
3
 72
22
 73
18
 74
0
 42
0.0000001
 43
0.0000001
 44
0.0000000001
 40
0.0
 40
0.0
 40
0.0
 40
0.0
 40
0.0712442578
 40
0.1484598645
 40
0.2296293416
 40
0.3120866583
 40
0.3944977541
 40
0.4740225938
 40
0.5483403993
 40
0.615958097
 40
0.6763262922
 40
0.7300251471
 40
0.7791182807
 40
0.8269913795
 40
0.8782181026
 40
0.9355242199
 40
1.0
 40
1.0
 40
1.0
 40
1.0
 10
149.2690182722
 20
102.5666352988
 30
0.0
 10
149.2690182722
 20
103.4642357515
 30
0.0
 10
149.0929672245
 20
105.336521908
 30
0.0
 10
148.3970750805
 20
108.1532545349
 30
0.0
 10
147.2896326366
 20
110.9870563113
 30
0.0
 10
145.8174772434
 20
113.7232254257
 30
0.0
 10
144.0417614059
 20
116.2480218652
 30
0.0
 10
142.0335506586
 20
118.456486568
 30
0.0
 10
139.8824379173
 20
120.2493942114
 30
0.0
 10
137.6768642461
 20
121.5531232682
 30
0.0
 10
135.4981947258
 20
122.3140262145
 30
0.0
 10
133.4216267337
 20
122.4871919732
 30
0.0
 10
131.5391347605
 20
122.0267107112
 30
0.0
 10
129.9765921557
 20
120.9282311464
 30
0.0
 10
128.8417453208
 20
119.2742076413
 30
0.0
 10
128.1692197454
 20
117.176623151
 30
0.0
 10
128.0387483856
 20
115.6359850088
 30
0.0
 10
128.0387483856
 20
114.8236600419
 30
0.0
  0
SPLINE
  5
433
100
AcDbEntity
  8
0
100
AcDbSpline
 62
7
  6
CONTINUOUS
 70
0
 71
3
 72
22
 73
18
 74
0
 42
0.0000001
 43
0.0000001
 44
0.0000000001
 40
0.0
 40
0.0
 40
0.0
 40
0.0
 40
0.0712442578
 40
0.1484598645
 40
0.2296293416
 40
0.3120866583
 40
0.3944977541
 40
0.4740225938
 40
0.5483403993
 40
0.615958097
 40
0.6763262922
 40
0.7300251471
 40
0.7791182807
 40
0.8269913795
 40
0.8782181026
 40
0.9355242199
 40
1.0
 40
1.0
 40
1.0
 40
1.0
 10
128.0387483856
 20
114.8236600419
 30
0.0
 10
128.0387483856
 20
113.9260595892
 30
0.0
 10
128.2147994332
 20
112.0537734327
 30
0.0
 10
128.9106915772
 20
109.2370408058
 30
0.0
 10
130.0181340211
 20
106.4032390295
 30
0.0
 10
131.4902894143
 20
103.667069915
 30
0.0
 10
133.2660052518
 20
101.1422734755
 30
0.0
 10
135.2742159991
 20
98.9338087727
 30
0.0
 10
137.4253287404
 20
97.1409011293
 30
0.0
 10
139.6309024116
 20
95.8371720725
 30
0.0
 10
141.8095719319
 20
95.0762691263
 30
0.0
 10
143.8861399241
 20
94.9031033675
 30
0.0
 10
145.7686318972
 20
95.3635846295
 30
0.0
 10
147.331174502
 20
96.4620641943
 30
0.0
 10
148.4660213369
 20
98.1160876994
 30
0.0
 10
149.1385469124
 20
100.2136721897
 30
0.0
 10
149.2690182722
 20
101.7543103319
 30
0.0
 10
149.2690182722
 20
102.5666352988
 30
0.0
  0
SPLINE
  5
434
100
AcDbEntity
  8
0
100
AcDbSpline
 62
7
  6
CONTINUOUS
 70
0
 71
3
 72
12
 73
8
 74
0
 42
0.0000001
 43
0.0000001
 44
0.0000000001
 40
0.0
 40
0.0
 40
0.0
 40
0.0
 40
0.1877167252
 40
0.3937434278
 40
0.6062936856
 40
0.8123063457
 40
1.0
 40
1.0
 40
1.0
 40
1.0
 10
135.1183347031
 20
108.0827185873
 30
0.0
 10
134.8599159731
 20
108.2319133354
 30
0.0
 10
134.3619296765
 20
108.6225730905
 30
0.0
 10
133.7362335344
 20
109.3620403729
 30
0.0
 10
133.2370480945
 20
110.2266828444
 30
0.0
 10
132.9095411542
 20
111.1382372532
 30
0.0
 10
132.8202280964
 20
111.7647760095
 30
0.0
 10
132.8202280964
 20
112.0631338952
 30
0.0
  0
SPLINE
  5
435
100
AcDbEntity
  8
0
100
AcDbSpline
 62
7
  6
CONTINUOUS
 70
0
 71
3
 72
12
 73
8
 74
0
 42
0.0000001
 43
0.0000001
 44
0.0000000001
 40
0.0
 40
0.0
 40
0.0
 40
0.0
 40
0.2255153772
 40
0.4138366226
 40
0.5861993328
 40
0.7745118701
 40
1.0
 40
1.0
 40
1.0
 40
1.0
 10
132.8202280964
 20
112.0631338952
 30
0.0
 10
132.8202280964
 20
112.3183609438
 30
0.0
 10
132.8762780245
 20
112.7915467716
 30
0.0
 10
133.2043682206
 20
113.3965709836
 30
0.0
 10
133.7715880189
 20
113.7240240581
 30
0.0
 10
134.4595511303
 20
113.7056145521
 30
0.0
 10
134.8973270511
 20
113.5175802394
 30
0.0
 10
135.1183347031
 20
113.3899842986
 30
0.0
  0
SPLINE
  5
436
100
AcDbEntity
  8
0
100
AcDbSpline
 62
7
  6
CONTINUOUS
 70
0
 71
3
 72
12
 73
8
 74
0
 42
0.0000001
 43
0.0000001
 44
0.0000000001
 40
0.0
 40
0.0
 40
0.0
 40
0.0
 40
0.1877167252
 40
0.3937434278
 40
0.6062936856
 40
0.8123063457
 40
1.0
 40
1.0
 40
1.0
 40
1.0
 10
142.1894319546
 20
109.3075767534
 30
0.0
 10
142.4478506846
 20
109.1583820053
 30
0.0
 10
142.9458369813
 20
108.7677222502
 30
0.0
 10
143.5715331233
 20
108.0282549679
 30
0.0
 10
144.0707185633
 20
107.1636124964
 30
0.0
 10
144.3982255035
 20
106.2520580875
 30
0.0
 10
144.4875385613
 20
105.6255193313
 30
0.0
 10
144.4875385613
 20
105.3271614456
 30
0.0
  0
SPLINE
  5
437
100
AcDbEntity
  8
0
100
AcDbSpline
 62
7
  6
CONTINUOUS
 70
0
 71
3
 72
12
 73
8
 74
0
 42
0.0000001
 43
0.0000001
 44
0.0000000001
 40
0.0
 40
0.0
 40
0.0
 40
0.0
 40
0.2255153772
 40
0.4138366226
 40
0.5861993328
 40
0.7745118701
 40
1.0
 40
1.0
 40
1.0
 40
1.0
 10
144.4875385613
 20
105.3271614456
 30
0.0
 10
144.4875385613
 20
105.0719343969
 30
0.0
 10
144.4314886333
 20
104.5987485691
 30
0.0
 10
144.1033984372
 20
103.9937243572
 30
0.0
 10
143.5361786388
 20
103.6662712827
 30
0.0
 10
142.8482155275
 20
103.6846807887
 30
0.0
 10
142.4104396067
 20
103.8727151013
 30
0.0
 10
142.1894319546
 20
104.0003110421
 30
0.0
  0
SPLINE
  5
438
100
AcDbEntity
  8
0
100
AcDbSpline
 62
7
  6
CONTINUOUS
 70
0
 71
3
 72
12
 73
8
 74
0
 42
0.0000001
 43
0.0000001
 44
0.0000000001
 40
0.0
 40
0.0
 40
0.0
 40
0.0
 40
0.2255131849
 40
0.4138328265
 40
0.5861955369
 40
0.7745096781
 40
1.0
 40
1.0
 40
1.0
 40
1.0
 10
120.9763168382
 20
91.7529864259
 30
0.0
 10
121.1973490474
 20
91.6253763074
 30
0.0
 10
121.6351634452
 20
91.4373305982
 30
0.0
 10
122.3231718206
 20
91.4189672586
 30
0.0
 10
122.890355301
 20
91.7464832359
 30
0.0
 10
123.2183828852
 20
92.3514913297
 30
0.0
 10
123.2744234449
 20
92.8246381371
 30
0.0
 10
123.2744234449
 20
93.0798368294
 30
0.0
  0
SPLINE
  5
439
100
AcDbEntity
  8
0
100
AcDbSpline
 62
7
  6
CONTINUOUS
 70
0
 71
3
 72
12
 73
8
 74
0
 42
0.0000001
 43
0.0000001
 44
0.0000000001
 40
0.0
 40
0.0
 40
0.0
 40
0.0
 40
0.1877180602
 40
0.3937455059
 40
0.6062957636
 40
0.8123076806
 40
1.0
 40
1.0
 40
1.0
 40
1.0
 10
123.2744234449
 20
93.0798368294
 30
0.0
 10
123.2744234449
 20
93.3782335107
 30
0.0
 10
123.1850903621
 20
94.0048346328
 30
0.0
 10
122.8575352391
 20
94.9164384398
 30
0.0
 10
122.3583217218
 20
95.7810647006
 30
0.0
 10
121.7326442688
 20
96.5204655562
 30
0.0
 10
121.2347019703
 20
96.9110767865
 30
0.0
 10
120.9763168382
 20
97.0602521373
 30
0.0
  0
SPLINE
  5
43A
100
AcDbEntity
  8
0
100
AcDbSpline
 62
7
  6
CONTINUOUS
 70
0
 71
3
 72
12
 73
8
 74
0
 42
0.0000001
 43
0.0000001
 44
0.0000000001
 40
0.0
 40
0.0
 40
0.0
 40
0.0
 40
0.2255131849
 40
0.4138328265
 40
0.5861955369
 40
0.7745096781
 40
1.0
 40
1.0
 40
1.0
 40
1.0
 10
113.9052195867
 20
101.1426596825
 30
0.0
 10
113.6841873775
 20
101.270269801
 30
0.0
 10
113.2463729797
 20
101.4583155102
 30
0.0
 10
112.5583646044
 20
101.4766788498
 30
0.0
 10
111.9911811239
 20
101.1491628725
 30
0.0
 10
111.6631535398
 20
100.5441547788
 30
0.0
 10
111.60711298
 20
100.0710079713
 30
0.0
 10
111.60711298
 20
99.815809279
 30
0.0
  0
SPLINE
  5
43B
100
AcDbEntity
  8
0
100
AcDbSpline
 62
7
  6
CONTINUOUS
 70
0
 71
3
 72
12
 73
8
 74
0
 42
0.0000001
 43
0.0000001
 44
0.0000000001
 40
0.0
 40
0.0
 40
0.0
 40
0.0
 40
0.1877180602
 40
0.3937455059
 40
0.6062957636
 40
0.8123076806
 40
1.0
 40
1.0
 40
1.0
 40
1.0
 10
111.60711298
 20
99.815809279
 30
0.0
 10
111.60711298
 20
99.5174125978
 30
0.0
 10
111.6964460628
 20
98.8908114757
 30
0.0
 10
112.0240011858
 20
97.9792076686
 30
0.0
 10
112.5232147031
 20
97.1145814079
 30
0.0
 10
113.1488921561
 20
96.3751805522
 30
0.0
 10
113.6468344546
 20
95.9845693219
 30
0.0
 10
113.9052195867
 20
95.8353939711
 30
0.0
  0
SPLINE
  5
43C
100
AcDbEntity
  8
0
100
AcDbSpline
 62
7
  6
CONTINUOUS
 70
0
 71
3
 72
18
 73
14
 74
0
 42
0.0000001
 43
0.0000001
 44
0.0000000001
 40
0.0
 40
0.0
 40
0.0
 40
0.0
 40
0.0991163509
 40
0.2075809399
 40
0.3197478553
 40
0.4305139539
 40
0.5347609617
 40
0.6271263053
 40
0.7061949729
 40
0.7744420012
 40
0.8402385287
 40
0.9136950731
 40
1.0
 40
1.0
 40
1.0
 40
1.0
 10
173.4600286042
 20
96.357037899
 30
0.0
 10
173.4600286042
 20
96.6662514965
 30
0.0
 10
173.3761116077
 20
97.314586473
 30
0.0
 10
173.0626904327
 20
98.2663069288
 30
0.0
 10
172.5802149719
 20
99.1859190509
 30
0.0
 10
171.9647517412
 20
100.0059233082
 30
0.0
 10
171.2609909971
 20
100.6656923576
 30
0.0
 10
170.518385322
 20
101.1148704551
 30
0.0
 10
169.7848265395
 20
101.3170978201
 30
0.0
 10
169.1009725997
 20
101.2293139505
 30
0.0
 10
168.5619244069
 20
100.8213553006
 30
0.0
 10
168.2504203133
 20
100.1686610139
 30
0.0
 10
168.194723042
 20
99.666140469
 30
0.0
 10
168.194723042
 20
99.396894712
 30
0.0
  0
SPLINE
  5
43D
100
AcDbEntity
  8
0
100
AcDbSpline
 62
7
  6
CONTINUOUS
 70
0
 71
3
 72
18
 73
14
 74
0
 42
0.0000001
 43
0.0000001
 44
0.0000000001
 40
0.0
 40
0.0
 40
0.0
 40
0.0
 40
0.0991163509
 40
0.2075809399
 40
0.3197478553
 40
0.4305139539
 40
0.5347609617
 40
0.6271263053
 40
0.7061949729
 40
0.7744420012
 40
0.8402385287
 40
0.9136950731
 40
1.0
 40
1.0
 40
1.0
 40
1.0
 10
168.194723042
 20
99.396894712
 30
0.0
 10
168.194723042
 20
99.0876811145
 30
0.0
 10
168.2786400385
 20
98.439346138
 30
0.0
 10
168.5920612135
 20
97.4876256822
 30
0.0
 10
169.0745366743
 20
96.5680135601
 30
0.0
 10
169.689999905
 20
95.7480093028
 30
0.0
 10
170.3937606491
 20
95.0882402534
 30
0.0
 10
171.1363663242
 20
94.6390621559
 30
0.0
 10
171.8699251067
 20
94.4368347909
 30
0.0
 10
172.5537790465
 20
94.5246186605
 30
0.0
 10
173.0928272393
 20
94.9325773104
 30
0.0
 10
173.4043313329
 20
95.5852715971
 30
0.0
 10
173.4600286042
 20
96.087792142
 30
0.0
 10
173.4600286042
 20
96.357037899
 30
0.0
  0
SPLINE
  5
43E
100
AcDbEntity
  8
0
100
AcDbSpline
 62
7
  6
CONTINUOUS
 70
0
 71
3
 72
18
 73
14
 74
0
 42
0.0000001
 43
0.0000001
 44
0.0000000001
 40
0.0
 40
0.0
 40
0.0
 40
0.0
 40
0.0991163509
 40
0.2075809399
 40
0.3197478553
 40
0.4305139539
 40
0.5347609617
 40
0.6271263053
 40
0.7061949729
 40
0.7744420012
 40
0.8402385287
 40
0.9136950731
 40
1.0
 40
1.0
 40
1.0
 40
1.0
 10
109.1130436158
 20
133.5069465604
 30
0.0
 10
109.1130436158
 20
133.8161601579
 30
0.0
 10
109.0291266193
 20
134.4644951344
 30
0.0
 10
108.7157054443
 20
135.4162155902
 30
0.0
 10
108.2332299835
 20
136.3358277122
 30
0.0
 10
107.6177667528
 20
137.1558319696
 30
0.0
 10
106.9140060087
 20
137.815601019
 30
0.0
 10
106.1714003336
 20
138.2647791164
 30
0.0
 10
105.4378415511
 20
138.4670064814
 30
0.0
 10
104.7539876113
 20
138.3792226119
 30
0.0
 10
104.2149394185
 20
137.971263962
 30
0.0
 10
103.9034353249
 20
137.3185696753
 30
0.0
 10
103.8477380536
 20
136.8160491303
 30
0.0
 10
103.8477380536
 20
136.5468033733
 30
0.0
  0
SPLINE
  5
43F
100
AcDbEntity
  8
0
100
AcDbSpline
 62
7
  6
CONTINUOUS
 70
0
 71
3
 72
18
 73
14
 74
0
 42
0.0000001
 43
0.0000001
 44
0.0000000001
 40
0.0
 40
0.0
 40
0.0
 40
0.0
 40
0.0991163509
 40
0.2075809399
 40
0.3197478553
 40
0.4305139539
 40
0.5347609617
 40
0.6271263053
 40
0.7061949729
 40
0.7744420012
 40
0.8402385287
 40
0.9136950731
 40
1.0
 40
1.0
 40
1.0
 40
1.0
 10
103.8477380536
 20
136.5468033733
 30
0.0
 10
103.8477380536
 20
136.2375897758
 30
0.0
 10
103.9316550501
 20
135.5892547994
 30
0.0
 10
104.2450762251
 20
134.6375343436
 30
0.0
 10
104.7275516858
 20
133.7179222215
 30
0.0
 10
105.3430149166
 20
132.8979179641
 30
0.0
 10
106.0467756607
 20
132.2381489148
 30
0.0
 10
106.7893813357
 20
131.7889708173
 30
0.0
 10
107.5229401183
 20
131.5867434523
 30
0.0
 10
108.2067940581
 20
131.6745273218
 30
0.0
 10
108.7458422509
 20
132.0824859717
 30
0.0
 10
109.0573463445
 20
132.7351802585
 30
0.0
 10
109.1130436158
 20
133.2377008034
 30
0.0
 10
109.1130436158
 20
133.5069465604
 30
0.0
  0
SPLINE
  5
440
100
AcDbEntity
  8
0
100
AcDbSpline
 62
7
  6
CONTINUOUS
 70
0
 71
3
 72
10
 73
6
 74
0
 42
0.0000001
 43
0.0000001
 44
0.0000000001
 40
0.0
 40
0.0
 40
0.0
 40
0.0
 40
0.3486116932
 40
0.6817409366
 40
1.0
 40
1.0
 40
1.0
 40
1.0
 10
172.7834285753
 20
80.0936063231
 30
0.0
 10
172.9145300135
 20
79.0152103398
 30
0.0
 10
173.2523071567
 20
76.9149007205
 30
0.0
 10
174.010748781
 20
73.8885403008
 30
0.0
 10
174.688992827
 20
71.9711244935
 30
0.0
 10
175.0686369459
 20
71.0549140124
 30
0.0
  0
SPLINE
  5
441
100
AcDbEntity
  8
0
100
AcDbSpline
 62
7
  6
CONTINUOUS
 70
0
 71
3
 72
10
 73
6
 74
0
 42
0.0000001
 43
0.0000001
 44
0.0000000001
 40
0.0
 40
0.0
 40
0.0
 40
0.0
 40
0.3104072064
 40
0.6435485881
 40
1.0
 40
1.0
 40
1.0
 40
1.0
 10
100.8221158054
 20
226.5975268009
 30
0.0
 10
100.2273253259
 20
228.0329586813
 30
0.0
 10
99.2395233933
 20
231.1143577491
 30
0.0
 10
98.3830042919
 20
236.0586263096
 30
0.0
 10
98.2058316077
 20
239.5147035548
 30
0.0
 10
98.2058316077
 20
241.2989662699
 30
0.0
  0
SPLINE
  5
442
100
AcDbEntity
  8
0
100
AcDbSpline
 62
7
  6
CONTINUOUS
 70
0
 71
3
 72
10
 73
6
 74
0
 42
0.0000001
 43
0.0000001
 44
0.0000000001
 40
0.0
 40
0.0
 40
0.0
 40
0.0
 40
0.3276573948
 40
0.661038202
 40
1.0
 40
1.0
 40
1.0
 40
1.0
 10
98.2058316077
 20
241.2989662699
 30
0.0
 10
98.2058316077
 20
241.8433956566
 30
0.0
 10
98.2230847347
 20
242.9418349586
 30
0.0
 10
98.2990984441
 20
244.6018939715
 30
0.0
 10
98.3826052936
 20
245.7161031848
 30
0.0
 10
98.4325283121
 20
246.277098811
 30
0.0
  0
SPLINE
  5
443
100
AcDbEntity
  8
0
100
AcDbSpline
 62
7
  6
CONTINUOUS
 70
0
 71
3
 72
10
 73
6
 74
0
 42
0.0000001
 43
0.0000001
 44
0.0000000001
 40
0.0
 40
0.0
 40
0.0
 40
0.0
 40
0.3534241431
 40
0.6879491962
 40
1.0
 40
1.0
 40
1.0
 40
1.0
 10
145.1456300503
 20
219.3078870728
 30
0.0
 10
145.3040521679
 20
218.6634868653
 30
0.0
 10
145.5717105712
 20
217.3986510689
 30
0.0
 10
145.837046866
 20
215.5386124353
 30
0.0
 10
145.9229214858
 20
214.3262292221
 30
0.0
 10
145.9396918008
 20
213.7405636165
 30
0.0
  0
SPLINE
  5
444
100
AcDbEntity
  8
0
100
AcDbSpline
 62
7
  6
CONTINUOUS
 70
0
 71
3
 72
22
 73
18
 74
0
 42
0.0000001
 43
0.0000001
 44
0.0000000001
 40
0.0
 40
0.0
 40
0.0
 40
0.0
 40
0.0639412847
 40
0.118572945
 40
0.1640956751
 40
0.2038691037
 40
0.2464238973
 40
0.2967317496
 40
0.3572287407
 40
0.4273430097
 40
0.505104169
 40
0.5882759188
 40
0.6757486016
 40
0.7625137572
 40
0.8479677681
 40
0.92786906
 40
1.0
 40
1.0
 40
1.0
 40
1.0
 10
145.9472597507
 20
213.3261422818
 30
0.0
 10
145.9534225512
 20
212.5519348563
 30
0.0
 10
145.8818883701
 20
211.1120498107
 30
0.0
 10
145.4442506772
 20
209.1612469006
 30
0.0
 10
144.6407629672
 20
207.6313503756
 30
0.0
 10
143.3760918219
 20
206.6424143232
 30
0.0
 10
141.7420148838
 20
206.3596139775
 30
0.0
 10
139.89403574
 20
206.6941567666
 30
0.0
 10
137.8579735529
 20
207.5293611027
 30
0.0
 10
135.6783939703
 20
208.8127527833
 30
0.0
 10
133.4329155066
 20
210.4893738196
 30
0.0
 10
131.206621211
 20
212.5189190361
 30
0.0
 10
129.1216850825
 20
214.8437266459
 30
0.0
 10
127.2953842371
 20
217.4128484159
 30
0.0
 10
125.8696111746
 20
220.1252879825
 30
0.0
 10
124.9574936182
 20
222.8674301241
 30
0.0
 10
124.7239332179
 20
224.7099124388
 30
0.0
 10
124.7169829639
 20
225.5832810378
 30
0.0
  0
SPLINE
  5
445
100
AcDbEntity
  8
0
100
AcDbSpline
 62
7
  6
CONTINUOUS
 70
0
 71
3
 72
10
 73
6
 74
0
 42
0.0000001
 43
0.0000001
 44
0.0000000001
 40
0.0
 40
0.0
 40
0.0
 40
0.0
 40
0.3459340445
 40
0.6779609127
 40
1.0
 40
1.0
 40
1.0
 40
1.0
 10
124.7212852925
 20
225.9905740427
 30
0.0
 10
124.7370144296
 20
226.521897306
 30
0.0
 10
124.846326471
 20
227.5632810954
 30
0.0
 10
125.2626900648
 20
229.0498275998
 30
0.0
 10
125.7084393666
 20
229.9585757968
 30
0.0
 10
125.9687539465
 20
230.3794111823
 30
0.0
  0
SPLINE
  5
446
100
AcDbEntity
  8
0
100
AcDbSpline
 62
7
  6
CONTINUOUS
 70
0
 71
3
 72
18
 73
14
 74
0
 42
0.0000001
 43
0.0000001
 44
0.0000000001
 40
0.0
 40
0.0
 40
0.0
 40
0.0
 40
0.0814399816
 40
0.1475459519
 40
0.2069195487
 40
0.272387029
 40
0.3521841051
 40
0.4478019473
 40
0.55623556
 40
0.6723437884
 40
0.78961884
 40
0.9012392236
 40
1.0
 40
1.0
 40
1.0
 40
1.0
 10
165.3948549726
 20
195.7606898332
 30
0.0
 10
165.3570829422
 20
196.0023149168
 30
0.0
 10
165.3366790615
 20
196.4519623856
 30
0.0
 10
165.5490356799
 20
197.0624482945
 30
0.0
 10
166.0288000422
 20
197.4345042293
 30
0.0
 10
166.6654322013
 20
197.4895525428
 30
0.0
 10
167.3681367566
 20
197.2803492873
 30
0.0
 10
168.1051711706
 20
196.8391619933
 30
0.0
 10
168.827580275
 20
196.1982338149
 30
0.0
 10
169.4865872598
 20
195.4068553539
 30
0.0
 10
170.0379971789
 20
194.5259597869
 30
0.0
 10
170.4443936033
 20
193.6268642157
 30
0.0
 10
170.6143550843
 20
193.0138473405
 30
0.0
 10
170.6601605347
 20
192.7208330202
 30
0.0
  0
SPLINE
  5
447
100
AcDbEntity
  8
0
100
AcDbSpline
 62
7
  6
CONTINUOUS
 70
0
 71
3
 72
18
 73
14
 74
0
 42
0.0000001
 43
0.0000001
 44
0.0000000001
 40
0.0
 40
0.0
 40
0.0
 40
0.0
 40
0.0818984702
 40
0.14579792
 40
0.2001586702
 40
0.2617486929
 40
0.3405361173
 40
0.437024527
 40
0.5470771534
 40
0.6656163271
 40
0.785891044
 40
0.8999372651
 40
1.0
 40
1.0
 40
1.0
 40
1.0
 10
170.6601605347
 20
192.7208330202
 30
0.0
 10
170.6974779808
 20
192.4821158813
 30
0.0
 10
170.725357041
 20
192.0500060459
 30
0.0
 10
170.5648006196
 20
191.4554166709
 30
0.0
 10
170.1187095431
 20
191.1006110089
 30
0.0
 10
169.5170194635
 20
191.0918411775
 30
0.0
 10
168.8519919996
 20
191.3215007201
 30
0.0
 10
168.1257827521
 20
191.7571445803
 30
0.0
 10
167.3857496319
 20
192.3714484258
 30
0.0
 10
166.6831442361
 20
193.1273688072
 30
0.0
 10
166.0766045022
 20
193.9775536449
 30
0.0
 10
165.6243239508
 20
194.8582450885
 30
0.0
 10
165.4404490563
 20
195.4690276113
 30
0.0
 10
165.3948549726
 20
195.7606898332
 30
0.0
  0
SPLINE
  5
448
100
AcDbEntity
  8
0
100
AcDbSpline
 62
7
  6
CONTINUOUS
 70
0
 71
3
 72
18
 73
14
 74
0
 42
0.0000001
 43
0.0000001
 44
0.0000000001
 40
0.0
 40
0.0
 40
0.0
 40
0.0
 40
0.081441445
 40
0.1475513583
 40
0.206929155
 40
0.2723987104
 40
0.3521955451
 40
0.4478114998
 40
0.5562425217
 40
0.6723480474
 40
0.7896209209
 40
0.9012399399
 40
1.0
 40
1.0
 40
1.0
 40
1.0
 10
101.047363725
 20
232.9138378712
 30
0.0
 10
101.0096100377
 20
233.1554756262
 30
0.0
 10
100.9892449779
 20
233.60515183
 30
0.0
 10
101.2016592506
 20
234.2156583369
 30
0.0
 10
101.6814536383
 20
234.5877383996
 30
0.0
 10
102.3181142197
 20
234.6428192123
 30
0.0
 10
103.0208419153
 20
234.433628797
 30
0.0
 10
103.7578818633
 20
233.9924404754
 30
0.0
 10
104.4802798278
 20
233.3514992478
 30
0.0
 10
105.1392596772
 20
232.5600975351
 30
0.0
 10
105.6906281946
 20
231.6791709238
 30
0.0
 10
106.0969711728
 20
230.7800411205
 30
0.0
 10
106.2668872358
 20
230.1670033543
 30
0.0
 10
106.3126692872
 20
229.8739810582
 30
0.0
  0
SPLINE
  5
449
100
AcDbEntity
  8
0
100
AcDbSpline
 62
7
  6
CONTINUOUS
 70
0
 71
3
 72
18
 73
14
 74
0
 42
0.0000001
 43
0.0000001
 44
0.0000000001
 40
0.0
 40
0.0
 40
0.0
 40
0.0
 40
0.0818999567
 40
0.1458032595
 40
0.200168489
 40
0.2617605334
 40
0.3405477048
 40
0.4370346553
 40
0.5470853731
 40
0.665622027
 40
0.7858939685
 40
0.8999380893
 40
1.0
 40
1.0
 40
1.0
 40
1.0
 10
106.3126692872
 20
229.8739810582
 30
0.0
 10
106.3499685993
 20
229.6352514749
 30
0.0
 10
106.3778109309
 20
229.2031120649
 30
0.0
 10
106.2171915124
 20
228.608501985
 30
0.0
 10
105.7710740795
 20
228.2536718317
 30
0.0
 10
105.1693548714
 20
228.2448622838
 30
0.0
 10
104.5043022837
 20
228.4745099154
 30
0.0
 10
103.7780855771
 20
228.9101557656
 30
0.0
 10
103.0380609025
 20
229.5244761379
 30
0.0
 10
102.3354821953
 20
230.2804228873
 30
0.0
 10
101.7289861194
 20
231.130639996
 30
0.0
 10
101.2767619544
 20
232.0113658511
 30
0.0
 10
101.0929344503
 20
232.6221681413
 30
0.0
 10
101.047363725
 20
232.9138378712
 30
0.0
  0
SPLINE
  5
44A
100
AcDbEntity
  8
0
100
AcDbSpline
 62
7
  6
CONTINUOUS
 70
0
 71
3
 72
10
 73
6
 74
0
 42
0.0000001
 43
0.0000001
 44
0.0000000001
 40
0.0
 40
0.0
 40
0.0
 40
0.0
 40
0.338961798
 40
0.6723426052
 40
1.0
 40
1.0
 40
1.0
 40
1.0
 10
172.6790494526
 20
203.4118195863
 30
0.0
 10
172.629126434
 20
202.8508239602
 30
0.0
 10
172.5456195845
 20
201.7366147468
 30
0.0
 10
172.4696058751
 20
200.076555734
 30
0.0
 10
172.4523527482
 20
198.978116432
 30
0.0
 10
172.4523527482
 20
198.4336870453
 30
0.0
  0
SPLINE
  5
44B
100
AcDbEntity
  8
0
100
AcDbSpline
 62
7
  6
CONTINUOUS
 70
0
 71
3
 72
10
 73
6
 74
0
 42
0.0000001
 43
0.0000001
 44
0.0000000001
 40
0.0
 40
0.0
 40
0.0
 40
0.0
 40
0.3564514119
 40
0.6895927936
 40
1.0
 40
1.0
 40
1.0
 40
1.0
 10
172.4523527482
 20
198.4336870453
 30
0.0
 10
172.4523527482
 20
196.6494243301
 30
0.0
 10
172.6295254323
 20
193.193347085
 30
0.0
 10
173.4860445337
 20
188.2490785245
 30
0.0
 10
174.4738464663
 20
185.1676794567
 30
0.0
 10
175.0686369459
 20
183.7322475762
 30
0.0
  0
SPLINE
  5
44C
100
AcDbEntity
  8
0
100
AcDbSpline
 62
7
  6
CONTINUOUS
 70
0
 71
3
 72
10
 73
6
 74
0
 42
0.0000001
 43
0.0000001
 44
0.0000000001
 40
0.0
 40
0.0
 40
0.0
 40
0.0
 40
0.3425087854
 40
0.676203753
 40
1.0
 40
1.0
 40
1.0
 40
1.0
 10
175.0686369459
 20
216.156133253
 30
0.0
 10
174.7016463597
 20
214.8466983555
 30
0.0
 10
174.0425786951
 20
212.2425341966
 30
0.0
 10
173.2766757439
 20
208.344879406
 30
0.0
 10
172.9197081671
 20
205.7570762552
 30
0.0
 10
172.7834285753
 20
204.4787253575
 30
0.0
  0
SPLINE
  5
44D
100
AcDbEntity
  8
0
100
AcDbSpline
 62
7
  6
CONTINUOUS
 70
0
 71
3
 72
17
 73
13
 74
0
 42
0.0000001
 43
0.0000001
 44
0.0000000001
 40
0.0
 40
0.0
 40
0.0
 40
0.0
 40
0.0834571317
 40
0.166486915
 40
0.2505776018
 40
0.3390585026
 40
0.4333828751
 40
0.5348985677
 40
0.6439317784
 40
0.7589038904
 40
0.8790756969
 40
1.0
 40
1.0
 40
1.0
 40
1.0
 10
126.5381261838
 20
231.1778591269
 30
0.0
 10
126.9931624726
 20
231.7338998941
 30
0.0
 10
128.0745953469
 20
232.7142149818
 30
0.0
 10
130.067254958
 20
233.6223133958
 30
0.0
 10
132.2815103673
 20
233.9055940405
 30
0.0
 10
134.5792278096
 20
233.5403462825
 30
0.0
 10
136.8387733109
 20
232.5374830246
 30
0.0
 10
138.9525155929
 20
230.949596614
 30
0.0
 10
140.8430264564
 20
228.8618927448
 30
0.0
 10
142.4697024984
 20
226.3732780093
 30
0.0
 10
143.8023834376
 20
223.6047757962
 30
0.0
 10
144.4908560573
 20
221.6418874874
 30
0.0
 10
144.7850160585
 20
220.6432506706
 30
0.0
  0
SPLINE
  5
44E
100
AcDbEntity
  8
0
100
AcDbSpline
 62
7
  6
CONTINUOUS
 70
0
 71
3
 72
10
 73
6
 74
0
 42
0.0000001
 43
0.0000001
 44
0.0000000001
 40
0.0
 40
0.0
 40
0.0
 40
0.0
 40
0.3383164889
 40
0.6715227942
 40
1.0
 40
1.0
 40
1.0
 40
1.0
 10
128.7118933583
 20
231.9631540065
 30
0.0
 10
128.758639034
 20
232.0498042965
 30
0.0
 10
128.8551845037
 20
232.2198029918
 30
0.0
 10
129.0102566619
 20
232.4661689081
 30
0.0
 10
129.1203705029
 20
232.6242433056
 30
0.0
 10
129.1768864729
 20
232.7013389962
 30
0.0
  0
SPLINE
  5
44F
100
AcDbEntity
  8
0
100
AcDbSpline
 62
7
  6
CONTINUOUS
 70
0
 71
3
 72
22
 73
18
 74
0
 42
0.0000001
 43
0.0000001
 44
0.0000000001
 40
0.0
 40
0.0
 40
0.0
 40
0.0
 40
0.0712442578
 40
0.1484598645
 40
0.2296293416
 40
0.3120866583
 40
0.3944977541
 40
0.4740225938
 40
0.5483403993
 40
0.615958097
 40
0.6763262922
 40
0.7300251471
 40
0.7791182807
 40
0.8269913795
 40
0.8782181026
 40
0.9355242199
 40
1.0
 40
1.0
 40
1.0
 40
1.0
 10
149.2690182722
 20
215.2439688688
 30
0.0
 10
149.2690182722
 20
216.1415693215
 30
0.0
 10
149.0929672245
 20
218.013855478
 30
0.0
 10
148.3970750805
 20
220.8305881048
 30
0.0
 10
147.2896326366
 20
223.6643898812
 30
0.0
 10
145.8174772434
 20
226.4005589957
 30
0.0
 10
144.0417614059
 20
228.9253554352
 30
0.0
 10
142.0335506586
 20
231.1338201379
 30
0.0
 10
139.8824379173
 20
232.9267277814
 30
0.0
 10
137.6768642461
 20
234.2304568381
 30
0.0
 10
135.4981947258
 20
234.9913597844
 30
0.0
 10
133.4216267337
 20
235.1645255432
 30
0.0
 10
131.5391347605
 20
234.7040442811
 30
0.0
 10
129.9765921557
 20
233.6055647164
 30
0.0
 10
128.8417453208
 20
231.9515412113
 30
0.0
 10
128.1692197454
 20
229.853956721
 30
0.0
 10
128.0387483856
 20
228.3133185788
 30
0.0
 10
128.0387483856
 20
227.5009936118
 30
0.0
  0
SPLINE
  5
450
100
AcDbEntity
  8
0
100
AcDbSpline
 62
7
  6
CONTINUOUS
 70
0
 71
3
 72
22
 73
18
 74
0
 42
0.0000001
 43
0.0000001
 44
0.0000000001
 40
0.0
 40
0.0
 40
0.0
 40
0.0
 40
0.0712442578
 40
0.1484598645
 40
0.2296293416
 40
0.3120866583
 40
0.3944977541
 40
0.4740225938
 40
0.5483403993
 40
0.615958097
 40
0.6763262922
 40
0.7300251471
 40
0.7791182807
 40
0.8269913795
 40
0.8782181026
 40
0.9355242199
 40
1.0
 40
1.0
 40
1.0
 40
1.0
 10
128.0387483856
 20
227.5009936118
 30
0.0
 10
128.0387483856
 20
226.6033931591
 30
0.0
 10
128.2147994332
 20
224.7311070027
 30
0.0
 10
128.9106915772
 20
221.9143743758
 30
0.0
 10
130.0181340211
 20
219.0805725994
 30
0.0
 10
131.4902894143
 20
216.344403485
 30
0.0
 10
133.2660052518
 20
213.8196070454
 30
0.0
 10
135.2742159991
 20
211.6111423427
 30
0.0
 10
137.4253287404
 20
209.8182346992
 30
0.0
 10
139.6309024116
 20
208.5145056425
 30
0.0
 10
141.8095719319
 20
207.7536026962
 30
0.0
 10
143.8861399241
 20
207.5804369374
 30
0.0
 10
145.7686318972
 20
208.0409181995
 30
0.0
 10
147.331174502
 20
209.1393977643
 30
0.0
 10
148.4660213369
 20
210.7934212693
 30
0.0
 10
149.1385469124
 20
212.8910057597
 30
0.0
 10
149.2690182722
 20
214.4316439018
 30
0.0
 10
149.2690182722
 20
215.2439688688
 30
0.0
  0
SPLINE
  5
451
100
AcDbEntity
  8
0
100
AcDbSpline
 62
7
  6
CONTINUOUS
 70
0
 71
3
 72
11
 73
7
 74
0
 42
0.0000001
 43
0.0000001
 44
0.0000000001
 40
0.0
 40
0.0
 40
0.0
 40
0.0
 40
0.2624874078
 40
0.5234249925
 40
0.7722395245
 40
1.0
 40
1.0
 40
1.0
 40
1.0
 10
140.9519899356
 20
221.3060194576
 30
0.0
 10
141.2516390768
 20
220.9100593734
 30
0.0
 10
141.7911727976
 20
220.074963226
 30
0.0
 10
142.4045344239
 20
218.7436004154
 30
0.0
 10
142.7950655711
 20
217.3987007836
 30
0.0
 10
142.8965416798
 20
216.4961455357
 30
0.0
 10
142.8965416798
 20
216.0652782472
 30
0.0
  0
SPLINE
  5
452
100
AcDbEntity
  8
0
100
AcDbSpline
 62
7
  6
CONTINUOUS
 70
0
 71
3
 72
15
 73
11
 74
0
 42
0.0000001
 43
0.0000001
 44
0.0000000001
 40
0.0
 40
0.0
 40
0.0
 40
0.0
 40
0.1298890873
 40
0.2410762433
 40
0.3404854709
 40
0.4407614874
 40
0.5539181924
 40
0.6857470908
 40
0.8359158372
 40
1.0
 40
1.0
 40
1.0
 40
1.0
 10
142.8965416798
 20
216.0652782472
 30
0.0
 10
142.8965416798
 20
215.6576546582
 30
0.0
 10
142.8165636703
 20
214.8956483554
 30
0.0
 10
142.3813174808
 20
213.8943975569
 30
0.0
 10
141.6308336927
 20
213.2156725964
 30
0.0
 10
140.6444431479
 20
212.9693303694
 30
0.0
 10
139.554052253
 20
213.1481803483
 30
0.0
 10
138.4276600556
 20
213.6959280958
 30
0.0
 10
137.3236048469
 20
214.5703588192
 30
0.0
 10
136.6665135366
 20
215.3128146181
 30
0.0
 10
136.3557767222
 20
215.7234260911
 30
0.0
  0
SPLINE
  5
453
100
AcDbEntity
  8
0
100
AcDbSpline
 62
7
  6
CONTINUOUS
 70
0
 71
3
 72
11
 73
7
 74
0
 42
0.0000001
 43
0.0000001
 44
0.0000000001
 40
0.0
 40
0.0
 40
0.0
 40
0.0
 40
0.2624874078
 40
0.5234249925
 40
0.7722395245
 40
1.0
 40
1.0
 40
1.0
 40
1.0
 10
136.3557767222
 20
215.7234260911
 30
0.0
 10
136.056127581
 20
216.1193861752
 30
0.0
 10
135.5165938601
 20
216.9544823226
 30
0.0
 10
134.9032322339
 20
218.2858451332
 30
0.0
 10
134.5127010867
 20
219.6307447651
 30
0.0
 10
134.411224978
 20
220.5333000129
 30
0.0
 10
134.411224978
 20
220.9641673014
 30
0.0
  0
SPLINE
  5
454
100
AcDbEntity
  8
0
100
AcDbSpline
 62
7
  6
CONTINUOUS
 70
0
 71
3
 72
11
 73
7
 74
0
 42
0.0000001
 43
0.0000001
 44
0.0000000001
 40
0.0
 40
0.0
 40
0.0
 40
0.0
 40
0.2938189358
 40
0.5487536682
 40
0.7763686979
 40
1.0
 40
1.0
 40
1.0
 40
1.0
 10
134.411224978
 20
220.9641673014
 30
0.0
 10
134.411224978
 20
221.3447360025
 30
0.0
 10
134.4816070652
 20
222.059804871
 30
0.0
 10
134.8579619853
 20
223.0112986132
 30
0.0
 10
135.5031389609
 20
223.6968888096
 30
0.0
 10
136.0700629037
 20
223.9119450222
 30
0.0
 10
136.3557767221
 20
223.9595843619
 30
0.0
  0
SPLINE
  5
455
100
AcDbEntity
  8
0
100
AcDbSpline
 62
7
  6
CONTINUOUS
 70
0
 71
3
 72
17
 73
13
 74
0
 42
0.0000001
 43
0.0000001
 44
0.0000000001
 40
0.0
 40
0.0
 40
0.0
 40
0.0
 40
0.0942684443
 40
0.1727287438
 40
0.24381046
 40
0.3214714711
 40
0.4146156306
 40
0.523426614
 40
0.6429394178
 40
0.7671288063
 40
0.8891633525
 40
1.0
 40
1.0
 40
1.0
 40
1.0
 10
136.3557767221
 20
226.7817757721
 30
0.0
 10
136.3557767221
 20
227.0383169239
 30
0.0
 10
136.4122283387
 20
227.5133486672
 30
0.0
 10
136.7425322866
 20
228.1175691042
 30
0.0
 10
137.3073158809
 20
228.4417111825
 30
0.0
 10
137.9899343331
 20
228.4247326745
 30
0.0
 10
138.7007941
 20
228.1229747025
 30
0.0
 10
139.39712325
 20
227.5809962374
 30
0.0
 10
140.0233948073
 20
226.8469974803
 30
0.0
 10
140.5272590335
 20
225.9824300857
 30
0.0
 10
140.8606130776
 20
225.0642690658
 30
0.0
 10
140.9519899356
 20
224.4298405533
 30
0.0
 10
140.9519899356
 20
224.1282108677
 30
0.0
  0
SPLINE
  5
456
100
AcDbEntity
  8
0
100
AcDbSpline
 62
7
  6
CONTINUOUS
 70
0
 71
3
 72
17
 73
13
 74
0
 42
0.0000001
 43
0.0000001
 44
0.0000000001
 40
0.0
 40
0.0
 40
0.0
 40
0.0
 40
0.1103119117
 40
0.2310683991
 40
0.3541871284
 40
0.4736155335
 40
0.5828496166
 40
0.6763629673
 40
0.7545069574
 40
0.8262157231
 40
0.9053442499
 40
1.0
 40
1.0
 40
1.0
 40
1.0
 10
119.7388748192
 20
211.8808862516
 30
0.0
 10
119.7388748192
 20
212.1810798389
 30
0.0
 10
119.6486228438
 20
212.8105881675
 30
0.0
 10
119.3197424258
 20
213.7218741425
 30
0.0
 10
118.822151757
 20
214.5822563815
 30
0.0
 10
118.2005850252
 20
215.3174929022
 30
0.0
 10
117.5059133203
 20
215.8646304104
 30
0.0
 10
116.7944473578
 20
216.1730799694
 30
0.0
 10
116.1082272173
 20
216.1982206411
 30
0.0
 10
115.5348530736
 20
215.8777725597
 30
0.0
 10
115.199587621
 20
215.2699700721
 30
0.0
 10
115.1426616057
 20
214.7920393778
 30
0.0
 10
115.1426616057
 20
214.534451156
 30
0.0
  0
SPLINE
  5
457
100
AcDbEntity
  8
0
100
AcDbSpline
 62
7
  6
CONTINUOUS
 70
0
 71
3
 72
11
 73
7
 74
0
 42
0.0000001
 43
0.0000001
 44
0.0000000001
 40
0.0
 40
0.0
 40
0.0
 40
0.0
 40
0.2236313021
 40
0.4512463318
 40
0.7061810642
 40
1.0
 40
1.0
 40
1.0
 40
1.0
 10
115.1426616057
 20
211.7122597458
 30
0.0
 10
114.8569477873
 20
211.6646204061
 30
0.0
 10
114.2900238445
 20
211.4495641935
 30
0.0
 10
113.6448468689
 20
210.7639739971
 30
0.0
 10
113.2684919488
 20
209.8124802548
 30
0.0
 10
113.1981098616
 20
209.0974113864
 30
0.0
 10
113.1981098616
 20
208.7168426853
 30
0.0
  0
SPLINE
  5
458
100
AcDbEntity
  8
0
100
AcDbSpline
 62
7
  6
CONTINUOUS
 70
0
 71
3
 72
19
 73
15
 74
0
 42
0.0000001
 43
0.0000001
 44
0.0000000001
 40
0.0
 40
0.0
 40
0.0
 40
0.0
 40
0.0903088454
 40
0.1891074994
 40
0.2921279099
 40
0.3944944221
 40
0.4927452385
 40
0.5824433513
 40
0.6612316126
 40
0.7293553262
 40
0.7903167964
 40
0.8516796169
 40
0.9204702111
 40
1.0
 40
1.0
 40
1.0
 40
1.0
 10
113.1981098616
 20
208.7168426853
 30
0.0
 10
113.1981098616
 20
208.2625620468
 30
0.0
 10
113.3108270445
 20
207.3102152955
 30
0.0
 10
113.7400353874
 20
205.8986659559
 30
0.0
 10
114.4080591735
 20
204.5154446299
 30
0.0
 10
115.2705922204
 20
203.248120039
 30
0.0
 10
116.2720930129
 20
202.1763864229
 30
0.0
 10
117.3522629871
 20
201.366309459
 30
0.0
 10
118.4473523273
 20
200.870251294
 30
0.0
 10
119.5043702914
 20
200.7280737248
 30
0.0
 10
120.459063177
 20
200.9942859792
 30
0.0
 10
121.1852942826
 20
201.675591071
 30
0.0
 10
121.6059236939
 20
202.6667253455
 30
0.0
 10
121.6834265633
 20
203.4178948868
 30
0.0
 10
121.6834265633
 20
203.817953631
 30
0.0
  0
SPLINE
  5
459
100
AcDbEntity
  8
0
100
AcDbSpline
 62
7
  6
CONTINUOUS
 70
0
 71
3
 72
11
 73
7
 74
0
 42
0.0000001
 43
0.0000001
 44
0.0000000001
 40
0.0
 40
0.0
 40
0.0
 40
0.0
 40
0.2277604755
 40
0.4765750075
 40
0.7375125922
 40
1.0
 40
1.0
 40
1.0
 40
1.0
 10
121.6834265633
 20
203.817953631
 30
0.0
 10
121.6834265633
 20
204.2488209196
 30
0.0
 10
121.5819504547
 20
205.1513761674
 30
0.0
 10
121.1914193074
 20
206.4962757992
 30
0.0
 10
120.5780576812
 20
207.8276386098
 30
0.0
 10
120.0385239604
 20
208.6627347573
 30
0.0
 10
119.7388748192
 20
209.0586948414
 30
0.0
  0
SPLINE
  5
45A
100
AcDbEntity
  8
0
100
AcDbSpline
 62
7
  6
CONTINUOUS
 70
0
 71
3
 72
10
 73
6
 74
0
 42
0.0000001
 43
0.0000001
 44
0.0000000001
 40
0.0
 40
0.0
 40
0.0
 40
0.0
 40
0.323796247
 40
0.6574912146
 40
1.0
 40
1.0
 40
1.0
 40
1.0
 10
98.5369074349
 20
247.3440045822
 30
0.0
 10
98.6731870266
 20
248.6223554799
 30
0.0
 10
99.0301546035
 20
251.2101586307
 30
0.0
 10
99.7960575546
 20
255.1078134212
 30
0.0
 10
100.4551252193
 20
257.7119775801
 30
0.0
 10
100.8221158054
 20
259.0214124776
 30
0.0
  0
SPLINE
  5
45B
100
AcDbEntity
  8
0
100
AcDbSpline
 62
7
  6
CONTINUOUS
 70
0
 71
3
 72
18
 73
14
 74
0
 42
0.0000001
 43
0.0000001
 44
0.0000000001
 40
0.0
 40
0.0
 40
0.0
 40
0.0
 40
0.0991163509
 40
0.2075809399
 40
0.3197478553
 40
0.4305139539
 40
0.5347609617
 40
0.6271263053
 40
0.7061949729
 40
0.7744420012
 40
0.8402385287
 40
0.9136950731
 40
1.0
 40
1.0
 40
1.0
 40
1.0
 10
173.4600286042
 20
194.3373279546
 30
0.0
 10
173.4600286042
 20
194.6465415521
 30
0.0
 10
173.3761116077
 20
195.2948765286
 30
0.0
 10
173.0626904327
 20
196.2465969844
 30
0.0
 10
172.5802149719
 20
197.1662091064
 30
0.0
 10
171.9647517412
 20
197.9862133638
 30
0.0
 10
171.2609909971
 20
198.6459824132
 30
0.0
 10
170.518385322
 20
199.0951605106
 30
0.0
 10
169.7848265395
 20
199.2973878756
 30
0.0
 10
169.1009725997
 20
199.2096040061
 30
0.0
 10
168.5619244069
 20
198.8016453562
 30
0.0
 10
168.2504203133
 20
198.1489510695
 30
0.0
 10
168.194723042
 20
197.6464305245
 30
0.0
 10
168.194723042
 20
197.3771847675
 30
0.0
  0
SPLINE
  5
45C
100
AcDbEntity
  8
0
100
AcDbSpline
 62
7
  6
CONTINUOUS
 70
0
 71
3
 72
18
 73
14
 74
0
 42
0.0000001
 43
0.0000001
 44
0.0000000001
 40
0.0
 40
0.0
 40
0.0
 40
0.0
 40
0.0991163509
 40
0.2075809399
 40
0.3197478553
 40
0.4305139539
 40
0.5347609617
 40
0.6271263053
 40
0.7061949729
 40
0.7744420012
 40
0.8402385287
 40
0.9136950731
 40
1.0
 40
1.0
 40
1.0
 40
1.0
 10
168.194723042
 20
197.3771847675
 30
0.0
 10
168.194723042
 20
197.06797117
 30
0.0
 10
168.2786400385
 20
196.4196361936
 30
0.0
 10
168.5920612135
 20
195.4679157378
 30
0.0
 10
169.0745366743
 20
194.5483036157
 30
0.0
 10
169.689999905
 20
193.7282993583
 30
0.0
 10
170.3937606491
 20
193.068530309
 30
0.0
 10
171.1363663242
 20
192.6193522115
 30
0.0
 10
171.8699251067
 20
192.4171248465
 30
0.0
 10
172.5537790465
 20
192.504908716
 30
0.0
 10
173.0928272393
 20
192.9128673659
 30
0.0
 10
173.4043313329
 20
193.5655616527
 30
0.0
 10
173.4600286042
 20
194.0680821976
 30
0.0
 10
173.4600286042
 20
194.3373279546
 30
0.0
  0
SPLINE
  5
45D
100
AcDbEntity
  8
0
100
AcDbSpline
 62
7
  6
CONTINUOUS
 70
0
 71
3
 72
18
 73
14
 74
0
 42
0.0000001
 43
0.0000001
 44
0.0000000001
 40
0.0
 40
0.0
 40
0.0
 40
0.0
 40
0.0991163509
 40
0.2075809399
 40
0.3197478553
 40
0.4305139539
 40
0.5347609617
 40
0.6271263053
 40
0.7061949729
 40
0.7744420012
 40
0.8402385287
 40
0.9136950731
 40
1.0
 40
1.0
 40
1.0
 40
1.0
 10
109.1130436158
 20
231.4907682798
 30
0.0
 10
109.1130436158
 20
231.7999818773
 30
0.0
 10
109.0291266193
 20
232.4483168537
 30
0.0
 10
108.7157054443
 20
233.4000373095
 30
0.0
 10
108.2332299835
 20
234.3196494316
 30
0.0
 10
107.6177667528
 20
235.139653689
 30
0.0
 10
106.9140060087
 20
235.7994227383
 30
0.0
 10
106.1714003336
 20
236.2486008358
 30
0.0
 10
105.4378415511
 20
236.4508282008
 30
0.0
 10
104.7539876113
 20
236.3630443313
 30
0.0
 10
104.2149394185
 20
235.9550856814
 30
0.0
 10
103.9034353249
 20
235.3023913946
 30
0.0
 10
103.8477380536
 20
234.7998708497
 30
0.0
 10
103.8477380536
 20
234.5306250927
 30
0.0
  0
SPLINE
  5
45E
100
AcDbEntity
  8
0
100
AcDbSpline
 62
7
  6
CONTINUOUS
 70
0
 71
3
 72
18
 73
14
 74
0
 42
0.0000001
 43
0.0000001
 44
0.0000000001
 40
0.0
 40
0.0
 40
0.0
 40
0.0
 40
0.0991163509
 40
0.2075809399
 40
0.3197478553
 40
0.4305139539
 40
0.5347609617
 40
0.6271263053
 40
0.7061949729
 40
0.7744420012
 40
0.8402385287
 40
0.9136950731
 40
1.0
 40
1.0
 40
1.0
 40
1.0
 10
103.8477380536
 20
234.5306250927
 30
0.0
 10
103.8477380536
 20
234.2214114952
 30
0.0
 10
103.9316550501
 20
233.5730765187
 30
0.0
 10
104.2450762251
 20
232.6213560629
 30
0.0
 10
104.7275516858
 20
231.7017439409
 30
0.0
 10
105.3430149166
 20
230.8817396835
 30
0.0
 10
106.0467756607
 20
230.2219706341
 30
0.0
 10
106.7893813357
 20
229.7727925367
 30
0.0
 10
107.5229401183
 20
229.5705651717
 30
0.0
 10
108.2067940581
 20
229.6583490412
 30
0.0
 10
108.7458422509
 20
230.0663076911
 30
0.0
 10
109.0573463445
 20
230.7190019778
 30
0.0
 10
109.1130436158
 20
231.2215225228
 30
0.0
 10
109.1130436158
 20
231.4907682798
 30
0.0
  0
SPLINE
  5
45F
100
AcDbEntity
  8
0
100
AcDbSpline
 62
7
  6
CONTINUOUS
 70
0
 71
3
 72
11
 73
7
 74
0
 42
0.0000001
 43
0.0000001
 44
0.0000000001
 40
0.0
 40
0.0
 40
0.0
 40
0.0
 40
0.2444800923
 40
0.5040591399
 40
0.7614906441
 40
1.0
 40
1.0
 40
1.0
 40
1.0
 10
119.2116101722
 20
178.8866900366
 30
0.0
 10
119.6174303838
 20
179.0214754676
 30
0.0
 10
120.4826351982
 20
179.2176787358
 30
0.0
 10
121.8181070364
 20
179.2918255955
 30
0.0
 10
123.1379252234
 20
179.1525448872
 30
0.0
 10
123.9778310661
 20
178.9127112307
 30
0.0
 10
124.3647780036
 20
178.756805016
 30
0.0
  0
SPLINE
  5
460
100
AcDbEntity
  8
0
100
AcDbSpline
 62
7
  6
CONTINUOUS
 70
0
 71
3
 72
10
 73
6
 74
0
 42
0.0000001
 43
0.0000001
 44
0.0000000001
 40
0.0
 40
0.0
 40
0.0
 40
0.0
 40
0.3690909212
 40
0.7025030521
 40
1.0
 40
1.0
 40
1.0
 40
1.0
 10
124.3647780036
 20
178.756805016
 30
0.0
 10
124.6147803065
 20
178.6557401728
 30
0.0
 10
125.078400405
 20
178.4295607371
 30
0.0
 10
125.6729261037
 20
177.9981739539
 30
0.0
 10
125.9822348458
 20
177.6487738438
 30
0.0
 10
126.1013270888
 20
177.4669537293
 30
0.0
  0
SPLINE
  5
461
100
AcDbEntity
  8
0
100
AcDbSpline
 62
7
  6
CONTINUOUS
 70
0
 71
3
 72
16
 73
12
 74
0
 42
0.0000001
 43
0.0000001
 44
0.0000000001
 40
0.0
 40
0.0
 40
0.0
 40
0.0
 40
0.1228794131
 40
0.2579998784
 40
0.3943739258
 40
0.5241182331
 40
0.6372040346
 40
0.7303435965
 40
0.8105765394
 40
0.8962447128
 40
1.0
 40
1.0
 40
1.0
 40
1.0
 10
123.2450308665
 20
178.3279075103
 30
0.0
 10
123.0659411677
 20
178.4288532544
 30
0.0
 10
122.6590536177
 20
178.5882591584
 30
0.0
 10
122.0016924895
 20
178.6837691895
 30
0.0
 10
121.3270945354
 20
178.6517976518
 30
0.0
 10
120.7071479071
 20
178.4935526198
 30
0.0
 10
120.2067790947
 20
178.2235500232
 30
0.0
 10
119.8743386885
 20
177.8558572251
 30
0.0
 10
119.7923502097
 20
177.4019032114
 30
0.0
 10
120.007765232
 20
176.9770539859
 30
0.0
 10
120.2670801939
 20
176.7830837592
 30
0.0
 10
120.4166155176
 20
176.6949308948
 30
0.0
  0
SPLINE
  5
462
100
AcDbEntity
  8
0
100
AcDbSpline
 62
7
  6
CONTINUOUS
 70
0
 71
3
 72
10
 73
6
 74
0
 42
0.0000001
 43
0.0000001
 44
0.0000000001
 40
0.0
 40
0.0
 40
0.0
 40
0.0
 40
0.3177545258
 40
0.6519502728
 40
1.0
 40
1.0
 40
1.0
 40
1.0
 10
118.0020889189
 20
172.4626765586
 30
0.0
 10
117.7347336163
 20
172.32436728
 30
0.0
 10
117.170287739
 20
172.0705945925
 30
0.0
 10
116.2721931772
 20
171.765635179
 30
0.0
 10
115.6436157094
 20
171.6114643637
 30
0.0
 10
115.3205189398
 20
171.5457536951
 30
0.0
  0
SPLINE
  5
463
100
AcDbEntity
  8
0
100
AcDbSpline
 62
7
  6
CONTINUOUS
 70
0
 71
3
 72
10
 73
6
 74
0
 42
0.0000001
 43
0.0000001
 44
0.0000000001
 40
0.0
 40
0.0
 40
0.0
 40
0.0
 40
0.3333907865
 40
0.6667241241
 40
1.0
 40
1.0
 40
1.0
 40
1.0
 10
120.0560308088
 20
174.1189878822
 30
0.0
 10
119.8935823539
 20
174.2068373931
 30
0.0
 10
119.5687396971
 20
174.382569842
 30
0.0
 10
119.0815965643
 20
174.646291516
 30
0.0
 10
118.7569150773
 20
174.8221879695
 30
0.0
 10
118.5946014942
 20
174.9101529077
 30
0.0
  0
SPLINE
  5
464
100
AcDbEntity
  8
0
100
AcDbSpline
 62
7
  6
CONTINUOUS
 70
0
 71
3
 72
14
 73
10
 74
0
 42
0.0000001
 43
0.0000001
 44
0.0000000001
 40
0.0
 40
0.0
 40
0.0
 40
0.0
 40
0.1003281137
 40
0.2152275244
 40
0.3536047406
 40
0.5120672871
 40
0.6808420803
 40
0.8475413027
 40
1.0
 40
1.0
 40
1.0
 40
1.0
 10
123.8232133139
 20
175.0919197827
 30
0.0
 10
123.8436336191
 20
175.226680848
 30
0.0
 10
123.7889352804
 20
175.535243435
 30
0.0
 10
123.456244754
 20
175.9033026886
 30
0.0
 10
122.958569464
 20
176.1728328449
 30
0.0
 10
122.3409550721
 20
176.3318703704
 30
0.0
 10
121.6664040309
 20
176.3656199194
 30
0.0
 10
121.0065450212
 20
176.2694931841
 30
0.0
 10
120.5959758303
 20
176.1125937524
 30
0.0
 10
120.4166037417
 20
176.0090338469
 30
0.0
  0
SPLINE
  5
465
100
AcDbEntity
  8
0
100
AcDbSpline
 62
7
  6
CONTINUOUS
 70
0
 71
3
 72
10
 73
6
 74
0
 42
0.0000001
 43
0.0000001
 44
0.0000000001
 40
0.0
 40
0.0
 40
0.0
 40
0.0
 40
0.3762424543
 40
0.7058122028
 40
1.0
 40
1.0
 40
1.0
 40
1.0
 10
120.4166037417
 20
176.0090338469
 30
0.0
 10
120.3136601218
 20
175.949599675
 30
0.0
 10
120.1299254789
 20
175.8194474987
 30
0.0
 10
119.9235857813
 20
175.574717299
 30
0.0
 10
119.8523580063
 20
175.3850806417
 30
0.0
 10
119.8384330701
 20
175.2931848931
 30
0.0
  0
SPLINE
  5
466
100
AcDbEntity
  8
0
100
AcDbSpline
 62
7
  6
CONTINUOUS
 70
0
 71
3
 72
13
 73
9
 74
0
 42
0.0000001
 43
0.0000001
 44
0.0000000001
 40
0.0
 40
0.0
 40
0.0
 40
0.0
 40
0.1186358299
 40
0.2522605463
 40
0.4118509611
 40
0.5960903669
 40
0.7962831997
 40
1.0
 40
1.0
 40
1.0
 40
1.0
 10
119.8384330701
 20
175.2931848931
 30
0.0
 10
119.81988783
 20
175.1707980678
 30
0.0
 10
119.8593228323
 20
174.8944183525
 30
0.0
 10
120.1330590142
 20
174.5462917757
 30
0.0
 10
120.5594304664
 20
174.2768284084
 30
0.0
 10
121.1025425003
 20
174.0968782562
 30
0.0
 10
121.7147760934
 20
174.0207134819
 30
0.0
 10
122.138411145
 20
174.0447182653
 30
0.0
 10
122.3484693253
 20
174.0772144554
 30
0.0
  0
SPLINE
  5
467
100
AcDbEntity
  8
0
100
AcDbSpline
 62
7
  6
CONTINUOUS
 70
0
 71
3
 72
11
 73
7
 74
0
 42
0.0000001
 43
0.0000001
 44
0.0000000001
 40
0.0
 40
0.0
 40
0.0
 40
0.0
 40
0.3048793799
 40
0.5742178688
 40
0.8032604103
 40
1.0
 40
1.0
 40
1.0
 40
1.0
 10
122.3484693253
 20
174.0772144554
 30
0.0
 10
122.5386631886
 20
174.1066376179
 30
0.0
 10
122.8933276358
 20
174.1936647624
 30
0.0
 10
123.3532977933
 20
174.41764504
 30
0.0
 10
123.6870306532
 20
174.7139754881
 30
0.0
 10
123.8046068414
 20
174.9691288627
 30
0.0
 10
123.8232133139
 20
175.0919197827
 30
0.0
  0
SPLINE
  5
468
100
AcDbEntity
  8
0
100
AcDbSpline
 62
7
  6
CONTINUOUS
 70
0
 71
3
 72
10
 73
6
 74
0
 42
0.0000001
 43
0.0000001
 44
0.0000000001
 40
0.0
 40
0.0
 40
0.0
 40
0.0
 40
0.3311591811
 40
0.6660910352
 40
1.0
 40
1.0
 40
1.0
 40
1.0
 10
122.3484693253
 20
170.6805644002
 30
0.0
 10
122.2533278119
 20
170.6658459222
 30
0.0
 10
122.0605456691
 20
170.64474773
 30
0.0
 10
121.7696105713
 20
170.6376716904
 30
0.0
 10
121.5752332051
 20
170.6492865435
 30
0.0
 10
121.478674044
 20
170.659258076
 30
0.0
  0
SPLINE
  5
469
100
AcDbEntity
  8
0
100
AcDbSpline
 62
7
  6
CONTINUOUS
 70
0
 71
3
 72
10
 73
6
 74
0
 42
0.0000001
 43
0.0000001
 44
0.0000000001
 40
0.0
 40
0.0
 40
0.0
 40
0.0
 40
0.3367478981
 40
0.6684017321
 40
1.0
 40
1.0
 40
1.0
 40
1.0
 10
123.7995739206
 20
171.9992222461
 30
0.0
 10
123.8097796018
 20
171.9662825922
 30
0.0
 10
123.8254069892
 20
171.8993381465
 30
0.0
 10
123.8334386596
 20
171.7968840344
 30
0.0
 10
123.8283007476
 20
171.7288435637
 30
0.0
 10
123.8232133139
 20
171.6952697274
 30
0.0
  0
LINE
  5
46A
100
AcDbEntity
  8
0
100
AcDbLine
 62
7
  6
CONTINUOUS
 10
125.8206176029
 20
171.5943839143
 11
126.1013270884
 21
171.7514368091
  0
SPLINE
  5
46B
100
AcDbEntity
  8
0
100
AcDbSpline
 62
7
  6
CONTINUOUS
 70
0
 71
3
 72
10
 73
6
 74
0
 42
0.0000001
 43
0.0000001
 44
0.0000000001
 40
0.0
 40
0.0
 40
0.0
 40
0.0
 40
0.3177545258
 40
0.6519502728
 40
1.0
 40
1.0
 40
1.0
 40
1.0
 10
118.0020889189
 20
90.3388634437
 30
0.0
 10
117.7347336163
 20
90.2005541651
 30
0.0
 10
117.170287739
 20
89.9467814776
 30
0.0
 10
116.2721931772
 20
89.6418220641
 30
0.0
 10
115.6436157094
 20
89.4876512488
 30
0.0
 10
115.3205189398
 20
89.4219405802
 30
0.0
  0
SPLINE
  5
46C
100
AcDbEntity
  8
0
100
AcDbSpline
 62
7
  6
CONTINUOUS
 70
0
 71
3
 72
15
 73
11
 74
0
 42
0.0000001
 43
0.0000001
 44
0.0000000001
 40
0.0
 40
0.0
 40
0.0
 40
0.0
 40
0.1602713714
 40
0.3175072568
 40
0.4614048112
 40
0.5849612504
 40
0.6877743551
 40
0.7800102535
 40
0.8798073942
 40
1.0
 40
1.0
 40
1.0
 40
1.0
 10
122.3484693252
 20
90.8756181499
 30
0.0
 10
122.1333804036
 20
90.8423436995
 30
0.0
 10
121.6997681566
 20
90.8187584182
 30
0.0
 10
121.0749910328
 20
90.9005297386
 30
0.0
 10
120.5251605345
 20
91.0904157232
 30
0.0
 10
120.1005746534
 20
91.3720128644
 30
0.0
 10
119.839041778
 20
91.7365189987
 30
0.0
 10
119.8112518203
 20
92.1594455024
 30
0.0
 10
120.0319036522
 20
92.5428870585
 30
0.0
 10
120.2752501799
 20
92.7258275116
 30
0.0
 10
120.4166037417
 20
92.8074375414
 30
0.0
  0
SPLINE
  5
46D
100
AcDbEntity
  8
0
100
AcDbSpline
 62
7
  6
CONTINUOUS
 70
0
 71
3
 72
10
 73
6
 74
0
 42
0.0000001
 43
0.0000001
 44
0.0000000001
 40
0.0
 40
0.0
 40
0.0
 40
0.0
 40
0.312440235
 40
0.6475455427
 40
1.0
 40
1.0
 40
1.0
 40
1.0
 10
120.4166037417
 20
92.8074375414
 30
0.0
 10
120.5022651502
 20
92.8568938834
 30
0.0
 10
120.6879607816
 20
92.9456125767
 30
0.0
 10
120.989286505
 20
93.0448350311
 30
0.0
 10
121.2029078277
 20
93.0892351652
 30
0.0
 10
121.3131770588
 20
93.1062939148
 30
0.0
  0
SPLINE
  5
46E
100
AcDbEntity
  8
0
100
AcDbSpline
 62
7
  6
CONTINUOUS
 70
0
 71
3
 72
13
 73
9
 74
0
 42
0.0000001
 43
0.0000001
 44
0.0000000001
 40
0.0
 40
0.0
 40
0.0
 40
0.0
 40
0.2036944928
 40
0.4038755693
 40
0.5881149167
 40
0.7477140122
 40
0.8813509269
 40
1.0
 40
1.0
 40
1.0
 40
1.0
 10
121.3131770588
 20
93.1062939148
 30
0.0
 10
121.5232121583
 20
93.1387865344
 30
0.0
 10
121.9468104552
 20
93.162793617
 30
0.0
 10
122.5590097417
 20
93.0866491405
 30
0.0
 10
123.1021251275
 20
92.9067217586
 30
0.0
 10
123.5285286003
 20
92.6372700569
 30
0.0
 10
123.8023110637
 20
92.2891330925
 30
0.0
 10
123.8417606173
 20
92.0127239184
 30
0.0
 10
123.8232133139
 20
91.8903234772
 30
0.0
  0
SPLINE
  5
46F
100
AcDbEntity
  8
0
100
AcDbSpline
 62
7
  6
CONTINUOUS
 70
0
 71
3
 72
10
 73
6
 74
0
 42
0.0000001
 43
0.0000001
 44
0.0000000001
 40
0.0
 40
0.0
 40
0.0
 40
0.0
 40
0.2941877972
 40
0.6237575457
 40
1.0
 40
1.0
 40
1.0
 40
1.0
 10
123.8232133139
 20
91.8903234772
 30
0.0
 10
123.8092883778
 20
91.7984277286
 30
0.0
 10
123.7380606027
 20
91.6087910713
 30
0.0
 10
123.5317209051
 20
91.3640608715
 30
0.0
 10
123.3479862623
 20
91.2339086953
 30
0.0
 10
123.2450426423
 20
91.1744745233
 30
0.0
  0
SPLINE
  5
470
100
AcDbEntity
  8
0
100
AcDbSpline
 62
7
  6
CONTINUOUS
 70
0
 71
3
 72
10
 73
6
 74
0
 42
0.0000001
 43
0.0000001
 44
0.0000000001
 40
0.0
 40
0.0
 40
0.0
 40
0.0
 40
0.312440235
 40
0.6475455427
 40
1.0
 40
1.0
 40
1.0
 40
1.0
 10
123.2450426423
 20
91.1744745233
 30
0.0
 10
123.1593812339
 20
91.1250181813
 30
0.0
 10
122.9736856025
 20
91.036299488
 30
0.0
 10
122.6723598791
 20
90.9370770336
 30
0.0
 10
122.4587385563
 20
90.8926768996
 30
0.0
 10
122.3484693252
 20
90.8756181499
 30
0.0
  0
SPLINE
  5
471
100
AcDbEntity
  8
0
100
AcDbSpline
 62
7
  6
CONTINUOUS
 70
0
 71
3
 72
10
 73
6
 74
0
 42
0.0000001
 43
0.0000001
 44
0.0000000001
 40
0.0
 40
0.0
 40
0.0
 40
0.0
 40
0.3315982679
 40
0.6632521019
 40
1.0
 40
1.0
 40
1.0
 40
1.0
 10
123.8232133139
 20
95.2869735324
 30
0.0
 10
123.8283007476
 20
95.3205473687
 30
0.0
 10
123.8334386596
 20
95.3885878394
 30
0.0
 10
123.8254069892
 20
95.4910419515
 30
0.0
 10
123.8097796018
 20
95.5579863972
 30
0.0
 10
123.7995739206
 20
95.5909260511
 30
0.0
  0
SPLINE
  5
472
100
AcDbEntity
  8
0
100
AcDbSpline
 62
7
  6
CONTINUOUS
 70
0
 71
3
 72
10
 73
6
 74
0
 42
0.0000001
 43
0.0000001
 44
0.0000000001
 40
0.0
 40
0.0
 40
0.0
 40
0.0
 40
0.3339089648
 40
0.6688408188
 40
1.0
 40
1.0
 40
1.0
 40
1.0
 10
121.478674044
 20
94.2509618811
 30
0.0
 10
121.5752332051
 20
94.2409903485
 30
0.0
 10
121.7696105713
 20
94.2293754955
 30
0.0
 10
122.0605456691
 20
94.2364515351
 30
0.0
 10
122.2533278119
 20
94.2575497272
 30
0.0
 10
122.3484693253
 20
94.2722682052
 30
0.0
  0
SPLINE
  5
473
100
AcDbEntity
  8
0
100
AcDbSpline
 62
7
  6
CONTINUOUS
 70
0
 71
3
 72
11
 73
7
 74
0
 42
0.0000001
 43
0.0000001
 44
0.0000000001
 40
0.0
 40
0.0
 40
0.0
 40
0.0
 40
0.2444800923
 40
0.50405914
 40
0.7614906441
 40
1.0
 40
1.0
 40
1.0
 40
1.0
 10
119.2116101722
 20
91.0391949776
 30
0.0
 10
119.6174303837
 20
91.1739804086
 30
0.0
 10
120.4826351982
 20
91.3701836769
 30
0.0
 10
121.8181070364
 20
91.4443305365
 30
0.0
 10
123.1379252234
 20
91.3050498282
 30
0.0
 10
123.977831066
 20
91.0652161717
 30
0.0
 10
124.3647780035
 20
90.9093099571
 30
0.0
  0
SPLINE
  5
474
100
AcDbEntity
  8
0
100
AcDbSpline
 62
7
  6
CONTINUOUS
 70
0
 71
3
 72
10
 73
6
 74
0
 42
0.0000001
 43
0.0000001
 44
0.0000000001
 40
0.0
 40
0.0
 40
0.0
 40
0.0
 40
0.3333907867
 40
0.6667241244
 40
1.0
 40
1.0
 40
1.0
 40
1.0
 10
120.0560308088
 20
86.2714928232
 30
0.0
 10
119.8935823534
 20
86.3593423344
 30
0.0
 10
119.5687396956
 20
86.5350747839
 30
0.0
 10
119.0815965615
 20
86.7987964586
 30
0.0
 10
118.7569150737
 20
86.9746929124
 30
0.0
 10
118.5946014903
 20
87.0626578508
 30
0.0
  0
SPLINE
  5
475
100
AcDbEntity
  8
0
100
AcDbSpline
 62
7
  6
CONTINUOUS
 70
0
 71
3
 72
15
 73
11
 74
0
 42
0.0000001
 43
0.0000001
 44
0.0000000001
 40
0.0
 40
0.0
 40
0.0
 40
0.0
 40
0.1205016973
 40
0.2203552638
 40
0.3119146692
 40
0.4148700997
 40
0.5389568549
 40
0.6832275174
 40
0.8398849767
 40
1.0
 40
1.0
 40
1.0
 40
1.0
 10
120.4166037417
 20
90.4804056526
 30
0.0
 10
120.2756267095
 20
90.397312164
 30
0.0
 10
120.0308308538
 20
90.215743755
 30
0.0
 10
119.8113853827
 20
89.8316314802
 30
0.0
 10
119.8390758076
 20
89.4098564589
 30
0.0
 10
120.1002684018
 20
89.0449362081
 30
0.0
 10
120.5262509392
 20
88.7626751695
 30
0.0
 10
121.0766495316
 20
88.5732999605
 30
0.0
 10
121.7010717359
 20
88.4911451822
 30
0.0
 10
122.1333800497
 20
88.5167157591
 30
0.0
 10
122.3484702143
 20
88.5485863987
 30
0.0
  0
SPLINE
  5
476
100
AcDbEntity
  8
0
100
AcDbSpline
 62
7
  6
CONTINUOUS
 70
0
 71
3
 72
9
 73
5
 74
0
 42
0.0000001
 43
0.0000001
 44
0.0000000001
 40
0.0
 40
0.0
 40
0.0
 40
0.0
 40
0.5193900897
 40
1.0
 40
1.0
 40
1.0
 40
1.0
 10
122.3484702143
 20
88.5485863987
 30
0.0
 10
122.5108389253
 20
88.5737049849
 30
0.0
 10
122.8203667639
 20
88.6456677727
 30
0.0
 10
123.1133782552
 20
88.7714266189
 30
0.0
 10
123.2450426423
 20
88.8474426345
 30
0.0
  0
SPLINE
  5
477
100
AcDbEntity
  8
0
100
AcDbSpline
 62
7
  6
CONTINUOUS
 70
0
 71
3
 72
9
 73
5
 74
0
 42
0.0000001
 43
0.0000001
 44
0.0000000001
 40
0.0
 40
0.0
 40
0.0
 40
0.0
 40
0.5487860803
 40
1.0
 40
1.0
 40
1.0
 40
1.0
 10
123.2450426423
 20
88.8474426345
 30
0.0
 10
123.3944993017
 20
88.933730962
 30
0.0
 10
123.6511593149
 20
89.1274620497
 30
0.0
 10
123.8019548678
 20
89.4229993244
 30
0.0
 10
123.8232133177
 20
89.5632916132
 30
0.0
  0
SPLINE
  5
478
100
AcDbEntity
  8
0
100
AcDbSpline
 62
7
  6
CONTINUOUS
 70
0
 71
3
 72
15
 73
11
 74
0
 42
0.0000001
 43
0.0000001
 44
0.0000000001
 40
0.0
 40
0.0
 40
0.0
 40
0.0
 40
0.0855640324
 40
0.1818826738
 40
0.2964405461
 40
0.4287928736
 40
0.5731815868
 40
0.722083307
 40
0.8676014402
 40
1.0
 40
1.0
 40
1.0
 40
1.0
 10
123.8232133177
 20
89.5632916132
 30
0.0
 10
123.8397710857
 20
89.6784731416
 30
0.0
 10
123.809350877
 20
89.9371181393
 30
0.0
 10
123.5655600249
 20
90.2735457533
 30
0.0
 10
123.1763042166
 20
90.5415918328
 30
0.0
 10
122.6741229506
 20
90.7299158902
 30
0.0
 10
122.1000428516
 20
90.8255630756
 30
0.0
 10
121.5003395481
 20
90.8202697301
 30
0.0
 10
120.9263856288
 20
90.7143318146
 30
0.0
 10
120.5731486264
 20
90.5693730062
 30
0.0
 10
120.4166037417
 20
90.4804056526
 30
0.0
  0
LINE
  5
479
100
AcDbEntity
  8
0
100
AcDbLine
 62
7
  6
CONTINUOUS
 10
125.8206176029
 20
95.1860877193
 11
126.1013270884
 21
95.3431406141
  0
SPLINE
  5
47A
100
AcDbEntity
  8
0
100
AcDbSpline
 62
7
  6
CONTINUOUS
 70
0
 71
3
 72
11
 73
7
 74
0
 42
0.0000001
 43
0.0000001
 44
0.0000000001
 40
0.0
 40
0.0
 40
0.0
 40
0.0
 40
0.2474096217
 40
0.5040593682
 40
0.7586098899
 40
1.0
 40
1.0
 40
1.0
 40
1.0
 10
119.2116101722
 20
93.4968672532
 30
0.0
 10
119.6221443178
 20
93.6337113278
 30
0.0
 10
120.4879240563
 20
93.8282635197
 30
0.0
 10
121.8181808102
 20
93.9013248889
 30
0.0
 10
123.1327272753
 20
93.7633556768
 30
0.0
 10
123.9733409256
 20
93.5252228827
 30
0.0
 10
124.3647780036
 20
93.3669822326
 30
0.0
  0
SPLINE
  5
47B
100
AcDbEntity
  8
0
100
AcDbSpline
 62
7
  6
CONTINUOUS
 70
0
 71
3
 72
10
 73
6
 74
0
 42
0.0000001
 43
0.0000001
 44
0.0000000001
 40
0.0
 40
0.0
 40
0.0
 40
0.0
 40
0.3425350557
 40
0.6760201534
 40
1.0
 40
1.0
 40
1.0
 40
1.0
 10
124.3647780036
 20
93.3669822326
 30
0.0
 10
124.4439386181
 20
93.334981107
 30
0.0
 10
124.5987871117
 20
93.2683265917
 30
0.0
 10
124.8228843671
 20
93.1589597597
 30
0.0
 10
124.9664469778
 20
93.0797269233
 30
0.0
 10
125.0360691295
 20
93.0388029629
 30
0.0
  0
SPLINE
  5
47C
100
AcDbEntity
  8
0
100
AcDbSpline
 62
7
  6
CONTINUOUS
 70
0
 71
3
 72
14
 73
10
 74
0
 42
0.0000001
 43
0.0000001
 44
0.0000000001
 40
0.0
 40
0.0
 40
0.0
 40
0.0
 40
0.1055040933
 40
0.2301090928
 40
0.3742691898
 40
0.5323393309
 40
0.6956666023
 40
0.8545586897
 40
1.0
 40
1.0
 40
1.0
 40
1.0
 10
123.7995739206
 20
92.3249163826
 30
0.0
 10
123.7602789985
 20
92.4517438935
 30
0.0
 10
123.5963389379
 20
92.70438464
 30
0.0
 10
123.2087288133
 20
92.9827677136
 30
0.0
 10
122.7043747559
 20
93.1801414893
 30
0.0
 10
122.1240071059
 20
93.2817480042
 30
0.0
 10
121.516387975
 20
93.2800150173
 30
0.0
 10
120.9344209387
 20
93.1741186597
 30
0.0
 10
120.5751176547
 20
93.0295954322
 30
0.0
 10
120.4166037417
 20
92.9380779282
 30
0.0
  0
SPLINE
  5
47D
100
AcDbEntity
  8
0
100
AcDbSpline
 62
7
  6
CONTINUOUS
 70
0
 71
3
 72
10
 73
6
 74
0
 42
0.0000001
 43
0.0000001
 44
0.0000000001
 40
0.0
 40
0.0
 40
0.0
 40
0.0
 40
0.3834919067
 40
0.7044600587
 40
1.0
 40
1.0
 40
1.0
 40
1.0
 10
120.4166037417
 20
92.9380779282
 30
0.0
 10
120.2784194694
 20
92.8582976776
 30
0.0
 10
120.0394968492
 20
92.6792481923
 30
0.0
 10
119.818010011
 20
92.308381965
 30
0.0
 10
119.8256804478
 20
92.0357346032
 30
0.0
 10
119.8620724634
 20
91.9182764556
 30
0.0
  0
SPLINE
  5
47E
100
AcDbEntity
  8
0
100
AcDbSpline
 62
7
  6
CONTINUOUS
 70
0
 71
3
 72
11
 73
7
 74
0
 42
0.0000001
 43
0.0000001
 44
0.0000000001
 40
0.0
 40
0.0
 40
0.0
 40
0.0
 40
0.1977119989
 40
0.4299192312
 40
0.6997480156
 40
1.0
 40
1.0
 40
1.0
 40
1.0
 10
119.8620724634
 20
91.9182764556
 30
0.0
 10
119.9002259879
 20
91.795132897
 30
0.0
 10
120.056719343
 20
91.5497483418
 30
0.0
 10
120.4283097458
 20
91.2748778349
 30
0.0
 10
120.9163163988
 20
91.0752006775
 30
0.0
 10
121.2839295257
 20
91.0050632127
 30
0.0
 10
121.478674044
 20
90.9849522125
 30
0.0
  0
SPLINE
  5
47F
100
AcDbEntity
  8
0
100
AcDbSpline
 62
7
  6
CONTINUOUS
 70
0
 71
3
 72
12
 73
8
 74
0
 42
0.0000001
 43
0.0000001
 44
0.0000000001
 40
0.0
 40
0.0
 40
0.0
 40
0.0
 40
0.1705562478
 40
0.316659599
 40
0.5042291415
 40
0.7464656299
 40
1.0
 40
1.0
 40
1.0
 40
1.0
 10
116.3572537506
 20
92.2835629007
 30
0.0
 10
116.3794353004
 20
92.2964675693
 30
0.0
 10
116.4213916248
 20
92.3311891515
 30
0.0
 10
116.4082179243
 20
92.4178445114
 30
0.0
 10
116.328218284
 20
92.4657934685
 30
0.0
 10
116.2272343466
 20
92.4857129512
 30
0.0
 10
116.1509403248
 20
92.4766487464
 30
0.0
 10
116.1147505751
 20
92.4645855529
 30
0.0
  0
SPLINE
  5
480
100
AcDbEntity
  8
0
100
AcDbSpline
 62
7
  6
CONTINUOUS
 70
0
 71
3
 72
11
 73
7
 74
0
 42
0.0000001
 43
0.0000001
 44
0.0000000001
 40
0.0
 40
0.0
 40
0.0
 40
0.0
 40
0.2413901101
 40
0.4959406318
 40
0.7525903783
 40
1.0
 40
1.0
 40
1.0
 40
1.0
 10
124.3647780036
 20
176.3072977646
 30
0.0
 10
123.9733409256
 20
176.4655384147
 30
0.0
 10
123.1327272753
 20
176.7036712089
 30
0.0
 10
121.8181808102
 20
176.8416404209
 30
0.0
 10
120.4879240563
 20
176.7685790517
 30
0.0
 10
119.6221443178
 20
176.5740268598
 30
0.0
 10
119.2116101722
 20
176.4371827852
 30
0.0
  0
SPLINE
  5
481
100
AcDbEntity
  8
0
100
AcDbSpline
 62
7
  6
CONTINUOUS
 70
0
 71
3
 72
12
 73
8
 74
0
 42
0.0000001
 43
0.0000001
 44
0.0000000001
 40
0.0
 40
0.0
 40
0.0
 40
0.0
 40
0.2491631702
 40
0.4892177701
 40
0.6785246105
 40
0.8236866616
 40
1.0
 40
1.0
 40
1.0
 40
1.0
 10
116.1147505752
 20
175.404901085
 30
0.0
 10
116.1504026473
 20
175.4167850534
 30
0.0
 10
116.2257858931
 20
175.4260058088
 30
0.0
 10
116.3264066353
 20
175.4066582392
 30
0.0
 10
116.4067910334
 20
175.359808995
 30
0.0
 10
116.4223778051
 20
175.2722621942
 30
0.0
 10
116.3791591466
 20
175.2366272265
 30
0.0
 10
116.3561732413
 20
175.2232546041
 30
0.0
  0
SPLINE
  5
482
100
AcDbEntity
  8
0
100
AcDbSpline
 62
7
  6
CONTINUOUS
 70
0
 71
3
 72
14
 73
10
 74
0
 42
0.0000001
 43
0.0000001
 44
0.0000000001
 40
0.0
 40
0.0
 40
0.0
 40
0.0
 40
0.1881692395
 40
0.3566169816
 40
0.4998697281
 40
0.620287584
 40
0.7313796295
 40
0.8533784113
 40
1.0
 40
1.0
 40
1.0
 40
1.0
 10
121.478674044
 20
173.9252677446
 30
0.0
 10
121.2787259938
 20
173.9459161063
 30
0.0
 10
120.9020148774
 20
174.018716406
 30
0.0
 10
120.4052737385
 20
174.2266285225
 30
0.0
 10
120.0344095956
 20
174.5129298456
 30
0.0
 10
119.8223663376
 20
174.8700387047
 30
0.0
 10
119.8262502165
 20
175.2676054147
 30
0.0
 10
120.047017358
 20
175.6254386974
 30
0.0
 10
120.2809595409
 20
175.8000797118
 30
0.0
 10
120.4166037417
 20
175.8783934602
 30
0.0
  0
SPLINE
  5
483
100
AcDbEntity
  8
0
100
AcDbSpline
 62
7
  6
CONTINUOUS
 70
0
 71
3
 72
14
 73
10
 74
0
 42
0.0000001
 43
0.0000001
 44
0.0000000001
 40
0.0
 40
0.0
 40
0.0
 40
0.0
 40
0.1454413103
 40
0.3043333977
 40
0.4676606691
 40
0.6257308102
 40
0.7698909072
 40
0.8944959067
 40
1.0
 40
1.0
 40
1.0
 40
1.0
 10
120.4166037417
 20
175.8783934602
 30
0.0
 10
120.5751176547
 20
175.9699109642
 30
0.0
 10
120.9344209387
 20
176.1144341918
 30
0.0
 10
121.516387975
 20
176.2203305493
 30
0.0
 10
122.1240071059
 20
176.2220635362
 30
0.0
 10
122.7043747559
 20
176.1204570213
 30
0.0
 10
123.2087288133
 20
175.9230832456
 30
0.0
 10
123.5963389379
 20
175.6447001721
 30
0.0
 10
123.7602789985
 20
175.3920594256
 30
0.0
 10
123.7995739206
 20
175.2652319146
 30
0.0
  0
SPLINE
  5
484
100
AcDbEntity
  8
0
100
AcDbSpline
 62
7
  6
CONTINUOUS
 70
0
 71
3
 72
10
 73
6
 74
0
 42
0.0000001
 43
0.0000001
 44
0.0000000001
 40
0.0
 40
0.0
 40
0.0
 40
0.0
 40
0.3239798466
 40
0.6574649443
 40
1.0
 40
1.0
 40
1.0
 40
1.0
 10
125.0360691295
 20
175.979118495
 30
0.0
 10
124.9664469778
 20
176.0200424553
 30
0.0
 10
124.8228843671
 20
176.0992752917
 30
0.0
 10
124.5987871116
 20
176.2086421237
 30
0.0
 10
124.4439386181
 20
176.275296639
 30
0.0
 10
124.3647780036
 20
176.3072977646
 30
0.0
  0
SPLINE
  5
485
100
AcDbEntity
  8
0
100
AcDbSpline
 62
7
  6
CONTINUOUS
 70
0
 71
3
 72
10
 73
6
 74
0
 42
0.0000001
 43
0.0000001
 44
0.0000000001
 40
0.0
 40
0.0
 40
0.0
 40
0.0
 40
0.3481726372
 40
0.6824864016
 40
1.0
 40
1.0
 40
1.0
 40
1.0
 10
115.3205189398
 20
165.8302367752
 30
0.0
 10
115.6436157094
 20
165.8959474438
 30
0.0
 10
116.2721923447
 20
166.0501204309
 30
0.0
 10
117.1699734289
 20
166.354962896
 30
0.0
 10
117.7341167907
 20
166.6085900403
 30
0.0
 10
118.0011750708
 20
166.746745662
 30
0.0
  0
SPLINE
  5
486
100
AcDbEntity
  8
0
100
AcDbSpline
 62
7
  6
CONTINUOUS
 70
0
 71
3
 72
10
 73
6
 74
0
 42
0.0000001
 43
0.0000001
 44
0.0000000001
 40
0.0
 40
0.0
 40
0.0
 40
0.0
 40
0.3297975803
 40
0.663143661
 40
1.0
 40
1.0
 40
1.0
 40
1.0
 10
31.7890541059
 20
231.1768638946
 30
0.0
 10
40.8212313996
 20
225.6199199792
 30
0.0
 10
59.0896224943
 20
214.6189029323
 30
0.0
 10
86.9399704425
 20
198.5434674438
 30
0.0
 10
105.7980322251
 20
188.109998914
 30
0.0
 10
115.3218306567
 20
182.9502838831
 30
0.0
  0
SPLINE
  5
487
100
AcDbEntity
  8
0
100
AcDbSpline
 62
7
  6
CONTINUOUS
 70
0
 71
3
 72
10
 73
6
 74
0
 42
0.0000001
 43
0.0000001
 44
0.0000000001
 40
0.0
 40
0.0
 40
0.0
 40
0.0
 40
0.3333945975
 40
0.6667279408
 40
1.0
 40
1.0
 40
1.0
 40
1.0
 10
34.8762663894
 20
223.2438627619
 30
0.0
 10
34.7239302513
 20
223.3375557922
 30
0.0
 10
34.4193158287
 20
223.5249732018
 30
0.0
 10
33.9625258711
 20
223.8062191883
 30
0.0
 10
33.6580870512
 20
223.9937964308
 30
0.0
 10
33.5058966087
 20
224.08760072
 30
0.0
  0
SPLINE
  5
488
100
AcDbEntity
  8
0
100
AcDbSpline
 62
7
  6
CONTINUOUS
 70
0
 71
3
 72
10
 73
6
 74
0
 42
0.0000001
 43
0.0000001
 44
0.0000000001
 40
0.0
 40
0.0
 40
0.0
 40
0.0
 40
0.3123544817
 40
0.6455809902
 40
1.0
 40
1.0
 40
1.0
 40
1.0
 10
29.3903951704
 20
221.5646638115
 30
0.0
 10
29.7928643018
 20
222.0487776212
 30
0.0
 10
30.698696689
 20
222.9893433378
 30
0.0
 10
32.2691181525
 20
224.2591570321
 30
0.0
 10
33.4378884788
 20
225.0095174269
 30
0.0
 10
34.0565294127
 20
225.3666878046
 30
0.0
  0
SPLINE
  5
489
100
AcDbEntity
  8
0
100
AcDbSpline
 62
7
  6
CONTINUOUS
 70
0
 71
3
 72
10
 73
6
 74
0
 42
0.0000001
 43
0.0000001
 44
0.0000000001
 40
0.0
 40
0.0
 40
0.0
 40
0.0
 40
0.3196735686
 40
0.6534508909
 40
1.0
 40
1.0
 40
1.0
 40
1.0
 10
34.0565294127
 20
225.3666878046
 30
0.0
 10
34.6145527173
 20
225.6888607866
 30
0.0
 10
35.7837062205
 20
226.2990467137
 30
0.0
 10
37.6376566326
 20
227.0940899279
 30
0.0
 10
38.9338609856
 20
227.5454776754
 30
0.0
 10
39.6005699009
 20
227.7538763728
 30
0.0
  0
SPLINE
  5
48A
100
AcDbEntity
  8
0
100
AcDbSpline
 62
7
  6
CONTINUOUS
 70
0
 71
3
 72
10
 73
6
 74
0
 42
0.0000001
 43
0.0000001
 44
0.0000000001
 40
0.0
 40
0.0
 40
0.0
 40
0.0
 40
0.3420392137
 40
0.6755118021
 40
1.0
 40
1.0
 40
1.0
 40
1.0
 10
38.2346695463
 20
223.739283342
 30
0.0
 10
38.2032800475
 20
223.7265937349
 30
0.0
 10
38.1418094881
 20
223.7002116197
 30
0.0
 10
38.0526707952
 20
223.6570954656
 30
0.0
 10
37.995426675
 20
223.6259658144
 30
0.0
 10
37.9676097896
 20
223.609905824
 30
0.0
  0
SPLINE
  5
48B
100
AcDbEntity
  8
0
100
AcDbSpline
 62
7
  6
CONTINUOUS
 70
0
 71
3
 72
16
 73
12
 74
0
 42
0.0000001
 43
0.0000001
 44
0.0000000001
 40
0.0
 40
0.0
 40
0.0
 40
0.0
 40
0.1043497258
 40
0.1909192743
 40
0.2711127178
 40
0.3608457231
 40
0.4687644925
 40
0.5941884562
 40
0.7307343493
 40
0.8692293025
 40
1.0
 40
1.0
 40
1.0
 40
1.0
 10
37.9676097896
 20
223.609905824
 30
0.0
 10
37.8252551907
 20
223.5277178486
 30
0.0
 10
37.5802969077
 20
223.3433567286
 30
0.0
 10
37.359907854
 20
222.9554819706
 30
0.0
 10
37.3934015207
 20
222.5287523585
 30
0.0
 10
37.662828403
 20
222.1637016078
 30
0.0
 10
38.0954901764
 20
221.8833576496
 30
0.0
 10
38.6526600338
 20
221.6967207272
 30
0.0
 10
39.282706256
 20
221.6200678063
 30
0.0
 10
39.9240298784
 20
221.6609337385
 30
0.0
 10
40.3380082182
 20
221.7703588867
 30
0.0
 10
40.5289889335
 20
221.8475652879
 30
0.0
  0
SPLINE
  5
48C
100
AcDbEntity
  8
0
100
AcDbSpline
 62
7
  6
CONTINUOUS
 70
0
 71
3
 72
10
 73
6
 74
0
 42
0.0000001
 43
0.0000001
 44
0.0000000001
 40
0.0
 40
0.0
 40
0.0
 40
0.0
 40
0.3420392138
 40
0.6755118022
 40
1.0
 40
1.0
 40
1.0
 40
1.0
 10
40.5289889335
 20
221.8475652879
 30
0.0
 10
40.5603784323
 20
221.860254895
 30
0.0
 10
40.6218489916
 20
221.8866370102
 30
0.0
 10
40.7109876845
 20
221.9297531643
 30
0.0
 10
40.7682318047
 20
221.9608828155
 30
0.0
 10
40.7960486901
 20
221.9769428059
 30
0.0
  0
SPLINE
  5
48D
100
AcDbEntity
  8
0
100
AcDbSpline
 62
7
  6
CONTINUOUS
 70
0
 71
3
 72
12
 73
8
 74
0
 42
0.0000001
 43
0.0000001
 44
0.0000000001
 40
0.0
 40
0.0
 40
0.0
 40
0.0
 40
0.2255151733
 40
0.4138346185
 40
0.5861957115
 40
0.7745088255
 40
1.0
 40
1.0
 40
1.0
 40
1.0
 10
40.7960486901
 20
221.9769428059
 30
0.0
 10
40.9320669374
 20
222.0554725088
 30
0.0
 10
41.1669955789
 20
222.2309346808
 30
0.0
 10
41.3884802297
 20
222.5919412634
 30
0.0
 10
41.3884546802
 20
222.9949818845
 30
0.0
 10
41.1669543236
 20
223.3559482502
 30
0.0
 10
40.9320412531
 20
223.5313922575
 30
0.0
 10
40.7960369143
 20
223.6099126227
 30
0.0
  0
SPLINE
  5
48E
100
AcDbEntity
  8
0
100
AcDbSpline
 62
7
  6
CONTINUOUS
 70
0
 71
3
 72
11
 73
7
 74
0
 42
0.0000001
 43
0.0000001
 44
0.0000000001
 40
0.0
 40
0.0
 40
0.0
 40
0.0
 40
0.2343005896
 40
0.4901148852
 40
0.751141476
 40
1.0
 40
1.0
 40
1.0
 40
1.0
 10
40.7960369143
 20
223.6099126227
 30
0.0
 10
40.6176533547
 20
223.712900089
 30
0.0
 10
40.2098510474
 20
223.8691300887
 30
0.0
 10
39.5526292432
 20
223.9660373149
 30
0.0
 10
38.8762611094
 20
223.9338030908
 30
0.0
 10
38.4374990101
 20
223.8212797522
 30
0.0
 10
38.2346695463
 20
223.739283342
 30
0.0
  0
SPLINE
  5
48F
100
AcDbEntity
  8
0
100
AcDbSpline
 62
7
  6
CONTINUOUS
 70
0
 71
3
 72
10
 73
6
 74
0
 42
0.0000001
 43
0.0000001
 44
0.0000000001
 40
0.0
 40
0.0
 40
0.0
 40
0.0
 40
0.3379523969
 40
0.6715037558
 40
1.0
 40
1.0
 40
1.0
 40
1.0
 10
39.6831808229
 20
221.9906650938
 30
0.0
 10
39.8569429768
 20
221.520146716
 30
0.0
 10
40.1860821313
 20
220.5791791073
 30
0.0
 10
40.626014866
 20
219.1614088115
 30
0.0
 10
40.8827645603
 20
218.2126723046
 30
0.0
 10
41.0010905504
 20
217.7397051489
 30
0.0
  0
SPLINE
  5
490
100
AcDbEntity
  8
0
100
AcDbSpline
 62
7
  6
CONTINUOUS
 70
0
 71
3
 72
11
 73
7
 74
0
 42
0.0000001
 43
0.0000001
 44
0.0000000001
 40
0.0
 40
0.0
 40
0.0
 40
0.0
 40
0.2748584464
 40
0.5128095144
 40
0.7432923783
 40
1.0
 40
1.0
 40
1.0
 40
1.0
 10
41.5389104817
 20
223.7175016677
 30
0.0
 10
41.7718713571
 20
223.5254201744
 30
0.0
 10
42.1659387941
 20
223.1062098694
 30
0.0
 10
42.4620529047
 20
222.3151171214
 30
0.0
 10
42.3476226133
 20
221.4952841532
 30
0.0
 10
42.0390696253
 20
221.038256888
 30
0.0
 10
41.8483941
 20
220.8304930498
 30
0.0
  0
SPLINE
  5
491
100
AcDbEntity
  8
0
100
AcDbSpline
 62
7
  6
CONTINUOUS
 70
0
 71
3
 72
16
 73
12
 74
0
 42
0.0000001
 43
0.0000001
 44
0.0000000001
 40
0.0
 40
0.0
 40
0.0
 40
0.0
 40
0.122879753
 40
0.2580004955
 40
0.3943745142
 40
0.5241186416
 40
0.6372044697
 40
0.7303443709
 40
0.8105774284
 40
0.8962450697
 40
1.0
 40
1.0
 40
1.0
 40
1.0
 10
40.7960486902
 20
221.4380512106
 30
0.0
 10
40.6180112809
 20
221.335261878
 30
0.0
 10
40.2095350797
 20
221.1786423402
 30
0.0
 10
39.5528669955
 20
221.0819223802
 30
0.0
 10
38.8780806489
 20
221.1142285256
 30
0.0
 10
38.2581882152
 20
221.2723827427
 30
0.0
 10
37.7578000738
 20
221.5424169874
 30
0.0
 10
37.4253869629
 20
221.9100507009
 30
0.0
 10
37.3432964525
 20
222.3641540143
 30
0.0
 10
37.5590682614
 20
222.7883699626
 30
0.0
 10
37.817281859
 20
222.9842228756
 30
0.0
 10
37.9676097896
 20
223.0710142287
 30
0.0
  0
SPLINE
  5
492
100
AcDbEntity
  8
0
100
AcDbSpline
 62
7
  6
CONTINUOUS
 70
0
 71
3
 72
10
 73
6
 74
0
 42
0.0000001
 43
0.0000001
 44
0.0000000001
 40
0.0
 40
0.0
 40
0.0
 40
0.0
 40
0.3244881979
 40
0.6579607864
 40
1.0
 40
1.0
 40
1.0
 40
1.0
 10
37.9676097896
 20
223.0710142287
 30
0.0
 10
37.995426675
 20
223.0870742191
 30
0.0
 10
38.0526707952
 20
223.1182038703
 30
0.0
 10
38.1418094881
 20
223.1613200244
 30
0.0
 10
38.2032800475
 20
223.1877021396
 30
0.0
 10
38.2346695463
 20
223.2003917467
 30
0.0
  0
SPLINE
  5
493
100
AcDbEntity
  8
0
100
AcDbSpline
 62
7
  6
CONTINUOUS
 70
0
 71
3
 72
10
 73
6
 74
0
 42
0.0000001
 43
0.0000001
 44
0.0000000001
 40
0.0
 40
0.0
 40
0.0
 40
0.0
 40
0.3437499033
 40
0.6771229001
 40
1.0
 40
1.0
 40
1.0
 40
1.0
 10
41.0010905504
 20
224.0875452313
 30
0.0
 10
41.0659380936
 20
224.0501063317
 30
0.0
 10
41.191875948
 20
223.9731739926
 30
0.0
 10
41.3715198337
 20
223.8498003777
 30
0.0
 10
41.4846452736
 20
223.762244555
 30
0.0
 10
41.5389104817
 20
223.7175016677
 30
0.0
  0
SPLINE
  5
494
100
AcDbEntity
  8
0
100
AcDbSpline
 62
7
  6
CONTINUOUS
 70
0
 71
3
 72
10
 73
6
 74
0
 42
0.0000001
 43
0.0000001
 44
0.0000000001
 40
0.0
 40
0.0
 40
0.0
 40
0.0
 40
0.3211994916
 40
0.6545799408
 40
1.0
 40
1.0
 40
1.0
 40
1.0
 10
41.5389059724
 20
150.4969008097
 30
0.0
 10
41.5941017538
 20
150.8515134462
 30
0.0
 10
41.6812604472
 20
151.5782506391
 30
0.0
 10
41.7531394235
 20
152.6936433486
 30
0.0
 10
41.7678647871
 20
153.4522042691
 30
0.0
 10
41.7678707008
 20
153.8381489561
 30
0.0
  0
SPLINE
  5
495
100
AcDbEntity
  8
0
100
AcDbSpline
 62
7
  6
CONTINUOUS
 70
0
 71
3
 72
10
 73
6
 74
0
 42
0.0000001
 43
0.0000001
 44
0.0000000001
 40
0.0
 40
0.0
 40
0.0
 40
0.0
 40
0.352188433
 40
0.685531099
 40
1.0
 40
1.0
 40
1.0
 40
1.0
 10
35.5937951649
 20
150.2735660611
 30
0.0
 10
35.593783177
 20
149.6839126242
 30
0.0
 10
35.5482751403
 20
148.5353837078
 30
0.0
 10
35.3315132077
 20
146.8729508485
 30
0.0
 10
35.0829271981
 20
145.8146286384
 30
0.0
 10
34.9327744102
 20
145.3099923726
 30
0.0
  0
SPLINE
  5
496
100
AcDbEntity
  8
0
100
AcDbSpline
 62
7
  6
CONTINUOUS
 70
0
 71
3
 72
10
 73
6
 74
0
 42
0.0000001
 43
0.0000001
 44
0.0000000001
 40
0.0
 40
0.0
 40
0.0
 40
0.0
 40
0.3252569417
 40
0.6580139538
 40
1.0
 40
1.0
 40
1.0
 40
1.0
 10
41.1968436194
 20
148.9272112511
 30
0.0
 10
41.2454362825
 20
149.0945842252
 30
0.0
 10
41.3353844207
 20
149.4356666049
 30
0.0
 10
41.4486781209
 20
149.9595369665
 30
0.0
 10
41.5107226112
 20
150.3158328865
 30
0.0
 10
41.5389059724
 20
150.4969008097
 30
0.0
  0
SPLINE
  5
497
100
AcDbEntity
  8
0
100
AcDbSpline
 62
7
  6
CONTINUOUS
 70
0
 71
3
 72
10
 73
6
 74
0
 42
0.0000001
 43
0.0000001
 44
0.0000000001
 40
0.0
 40
0.0
 40
0.0
 40
0.0
 40
0.3200804586
 40
0.6540248258
 40
1.0
 40
1.0
 40
1.0
 40
1.0
 10
41.7678687133
 20
211.0588767247
 30
0.0
 10
41.7678717406
 20
211.4609120979
 30
0.0
 10
41.7512816168
 20
212.28247723
 30
0.0
 10
41.677585316
 20
213.536641145
 30
0.0
 10
41.592302578
 20
214.3867198663
 30
0.0
 10
41.5389058753
 20
214.8179871169
 30
0.0
  0
SPLINE
  5
498
100
AcDbEntity
  8
0
100
AcDbSpline
 62
7
  6
CONTINUOUS
 70
0
 71
3
 72
10
 73
6
 74
0
 42
0.0000001
 43
0.0000001
 44
0.0000000001
 40
0.0
 40
0.0
 40
0.0
 40
0.0
 40
0.3330059416
 40
0.666404416
 40
1.0
 40
1.0
 40
1.0
 40
1.0
 10
41.5389058753
 20
214.8179871169
 30
0.0
 10
41.5102598211
 20
215.0493519384
 30
0.0
 10
41.4471389221
 20
215.5116627848
 30
0.0
 10
41.3338117635
 20
216.2025941264
 30
0.0
 10
41.2447908032
 20
216.6610695651
 30
0.0
 10
41.1966395809
 20
216.8895961054
 30
0.0
  0
SPLINE
  5
499
100
AcDbEntity
  8
0
100
AcDbSpline
 62
7
  6
CONTINUOUS
 70
0
 71
3
 72
10
 73
6
 74
0
 42
0.0000001
 43
0.0000001
 44
0.0000000001
 40
0.0
 40
0.0
 40
0.0
 40
0.0
 40
0.3468705206
 40
0.680691309
 40
1.0
 40
1.0
 40
1.0
 40
1.0
 10
34.9328050925
 20
213.2731875117
 30
0.0
 10
35.076149768
 20
212.6148616602
 30
0.0
 10
35.3173578373
 20
211.3137394645
 30
0.0
 10
35.5410308415
 20
209.3828403894
 30
0.0
 10
35.593816974
 20
208.1137833196
 30
0.0
 10
35.5937906123
 20
207.4935674543
 30
0.0
  0
SPLINE
  5
49A
100
AcDbEntity
  8
0
100
AcDbSpline
 62
7
  6
CONTINUOUS
 70
0
 71
3
 72
12
 73
8
 74
0
 42
0.0000001
 43
0.0000001
 44
0.0000000001
 40
0.0
 40
0.0
 40
0.0
 40
0.0
 40
0.2076451735
 40
0.4258359797
 40
0.6352639397
 40
0.826257905
 40
1.0
 40
1.0
 40
1.0
 40
1.0
 10
41.5389103553
 20
218.822863251
 30
0.0
 10
41.6770019647
 20
218.2393076979
 30
0.0
 10
41.9081890087
 20
217.0299235299
 30
0.0
 10
42.1271382653
 20
215.2073667098
 30
0.0
 10
42.2483615673
 20
213.4243955829
 30
0.0
 10
42.3038302012
 20
211.7669709408
 30
0.0
 10
42.314872596
 20
210.71359635
 30
0.0
 10
42.3148721674
 20
210.211835347
 30
0.0
  0
SPLINE
  5
49B
100
AcDbEntity
  8
0
100
AcDbSpline
 62
7
  6
CONTINUOUS
 70
0
 71
3
 72
10
 73
6
 74
0
 42
0.0000001
 43
0.0000001
 44
0.0000000001
 40
0.0
 40
0.0
 40
0.0
 40
0.0
 40
0.3118167057
 40
0.6471519364
 40
1.0
 40
1.0
 40
1.0
 40
1.0
 10
33.3879847721
 20
205.057925271
 30
0.0
 10
33.3879878684
 20
206.2978551063
 30
0.0
 10
33.18666368
 20
208.873258153
 30
0.0
 10
32.3807799432
 20
212.7753734503
 30
0.0
 10
31.5301778715
 20
215.3829976396
 30
0.0
 10
31.0284316741
 20
216.6933074349
 30
0.0
  0
SPLINE
  5
49C
100
AcDbEntity
  8
0
100
AcDbSpline
 62
7
  6
CONTINUOUS
 70
0
 71
3
 72
10
 73
6
 74
0
 42
0.0000001
 43
0.0000001
 44
0.0000000001
 40
0.0
 40
0.0
 40
0.0
 40
0.0
 40
0.3269443174
 40
0.6600805111
 40
1.0
 40
1.0
 40
1.0
 40
1.0
 10
41.0011744214
 20
220.6691174063
 30
0.0
 10
41.0709289778
 20
220.4714051743
 30
0.0
 10
41.2038357907
 20
220.0693987235
 30
0.0
 10
41.3826464565
 20
219.4534471903
 30
0.0
 10
41.4887148794
 20
219.0349819603
 30
0.0
 10
41.5389103553
 20
218.822863251
 30
0.0
  0
SPLINE
  5
49D
100
AcDbEntity
  8
0
100
AcDbSpline
 62
7
  6
CONTINUOUS
 70
0
 71
3
 72
12
 73
8
 74
0
 42
0.0000001
 43
0.0000001
 44
0.0000000001
 40
0.0
 40
0.0
 40
0.0
 40
0.0
 40
0.2147838047
 40
0.4241313242
 40
0.6292542154
 40
0.824250302
 40
1.0
 40
1.0
 40
1.0
 40
1.0
 10
42.3148706388
 20
152.9995313123
 30
0.0
 10
42.3148663755
 20
152.5275941223
 30
0.0
 10
42.3057392966
 20
151.5956167299
 30
0.0
 10
42.2530251657
 20
150.2137119872
 30
0.0
 10
42.1350935323
 20
148.8787771328
 30
0.0
 10
41.9166856894
 20
147.6302527247
 30
0.0
 10
41.6786332655
 20
146.8481210837
 30
0.0
 10
41.5389103552
 20
146.4881156634
 30
0.0
  0
SPLINE
  5
49E
100
AcDbEntity
  8
0
100
AcDbSpline
 62
7
  6
CONTINUOUS
 70
0
 71
3
 72
10
 73
6
 74
0
 42
0.0000001
 43
0.0000001
 44
0.0000000001
 40
0.0
 40
0.0
 40
0.0
 40
0.0
 40
0.3405765623
 40
0.6730724105
 40
1.0
 40
1.0
 40
1.0
 40
1.0
 10
41.5389103552
 20
146.4881156634
 30
0.0
 10
41.4883390767
 20
146.3578154865
 30
0.0
 10
41.3814498572
 20
146.1029297128
 30
0.0
 10
41.2018005195
 20
145.7337315191
 30
0.0
 10
41.0698314018
 20
145.4972747851
 30
0.0
 10
41.0011930631
 20
145.3819928479
 30
0.0
  0
SPLINE
  5
49F
100
AcDbEntity
  8
0
100
AcDbSpline
 62
7
  6
CONTINUOUS
 70
0
 71
3
 72
10
 73
6
 74
0
 42
0.0000001
 43
0.0000001
 44
0.0000000001
 40
0.0
 40
0.0
 40
0.0
 40
0.0
 40
0.2981719832
 40
0.6303710794
 40
1.0
 40
1.0
 40
1.0
 40
1.0
 10
31.0282430135
 20
139.1128084683
 30
0.0
 10
31.5635036896
 20
139.8511402534
 30
0.0
 10
32.4669755426
 20
141.582855456
 30
0.0
 10
33.2343262224
 20
144.5624598107
 30
0.0
 10
33.3877639001
 20
146.7150231368
 30
0.0
 10
33.3877937529
 20
147.8455118345
 30
0.0
  0
SPLINE
  5
4A0
100
AcDbEntity
  8
0
100
AcDbSpline
 62
7
  6
CONTINUOUS
 70
0
 71
3
 72
10
 73
6
 74
0
 42
0.0000001
 43
0.0000001
 44
0.0000000001
 40
0.0
 40
0.0
 40
0.0
 40
0.0
 40
0.3436115648
 40
0.6766359668
 40
1.0
 40
1.0
 40
1.0
 40
1.0
 10
41.0010905504
 20
148.3166792444
 30
0.0
 10
40.8854201836
 20
147.9881026525
 30
0.0
 10
40.6348796382
 20
147.3487594337
 30
0.0
 10
40.1948171552
 20
146.4344732982
 30
0.0
 10
39.8587267852
 20
145.8591109501
 30
0.0
 10
39.68139307
 20
145.5834010351
 30
0.0
  0
SPLINE
  5
4A1
100
AcDbEntity
  8
0
100
AcDbSpline
 62
7
  6
CONTINUOUS
 70
0
 71
3
 72
11
 73
7
 74
0
 42
0.0000001
 43
0.0000001
 44
0.0000000001
 40
0.0
 40
0.0
 40
0.0
 40
0.0
 40
0.2567076217
 40
0.4871904856
 40
0.7251415536
 40
1.0
 40
1.0
 40
1.0
 40
1.0
 10
41.8483941
 20
138.7066799349
 30
0.0
 10
42.0390696253
 20
138.9144437731
 30
0.0
 10
42.3476226133
 20
139.3714710384
 30
0.0
 10
42.4620529047
 20
140.1913040065
 30
0.0
 10
42.1659387941
 20
140.9823967545
 30
0.0
 10
41.7718713571
 20
141.4016070595
 30
0.0
 10
41.5389104817
 20
141.5936885528
 30
0.0
  0
SPLINE
  5
4A2
100
AcDbEntity
  8
0
100
AcDbSpline
 62
7
  6
CONTINUOUS
 70
0
 71
3
 72
10
 73
6
 74
0
 42
0.0000001
 43
0.0000001
 44
0.0000000001
 40
0.0
 40
0.0
 40
0.0
 40
0.0
 40
0.3228771
 40
0.6562500967
 40
1.0
 40
1.0
 40
1.0
 40
1.0
 10
41.5389104817
 20
141.5936885528
 30
0.0
 10
41.4846452736
 20
141.6384314401
 30
0.0
 10
41.3715198337
 20
141.7259872628
 30
0.0
 10
41.1918759479
 20
141.8493608777
 30
0.0
 10
41.0659380936
 20
141.9262932168
 30
0.0
 10
41.0010905504
 20
141.9637321164
 30
0.0
  0
SPLINE
  5
4A3
100
AcDbEntity
  8
0
100
AcDbSpline
 62
7
  6
CONTINUOUS
 70
0
 71
3
 72
10
 73
6
 74
0
 42
0.0000001
 43
0.0000001
 44
0.0000000001
 40
0.0
 40
0.0
 40
0.0
 40
0.0
 40
0.3420392137
 40
0.6755118021
 40
1.0
 40
1.0
 40
1.0
 40
1.0
 10
38.2346695463
 20
141.0765786318
 30
0.0
 10
38.2032800475
 20
141.0638890247
 30
0.0
 10
38.1418094881
 20
141.0375069095
 30
0.0
 10
38.0526707952
 20
140.9943907554
 30
0.0
 10
37.995426675
 20
140.9632611042
 30
0.0
 10
37.9676097896
 20
140.9472011138
 30
0.0
  0
SPLINE
  5
4A4
100
AcDbEntity
  8
0
100
AcDbSpline
 62
7
  6
CONTINUOUS
 70
0
 71
3
 72
16
 73
12
 74
0
 42
0.0000001
 43
0.0000001
 44
0.0000000001
 40
0.0
 40
0.0
 40
0.0
 40
0.0
 40
0.1043497258
 40
0.1909192743
 40
0.2711127178
 40
0.3608457231
 40
0.4687644925
 40
0.5941884562
 40
0.7307343493
 40
0.8692293025
 40
1.0
 40
1.0
 40
1.0
 40
1.0
 10
37.9676097896
 20
140.9472011138
 30
0.0
 10
37.8252551907
 20
140.8650131384
 30
0.0
 10
37.5802969077
 20
140.6806520184
 30
0.0
 10
37.359907854
 20
140.2927772604
 30
0.0
 10
37.3934015207
 20
139.8660476483
 30
0.0
 10
37.662828403
 20
139.5009968976
 30
0.0
 10
38.0954901764
 20
139.2206529394
 30
0.0
 10
38.6526600338
 20
139.034016017
 30
0.0
 10
39.282706256
 20
138.9573630961
 30
0.0
 10
39.9240298784
 20
138.9982290283
 30
0.0
 10
40.3380082183
 20
139.1076541765
 30
0.0
 10
40.5289889335
 20
139.1848605777
 30
0.0
  0
SPLINE
  5
4A5
100
AcDbEntity
  8
0
100
AcDbSpline
 62
7
  6
CONTINUOUS
 70
0
 71
3
 72
10
 73
6
 74
0
 42
0.0000001
 43
0.0000001
 44
0.0000000001
 40
0.0
 40
0.0
 40
0.0
 40
0.0
 40
0.3420392137
 40
0.6755118021
 40
1.0
 40
1.0
 40
1.0
 40
1.0
 10
40.5289889335
 20
139.1848605777
 30
0.0
 10
40.5603784323
 20
139.1975501848
 30
0.0
 10
40.6218489916
 20
139.2239323
 30
0.0
 10
40.7109876846
 20
139.2670484541
 30
0.0
 10
40.7682318047
 20
139.2981781053
 30
0.0
 10
40.7960486902
 20
139.3142380957
 30
0.0
  0
SPLINE
  5
4A6
100
AcDbEntity
  8
0
100
AcDbSpline
 62
7
  6
CONTINUOUS
 70
0
 71
3
 72
16
 73
12
 74
0
 42
0.0000001
 43
0.0000001
 44
0.0000000001
 40
0.0
 40
0.0
 40
0.0
 40
0.0
 40
0.122879753
 40
0.2580004955
 40
0.3943745142
 40
0.5241186416
 40
0.6372044697
 40
0.7303443708
 40
0.8105774284
 40
0.8962450697
 40
1.0
 40
1.0
 40
1.0
 40
1.0
 10
40.7960486901
 20
138.7753465004
 30
0.0
 10
40.6180112808
 20
138.6725571678
 30
0.0
 10
40.2095350797
 20
138.51593763
 30
0.0
 10
39.5528669954
 20
138.41921767
 30
0.0
 10
38.8780806489
 20
138.4515238154
 30
0.0
 10
38.2581882151
 20
138.6096780325
 30
0.0
 10
37.7578000737
 20
138.8797122772
 30
0.0
 10
37.4253869628
 20
139.2473459907
 30
0.0
 10
37.3432964525
 20
139.7014493042
 30
0.0
 10
37.5590682614
 20
140.1256652524
 30
0.0
 10
37.817281859
 20
140.3215181654
 30
0.0
 10
37.9676097896
 20
140.4083095185
 30
0.0
  0
SPLINE
  5
4A7
100
AcDbEntity
  8
0
100
AcDbSpline
 62
7
  6
CONTINUOUS
 70
0
 71
3
 72
10
 73
6
 74
0
 42
0.0000001
 43
0.0000001
 44
0.0000000001
 40
0.0
 40
0.0
 40
0.0
 40
0.0
 40
0.3244881978
 40
0.6579607862
 40
1.0
 40
1.0
 40
1.0
 40
1.0
 10
37.9676097896
 20
140.4083095185
 30
0.0
 10
37.9954266751
 20
140.4243695089
 30
0.0
 10
38.0526707952
 20
140.4554991601
 30
0.0
 10
38.1418094882
 20
140.4986153142
 30
0.0
 10
38.2032800475
 20
140.5249974294
 30
0.0
 10
38.2346695463
 20
140.5376870365
 30
0.0
  0
SPLINE
  5
4A8
100
AcDbEntity
  8
0
100
AcDbSpline
 62
7
  6
CONTINUOUS
 70
0
 71
3
 72
16
 73
12
 74
0
 42
0.0000001
 43
0.0000001
 44
0.0000000001
 40
0.0
 40
0.0
 40
0.0
 40
0.0
 40
0.1307594043
 40
0.2692453466
 40
0.4057866476
 40
0.5312109738
 40
0.6391337958
 40
0.7288718566
 40
0.8090690323
 40
0.8956424557
 40
1.0
 40
1.0
 40
1.0
 40
1.0
 10
38.2346695463
 20
140.5376870365
 30
0.0
 10
38.4256337255
 20
140.6148867528
 30
0.0
 10
38.8395790194
 20
140.724307761
 30
0.0
 10
39.4808619557
 20
140.7651850462
 30
0.0
 10
40.110889128
 20
140.6885544432
 30
0.0
 10
40.6680662556
 20
140.5019421726
 30
0.0
 10
41.1007566068
 20
140.2216171584
 30
0.0
 10
41.3702287142
 20
139.8565764219
 30
0.0
 10
41.4037695354
 20
139.4298277247
 30
0.0
 10
41.1833870877
 20
139.0419152653
 30
0.0
 10
40.9384139228
 20
138.8575406152
 30
0.0
 10
40.7960486901
 20
138.7753465004
 30
0.0
  0
LINE
  5
4A9
100
AcDbEntity
  8
0
100
AcDbLine
 62
7
  6
CONTINUOUS
 10
30.9893005744
 20
216.7942894805
 11
31.0284331353
 21
216.6933081629
  0
LINE
  5
4AA
100
AcDbEntity
  8
0
100
AcDbLine
 62
7
  6
CONTINUOUS
 10
31.0284874953
 20
139.1129519616
 11
30.9893005627
 21
139.059239136
  0
SPLINE
  5
4AB
100
AcDbEntity
  8
0
100
AcDbSpline
 62
7
  6
CONTINUOUS
 70
0
 71
3
 72
10
 73
6
 74
0
 42
0.0000001
 43
0.0000001
 44
0.0000000001
 40
0.0
 40
0.0
 40
0.0
 40
0.0
 40
0.336856339
 40
0.6702024197
 40
1.0
 40
1.0
 40
1.0
 40
1.0
 10
115.3218306567
 20
75.6781963206
 30
0.0
 10
105.7980322251
 20
80.8379113515
 30
0.0
 10
86.9399704425
 20
91.2713798813
 30
0.0
 10
59.0896224943
 20
107.3468153698
 30
0.0
 10
40.8212313996
 20
118.3478324167
 30
0.0
 10
31.7890541059
 20
123.9047763321
 30
0.0
  0
SPLINE
  5
4AC
100
AcDbEntity
  8
0
100
AcDbSpline
 62
7
  6
CONTINUOUS
 70
0
 71
3
 72
10
 73
6
 74
0
 42
0.0000001
 43
0.0000001
 44
0.0000000001
 40
0.0
 40
0.0
 40
0.0
 40
0.0
 40
0.3492373124
 40
0.6833832164
 40
1.0
 40
1.0
 40
1.0
 40
1.0
 10
41.7430983627
 20
119.9604488782
 30
0.0
 10
43.4679901915
 20
120.3938501391
 30
0.0
 10
46.8118143169
 20
121.375772614
 30
0.0
 10
51.5610535043
 20
123.231058928
 30
0.0
 10
54.5246912653
 20
124.7295999552
 30
0.0
 10
55.9210604139
 20
125.5357892468
 30
0.0
  0
SPLINE
  5
4AD
100
AcDbEntity
  8
0
100
AcDbSpline
 62
7
  6
CONTINUOUS
 70
0
 71
3
 72
10
 73
6
 74
0
 42
0.0000001
 43
0.0000001
 44
0.0000000001
 40
0.0
 40
0.0
 40
0.0
 40
0.0
 40
0.3568808857
 40
0.6900008838
 40
1.0
 40
1.0
 40
1.0
 40
1.0
 10
120.9751551274
 20
87.9776398309
 30
0.0
 10
119.6632652879
 20
87.2202244001
 30
0.0
 10
117.2000179534
 20
85.6215771816
 30
0.0
 10
113.9407155079
 20
82.8854578618
 30
0.0
 10
112.1104150631
 20
80.8428165031
 30
0.0
 10
111.3183623428
 20
79.7920602207
 30
0.0
  0
SPLINE
  5
4AE
100
AcDbEntity
  8
0
100
AcDbSpline
 62
7
  6
CONTINUOUS
 70
0
 71
3
 72
10
 73
6
 74
0
 42
0.0000001
 43
0.0000001
 44
0.0000000001
 40
0.0
 40
0.0
 40
0.0
 40
0.0
 40
0.3099991162
 40
0.6431191143
 40
1.0
 40
1.0
 40
1.0
 40
1.0
 10
111.3183623428
 20
178.8827935635
 30
0.0
 10
112.1104150631
 20
179.933549846
 30
0.0
 10
113.9407155079
 20
181.9761912046
 30
0.0
 10
117.2000179534
 20
184.7123105245
 30
0.0
 10
119.6632652879
 20
186.310957743
 30
0.0
 10
120.9751551274
 20
187.0683731738
 30
0.0
  0
SPLINE
  5
4AF
100
AcDbEntity
  8
0
100
AcDbSpline
 62
7
  6
CONTINUOUS
 70
0
 71
3
 72
10
 73
6
 74
0
 42
0.0000001
 43
0.0000001
 44
0.0000000001
 40
0.0
 40
0.0
 40
0.0
 40
0.0
 40
0.3166167836
 40
0.6507626876
 40
1.0
 40
1.0
 40
1.0
 40
1.0
 10
55.9210604139
 20
224.6265225896
 30
0.0
 10
54.5246912653
 20
223.8203332981
 30
0.0
 10
51.5610535043
 20
222.3217922709
 30
0.0
 10
46.8118143169
 20
220.4665059569
 30
0.0
 10
43.4679901915
 20
219.484583482
 30
0.0
 10
41.7430983627
 20
219.051182221
 30
0.0
  0
LINE
  5
4B0
100
AcDbEntity
  8
0
100
AcDbLine
 62
7
  6
CONTINUOUS
 10
111.0759573997
 20
90.0436400545
 11
110.2344895977
 21
90.502682283
  0
LINE
  5
4B1
100
AcDbEntity
  8
0
100
AcDbLine
 62
7
  6
CONTINUOUS
 10
110.2344895976
 20
173.4429978151
 11
111.0759573997
 21
172.9839555866
  0
SPLINE
  5
4B2
100
AcDbEntity
  8
0
100
AcDbSpline
 62
7
  6
CONTINUOUS
 70
0
 71
3
 72
10
 73
6
 74
0
 42
0.0000001
 43
0.0000001
 44
0.0000000001
 40
0.0
 40
0.0
 40
0.0
 40
0.0
 40
0.3464594149
 40
0.6794309644
 40
1.0
 40
1.0
 40
1.0
 40
1.0
 10
34.9138703043
 20
145.2467964663
 30
0.0
 10
34.7972185509
 20
144.8611654862
 30
0.0
 10
34.53974871
 20
144.113133322
 30
0.0
 10
34.0705516951
 20
143.0476882535
 30
0.0
 10
33.702150133
 20
142.3814344098
 30
0.0
 10
33.5058941523
 20
142.0644971329
 30
0.0
  0
SPLINE
  5
4B3
100
AcDbEntity
  8
0
100
AcDbSpline
 62
7
  6
CONTINUOUS
 70
0
 71
3
 72
10
 73
6
 74
0
 42
0.0000001
 43
0.0000001
 44
0.0000000001
 40
0.0
 40
0.0
 40
0.0
 40
0.0
 40
0.3390058701
 40
0.6726478716
 40
1.0
 40
1.0
 40
1.0
 40
1.0
 10
33.5058874597
 20
218.2752981415
 30
0.0
 10
33.7009129793
 20
217.7204467341
 30
0.0
 10
34.0665767491
 20
216.6118778024
 30
0.0
 10
34.5431737112
 20
214.943310904
 30
0.0
 10
34.8119686299
 20
213.8280942509
 30
0.0
 10
34.9328184612
 20
213.2731906754
 30
0.0
  0
SPLINE
  5
4B4
100
AcDbEntity
  8
0
100
AcDbSpline
 62
7
  6
CONTINUOUS
 70
0
 71
3
 72
10
 73
6
 74
0
 42
0.0000001
 43
0.0000001
 44
0.0000000001
 40
0.0
 40
0.0
 40
0.0
 40
0.0
 40
0.3310434724
 40
0.6645217693
 40
1.0
 40
1.0
 40
1.0
 40
1.0
 10
34.9328184612
 20
213.2731906754
 30
0.0
 10
35.2787121324
 20
213.4728912875
 30
0.0
 10
35.9717159193
 20
213.8760577959
 30
0.0
 10
37.0135339967
 20
214.484538917
 30
0.0
 10
37.7118142774
 20
214.8892727418
 30
0.0
 10
38.0623416447
 20
215.0916486036
 30
0.0
  0
SPLINE
  5
4B5
100
AcDbEntity
  8
0
100
AcDbSpline
 62
7
  6
CONTINUOUS
 70
0
 71
3
 72
10
 73
6
 74
0
 42
0.0000001
 43
0.0000001
 44
0.0000000001
 40
0.0
 40
0.0
 40
0.0
 40
0.0
 40
0.3359987677
 40
0.6691884775
 40
1.0
 40
1.0
 40
1.0
 40
1.0
 10
38.0623416447
 20
215.0916486036
 30
0.0
 10
38.4128185196
 20
215.2939953139
 30
0.0
 10
39.111528022
 20
215.6958115675
 30
0.0
 10
40.1576349102
 20
216.2927787682
 30
0.0
 10
40.8515686147
 20
216.6903659127
 30
0.0
 10
41.1966347272
 20
216.8895887365
 30
0.0
  0
SPLINE
  5
4B6
100
AcDbEntity
  8
0
100
AcDbSpline
 62
7
  6
CONTINUOUS
 70
0
 71
3
 72
10
 73
6
 74
0
 42
0.0000001
 43
0.0000001
 44
0.0000000001
 40
0.0
 40
0.0
 40
0.0
 40
0.0
 40
0.3465491091
 40
0.6803264314
 40
1.0
 40
1.0
 40
1.0
 40
1.0
 10
39.6005699009
 20
222.0383594529
 30
0.0
 10
38.9338609856
 20
221.8299607554
 30
0.0
 10
37.6376566326
 20
221.378573008
 30
0.0
 10
35.7837062205
 20
220.5835297938
 30
0.0
 10
34.6145527173
 20
219.9733438667
 30
0.0
 10
34.0565294127
 20
219.6511708847
 30
0.0
  0
SPLINE
  5
4B7
100
AcDbEntity
  8
0
100
AcDbSpline
 62
7
  6
CONTINUOUS
 70
0
 71
3
 72
10
 73
6
 74
0
 42
0.0000001
 43
0.0000001
 44
0.0000000001
 40
0.0
 40
0.0
 40
0.0
 40
0.0
 40
0.3544190098
 40
0.6876455183
 40
1.0
 40
1.0
 40
1.0
 40
1.0
 10
34.0565294127
 20
219.6511708847
 30
0.0
 10
33.4378884788
 20
219.294000507
 30
0.0
 10
32.2691181525
 20
218.5436401122
 30
0.0
 10
30.698696689
 20
217.2738264179
 30
0.0
 10
29.7928643018
 20
216.3332607013
 30
0.0
 10
29.3903951704
 20
215.8491468916
 30
0.0
  0
SPLINE
  5
4B8
100
AcDbEntity
  8
0
100
AcDbSpline
 62
7
  6
CONTINUOUS
 70
0
 71
3
 72
10
 73
6
 74
0
 42
0.0000001
 43
0.0000001
 44
0.0000000001
 40
0.0
 40
0.0
 40
0.0
 40
0.0
 40
0.3123544817
 40
0.6455809902
 40
1.0
 40
1.0
 40
1.0
 40
1.0
 10
29.3903951704
 20
139.4408506966
 30
0.0
 10
29.7928643018
 20
139.9249645064
 30
0.0
 10
30.698696689
 20
140.8655302229
 30
0.0
 10
32.2691181525
 20
142.1353439172
 30
0.0
 10
33.4378884788
 20
142.885704312
 30
0.0
 10
34.0565294127
 20
143.2428746898
 30
0.0
  0
SPLINE
  5
4B9
100
AcDbEntity
  8
0
100
AcDbSpline
 62
7
  6
CONTINUOUS
 70
0
 71
3
 72
10
 73
6
 74
0
 42
0.0000001
 43
0.0000001
 44
0.0000000001
 40
0.0
 40
0.0
 40
0.0
 40
0.0
 40
0.3196735686
 40
0.6534508909
 40
1.0
 40
1.0
 40
1.0
 40
1.0
 10
34.0565294127
 20
143.2428746898
 30
0.0
 10
34.6145527173
 20
143.5650476718
 30
0.0
 10
35.7837062205
 20
144.1752335988
 30
0.0
 10
37.6376566326
 20
144.970276813
 30
0.0
 10
38.9338609856
 20
145.4216645605
 30
0.0
 10
39.6005699009
 20
145.6300632579
 30
0.0
  0
SPLINE
  5
4BA
100
AcDbEntity
  8
0
100
AcDbSpline
 62
7
  6
CONTINUOUS
 70
0
 71
3
 72
11
 73
7
 74
0
 42
0.0000001
 43
0.0000001
 44
0.0000000001
 40
0.0
 40
0.0
 40
0.0
 40
0.0
 40
0.2558940237
 40
0.4865387307
 40
0.7246957079
 40
1.0
 40
1.0
 40
1.0
 40
1.0
 10
41.8483921292
 20
223.6964143865
 30
0.0
 10
42.0384647475
 20
223.9035212852
 30
0.0
 10
42.3467606886
 20
224.3596425278
 30
0.0
 10
42.4624634245
 20
225.1788258456
 30
0.0
 10
42.1667944381
 20
225.9711802395
 30
0.0
 10
41.7722509741
 20
226.3910306558
 30
0.0
 10
41.5389104818
 20
226.5834251518
 30
0.0
  0
SPLINE
  5
4BB
100
AcDbEntity
  8
0
100
AcDbSpline
 62
7
  6
CONTINUOUS
 70
0
 71
3
 72
10
 73
6
 74
0
 42
0.0000001
 43
0.0000001
 44
0.0000000001
 40
0.0
 40
0.0
 40
0.0
 40
0.0
 40
0.3332720583
 40
0.6666054007
 40
1.0
 40
1.0
 40
1.0
 40
1.0
 10
33.5058966087
 20
224.0957657441
 30
0.0
 10
33.6580870512
 20
224.001961455
 30
0.0
 10
33.9625258711
 20
223.8143842124
 30
0.0
 10
34.41931583
 20
223.5331382252
 30
0.0
 10
34.7239302539
 20
223.3457208148
 30
0.0
 10
34.8762663932
 20
223.2520277837
 30
0.0
  0
SPLINE
  5
4BC
100
AcDbEntity
  8
0
100
AcDbSpline
 62
7
  6
CONTINUOUS
 70
0
 71
3
 72
12
 73
8
 74
0
 42
0.0000001
 43
0.0000001
 44
0.0000000001
 40
0.0
 40
0.0
 40
0.0
 40
0.0
 40
0.2268127709
 40
0.4156327622
 40
0.5870227564
 40
0.7750775146
 40
1.0
 40
1.0
 40
1.0
 40
1.0
 10
40.7960369143
 20
225.9369445115
 30
0.0
 10
40.9328412661
 20
225.857962269
 30
0.0
 10
41.1687914936
 20
225.6815761889
 30
0.0
 10
41.3893489268
 20
225.3190245197
 30
0.0
 10
41.3875098207
 20
224.9167409431
 30
0.0
 10
41.1661798006
 20
224.5573181934
 30
0.0
 10
40.9317122309
 20
224.382299609
 30
0.0
 10
40.7960485882
 20
224.3039746359
 30
0.0
  0
SPLINE
  5
4BD
100
AcDbEntity
  8
0
100
AcDbSpline
 62
7
  6
CONTINUOUS
 70
0
 71
3
 72
12
 73
8
 74
0
 42
0.0000001
 43
0.0000001
 44
0.0000000001
 40
0.0
 40
0.0
 40
0.0
 40
0.0
 40
0.1860530723
 40
0.3909035842
 40
0.6030800856
 40
0.8110948792
 40
1.0
 40
1.0
 40
1.0
 40
1.0
 10
40.7960485882
 20
224.3039746359
 30
0.0
 10
40.6378295212
 20
224.2140259826
 30
0.0
 10
40.2801618808
 20
224.0678985457
 30
0.0
 10
39.696461961
 20
223.9619433758
 30
0.0
 10
39.0818753729
 20
223.9604195289
 30
0.0
 10
38.4918221821
 20
224.064937791
 30
0.0
 10
38.1282994341
 20
224.2126992226
 30
0.0
 10
37.9676215654
 20
224.303967896
 30
0.0
  0
SPLINE
  5
4BE
100
AcDbEntity
  8
0
100
AcDbSpline
 62
7
  6
CONTINUOUS
 70
0
 71
3
 72
13
 73
9
 74
0
 42
0.0000001
 43
0.0000001
 44
0.0000000001
 40
0.0
 40
0.0
 40
0.0
 40
0.0
 40
0.1853916194
 40
0.3409501554
 40
0.4803927748
 40
0.6266068336
 40
0.7982998707
 40
1.0
 40
1.0
 40
1.0
 40
1.0
 10
37.9676215654
 20
224.303967896
 30
0.0
 10
37.8403989311
 20
224.378737805
 30
0.0
 10
37.6179190169
 20
224.5410008023
 30
0.0
 10
37.3987928405
 20
224.8680788174
 30
0.0
 10
37.3602649737
 20
225.2330656484
 30
0.0
 10
37.5138141121
 20
225.577994245
 30
0.0
 10
37.8195345068
 20
225.8671528612
 30
0.0
 10
38.0861214578
 20
226.0054110494
 30
0.0
 10
38.2346695386
 20
226.0663152277
 30
0.0
  0
SPLINE
  5
4BF
100
AcDbEntity
  8
0
100
AcDbSpline
 62
7
  6
CONTINUOUS
 70
0
 71
3
 72
11
 73
7
 74
0
 42
0.0000001
 43
0.0000001
 44
0.0000000001
 40
0.0
 40
0.0
 40
0.0
 40
0.0
 40
0.2458761434
 40
0.5065902448
 40
0.76570927
 40
1.0
 40
1.0
 40
1.0
 40
1.0
 10
38.2346695386
 20
226.0663152277
 30
0.0
 10
38.4350691019
 20
226.1473293195
 30
0.0
 10
38.8707275663
 20
226.2597691404
 30
0.0
 10
39.547029835
 20
226.2935929093
 30
0.0
 10
40.2071310855
 20
226.197214787
 30
0.0
 10
40.6176600985
 20
226.0399280843
 30
0.0
 10
40.7960369143
 20
225.9369445115
 30
0.0
  0
ENDSEC
  0
SECTION
  2
OBJECTS
  0
DICTIONARY
  5
C
100
AcDbDictionary
280
0
281
1
  3
ACAD_GROUP
350
D
  3
ACAD_MLINESTYLE
350
17
  3
ACAD_LAYOUT
350
1A
  3
ACAD_PLOTSETTINGS
350
19
  3
ACAD_PLOTSTYLENAME
350
E
  0
DICTIONARY
  5
D
102
{ACAD_REACTORS
330
C
102
}
100
AcDbDictionary
280
0
281
1
  0
ACDBDICTIONARYWDFLT
  5
E
102
{ACAD_REACTORS
330
C
102
}
100
AcDbDictionary
281
1
  3
Normal
350
F
100
AcDbDictionaryWithDefault
340
F
  0
DICTIONARY
  5
17
102
{ACAD_REACTORS
330
C
102
}
100
AcDbDictionary
280
0
281
1
  3
Standard
350
18
  0
DICTIONARY
  5
19
102
{ACAD_REACTORS
330
C
102
}
100
AcDbDictionary
281
1
  0
DICTIONARY
  5
1A
102
{ACAD_REACTORS
330
C
102
}
100
AcDbDictionary
281
1
  3
Model
350
4C0
  3
Layout1
350
4C1
  0
ACDBPLACEHOLDER
  5
F
102
{ACAD_REACTORS
330
E
102
}
  0
MLINESTYLE
  5
18
102
{ACAD_REACTORS
330
17
102
}
100
AcDbMlineStyle
  2
STANDARD
 70
0
  3

 62
256
 51
90.0
 52
90.0
 71
2
 49
0.5
 62
256
  6
BYLAYER
 49
-0.5
 62
256
  6
BYLAYER
  0
LAYOUT
  5
4C0
102
{ACAD_REACTORS
330
1A
102
}
100
AcDbPlotSettings
  1

  2
none_device
  4

  6

 40
0.0
 41
0.0
 42
0.0
 43
0.0
 44
210.0
 45
297.0
 46
0.0
 47
0.0
 48
0.0
 49
0.0
140
0.0
141
0.0
142
1.0
143
1.0
 70
1024
 72
1
 73
0
 74
0
  7

 75
0
147
1.0
148
0.0
149
0.0
100
AcDbLayout
  1
Model
 70
0
 71
0
 10
0.0
 20
0.0
 11
210.0
 21
297.0
 12
0.0
 22
0.0
 32
0.0
 14
0.0
 24
0.0
 34
0.0
 15
0.0
 25
0.0
 35
0.0
146
0.0
 13
0.0
 23
0.0
 33
0.0
 16
1.0
 26
0.0
 36
0.0
 17
0.0
 27
1.0
 37
0.0
 76
0
330
210
345
0
346
0
  0
LAYOUT
  5
4C1
102
{ACAD_REACTORS
330
1A
102
}
100
AcDbPlotSettings
  1

  2
none_device
  4

  6

 40
0.0
 41
0.0
 42
0.0
 43
0.0
 44
210.0
 45
297.0
 46
0.0
 47
0.0
 48
0.0
 49
0.0
140
0.0
141
0.0
142
1.0
143
1.0
 70
0
 72
1
 73
0
 74
0
  7

 75
0
147
1.0
148
0.0
149
0.0
100
AcDbLayout
  1
Layout1
 70
0
 71
1
 10
0.0
 20
0.0
 11
210.0
 21
297.0
 12
0.0
 22
0.0
 32
0.0
 14
0.0
 24
0.0
 34
0.0
 15
0.0
 25
0.0
 35
0.0
146
0.0
 13
0.0
 23
0.0
 33
0.0
 16
1.0
 26
0.0
 36
0.0
 17
0.0
 27
1.0
 37
0.0
 76
0
330
211
345
0
346
0
  0
ENDSEC
  0
EOF
