999
DXF file: C:\Users\sesa63760\Dev\_Creo\CAD\MCADFD0002808_3D-CAD\drw0001_1.dxf
999
Pro/ENGINEER 2019471 by Parametric Technology Corporation
  0
SECTION
  2
HEADER
  9
$ACADVER
  1
AC1024
  9
$DWGCODEPAGE
  3
ANSI_1252
  9
$EXTMAX
 10
258.7043774285
 20
365.8819052203
 30
0.0
  9
$EXTMIN
 10
0.0
 20
0.0
 30
0.0
  9
$LIMMIN
 10
0.0
 20
0.0
  9
$LIMMAX
 10
258.7043774285
 20
365.8819052203
  9
$VIEWCTR
 10
129.3521887142
 20
182.9409526101
  9
$VIEWSIZE
 40
365.8819052203
  9
$CLAYER
  8
0
  9
$LTSCALE
 40
23.8500797477
  9
$CELTYPE
  6
BYLAYER
  9
$DIMSCALE
 40
1.0
  9
$DIMASZ
 40
3.079814017
  9
$DIMEXO
 40
1.0
  9
$DIMDLI
 40
16.4782369166
  9
$DIMEXE
 40
1.0
  9
$DIMCEN
 40
3.9027403223
  9
$DIMLFAC
 40
1.0
  9
$DIMBLK
  1
_FILLED
  9
$DIMALT
 70
0
  9
$DIMALTF
 40
0.0393700787
  9
$DIMTXT
 40
4.3117396238
  9
$DIMTOL
 70
1
  9
$DIMLIM
 70
0
  9
$DIMTFAC
 40
1.0
  9
$DIMTP
 40
0.01
  9
$DIMTM
 40
0.01
  9
$DIMGAP
 40
0.625
  9
$DIMDSEP
 70
46
  9
$AUNITS
 70
0
  9
$PDMODE
 70
3
  9
$PDSIZE
 40
0.3125
  9
$HANDSEED
  5
282
  9
$TILEMODE
 70
1
  9
$MEASUREMENT
 70
1
  9
$INSUNITS
 70
4
  0
ENDSEC
  0
SECTION
  2
CLASSES
  0
CLASS
  1
ACDBDICTIONARYWDFLT
  2
AcDbDictionaryWithDefault
  3
AutoCAD 2000
 90
0
 91
1
280
0
281
0
  0
CLASS
  1
ACDBPLACEHOLDER
  2
AcDbPlaceHolder
  3
AutoCAD 2000
 90
0
 91
1
280
0
281
0
  0
CLASS
  1
LAYOUT
  2
AcDbLayout
  3
AutoCAD 2000
 90
0
 91
0
280
0
281
0
  0
ENDSEC
  0
SECTION
  2
TABLES
  0
TABLE
  2
VPORT
  5
8
100
AcDbSymbolTable
 70
2
  0
VPORT
  5
1F4
100
AcDbSymbolTableRecord
100
AcDbViewportTableRecord
  2
*ACTIVE
 70
0
 10
0.0
 20
0.0
 11
1.0
 21
1.0
 12
129.3521887142
 22
182.9409526101
 13
0.0
 23
0.0
 14
1.0
 24
1.0
 15
0.0
 25
0.0
 16
0.0
 26
0.0
 36
1.0
 17
0.0
 27
0.0
 37
0.0
 40
365.8819052203
 41
0.7070707071
 42
50.0
 43
0.0
 44
0.0
 50
0.0
 51
0.0
 71
0
 72
100
 73
1
 74
1
 75
0
 76
0
 77
0
 78
0
  0
ENDTAB
  0
TABLE
  2
LTYPE
  5
5
100
AcDbSymbolTable
 70
6
  0
LTYPE
  5
14
100
AcDbSymbolTableRecord
100
AcDbLinetypeTableRecord
  2
BYBLOCK
 70
0
  3

 72
65
 73
0
 40
0.0
  0
LTYPE
  5
15
100
AcDbSymbolTableRecord
100
AcDbLinetypeTableRecord
  2
BYLAYER
 70
0
  3

 72
65
 73
0
 40
0.0
  0
LTYPE
  5
16
100
AcDbSymbolTableRecord
100
AcDbLinetypeTableRecord
  2
CONTINUOUS
 70
64
  3
Solid line
 72
65
 73
0
 40
0.0
  0
LTYPE
  5
1F5
100
AcDbSymbolTableRecord
100
AcDbLinetypeTableRecord
  2
CENTER
 70
64
  3
____ _ ____ _ ____ _ ____ _ ____ _ ____ _ ____
 72
65
 73
4
 40
0.6
 49
0.375
 74
0
 49
-0.075
 74
0
 49
0.075
 74
0
 49
-0.075
 74
0
  0
LTYPE
  5
1F6
100
AcDbSymbolTableRecord
100
AcDbLinetypeTableRecord
  2
HIDDEN
 70
64
  3
- - - - - - - - - - - - - - - - - - - -
 72
65
 73
2
 40
0.2
 49
0.1
 74
0
 49
-0.1
 74
0
  0
LTYPE
  5
1F7
100
AcDbSymbolTableRecord
100
AcDbLinetypeTableRecord
  2
PHANTOM
 70
64
  3
_____ _ _ _____ _ _ _____ _ _ _____
 72
65
 73
6
 40
0.8
 49
0.45
 74
0
 49
-0.05
 74
0
 49
0.1
 74
0
 49
-0.05
 74
0
 49
0.1
 74
0
 49
-0.05
 74
0
  0
LTYPE
  5
1F8
100
AcDbSymbolTableRecord
100
AcDbLinetypeTableRecord
  2
DOT
 70
64
  3
. . . . . . . . . . . . . . . . . . . .
 72
65
 73
2
 40
0.2
 49
0.1
 74
0
 49
-0.1
 74
0
  0
LTYPE
  5
1F9
100
AcDbSymbolTableRecord
100
AcDbLinetypeTableRecord
  2
DASHED
 70
64
  3
- - - - - - - - - - - - - - - - - - - -
 72
65
 73
2
 40
0.2
 49
0.1
 74
0
 49
-0.1
 74
0
  0
ENDTAB
  0
TABLE
  2
LAYER
  5
2
100
AcDbSymbolTable
 70
36
  0
LAYER
  5
10
100
AcDbSymbolTableRecord
100
AcDbLayerTableRecord
  2
0
 70
0
 62
7
  6
CONTINUOUS
370
-3
390
F
  0
LAYER
  5
1FA
100
AcDbSymbolTableRecord
100
AcDbLayerTableRecord
  2
DEFAULT_1
 70
0
 62
7
  6
CENTER
370
-3
390
F
  0
LAYER
  5
1FB
100
AcDbSymbolTableRecord
100
AcDbLayerTableRecord
  2
DEFAULT_2
 70
0
 62
8
  6
HIDDEN
370
-3
390
F
  0
LAYER
  5
1FC
100
AcDbSymbolTableRecord
100
AcDbLayerTableRecord
  2
DEFAULT_3
 70
0
 62
7
  6
PHANTOM
370
-3
390
F
  0
LAYER
  5
1FD
100
AcDbSymbolTableRecord
100
AcDbLayerTableRecord
  2
00_COMPONENTS
 70
0
 62
7
  6
CONTINUOUS
370
-3
390
F
  0
LAYER
  5
1FE
100
AcDbSymbolTableRecord
100
AcDbLayerTableRecord
  2
01_1_DEFAULT_DATUMS
 70
0
 62
7
  6
CONTINUOUS
370
-3
390
F
  0
LAYER
  5
1FF
100
AcDbSymbolTableRecord
100
AcDbLayerTableRecord
  2
01_PLANES
 70
0
 62
7
  6
CONTINUOUS
370
-3
390
F
  0
LAYER
  5
200
100
AcDbSymbolTableRecord
100
AcDbLayerTableRecord
  2
02_COORD_SYS
 70
0
 62
7
  6
CONTINUOUS
370
-3
390
F
  0
LAYER
  5
201
100
AcDbSymbolTableRecord
100
AcDbLayerTableRecord
  2
03_AXES
 70
0
 62
7
  6
CONTINUOUS
370
-3
390
F
  0
LAYER
  5
202
100
AcDbSymbolTableRecord
100
AcDbLayerTableRecord
  2
04_POINTS
 70
0
 62
7
  6
CONTINUOUS
370
-3
390
F
  0
LAYER
  5
203
100
AcDbSymbolTableRecord
100
AcDbLayerTableRecord
  2
05_CURVES
 70
0
 62
7
  6
CONTINUOUS
370
-3
390
F
  0
LAYER
  5
204
100
AcDbSymbolTableRecord
100
AcDbLayerTableRecord
  2
06_SURFS
 70
0
 62
7
  6
CONTINUOUS
370
-3
390
F
  0
LAYER
  5
205
100
AcDbSymbolTableRecord
100
AcDbLayerTableRecord
  2
07_COSMETICS
 70
0
 62
7
  6
CONTINUOUS
370
-3
390
F
  0
LAYER
  5
206
100
AcDbSymbolTableRecord
100
AcDbLayerTableRecord
  2
10_NOTES
 70
0
 62
7
  6
CONTINUOUS
370
-3
390
F
  0
LAYER
  5
207
100
AcDbSymbolTableRecord
100
AcDbLayerTableRecord
  2
11_NOTES_PUB
 70
0
 62
7
  6
CONTINUOUS
370
-3
390
F
  0
LAYER
  5
208
100
AcDbSymbolTableRecord
100
AcDbLayerTableRecord
  2
13_REF_GTOL
 70
0
 62
7
  6
CONTINUOUS
370
-3
390
F
  0
LAYER
  5
209
100
AcDbSymbolTableRecord
100
AcDbLayerTableRecord
  2
16_MISC
 70
0
 62
7
  6
CONTINUOUS
370
-3
390
F
  0
LAYER
  5
20A
100
AcDbSymbolTableRecord
100
AcDbLayerTableRecord
  2
17_NO_PRINT
 70
0
 62
7
  6
CONTINUOUS
370
-3
390
F
  0
LAYER
  5
20B
100
AcDbSymbolTableRecord
100
AcDbLayerTableRecord
  2
18_DATUM_CAMS_JOINTS
 70
0
 62
7
  6
CONTINUOUS
370
-3
390
F
  0
LAYER
  5
20C
100
AcDbSymbolTableRecord
100
AcDbLayerTableRecord
  2
19_DATUM_FUNCTIONAL
 70
0
 62
7
  6
CONTINUOUS
370
-3
390
F
  0
LAYER
  5
20D
100
AcDbSymbolTableRecord
100
AcDbLayerTableRecord
  2
20_DATUM_KINEMATIC_SCHEME
 70
0
 62
7
  6
CONTINUOUS
370
-3
390
F
  0
ENDTAB
  0
TABLE
  2
STYLE
  5
3
100
AcDbSymbolTable
 70
1
  0
STYLE
  5
11
100
AcDbSymbolTableRecord
100
AcDbTextStyleTableRecord
  2
STANDARD
 70
0
 40
0.0
 41
0.8
 50
0.0
 71
0
 42
0.2
  3
txt
  4

  0
STYLE
  5
20E
100
AcDbSymbolTableRecord
100
AcDbTextStyleTableRecord
  2
TEXTSTYLE_1
 70
0
 40
0.0
 41
0.8
 50
0.0
 71
0
 42
0.2
  3
gdt
  4

  0
ENDTAB
  0
TABLE
  2
VIEW
  5
6
100
AcDbSymbolTable
 70
0
  0
ENDTAB
  0
TABLE
  2
UCS
  5
7
100
AcDbSymbolTable
 70
0
  0
ENDTAB
  0
TABLE
  2
APPID
  5
9
100
AcDbSymbolTable
 70
1
  0
APPID
  5
20F
100
AcDbSymbolTableRecord
100
AcDbRegAppTableRecord
  2
ACAD
 70
0
  0
ENDTAB
  0
TABLE
  2
BLOCK_RECORD
  5
1
100
AcDbSymbolTable
 70
0
  0
BLOCK_RECORD
  5
210
100
AcDbSymbolTableRecord
100
AcDbBlockTableRecord
  2
*Model_Space
  0
BLOCK_RECORD
  5
211
100
AcDbSymbolTableRecord
100
AcDbBlockTableRecord
  2
*Paper_Space
  0
BLOCK_RECORD
  5
212
100
AcDbSymbolTableRecord
100
AcDbBlockTableRecord
  2
_FILLED
  0
ENDTAB
  0
TABLE
  2
DIMSTYLE
  5
A
100
AcDbSymbolTable
 70
1
100
AcDbDimStyleTable
 71
0
  0
DIMSTYLE
105
213
100
AcDbSymbolTableRecord
100
AcDbDimStyleTableRecord
  2
STANDARD
 70
0
  3

  4

 40
1.0
 41
3.079814017
 42
1.0
 43
0.38
 44
1.0
 45
0.0
 46
0.0
 47
0.01
 48
0.01
140
4.3117396238
141
0.09
142
0.0
143
25.4
144
1.0
145
0.0
146
1.0
147
0.625
 71
1
 72
0
 73
0
 74
0
 75
0
 76
0
 77
1
 78
8
 79
2
170
0
171
1
172
0
173
0
174
0
175
0
176
0
177
0
178
0
270
2
179
2
271
2
272
2
273
2
274
2
275
0
280
0
281
0
282
0
283
1
284
8
285
0
286
0
287
3
288
0
340
11
278
46
341
212
342
212
343
212
344
212
  0
ENDTAB
  0
ENDSEC
  0
SECTION
  2
BLOCKS
  0
BLOCK
  5
20
100
AcDbEntity
  8
0
100
AcDbBlockBegin
  2
*Model_Space
 70
0
 10
0.0
 20
0.0
 30
0.0
  3
*Model_Space
  1

  0
ENDBLK
  5
21
100
AcDbEntity
  8
0
100
AcDbBlockEnd
  0
BLOCK
  5
1C
100
AcDbEntity
  8
0
100
AcDbBlockBegin
  2
*Paper_Space
 70
0
 10
0.0
 20
0.0
 30
0.0
  3
*Paper_Space
  1

  0
ENDBLK
  5
1D
100
AcDbEntity
  8
0
100
AcDbBlockEnd
  0
BLOCK
  5
214
100
AcDbEntity
  8
0
100
AcDbBlockBegin
  2
_FILLED
 70
64
 10
0.0
 20
0.0
  3
_FILLED
  1

  0
SOLID
  5
215
100
AcDbEntity
  8
0
  6
BYBLOCK
 62
0
100
AcDbTrace
 10
0.0
 20
0.0
 11
-1.0
 21
0.25
 12
-1.0
 22
-0.25
 13
-1.0
 23
-0.25
  0
ENDBLK
  5
216
100
AcDbEntity
  8
0
  6
BYBLOCK
 62
0
100
AcDbBlockEnd
  0
ENDSEC
  0
SECTION
  2
ENTITIES
  0
LINE
  5
217
100
AcDbEntity
  8
0
100
AcDbLine
 62
7
  6
CONTINUOUS
 10
30.0126842463
 20
286.9627135212
 11
30.0891458922
 21
287.0100166751
  0
LINE
  5
218
100
AcDbEntity
  8
0
100
AcDbLine
 62
7
  6
CONTINUOUS
 10
30.0126842463
 20
281.2471966013
 11
30.0891458935
 21
281.294499756
  0
LINE
  5
219
100
AcDbEntity
  8
0
100
AcDbLine
 62
7
  6
CONTINUOUS
 10
104.0300457737
 20
331.3234280058
 11
104.7373616509
 21
331.7317945803
  0
LINE
  5
21A
100
AcDbEntity
  8
0
100
AcDbLine
 62
7
  6
CONTINUOUS
 10
117.4510380742
 20
324.3917161296
 11
115.3297265626
 21
323.166983668
  0
LINE
  5
21B
100
AcDbEntity
  8
0
100
AcDbLine
 62
7
  6
CONTINUOUS
 10
117.3803276905
 20
323.4912785512
 11
82.3268001759
 21
303.9597607185
  0
LINE
  5
21C
100
AcDbEntity
  8
0
100
AcDbLine
 62
7
  6
CONTINUOUS
 10
30.0126842463
 20
204.8389004063
 11
30.0126842463
 21
199.1233834864
  0
LINE
  5
21D
100
AcDbEntity
  8
0
100
AcDbLine
 62
7
  6
CONTINUOUS
 10
30.0126842463
 20
281.2471966013
 11
30.0126842463
 21
286.9627135212
  0
LINE
  5
21E
100
AcDbEntity
  8
0
100
AcDbLine
 62
7
  6
CONTINUOUS
 10
30.0891458476
 20
298.0826525987
 11
30.0891458934
 21
187.9274484056
  0
LINE
  5
21F
100
AcDbEntity
  8
0
100
AcDbLine
 62
7
  6
CONTINUOUS
 10
30.0126842463
 20
204.8389004063
 11
30.0891458936
 21
204.8862035611
  0
LINE
  5
220
100
AcDbEntity
  8
0
100
AcDbLine
 62
7
  6
CONTINUOUS
 10
30.0126842463
 20
199.1233834864
 11
30.0891458889
 21
199.1706866383
  0
LINE
  5
221
100
AcDbEntity
  8
0
100
AcDbLine
 62
7
  6
CONTINUOUS
 10
175.5884614549
 20
124.8027016046
 11
177.0071430614
 21
124.7310461826
  0
LINE
  5
222
100
AcDbEntity
  8
0
100
AcDbLine
 62
7
  6
CONTINUOUS
 10
177.0071430614
 20
130.4465631025
 11
176.144006066
 21
130.4901588222
  0
LINE
  5
223
100
AcDbEntity
  8
0
100
AcDbLine
 62
7
  6
CONTINUOUS
 10
178.098040285
 20
126.4501092832
 11
178.7219347272
 21
126.1978964305
  0
LINE
  5
224
100
AcDbEntity
  8
0
100
AcDbLine
 62
7
  6
CONTINUOUS
 10
219.9819482206
 20
265.1968067242
 11
219.2748634853
 21
264.7885735988
  0
LINE
  5
225
100
AcDbEntity
  8
0
100
AcDbLine
 62
7
  6
CONTINUOUS
 10
115.3297265626
 20
323.166983668
 11
115.3297265626
 21
324.799956305
  0
LINE
  5
226
100
AcDbEntity
  8
0
100
AcDbLine
 62
7
  6
CONTINUOUS
 10
117.4510380742
 20
323.4912785512
 11
117.4510380742
 21
324.3917161296
  0
LINE
  5
227
100
AcDbEntity
  8
0
100
AcDbLine
 62
7
  6
CONTINUOUS
 10
232.6956246439
 20
257.8567282735
 11
231.9955473887
 21
257.4525408945
  0
LINE
  5
228
100
AcDbEntity
  8
0
100
AcDbLine
 62
7
  6
CONTINUOUS
 10
174.5143228506
 20
207.5274027278
 11
175.035931474
 21
207.8285518093
  0
LINE
  5
229
100
AcDbEntity
  8
0
100
AcDbLine
 62
7
  6
CONTINUOUS
 10
176.144006066
 20
206.8984550172
 11
175.7313634061
 21
206.6692438267
  0
LINE
  5
22A
100
AcDbEntity
  8
0
100
AcDbLine
 62
7
  6
CONTINUOUS
 10
175.4849647992
 20
212.2480529656
 11
176.144006066
 21
212.6139719371
  0
LINE
  5
22B
100
AcDbEntity
  8
0
100
AcDbLine
 62
7
  6
CONTINUOUS
 10
174.1646677795
 20
129.3937339277
 11
174.5143228506
 21
128.6403552747
  0
LINE
  5
22C
100
AcDbEntity
  8
0
100
AcDbLine
 62
7
  6
CONTINUOUS
 10
167.2926762198
 20
218.841368258
 11
167.2926762198
 21
108.6871526361
  0
LINE
  5
22D
100
AcDbEntity
  8
0
100
AcDbLine
 62
7
  6
CONTINUOUS
 10
168.4240580478
 20
208.3805503529
 11
168.4240580478
 21
202.665033433
  0
LINE
  5
22E
100
AcDbEntity
  8
0
100
AcDbLine
 62
7
  6
CONTINUOUS
 10
168.4240576159
 20
126.2567370043
 11
168.4240576159
 21
120.5412200844
  0
LINE
  5
22F
100
AcDbEntity
  8
0
100
AcDbLine
 62
7
  6
CONTINUOUS
 10
175.5884614549
 20
206.9265147195
 11
177.0071430614
 21
206.8548592975
  0
LINE
  5
230
100
AcDbEntity
  8
0
100
AcDbLine
 62
7
  6
CONTINUOUS
 10
177.0071430614
 20
212.5703762174
 11
176.144006066
 21
212.6139719371
  0
LINE
  5
231
100
AcDbEntity
  8
0
100
AcDbLine
 62
7
  6
CONTINUOUS
 10
174.5143228506
 20
210.7641683896
 11
174.5143228506
 21
205.0486514697
  0
LINE
  5
232
100
AcDbEntity
  8
0
100
AcDbLine
 62
7
  6
CONTINUOUS
 10
174.5143228506
 20
128.6403552747
 11
174.5143228506
 21
122.9248383548
  0
LINE
  5
233
100
AcDbEntity
  8
0
100
AcDbLine
 62
7
  6
CONTINUOUS
 10
175.035931474
 20
128.1542459458
 11
175.035931474
 21
129.8755045438
  0
LINE
  5
234
100
AcDbEntity
  8
0
100
AcDbLine
 62
7
  6
CONTINUOUS
 10
175.035931474
 20
207.8285518093
 11
175.035931474
 21
209.7586226685
  0
LINE
  5
235
100
AcDbEntity
  8
0
100
AcDbLine
 62
7
  6
CONTINUOUS
 10
175.446071333
 20
124.8870041115
 11
175.446071333
 21
127.2140360003
  0
LINE
  5
236
100
AcDbEntity
  8
0
100
AcDbLine
 62
7
  6
CONTINUOUS
 10
175.446071333
 20
210.4156323058
 11
175.446071333
 21
212.2265085106
  0
LINE
  5
237
100
AcDbEntity
  8
0
100
AcDbLine
 62
7
  6
CONTINUOUS
 10
175.5884614549
 20
212.3055173334
 11
175.5884614549
 21
206.9265147195
  0
LINE
  5
238
100
AcDbEntity
  8
0
100
AcDbLine
 62
7
  6
CONTINUOUS
 10
175.5884614549
 20
130.1817042186
 11
175.5884614549
 21
124.8027016046
  0
LINE
  5
239
100
AcDbEntity
  8
0
100
AcDbLine
 62
7
  6
CONTINUOUS
 10
177.0071430614
 20
124.7310461826
 11
177.0071430614
 21
130.4465631025
  0
LINE
  5
23A
100
AcDbEntity
  8
0
100
AcDbLine
 62
7
  6
CONTINUOUS
 10
177.0071430614
 20
206.8548592974
 11
177.0071430614
 21
212.5703762174
  0
LINE
  5
23B
100
AcDbEntity
  8
0
100
AcDbLine
 62
7
  6
CONTINUOUS
 10
178.098040285
 20
213.7039474151
 11
178.098040285
 21
125.8646173803
  0
LINE
  5
23C
100
AcDbEntity
  8
0
100
AcDbLine
 62
7
  6
CONTINUOUS
 10
178.7219347272
 20
126.1978964305
 11
178.7219347272
 21
214.0535565136
  0
LINE
  5
23D
100
AcDbEntity
  8
0
100
AcDbLine
 62
7
  6
CONTINUOUS
 10
186.7482150698
 20
43.925563961
 11
186.7482150698
 21
230.0884546863
  0
LINE
  5
23E
100
AcDbEntity
  8
0
100
AcDbLine
 62
7
  6
CONTINUOUS
 10
174.1646677795
 20
211.5175470426
 11
174.5143228506
 21
210.7641683896
  0
LINE
  5
23F
100
AcDbEntity
  8
0
100
AcDbLine
 62
7
  6
CONTINUOUS
 10
178.7219347272
 20
126.1978964305
 11
178.0726773012
 21
125.8340911783
  0
LINE
  5
240
100
AcDbEntity
  8
0
100
AcDbLine
 62
7
  6
CONTINUOUS
 10
175.5884614549
 20
130.1817042186
 11
176.144006066
 21
130.4901588222
  0
LINE
  5
241
100
AcDbEntity
  8
0
100
AcDbLine
 62
7
  6
CONTINUOUS
 10
176.170442018
 20
124.7730076899
 11
174.5143228506
 21
123.8554510872
  0
LINE
  5
242
100
AcDbEntity
  8
0
100
AcDbLine
 62
7
  6
CONTINUOUS
 10
186.7486440963
 20
230.0877243836
 11
48.861732171
 21
309.6949691449
  0
LINE
  5
243
100
AcDbEntity
  8
0
100
AcDbLine
 62
7
  6
CONTINUOUS
 10
176.6683446528
 20
244.6114703007
 11
74.1374345065
 21
303.8063797061
  0
LINE
  5
244
100
AcDbEntity
  8
0
100
AcDbLine
 62
7
  6
CONTINUOUS
 10
81.4701723593
 20
304.4543238304
 11
181.0267334781
 21
246.9766167884
  0
LINE
  5
245
100
AcDbEntity
  8
0
100
AcDbLine
 62
7
  6
CONTINUOUS
 10
232.002649202
 20
76.9936855637
 11
232.002670684
 21
257.4402029114
  0
LINE
  5
246
100
AcDbEntity
  8
0
100
AcDbLine
 62
7
  6
CONTINUOUS
 10
232.6956246439
 20
80.6757037564
 11
232.6956246439
 21
257.8567282735
  0
LINE
  5
247
100
AcDbEntity
  8
0
100
AcDbLine
 62
7
  6
CONTINUOUS
 10
217.7421942922
 20
265.5486386899
 11
117.3803276905
 21
323.4912785512
  0
LINE
  5
248
100
AcDbEntity
  8
0
100
AcDbLine
 62
7
  6
CONTINUOUS
 10
232.002670684
 20
257.4402029114
 11
217.8606367089
 21
265.6050742283
  0
LINE
  5
249
100
AcDbEntity
  8
0
100
AcDbLine
 62
7
  6
CONTINUOUS
 10
115.3297265626
 20
324.799956305
 11
101.1877140692
 21
332.96434785
  0
LINE
  5
24A
100
AcDbEntity
  8
0
100
AcDbLine
 62
7
  6
CONTINUOUS
 10
104.7373616509
 20
331.7317945803
 11
117.4510380742
 21
324.3917161296
  0
LINE
  5
24B
100
AcDbEntity
  8
0
100
AcDbLine
 62
7
  6
CONTINUOUS
 10
219.9819482206
 20
265.1968067242
 11
232.6956246439
 21
257.8567282735
  0
LINE
  5
24C
100
AcDbEntity
  8
0
100
AcDbLine
 62
7
  6
CONTINUOUS
 10
232.0026495927
 20
80.2756168123
 11
232.6956246439
 21
80.6757037564
  0
ARC
  5
24D
100
AcDbEntity
  8
0
100
AcDbCircle
 62
7
  6
CONTINUOUS
 10
-198.4236721783
 20
804.3982745237
 40
771.0079123444
100
AcDbArc
 50
298.4116217722
 51
298.8977759448
  0
ARC
  5
24E
100
AcDbEntity
  8
0
100
AcDbCircle
 62
7
  6
CONTINUOUS
 10
-198.4235659736
 20
886.5218940627
 40
771.0076915487
100
AcDbArc
 50
298.4116217031
 51
298.8977759868
  0
ARC
  5
24F
100
AcDbEntity
  8
0
100
AcDbCircle
 62
7
  6
CONTINUOUS
 10
-194.5839344806
 20
797.418495718
 40
763.0416856462
100
AcDbArc
 50
298.8986275075
 51
299.0208210008
  0
ARC
  5
250
100
AcDbEntity
  8
0
100
AcDbCircle
 62
7
  6
CONTINUOUS
 10
-192.425333926
 20
875.6566414129
 40
758.5966912186
100
AcDbArc
 50
299.0686210682
 51
299.2376146144
  0
ARC
  5
251
100
AcDbEntity
  8
0
100
AcDbCircle
 62
7
  6
CONTINUOUS
 10
-192.4253339262
 20
793.5328282983
 40
758.5966912189
100
AcDbArc
 50
299.0686210682
 51
299.2376146144
  0
ARC
  5
252
100
AcDbEntity
  8
0
100
AcDbCircle
 62
7
  6
CONTINUOUS
 10
-1.8188775147
 20
370.5667143333
 40
377.1632915098
100
AcDbArc
 50
296.7643468628
 51
299.9974624509
  0
ARC
  5
253
100
AcDbEntity
  8
0
100
AcDbCircle
 62
7
  6
CONTINUOUS
 10
230.8889810878
 20
-5.5521069159
 40
364.025602734
100
AcDbArc
 50
120.0026260729
 51
123.4774733349
  0
ARC
  5
254
100
AcDbEntity
  8
0
100
AcDbCircle
 62
7
  6
CONTINUOUS
 10
56.9834959818
 20
269.008391037
 40
259.8100665078
100
AcDbArc
 50
299.9642980713
 51
312.3487292094
  0
ARC
  5
255
100
AcDbEntity
  8
0
100
AcDbCircle
 62
7
  6
CONTINUOUS
 10
165.5714660452
 20
143.9311636599
 40
17.7139354439
100
AcDbArc
 50
299.9995914849
 51
300.3213074667
  0
ARC
  5
256
100
AcDbEntity
  8
0
100
AcDbCircle
 62
7
  6
CONTINUOUS
 10
165.571466049
 20
220.3394598483
 40
17.7139354363
100
AcDbArc
 50
299.9995914849
 51
300.3213074668
  0
ARC
  5
257
100
AcDbEntity
  8
0
100
AcDbCircle
 62
7
  6
CONTINUOUS
 10
165.5714660493
 20
226.0549767677
 40
17.7139354358
100
AcDbArc
 50
299.9995914849
 51
300.3213074668
  0
ARC
  5
258
100
AcDbEntity
  8
0
100
AcDbCircle
 62
7
  6
CONTINUOUS
 10
165.5714660519
 20
138.2156467286
 40
17.7139354307
100
AcDbArc
 50
299.9995914848
 51
300.3213074668
  0
ARC
  5
259
100
AcDbEntity
  8
0
100
AcDbCircle
 62
7
  6
CONTINUOUS
 10
32.7626372199
 20
204.402427826
 40
2.7843997772
100
AcDbArc
 50
166.5072804807
 51
169.580421291
  0
ARC
  5
25A
100
AcDbEntity
  8
0
100
AcDbCircle
 62
7
  6
CONTINUOUS
 10
32.7626371747
 20
286.5262409503
 40
2.7843997311
100
AcDbArc
 50
166.5072831693
 51
169.580422158
  0
ARC
  5
25B
100
AcDbEntity
  8
0
100
AcDbCircle
 62
7
  6
CONTINUOUS
 10
173.7310654222
 20
125.7562200877
 40
2.7368794514
100
AcDbArc
 50
72.3105089599
 51
74.4177275965
  0
ARC
  5
25C
100
AcDbEntity
  8
0
100
AcDbCircle
 62
7
  6
CONTINUOUS
 10
32.7092937085
 20
204.4125321273
 40
2.7301085145
100
AcDbArc
 50
169.5865121438
 51
171.0151876203
  0
ARC
  5
25D
100
AcDbEntity
  8
0
100
AcDbCircle
 62
7
  6
CONTINUOUS
 10
32.7092936984
 20
286.5363452439
 40
2.7301085044
100
AcDbArc
 50
169.5865130028
 51
171.0151876221
  0
ARC
  5
25E
100
AcDbEntity
  8
0
100
AcDbCircle
 62
7
  6
CONTINUOUS
 10
174.8265708316
 20
124.8866341959
 40
0.6194217805
100
AcDbArc
 50
351.5179487207
 51
0.0342117773
  0
SPLINE
  5
25F
100
AcDbEntity
  8
0
100
AcDbSpline
 62
7
  6
CONTINUOUS
 70
0
 71
3
 72
9
 73
5
 74
0
 42
0.0000001
 43
0.0000001
 44
0.0000000001
 40
0.0
 40
0.0
 40
0.0
 40
0.0
 40
0.2470333756
 40
1.0
 40
1.0
 40
1.0
 40
1.0
 10
30.774528551
 20
113.0775067238
 30
0.0
 10
41.9028402749
 20
106.2569930731
 30
0.0
 10
87.1349465595
 20
78.9488630936
 30
0.0
 10
133.0830140514
 20
52.8289050835
 30
0.0
 10
168.0260611244
 20
33.8103554011
 30
0.0
  0
SPLINE
  5
260
100
AcDbEntity
  8
0
100
AcDbSpline
 62
7
  6
CONTINUOUS
 70
0
 71
3
 72
8
 73
4
 74
0
 42
0.0000001
 43
0.0000001
 44
0.0000000001
 40
0.0
 40
0.0
 40
0.0
 40
0.0
 40
1.0
 40
1.0
 40
1.0
 40
1.0
 10
30.0891458934
 20
187.9274484056
 30
0.0
 10
30.317463778
 20
162.9774605788
 30
0.0
 10
30.5459279179
 20
138.02747409
 30
0.0
 10
30.7745383949
 20
113.0774889424
 30
0.0
  0
SPLINE
  5
261
100
AcDbEntity
  8
0
100
AcDbSpline
 62
7
  6
CONTINUOUS
 70
0
 71
3
 72
9
 73
5
 74
0
 42
0.0000001
 43
0.0000001
 44
0.0000000001
 40
0.0
 40
0.0
 40
0.0
 40
0.0
 40
0.4965054501
 40
1.0
 40
1.0
 40
1.0
 40
1.0
 10
48.861732171
 20
309.6949691449
 30
0.0
 10
57.0807748088
 20
314.4402072991
 30
0.0
 10
74.1599780091
 20
323.113025722
 30
0.0
 10
92.0433475788
 20
329.9650244868
 30
0.0
 10
101.1881143848
 20
332.9644891851
 30
0.0
  0
SPLINE
  5
262
100
AcDbEntity
  8
0
100
AcDbSpline
 62
7
  6
CONTINUOUS
 70
0
 71
3
 72
9
 73
5
 74
0
 42
0.0000001
 43
0.0000001
 44
0.0000000001
 40
0.0
 40
0.0
 40
0.0
 40
0.0
 40
0.2457836704
 40
1.0
 40
1.0
 40
1.0
 40
1.0
 10
217.860637129
 20
265.605079297
 30
0.0
 10
214.4188081926
 20
264.022183018
 30
0.0
 10
200.4823125848
 20
257.4369489374
 30
0.0
 10
186.8149607212
 20
250.284939912
 30
0.0
 10
176.668344653
 20
244.6114703008
 30
0.0
  0
SPLINE
  5
263
100
AcDbEntity
  8
0
100
AcDbSpline
 62
7
  6
CONTINUOUS
 70
0
 71
3
 72
9
 73
5
 74
0
 42
0.0000001
 43
0.0000001
 44
0.0000000001
 40
0.0
 40
0.0
 40
0.0
 40
0.0
 40
0.2582147823
 40
1.0
 40
1.0
 40
1.0
 40
1.0
 10
168.4239207927
 20
120.5411459105
 30
0.0
 10
168.7932185869
 20
120.631200599
 30
0.0
 10
170.2159599077
 20
121.0091910292
 30
0.0
 10
171.6084453254
 20
121.5059697477
 30
0.0
 10
172.6060477135
 20
121.9500673612
 30
0.0
  0
SPLINE
  5
264
100
AcDbEntity
  8
0
100
AcDbSpline
 62
7
  6
CONTINUOUS
 70
0
 71
3
 72
9
 73
5
 74
0
 42
0.0000001
 43
0.0000001
 44
0.0000000001
 40
0.0
 40
0.0
 40
0.0
 40
0.0
 40
0.2556612574
 40
1.0
 40
1.0
 40
1.0
 40
1.0
 10
172.6060477135
 20
121.9500673612
 30
0.0
 10
172.7651847128
 20
122.0209095749
 30
0.0
 10
173.3841933027
 20
122.3056355719
 30
0.0
 10
173.9891189586
 20
122.6212916357
 30
0.0
 10
174.4283243887
 20
122.8748654953
 30
0.0
  0
SPLINE
  5
265
100
AcDbEntity
  8
0
100
AcDbSpline
 62
7
  6
CONTINUOUS
 70
0
 71
3
 72
9
 73
5
 74
0
 42
0.0000001
 43
0.0000001
 44
0.0000000001
 40
0.0
 40
0.0
 40
0.0
 40
0.0
 40
0.2586074537
 40
1.0
 40
1.0
 40
1.0
 40
1.0
 10
174.6513091467
 20
128.0913032279
 30
0.0
 10
174.6765112572
 20
128.0811979847
 30
0.0
 10
174.7732231356
 20
128.0403218743
 30
0.0
 10
174.8669151659
 20
127.9921240398
 30
0.0
 10
174.9335455866
 20
127.9518762885
 30
0.0
  0
SPLINE
  5
266
100
AcDbEntity
  8
0
100
AcDbSpline
 62
7
  6
CONTINUOUS
 70
0
 71
3
 72
9
 73
5
 74
0
 42
0.0000001
 43
0.0000001
 44
0.0000000001
 40
0.0
 40
0.0
 40
0.0
 40
0.0
 40
0.5488316214
 40
1.0
 40
1.0
 40
1.0
 40
1.0
 10
174.9335455866
 20
127.9518762885
 30
0.0
 10
175.0790082336
 20
127.8640103502
 30
0.0
 10
175.328578373
 20
127.6645188594
 30
0.0
 10
175.4458861326
 20
127.3537359618
 30
0.0
 10
175.4459919064
 20
127.214035922
 30
0.0
  0
SPLINE
  5
267
100
AcDbEntity
  8
0
100
AcDbSpline
 62
7
  6
CONTINUOUS
 70
0
 71
3
 72
9
 73
5
 74
0
 42
0.0000001
 43
0.0000001
 44
0.0000000001
 40
0.0
 40
0.0
 40
0.0
 40
0.0
 40
0.2576018503
 40
1.0
 40
1.0
 40
1.0
 40
1.0
 10
175.5257705339
 20
125.2067655238
 30
0.0
 10
175.5362155676
 20
125.1845832746
 30
0.0
 10
175.5728210267
 20
125.0966944709
 30
0.0
 10
175.5923614442
 20
125.0015204462
 30
0.0
 10
175.5953687531
 20
124.9309234901
 30
0.0
  0
SPLINE
  5
268
100
AcDbEntity
  8
0
100
AcDbSpline
 62
7
  6
CONTINUOUS
 70
0
 71
3
 72
9
 73
5
 74
0
 42
0.0000001
 43
0.0000001
 44
0.0000000001
 40
0.0
 40
0.0
 40
0.0
 40
0.0
 40
0.2565479074
 40
1.0
 40
1.0
 40
1.0
 40
1.0
 10
177.0071430614
 20
124.7310461826
 30
0.0
 10
177.1068207618
 20
124.8214931831
 30
0.0
 10
177.4896003718
 20
125.1803005647
 30
0.0
 10
177.8486426667
 20
125.5647188155
 30
0.0
 10
178.0980402851
 20
125.8646173803
 30
0.0
  0
LINE
  5
269
100
AcDbEntity
  8
0
100
AcDbLine
 62
7
  6
CONTINUOUS
 10
178.0980402851
 20
213.7039474151
 11
178.7219347272
 21
214.0535565136
  0
SPLINE
  5
26A
100
AcDbEntity
  8
0
100
AcDbSpline
 62
7
  6
CONTINUOUS
 70
0
 71
3
 72
11
 73
7
 74
0
 42
0.0000001
 43
0.0000001
 44
0.0000000001
 40
0.0
 40
0.0
 40
0.0
 40
0.0
 40
0.3016558765
 40
0.5665930872
 40
0.7952144386
 40
1.0
 40
1.0
 40
1.0
 40
1.0
 10
174.5362662805
 20
209.4958059424
 30
0.0
 10
174.6668216505
 20
209.5402544227
 30
0.0
 10
174.9059098851
 20
209.6448742498
 30
0.0
 10
175.2021067664
 20
209.8619627202
 30
0.0
 10
175.3979097597
 20
210.1220459964
 30
0.0
 10
175.4459210137
 20
210.3220062866
 30
0.0
 10
175.4459918997
 20
210.4156323842
 30
0.0
  0
SPLINE
  5
26B
100
AcDbEntity
  8
0
100
AcDbSpline
 62
7
  6
CONTINUOUS
 70
0
 71
3
 72
9
 73
5
 74
0
 42
0.0000001
 43
0.0000001
 44
0.0000000001
 40
0.0
 40
0.0
 40
0.0
 40
0.0
 40
0.5187681517
 40
1.0
 40
1.0
 40
1.0
 40
1.0
 10
168.4239201934
 20
202.6649586063
 30
0.0
 10
169.5088633298
 20
202.9295261902
 30
0.0
 10
171.5723935447
 20
203.5646978545
 30
0.0
 10
173.5311795564
 20
204.4807148916
 30
0.0
 10
174.4283243887
 20
204.9986786102
 30
0.0
  0
SPLINE
  5
26C
100
AcDbEntity
  8
0
100
AcDbSpline
 62
7
  6
CONTINUOUS
 70
0
 71
3
 72
9
 73
5
 74
0
 42
0.0000001
 43
0.0000001
 44
0.0000000001
 40
0.0
 40
0.0
 40
0.0
 40
0.0
 40
0.2565479074
 40
1.0
 40
1.0
 40
1.0
 40
1.0
 10
177.0071430614
 20
206.8548592975
 30
0.0
 10
177.1068207618
 20
206.945306298
 30
0.0
 10
177.4896003718
 20
207.3041136796
 30
0.0
 10
177.8486426667
 20
207.6885319303
 30
0.0
 10
178.098040285
 20
207.9884304951
 30
0.0
  0
SPLINE
  5
26D
100
AcDbEntity
  8
0
100
AcDbSpline
 62
7
  6
CONTINUOUS
 70
0
 71
3
 72
8
 73
4
 74
0
 42
0.0000001
 43
0.0000001
 44
0.0000000001
 40
0.0
 40
0.0
 40
0.0
 40
0.0
 40
1.0
 40
1.0
 40
1.0
 40
1.0
 10
174.1646677795
 20
211.5175470426
 30
0.0
 10
174.6050071642
 20
211.7606140568
 30
0.0
 10
175.0451068755
 20
212.0041157729
 30
0.0
 10
175.4849647992
 20
212.2480529656
 30
0.0
  0
SPLINE
  5
26E
100
AcDbEntity
  8
0
100
AcDbSpline
 62
7
  6
CONTINUOUS
 70
0
 71
3
 72
8
 73
4
 74
0
 42
0.0000001
 43
0.0000001
 44
0.0000000001
 40
0.0
 40
0.0
 40
0.0
 40
0.0
 40
1.0
 40
1.0
 40
1.0
 40
1.0
 10
168.026065007
 20
33.8103592594
 30
0.0
 10
167.7817576383
 20
58.7692936073
 30
0.0
 10
167.5372950756
 20
83.7282264367
 30
0.0
 10
167.2926771918
 20
108.6871577432
 30
0.0
  0
SPLINE
  5
26F
100
AcDbEntity
  8
0
100
AcDbSpline
 62
7
  6
CONTINUOUS
 70
0
 71
3
 72
9
 73
5
 74
0
 42
0.0000001
 43
0.0000001
 44
0.0000000001
 40
0.0
 40
0.0
 40
0.0
 40
0.0
 40
0.2531007723
 40
1.0
 40
1.0
 40
1.0
 40
1.0
 10
167.2926771918
 20
218.8413684373
 30
0.0
 10
168.9335911984
 20
219.7910703177
 30
0.0
 10
175.4173317662
 20
223.5424796415
 30
0.0
 10
181.9029111485
 20
227.2907112459
 30
0.0
 10
186.7482150698
 20
230.0881320708
 30
0.0
  0
SPLINE
  5
270
100
AcDbEntity
  8
0
100
AcDbSpline
 62
7
  6
CONTINUOUS
 70
0
 71
3
 72
9
 73
5
 74
0
 42
0.0000001
 43
0.0000001
 44
0.0000000001
 40
0.0
 40
0.0
 40
0.0
 40
0.0
 40
0.2471325722
 40
1.0
 40
1.0
 40
1.0
 40
1.0
 10
30.0891458939
 20
187.9274483617
 30
0.0
 10
41.2124638709
 20
181.0973332418
 30
0.0
 10
86.4113687934
 20
153.7691985179
 30
0.0
 10
132.3506441145
 20
127.6680457976
 30
0.0
 10
167.2926762198
 20
108.6871526361
 30
0.0
  0
SPLINE
  5
271
100
AcDbEntity
  8
0
100
AcDbSpline
 62
7
  6
CONTINUOUS
 70
0
 71
3
 72
9
 73
5
 74
0
 42
0.0000001
 43
0.0000001
 44
0.0000000001
 40
0.0
 40
0.0
 40
0.0
 40
0.0
 40
0.2472397936
 40
1.0
 40
1.0
 40
1.0
 40
1.0
 10
30.0891468704
 20
298.082658052
 30
0.0
 10
41.2108719971
 20
291.2389365465
 30
0.0
 10
86.3898006401
 20
263.8768697599
 30
0.0
 10
132.3374534592
 20
237.7867477514
 30
0.0
 10
167.2926762198
 20
218.841368258
 30
0.0
  0
SPLINE
  5
272
100
AcDbEntity
  8
0
100
AcDbSpline
 62
7
  6
CONTINUOUS
 70
0
 71
3
 72
9
 73
5
 74
0
 42
0.0000001
 43
0.0000001
 44
0.0000000001
 40
0.0
 40
0.0
 40
0.0
 40
0.0
 40
0.2542455042
 40
1.0
 40
1.0
 40
1.0
 40
1.0
 10
74.1374345067
 20
303.8063797062
 30
0.0
 10
77.5578367127
 20
305.7188939714
 30
0.0
 10
91.0809933985
 20
313.1149891309
 30
0.0
 10
104.8865979913
 20
319.9971965092
 30
0.0
 10
115.3297293412
 20
324.799989734
 30
0.0
  0
SPLINE
  5
273
100
AcDbEntity
  8
0
100
AcDbSpline
 62
7
  6
CONTINUOUS
 70
0
 71
3
 72
9
 73
5
 74
0
 42
0.0000001
 43
0.0000001
 44
0.0000000001
 40
0.0
 40
0.0
 40
0.0
 40
0.0
 40
0.2599770095
 40
1.0
 40
1.0
 40
1.0
 40
1.0
 10
174.5673844506
 20
123.9780820527
 30
0.0
 10
174.5976278452
 20
123.9888655279
 30
0.0
 10
174.7130899408
 20
124.0326915763
 30
0.0
 10
174.8250727496
 20
124.0860608053
 30
0.0
 10
174.9042243245
 20
124.1317587157
 30
0.0
  0
SPLINE
  5
274
100
AcDbEntity
  8
0
100
AcDbSpline
 62
7
  6
CONTINUOUS
 70
0
 71
3
 72
9
 73
5
 74
0
 42
0.0000001
 43
0.0000001
 44
0.0000000001
 40
0.0
 40
0.0
 40
0.0
 40
0.0
 40
0.4817089541
 40
1.0
 40
1.0
 40
1.0
 40
1.0
 10
232.0026852659
 20
257.440357498
 30
0.0
 10
224.8404472982
 20
252.8795105804
 30
0.0
 10
209.8467049456
 20
243.6076931455
 30
0.0
 10
194.6606175031
 20
234.6556770929
 30
0.0
 10
186.7486440963
 20
230.0877243836
 30
0.0
  0
SPLINE
  5
275
100
AcDbEntity
  8
0
100
AcDbSpline
 62
7
  6
CONTINUOUS
 70
0
 71
3
 72
11
 73
7
 74
0
 42
0.0000001
 43
0.0000001
 44
0.0000000001
 40
0.0
 40
0.0
 40
0.0
 40
0.0
 40
0.2187311576
 40
0.452223902
 40
0.7111638566
 40
1.0
 40
1.0
 40
1.0
 40
1.0
 10
81.4700717193
 20
304.4541501401
 30
0.0
 10
80.9851827431
 20
304.7340554517
 30
0.0
 10
79.8752897483
 20
305.1420261987
 30
0.0
 10
78.0317833866
 20
305.2054379243
 30
0.0
 10
76.0651027229
 20
304.756554786
 30
0.0
 10
74.7827333215
 20
304.167197854
 30
0.0
 10
74.1374345067
 20
303.8063797062
 30
0.0
  0
SPLINE
  5
276
100
AcDbEntity
  8
0
100
AcDbSpline
 62
7
  6
CONTINUOUS
 70
0
 71
3
 72
9
 73
5
 74
0
 42
0.0000001
 43
0.0000001
 44
0.0000000001
 40
0.0
 40
0.0
 40
0.0
 40
0.0
 40
0.2397594215
 40
1.0
 40
1.0
 40
1.0
 40
1.0
 10
174.9042243245
 20
126.4587906045
 30
0.0
 10
174.8785349256
 20
126.4439589116
 30
0.0
 10
174.7697817021
 20
126.384894698
 30
0.0
 10
174.6553885917
 20
126.3364641918
 30
0.0
 10
174.5667849995
 20
126.3048983238
 30
0.0
  0
SPLINE
  5
277
100
AcDbEntity
  8
0
100
AcDbSpline
 62
7
  6
CONTINUOUS
 70
0
 71
3
 72
9
 73
5
 74
0
 42
0.0000001
 43
0.0000001
 44
0.0000000001
 40
0.0
 40
0.0
 40
0.0
 40
0.0
 40
0.5474105004
 40
1.0
 40
1.0
 40
1.0
 40
1.0
 10
174.9042243245
 20
124.1317587157
 30
0.0
 10
175.0423126324
 20
124.2114835615
 30
0.0
 10
175.2800118534
 20
124.3908474399
 30
0.0
 10
175.4197587068
 20
124.6647668414
 30
0.0
 10
175.4392021313
 20
124.7951559526
 30
0.0
  0
SPLINE
  5
278
100
AcDbEntity
  8
0
100
AcDbSpline
 62
7
  6
CONTINUOUS
 70
0
 71
3
 72
9
 73
5
 74
0
 42
0.0000001
 43
0.0000001
 44
0.0000000001
 40
0.0
 40
0.0
 40
0.0
 40
0.0
 40
0.4812318418
 40
1.0
 40
1.0
 40
1.0
 40
1.0
 10
174.4283243887
 20
210.7141955301
 30
0.0
 10
173.5311791434
 20
210.1962315731
 30
0.0
 10
171.5723921852
 20
209.2802140924
 30
0.0
 10
169.5088608763
 20
208.6450425215
 30
0.0
 10
168.423917212
 20
208.3804748088
 30
0.0
  0
SPLINE
  5
279
100
AcDbEntity
  8
0
100
AcDbSpline
 62
7
  6
CONTINUOUS
 70
0
 71
3
 72
9
 73
5
 74
0
 42
0.0000001
 43
0.0000001
 44
0.0000000001
 40
0.0
 40
0.0
 40
0.0
 40
0.0
 40
0.2373745023
 40
1.0
 40
1.0
 40
1.0
 40
1.0
 10
175.035931474
 20
128.1542459458
 30
0.0
 10
175.0007562918
 20
128.175311418
 30
0.0
 10
174.849553048
 20
128.2589866102
 30
0.0
 10
174.6881788723
 20
128.323646114
 30
0.0
 10
174.5626890212
 20
128.3636922968
 30
0.0
  0
SPLINE
  5
27A
100
AcDbEntity
  8
0
100
AcDbSpline
 62
7
  6
CONTINUOUS
 70
0
 71
3
 72
9
 73
5
 74
0
 42
0.0000001
 43
0.0000001
 44
0.0000000001
 40
0.0
 40
0.0
 40
0.0
 40
0.0
 40
0.2436877147
 40
1.0
 40
1.0
 40
1.0
 40
1.0
 10
178.098040285
 20
213.703947415
 30
0.0
 10
178.0162917824
 20
213.6056455196
 30
0.0
 10
177.6732165024
 20
213.2086113646
 30
0.0
 10
177.30100108
 20
212.8370213773
 30
0.0
 10
177.0071430614
 20
212.5703762174
 30
0.0
  0
SPLINE
  5
27B
100
AcDbEntity
  8
0
100
AcDbSpline
 62
7
  6
CONTINUOUS
 70
0
 71
3
 72
9
 73
5
 74
0
 42
0.0000001
 43
0.0000001
 44
0.0000000001
 40
0.0
 40
0.0
 40
0.0
 40
0.0
 40
0.2436877147
 40
1.0
 40
1.0
 40
1.0
 40
1.0
 10
178.098040285
 20
131.5801343002
 30
0.0
 10
178.0162917825
 20
131.4818324047
 30
0.0
 10
177.6732165024
 20
131.0847982497
 30
0.0
 10
177.30100108
 20
130.7132082624
 30
0.0
 10
177.0071430614
 20
130.4465631025
 30
0.0
  0
SPLINE
  5
27C
100
AcDbEntity
  8
0
100
AcDbSpline
 62
7
  6
CONTINUOUS
 70
0
 71
3
 72
10
 73
6
 74
0
 42
0.0000001
 43
0.0000001
 44
0.0000000001
 40
0.0
 40
0.0
 40
0.0
 40
0.0
 40
0.2183467095
 40
0.4522461276
 40
1.0
 40
1.0
 40
1.0
 40
1.0
 10
175.4459919064
 20
127.214035922
 30
0.0
 10
175.446045233
 20
127.1436051836
 30
0.0
 10
175.4200353448
 20
126.9966862624
 30
0.0
 10
175.2638396329
 20
126.7097889459
 30
0.0
 10
175.0572387764
 20
126.5471330121
 30
0.0
 10
174.9042243245
 20
126.4587906045
 30
0.0
  0
SPLINE
  5
27D
100
AcDbEntity
  8
0
100
AcDbSpline
 62
7
  6
CONTINUOUS
 70
0
 71
3
 72
9
 73
5
 74
0
 42
0.0000001
 43
0.0000001
 44
0.0000000001
 40
0.0
 40
0.0
 40
0.0
 40
0.0
 40
0.4812318447
 40
1.0
 40
1.0
 40
1.0
 40
1.0
 10
174.4283243887
 20
128.5903824152
 30
0.0
 10
173.5311790866
 20
128.0724184254
 30
0.0
 10
171.572391985
 20
127.1564009752
 30
0.0
 10
169.5088606061
 20
126.5212292146
 30
0.0
 10
168.4239168806
 20
126.2566615111
 30
0.0
  0
SPLINE
  5
27E
100
AcDbEntity
  8
0
100
AcDbSpline
 62
7
  6
CONTINUOUS
 70
0
 71
3
 72
9
 73
5
 74
0
 42
0.0000001
 43
0.0000001
 44
0.0000000001
 40
0.0
 40
0.0
 40
0.0
 40
0.0
 40
0.2647650762
 40
1.0
 40
1.0
 40
1.0
 40
1.0
 10
175.035931474
 20
207.8285518093
 30
0.0
 10
175.0681931844
 20
207.8092311372
 30
0.0
 10
175.1876736737
 20
207.7325108763
 30
0.0
 10
175.2977121255
 20
207.6400642272
 30
0.0
 10
175.3678957617
 20
207.5627406399
 30
0.0
  0
SPLINE
  5
27F
100
AcDbEntity
  8
0
100
AcDbSpline
 62
7
  6
CONTINUOUS
 70
0
 71
3
 72
8
 73
4
 74
0
 42
0.0000001
 43
0.0000001
 44
0.0000000001
 40
0.0
 40
0.0
 40
0.0
 40
0.0
 40
1.0
 40
1.0
 40
1.0
 40
1.0
 10
175.7313634061
 20
206.6692438267
 30
0.0
 10
175.3259190487
 20
206.4441955833
 30
0.0
 10
174.9202689186
 20
206.2195176613
 30
0.0
 10
174.5144146754
 20
205.9952094535
 30
0.0
  0
ENDSEC
  0
SECTION
  2
OBJECTS
  0
DICTIONARY
  5
C
100
AcDbDictionary
280
0
281
1
  3
ACAD_GROUP
350
D
  3
ACAD_MLINESTYLE
350
17
  3
ACAD_LAYOUT
350
1A
  3
ACAD_PLOTSETTINGS
350
19
  3
ACAD_PLOTSTYLENAME
350
E
  0
DICTIONARY
  5
D
102
{ACAD_REACTORS
330
C
102
}
100
AcDbDictionary
280
0
281
1
  0
ACDBDICTIONARYWDFLT
  5
E
102
{ACAD_REACTORS
330
C
102
}
100
AcDbDictionary
281
1
  3
Normal
350
F
100
AcDbDictionaryWithDefault
340
F
  0
DICTIONARY
  5
17
102
{ACAD_REACTORS
330
C
102
}
100
AcDbDictionary
280
0
281
1
  3
Standard
350
18
  0
DICTIONARY
  5
19
102
{ACAD_REACTORS
330
C
102
}
100
AcDbDictionary
281
1
  0
DICTIONARY
  5
1A
102
{ACAD_REACTORS
330
C
102
}
100
AcDbDictionary
281
1
  3
Model
350
280
  3
Layout1
350
281
  0
ACDBPLACEHOLDER
  5
F
102
{ACAD_REACTORS
330
E
102
}
  0
MLINESTYLE
  5
18
102
{ACAD_REACTORS
330
17
102
}
100
AcDbMlineStyle
  2
STANDARD
 70
0
  3

 62
256
 51
90.0
 52
90.0
 71
2
 49
0.5
 62
256
  6
BYLAYER
 49
-0.5
 62
256
  6
BYLAYER
  0
LAYOUT
  5
280
102
{ACAD_REACTORS
330
1A
102
}
100
AcDbPlotSettings
  1

  2
none_device
  4

  6

 40
0.0
 41
0.0
 42
0.0
 43
0.0
 44
210.0
 45
297.0
 46
0.0
 47
0.0
 48
0.0
 49
0.0
140
0.0
141
0.0
142
1.0
143
1.0
 70
1024
 72
1
 73
0
 74
0
  7

 75
0
147
1.0
148
0.0
149
0.0
100
AcDbLayout
  1
Model
 70
0
 71
0
 10
0.0
 20
0.0
 11
210.0
 21
297.0
 12
0.0
 22
0.0
 32
0.0
 14
0.0
 24
0.0
 34
0.0
 15
0.0
 25
0.0
 35
0.0
146
0.0
 13
0.0
 23
0.0
 33
0.0
 16
1.0
 26
0.0
 36
0.0
 17
0.0
 27
1.0
 37
0.0
 76
0
330
210
345
0
346
0
  0
LAYOUT
  5
281
102
{ACAD_REACTORS
330
1A
102
}
100
AcDbPlotSettings
  1

  2
none_device
  4

  6

 40
0.0
 41
0.0
 42
0.0
 43
0.0
 44
210.0
 45
297.0
 46
0.0
 47
0.0
 48
0.0
 49
0.0
140
0.0
141
0.0
142
1.0
143
1.0
 70
0
 72
1
 73
0
 74
0
  7

 75
0
147
1.0
148
0.0
149
0.0
100
AcDbLayout
  1
Layout1
 70
0
 71
1
 10
0.0
 20
0.0
 11
210.0
 21
297.0
 12
0.0
 22
0.0
 32
0.0
 14
0.0
 24
0.0
 34
0.0
 15
0.0
 25
0.0
 35
0.0
146
0.0
 13
0.0
 23
0.0
 33
0.0
 16
1.0
 26
0.0
 36
0.0
 17
0.0
 27
1.0
 37
0.0
 76
0
330
211
345
0
346
0
  0
ENDSEC
  0
EOF
