999
DXF file: C:\Users\sesa63760\Dev\_Creo\CAD\MCADFD0002809_3D-CAD\drw0001_1.dxf
999
Pro/ENGINEER 2019471 by Parametric Technology Corporation
  0
SECTION
  2
HEADER
  9
$ACADVER
  1
AC1024
  9
$DWGCODEPAGE
  3
ANSI_1252
  9
$EXTMAX
 10
323.0454590068
 20
456.8785777382
 30
0.0
  9
$EXTMIN
 10
0.0
 20
0.0
 30
0.0
  9
$LIMMIN
 10
0.0
 20
0.0
  9
$LIMMAX
 10
323.0454590068
 20
456.8785777382
  9
$VIEWCTR
 10
161.5227295034
 20
228.4392888691
  9
$VIEWSIZE
 40
456.8785777382
  9
$CLAYER
  8
0
  9
$LTSCALE
 40
29.781714697
  9
$CELTYPE
  6
BYLAYER
  9
$DIMSCALE
 40
1.0
  9
$DIMASZ
 40
3.8457792739
  9
$DIMEXO
 40
1.0
  9
$DIMDLI
 40
20.576457427
  9
$DIMEXE
 40
1.0
  9
$DIMCEN
 40
4.8733714959
  9
$DIMLFAC
 40
1.0
  9
$DIMBLK
  1
_FILLED
  9
$DIMALT
 70
0
  9
$DIMALTF
 40
0.0393700787
  9
$DIMTXT
 40
5.3840909834
  9
$DIMTOL
 70
1
  9
$DIMLIM
 70
0
  9
$DIMTFAC
 40
1.0
  9
$DIMTP
 40
0.01
  9
$DIMTM
 40
0.01
  9
$DIMGAP
 40
0.625
  9
$DIMDSEP
 70
46
  9
$AUNITS
 70
0
  9
$PDMODE
 70
3
  9
$PDSIZE
 40
0.3125
  9
$HANDSEED
  5
27A
  9
$TILEMODE
 70
1
  9
$MEASUREMENT
 70
1
  9
$INSUNITS
 70
4
  0
ENDSEC
  0
SECTION
  2
CLASSES
  0
CLASS
  1
ACDBDICTIONARYWDFLT
  2
AcDbDictionaryWithDefault
  3
AutoCAD 2000
 90
0
 91
1
280
0
281
0
  0
CLASS
  1
ACDBPLACEHOLDER
  2
AcDbPlaceHolder
  3
AutoCAD 2000
 90
0
 91
1
280
0
281
0
  0
CLASS
  1
LAYOUT
  2
AcDbLayout
  3
AutoCAD 2000
 90
0
 91
0
280
0
281
0
  0
ENDSEC
  0
SECTION
  2
TABLES
  0
TABLE
  2
VPORT
  5
8
100
AcDbSymbolTable
 70
2
  0
VPORT
  5
1F4
100
AcDbSymbolTableRecord
100
AcDbViewportTableRecord
  2
*ACTIVE
 70
0
 10
0.0
 20
0.0
 11
1.0
 21
1.0
 12
161.5227295034
 22
228.4392888691
 13
0.0
 23
0.0
 14
1.0
 24
1.0
 15
0.0
 25
0.0
 16
0.0
 26
0.0
 36
1.0
 17
0.0
 27
0.0
 37
0.0
 40
456.8785777382
 41
0.7070707071
 42
50.0
 43
0.0
 44
0.0
 50
0.0
 51
0.0
 71
0
 72
100
 73
1
 74
1
 75
0
 76
0
 77
0
 78
0
  0
ENDTAB
  0
TABLE
  2
LTYPE
  5
5
100
AcDbSymbolTable
 70
6
  0
LTYPE
  5
14
100
AcDbSymbolTableRecord
100
AcDbLinetypeTableRecord
  2
BYBLOCK
 70
0
  3

 72
65
 73
0
 40
0.0
  0
LTYPE
  5
15
100
AcDbSymbolTableRecord
100
AcDbLinetypeTableRecord
  2
BYLAYER
 70
0
  3

 72
65
 73
0
 40
0.0
  0
LTYPE
  5
16
100
AcDbSymbolTableRecord
100
AcDbLinetypeTableRecord
  2
CONTINUOUS
 70
64
  3
Solid line
 72
65
 73
0
 40
0.0
  0
LTYPE
  5
1F5
100
AcDbSymbolTableRecord
100
AcDbLinetypeTableRecord
  2
CENTER
 70
64
  3
____ _ ____ _ ____ _ ____ _ ____ _ ____ _ ____
 72
65
 73
4
 40
0.6
 49
0.375
 74
0
 49
-0.075
 74
0
 49
0.075
 74
0
 49
-0.075
 74
0
  0
LTYPE
  5
1F6
100
AcDbSymbolTableRecord
100
AcDbLinetypeTableRecord
  2
HIDDEN
 70
64
  3
- - - - - - - - - - - - - - - - - - - -
 72
65
 73
2
 40
0.2
 49
0.1
 74
0
 49
-0.1
 74
0
  0
LTYPE
  5
1F7
100
AcDbSymbolTableRecord
100
AcDbLinetypeTableRecord
  2
PHANTOM
 70
64
  3
_____ _ _ _____ _ _ _____ _ _ _____
 72
65
 73
6
 40
0.8
 49
0.45
 74
0
 49
-0.05
 74
0
 49
0.1
 74
0
 49
-0.05
 74
0
 49
0.1
 74
0
 49
-0.05
 74
0
  0
LTYPE
  5
1F8
100
AcDbSymbolTableRecord
100
AcDbLinetypeTableRecord
  2
DOT
 70
64
  3
. . . . . . . . . . . . . . . . . . . .
 72
65
 73
2
 40
0.2
 49
0.1
 74
0
 49
-0.1
 74
0
  0
LTYPE
  5
1F9
100
AcDbSymbolTableRecord
100
AcDbLinetypeTableRecord
  2
DASHED
 70
64
  3
- - - - - - - - - - - - - - - - - - - -
 72
65
 73
2
 40
0.2
 49
0.1
 74
0
 49
-0.1
 74
0
  0
ENDTAB
  0
TABLE
  2
LAYER
  5
2
100
AcDbSymbolTable
 70
36
  0
LAYER
  5
10
100
AcDbSymbolTableRecord
100
AcDbLayerTableRecord
  2
0
 70
0
 62
7
  6
CONTINUOUS
370
-3
390
F
  0
LAYER
  5
1FA
100
AcDbSymbolTableRecord
100
AcDbLayerTableRecord
  2
DEFAULT_1
 70
0
 62
7
  6
CENTER
370
-3
390
F
  0
LAYER
  5
1FB
100
AcDbSymbolTableRecord
100
AcDbLayerTableRecord
  2
DEFAULT_2
 70
0
 62
8
  6
HIDDEN
370
-3
390
F
  0
LAYER
  5
1FC
100
AcDbSymbolTableRecord
100
AcDbLayerTableRecord
  2
DEFAULT_3
 70
0
 62
7
  6
PHANTOM
370
-3
390
F
  0
LAYER
  5
1FD
100
AcDbSymbolTableRecord
100
AcDbLayerTableRecord
  2
00_COMPONENTS
 70
0
 62
7
  6
CONTINUOUS
370
-3
390
F
  0
LAYER
  5
1FE
100
AcDbSymbolTableRecord
100
AcDbLayerTableRecord
  2
01_1_DEFAULT_DATUMS
 70
0
 62
7
  6
CONTINUOUS
370
-3
390
F
  0
LAYER
  5
1FF
100
AcDbSymbolTableRecord
100
AcDbLayerTableRecord
  2
01_PLANES
 70
0
 62
7
  6
CONTINUOUS
370
-3
390
F
  0
LAYER
  5
200
100
AcDbSymbolTableRecord
100
AcDbLayerTableRecord
  2
02_COORD_SYS
 70
0
 62
7
  6
CONTINUOUS
370
-3
390
F
  0
LAYER
  5
201
100
AcDbSymbolTableRecord
100
AcDbLayerTableRecord
  2
03_AXES
 70
0
 62
7
  6
CONTINUOUS
370
-3
390
F
  0
LAYER
  5
202
100
AcDbSymbolTableRecord
100
AcDbLayerTableRecord
  2
04_POINTS
 70
0
 62
7
  6
CONTINUOUS
370
-3
390
F
  0
LAYER
  5
203
100
AcDbSymbolTableRecord
100
AcDbLayerTableRecord
  2
05_CURVES
 70
0
 62
7
  6
CONTINUOUS
370
-3
390
F
  0
LAYER
  5
204
100
AcDbSymbolTableRecord
100
AcDbLayerTableRecord
  2
06_SURFS
 70
0
 62
7
  6
CONTINUOUS
370
-3
390
F
  0
LAYER
  5
205
100
AcDbSymbolTableRecord
100
AcDbLayerTableRecord
  2
07_COSMETICS
 70
0
 62
7
  6
CONTINUOUS
370
-3
390
F
  0
LAYER
  5
206
100
AcDbSymbolTableRecord
100
AcDbLayerTableRecord
  2
10_NOTES
 70
0
 62
7
  6
CONTINUOUS
370
-3
390
F
  0
LAYER
  5
207
100
AcDbSymbolTableRecord
100
AcDbLayerTableRecord
  2
11_NOTES_PUB
 70
0
 62
7
  6
CONTINUOUS
370
-3
390
F
  0
LAYER
  5
208
100
AcDbSymbolTableRecord
100
AcDbLayerTableRecord
  2
13_REF_GTOL
 70
0
 62
7
  6
CONTINUOUS
370
-3
390
F
  0
LAYER
  5
209
100
AcDbSymbolTableRecord
100
AcDbLayerTableRecord
  2
16_MISC
 70
0
 62
7
  6
CONTINUOUS
370
-3
390
F
  0
LAYER
  5
20A
100
AcDbSymbolTableRecord
100
AcDbLayerTableRecord
  2
17_NO_PRINT
 70
0
 62
7
  6
CONTINUOUS
370
-3
390
F
  0
LAYER
  5
20B
100
AcDbSymbolTableRecord
100
AcDbLayerTableRecord
  2
18_DATUM_CAMS_JOINTS
 70
0
 62
7
  6
CONTINUOUS
370
-3
390
F
  0
LAYER
  5
20C
100
AcDbSymbolTableRecord
100
AcDbLayerTableRecord
  2
19_DATUM_FUNCTIONAL
 70
0
 62
7
  6
CONTINUOUS
370
-3
390
F
  0
LAYER
  5
20D
100
AcDbSymbolTableRecord
100
AcDbLayerTableRecord
  2
20_DATUM_KINEMATIC_SCHEME
 70
0
 62
7
  6
CONTINUOUS
370
-3
390
F
  0
ENDTAB
  0
TABLE
  2
STYLE
  5
3
100
AcDbSymbolTable
 70
1
  0
STYLE
  5
11
100
AcDbSymbolTableRecord
100
AcDbTextStyleTableRecord
  2
STANDARD
 70
0
 40
0.0
 41
0.8
 50
0.0
 71
0
 42
0.2
  3
txt
  4

  0
STYLE
  5
20E
100
AcDbSymbolTableRecord
100
AcDbTextStyleTableRecord
  2
TEXTSTYLE_1
 70
0
 40
0.0
 41
0.8
 50
0.0
 71
0
 42
0.2
  3
gdt
  4

  0
ENDTAB
  0
TABLE
  2
VIEW
  5
6
100
AcDbSymbolTable
 70
0
  0
ENDTAB
  0
TABLE
  2
UCS
  5
7
100
AcDbSymbolTable
 70
0
  0
ENDTAB
  0
TABLE
  2
APPID
  5
9
100
AcDbSymbolTable
 70
1
  0
APPID
  5
20F
100
AcDbSymbolTableRecord
100
AcDbRegAppTableRecord
  2
ACAD
 70
0
  0
ENDTAB
  0
TABLE
  2
BLOCK_RECORD
  5
1
100
AcDbSymbolTable
 70
0
  0
BLOCK_RECORD
  5
210
100
AcDbSymbolTableRecord
100
AcDbBlockTableRecord
  2
*Model_Space
  0
BLOCK_RECORD
  5
211
100
AcDbSymbolTableRecord
100
AcDbBlockTableRecord
  2
*Paper_Space
  0
BLOCK_RECORD
  5
212
100
AcDbSymbolTableRecord
100
AcDbBlockTableRecord
  2
_FILLED
  0
ENDTAB
  0
TABLE
  2
DIMSTYLE
  5
A
100
AcDbSymbolTable
 70
1
100
AcDbDimStyleTable
 71
0
  0
DIMSTYLE
105
213
100
AcDbSymbolTableRecord
100
AcDbDimStyleTableRecord
  2
STANDARD
 70
0
  3

  4

 40
1.0
 41
3.8457792739
 42
1.0
 43
0.38
 44
1.0
 45
0.0
 46
0.0
 47
0.01
 48
0.01
140
5.3840909834
141
0.09
142
0.0
143
25.4
144
1.0
145
0.0
146
1.0
147
0.625
 71
1
 72
0
 73
0
 74
0
 75
0
 76
0
 77
1
 78
8
 79
2
170
0
171
1
172
0
173
0
174
0
175
0
176
0
177
0
178
0
270
2
179
2
271
2
272
2
273
2
274
2
275
0
280
0
281
0
282
0
283
1
284
8
285
0
286
0
287
3
288
0
340
11
278
46
341
212
342
212
343
212
344
212
  0
ENDTAB
  0
ENDSEC
  0
SECTION
  2
BLOCKS
  0
BLOCK
  5
20
100
AcDbEntity
  8
0
100
AcDbBlockBegin
  2
*Model_Space
 70
0
 10
0.0
 20
0.0
 30
0.0
  3
*Model_Space
  1

  0
ENDBLK
  5
21
100
AcDbEntity
  8
0
100
AcDbBlockEnd
  0
BLOCK
  5
1C
100
AcDbEntity
  8
0
100
AcDbBlockBegin
  2
*Paper_Space
 70
0
 10
0.0
 20
0.0
 30
0.0
  3
*Paper_Space
  1

  0
ENDBLK
  5
1D
100
AcDbEntity
  8
0
100
AcDbBlockEnd
  0
BLOCK
  5
214
100
AcDbEntity
  8
0
100
AcDbBlockBegin
  2
_FILLED
 70
64
 10
0.0
 20
0.0
  3
_FILLED
  1

  0
SOLID
  5
215
100
AcDbEntity
  8
0
  6
BYBLOCK
 62
0
100
AcDbTrace
 10
0.0
 20
0.0
 11
-1.0
 21
0.25
 12
-1.0
 22
-0.25
 13
-1.0
 23
-0.25
  0
ENDBLK
  5
216
100
AcDbEntity
  8
0
  6
BYBLOCK
 62
0
100
AcDbBlockEnd
  0
ENDSEC
  0
SECTION
  2
ENTITIES
  0
LINE
  5
217
100
AcDbEntity
  8
0
100
AcDbLine
 62
7
  6
CONTINUOUS
 10
111.687289049
 20
392.0422819075
 11
110.9800871881
 21
391.63398116
  0
LINE
  5
218
100
AcDbEntity
  8
0
100
AcDbLine
 62
7
  6
CONTINUOUS
 10
122.2939905264
 20
383.469237767
 11
124.4152641017
 21
384.6939483262
  0
LINE
  5
219
100
AcDbEntity
  8
0
100
AcDbLine
 62
7
  6
CONTINUOUS
 10
124.3445537179
 20
383.7935107477
 11
89.2910262033
 21
364.261992915
  0
LINE
  5
21A
100
AcDbEntity
  8
0
100
AcDbLine
 62
7
  6
CONTINUOUS
 10
37.4769899711
 20
248.4800913783
 11
37.4769903375
 21
358.6485595755
  0
LINE
  5
21B
100
AcDbEntity
  8
0
100
AcDbLine
 62
7
  6
CONTINUOUS
 10
233.4645876929
 20
155.6952694273
 11
233.9958632797
 21
155.668435516
  0
LINE
  5
21C
100
AcDbEntity
  8
0
100
AcDbLine
 62
7
  6
CONTINUOUS
 10
233.9958632797
 20
155.6847655644
 11
234.6910151623
 21
155.6496545138
  0
LINE
  5
21D
100
AcDbEntity
  8
0
100
AcDbLine
 62
7
  6
CONTINUOUS
 10
234.6910151623
 20
161.3651714337
 11
233.9958632797
 21
161.4002824843
  0
LINE
  5
21E
100
AcDbEntity
  8
0
100
AcDbLine
 62
7
  6
CONTINUOUS
 10
122.293952654
 20
385.1022207272
 11
122.2939905264
 21
383.469237767
  0
LINE
  5
21F
100
AcDbEntity
  8
0
100
AcDbLine
 62
7
  6
CONTINUOUS
 10
124.4152641017
 20
384.6939483262
 11
124.4152641017
 21
383.7935107477
  0
LINE
  5
220
100
AcDbEntity
  8
0
100
AcDbLine
 62
7
  6
CONTINUOUS
 10
235.9671705693
 20
157.3618353081
 11
236.5827450092
 21
157.1129858633
  0
LINE
  5
221
100
AcDbEntity
  8
0
100
AcDbLine
 62
7
  6
CONTINUOUS
 10
277.1510035649
 20
295.6974794612
 11
277.8580744586
 21
296.1057045953
  0
LINE
  5
222
100
AcDbEntity
  8
0
100
AcDbLine
 62
7
  6
CONTINUOUS
 10
290.5860495112
 20
288.7573710139
 11
289.8723963975
 21
288.345345656
  0
LINE
  5
223
100
AcDbEntity
  8
0
100
AcDbLine
 62
7
  6
CONTINUOUS
 10
233.4645876929
 20
237.8354125905
 11
234.6910151623
 21
237.7734676287
  0
LINE
  5
224
100
AcDbEntity
  8
0
100
AcDbLine
 62
7
  6
CONTINUOUS
 10
232.91413894
 20
238.7362014158
 11
232.3041630767
 21
238.3840337891
  0
LINE
  5
225
100
AcDbEntity
  8
0
100
AcDbLine
 62
7
  6
CONTINUOUS
 10
234.6910151623
 20
243.4889845486
 11
233.9958632797
 21
243.5240955992
  0
LINE
  5
226
100
AcDbEntity
  8
0
100
AcDbLine
 62
7
  6
CONTINUOUS
 10
232.0353757377
 20
160.3143062078
 11
232.3041630767
 21
159.735167908
  0
LINE
  5
227
100
AcDbEntity
  8
0
100
AcDbLine
 62
7
  6
CONTINUOUS
 10
225.4506357892
 20
139.7669108099
 11
225.450635122
 21
249.9283857638
  0
LINE
  5
228
100
AcDbEntity
  8
0
100
AcDbLine
 62
7
  6
CONTINUOUS
 10
226.2869996367
 20
151.457506148
 11
226.2869996367
 21
157.1730230679
  0
LINE
  5
229
100
AcDbEntity
  8
0
100
AcDbLine
 62
7
  6
CONTINUOUS
 10
226.2869996367
 20
233.5813192629
 11
226.2869996367
 21
239.2968361828
  0
LINE
  5
22A
100
AcDbEntity
  8
0
100
AcDbLine
 62
7
  6
CONTINUOUS
 10
232.3041630767
 20
241.8589810229
 11
232.3041630767
 21
236.143464103
  0
LINE
  5
22B
100
AcDbEntity
  8
0
100
AcDbLine
 62
7
  6
CONTINUOUS
 10
232.3041630767
 20
159.735167908
 11
232.3041630767
 21
154.0196509881
  0
LINE
  5
22C
100
AcDbEntity
  8
0
100
AcDbLine
 62
7
  6
CONTINUOUS
 10
232.91413894
 20
159.0618955523
 11
232.91413894
 21
160.8002443059
  0
LINE
  5
22D
100
AcDbEntity
  8
0
100
AcDbLine
 62
7
  6
CONTINUOUS
 10
232.91413894
 20
238.7362014158
 11
232.91413894
 21
240.7589662107
  0
LINE
  5
22E
100
AcDbEntity
  8
0
100
AcDbLine
 62
7
  6
CONTINUOUS
 10
233.322197571
 20
155.7959019826
 11
233.322197571
 21
158.1229338714
  0
LINE
  5
22F
100
AcDbEntity
  8
0
100
AcDbLine
 62
7
  6
CONTINUOUS
 10
233.322197571
 20
241.3245301769
 11
233.322197571
 21
243.157255646
  0
LINE
  5
230
100
AcDbEntity
  8
0
100
AcDbLine
 62
7
  6
CONTINUOUS
 10
233.4645876929
 20
243.2351702977
 11
233.4645876929
 21
237.8354125906
  0
LINE
  5
231
100
AcDbEntity
  8
0
100
AcDbLine
 62
7
  6
CONTINUOUS
 10
233.4645876929
 20
161.1053110771
 11
233.4645876929
 21
155.6952694273
  0
LINE
  5
232
100
AcDbEntity
  8
0
100
AcDbLine
 62
7
  6
CONTINUOUS
 10
234.6910151623
 20
155.6496545138
 11
234.6910151623
 21
161.3651714337
  0
LINE
  5
233
100
AcDbEntity
  8
0
100
AcDbLine
 62
7
  6
CONTINUOUS
 10
234.6910151623
 20
237.7734676287
 11
234.6910151623
 21
243.4889845486
  0
LINE
  5
234
100
AcDbEntity
  8
0
100
AcDbLine
 62
7
  6
CONTINUOUS
 10
244.6113544215
 20
261.0043733589
 11
55.8390418326
 21
369.9896532711
  0
LINE
  5
235
100
AcDbEntity
  8
0
100
AcDbLine
 62
7
  6
CONTINUOUS
 10
232.0353757377
 20
242.4381193227
 11
232.3041630767
 21
241.8589810229
  0
LINE
  5
236
100
AcDbEntity
  8
0
100
AcDbLine
 62
7
  6
CONTINUOUS
 10
235.9671705693
 20
156.7680365208
 11
235.9671705693
 21
244.623696604
  0
LINE
  5
237
100
AcDbEntity
  8
0
100
AcDbLine
 62
7
  6
CONTINUOUS
 10
236.5827450092
 20
157.1129858633
 11
236.5827450092
 21
244.9686459464
  0
LINE
  5
238
100
AcDbEntity
  8
0
100
AcDbLine
 62
7
  6
CONTINUOUS
 10
244.6113604751
 20
261.0043735966
 11
244.6113604751
 21
74.8416938389
  0
LINE
  5
239
100
AcDbEntity
  8
0
100
AcDbLine
 62
7
  6
CONTINUOUS
 10
81.1016605339
 20
364.1086119026
 11
234.5444708908
 21
275.5203681717
  0
LINE
  5
23A
100
AcDbEntity
  8
0
100
AcDbLine
 62
7
  6
CONTINUOUS
 10
88.4343983867
 20
364.756556027
 11
238.9028597161
 21
277.8855146594
  0
LINE
  5
23B
100
AcDbEntity
  8
0
100
AcDbLine
 62
7
  6
CONTINUOUS
 10
233.322139225
 20
158.1229339531
 11
232.7803505625
 21
157.3676884755
  0
LINE
  5
23C
100
AcDbEntity
  8
0
100
AcDbLine
 62
7
  6
CONTINUOUS
 10
233.4645876929
 20
161.1053110771
 11
233.9958632797
 21
161.4002824842
  0
LINE
  5
23D
100
AcDbEntity
  8
0
100
AcDbLine
 62
7
  6
CONTINUOUS
 10
232.7803505625
 20
155.0406565867
 11
233.3221687158
 21
155.7959019967
  0
LINE
  5
23E
100
AcDbEntity
  8
0
100
AcDbLine
 62
7
  6
CONTINUOUS
 10
289.8654930761
 20
107.9100945582
 11
289.8658380324
 21
288.3567051453
  0
LINE
  5
23F
100
AcDbEntity
  8
0
100
AcDbLine
 62
7
  6
CONTINUOUS
 10
124.3445537179
 20
383.7935107477
 11
275.6183205302
 21
296.457536561
  0
LINE
  5
240
100
AcDbEntity
  8
0
100
AcDbLine
 62
7
  6
CONTINUOUS
 10
289.8658380324
 20
288.3567051453
 11
275.7367629469
 21
296.5139762258
  0
LINE
  5
241
100
AcDbEntity
  8
0
100
AcDbLine
 62
7
  6
CONTINUOUS
 10
122.29395259
 20
385.1022199567
 11
108.1652224606
 21
393.2590689231
  0
LINE
  5
242
100
AcDbEntity
  8
0
100
AcDbLine
 62
7
  6
CONTINUOUS
 10
290.5860495112
 20
288.7573710139
 11
277.8580744586
 21
296.1057045953
  0
LINE
  5
243
100
AcDbEntity
  8
0
100
AcDbLine
 62
7
  6
CONTINUOUS
 10
124.4152641017
 20
384.6939483262
 11
111.687289049
 21
392.0422819075
  0
LINE
  5
244
100
AcDbEntity
  8
0
100
AcDbLine
 62
7
  6
CONTINUOUS
 10
290.5860495112
 20
288.7573710139
 11
290.5860495112
 21
111.5763464968
  0
LINE
  5
245
100
AcDbEntity
  8
0
100
AcDbLine
 62
7
  6
CONTINUOUS
 10
290.5860495112
 20
111.5763464968
 11
289.8654992896
 21
111.1603391156
  0
ARC
  5
246
100
AcDbEntity
  8
0
100
AcDbCircle
 62
7
  6
CONTINUOUS
 10
-140.5710068954
 20
917.4571439791
 40
771.0293120414
100
AcDbArc
 50
298.4116416639
 51
298.8984296315
  0
ARC
  5
247
100
AcDbEntity
  8
0
100
AcDbCircle
 62
7
  6
CONTINUOUS
 10
-140.5710068943
 20
835.3333308621
 40
771.029312039
100
AcDbArc
 50
298.4116416639
 51
298.8984296315
  0
ARC
  5
248
100
AcDbEntity
  8
0
100
AcDbCircle
 62
7
  6
CONTINUOUS
 10
-136.707811055
 20
828.3110219936
 40
763.0145150039
100
AcDbArc
 50
298.8992892454
 51
299.0219536784
  0
ARC
  5
249
100
AcDbEntity
  8
0
100
AcDbCircle
 62
7
  6
CONTINUOUS
 10
-134.5616010045
 20
824.4476971143
 40
758.5950688788
100
AcDbArc
 50
299.0676629633
 51
299.2381503766
  0
ARC
  5
24A
100
AcDbEntity
  8
0
100
AcDbCircle
 62
7
  6
CONTINUOUS
 10
55.9291015421
 20
401.6925187137
 40
377.4022476846
100
AcDbArc
 50
296.7681716927
 51
299.9966929938
  0
ARC
  5
24B
100
AcDbEntity
  8
0
100
AcDbCircle
 62
7
  6
CONTINUOUS
 10
237.8032527849
 20
54.8414230778
 40
363.9084814317
100
AcDbArc
 50
120.001812069
 51
123.4003116062
  0
ARC
  5
24C
100
AcDbEntity
  8
0
100
AcDbCircle
 62
7
  6
CONTINUOUS
 10
114.7189794595
 20
300.0975642004
 40
260.0238975318
100
AcDbArc
 50
299.9695823077
 51
312.3439353656
  0
ARC
  5
24D
100
AcDbEntity
  8
0
100
AcDbCircle
 62
7
  6
CONTINUOUS
 10
247.6631673673
 20
129.3017116121
 40
29.6937260159
100
AcDbArc
 50
118.2767683604
 51
118.4256522501
  0
ARC
  5
24E
100
AcDbEntity
  8
0
100
AcDbCircle
 62
7
  6
CONTINUOUS
 10
220.9360607136
 20
261.296283685
 40
22.517603916
100
AcDbArc
 50
299.9995909118
 51
300.3216609079
  0
ARC
  5
24F
100
AcDbEntity
  8
0
100
AcDbCircle
 62
7
  6
CONTINUOUS
 10
220.9360607172
 20
179.1724705638
 40
22.5176039088
100
AcDbArc
 50
299.9995909118
 51
300.321660908
  0
ARC
  5
250
100
AcDbEntity
  8
0
100
AcDbCircle
 62
7
  6
CONTINUOUS
 10
220.9360607223
 20
255.5807667501
 40
22.5176038986
100
AcDbArc
 50
299.9995909117
 51
300.321660908
  0
ARC
  5
251
100
AcDbEntity
  8
0
100
AcDbCircle
 62
7
  6
CONTINUOUS
 10
220.9360607223
 20
173.4569536352
 40
22.5176038986
100
AcDbArc
 50
299.9995909117
 51
300.321660908
  0
ARC
  5
252
100
AcDbEntity
  8
0
100
AcDbCircle
 62
7
  6
CONTINUOUS
 10
239.4852523682
 20
232.2035460879
 40
12.5686858612
100
AcDbArc
 50
118.6269256811
 51
119.2889833102
  0
ARC
  5
253
100
AcDbEntity
  8
0
100
AcDbCircle
 62
7
  6
CONTINUOUS
 10
231.5599888492
 20
156.4948260051
 40
2.9135907086
100
AcDbArc
 50
74.3142670551
 51
77.3079829396
  0
LINE
  5
254
100
AcDbEntity
  8
0
100
AcDbLine
 62
7
  6
CONTINUOUS
 10
37.4769946009
 20
248.4800065897
 11
37.9013339717
 21
173.4587915291
  0
SPLINE
  5
255
100
AcDbEntity
  8
0
100
AcDbSpline
 62
7
  6
CONTINUOUS
 70
0
 71
3
 72
9
 73
5
 74
0
 42
0.0000001
 43
0.0000001
 44
0.0000000001
 40
0.0
 40
0.0
 40
0.0
 40
0.0
 40
0.5034944915
 40
1.0
 40
1.0
 40
1.0
 40
1.0
 10
108.1649942857
 20
393.259121426
 30
0.0
 10
99.0203011231
 20
390.2597474394
 30
0.0
 10
81.1380068533
 20
383.4056792647
 30
0.0
 10
64.0578401701
 20
374.7353067609
 30
0.0
 10
55.8388794732
 20
369.9901160105
 30
0.0
  0
SPLINE
  5
256
100
AcDbEntity
  8
0
100
AcDbSpline
 62
7
  6
CONTINUOUS
 70
0
 71
3
 72
9
 73
5
 74
0
 42
0.0000001
 43
0.0000001
 44
0.0000000001
 40
0.0
 40
0.0
 40
0.0
 40
0.0
 40
0.2457836706
 40
1.0
 40
1.0
 40
1.0
 40
1.0
 10
275.7367630109
 20
296.5139769984
 30
0.0
 10
272.2949341242
 20
294.9310806799
 30
0.0
 10
258.3584385991
 20
288.3458467362
 30
0.0
 10
244.6910868692
 20
281.1938377328
 30
0.0
 10
234.5444708909
 20
275.5203681717
 30
0.0
  0
LINE
  5
257
100
AcDbEntity
  8
0
100
AcDbLine
 62
7
  6
CONTINUOUS
 10
236.5827450092
 20
244.9686459464
 11
235.9671705693
 21
244.623696604
  0
SPLINE
  5
258
100
AcDbEntity
  8
0
100
AcDbSpline
 62
7
  6
CONTINUOUS
 70
0
 71
3
 72
8
 73
4
 74
0
 42
0.0000001
 43
0.0000001
 44
0.0000000001
 40
0.0
 40
0.0
 40
0.0
 40
0.0
 40
1.0
 40
1.0
 40
1.0
 40
1.0
 10
233.9958632797
 20
243.5240955992
 30
0.0
 10
233.8194884775
 20
243.42605669
 30
0.0
 10
233.6406198938
 20
243.3325684664
 30
0.0
 10
233.463539595
 20
243.2358096614
 30
0.0
  0
SPLINE
  5
259
100
AcDbEntity
  8
0
100
AcDbSpline
 62
7
  6
CONTINUOUS
 70
0
 71
3
 72
9
 73
5
 74
0
 42
0.0000001
 43
0.0000001
 44
0.0000000001
 40
0.0
 40
0.0
 40
0.0
 40
0.0
 40
0.4960420982
 40
1.0
 40
1.0
 40
1.0
 40
1.0
 10
233.3364656884
 20
243.1654932983
 30
0.0
 10
233.1215395399
 20
243.0448094255
 30
0.0
 10
232.6971828348
 20
242.7856993897
 30
0.0
 10
232.254614973
 20
242.5591425233
 30
0.0
 10
232.0353757377
 20
242.4381193227
 30
0.0
  0
SPLINE
  5
25A
100
AcDbEntity
  8
0
100
AcDbSpline
 62
7
  6
CONTINUOUS
 70
0
 71
3
 72
9
 73
5
 74
0
 42
0.0000001
 43
0.0000001
 44
0.0000000001
 40
0.0
 40
0.0
 40
0.0
 40
0.0
 40
0.2528955856
 40
1.0
 40
1.0
 40
1.0
 40
1.0
 10
225.8959875847
 20
64.7388714404
 30
0.0
 10
209.8260217229
 20
73.5104151159
 30
0.0
 10
146.4940292118
 20
108.5811987923
 30
0.0
 10
84.016723748
 20
145.1989079235
 30
0.0
 10
37.9013237813
 20
173.4587852353
 30
0.0
  0
SPLINE
  5
25B
100
AcDbEntity
  8
0
100
AcDbSpline
 62
7
  6
CONTINUOUS
 70
0
 71
3
 72
9
 73
5
 74
0
 42
0.0000001
 43
0.0000001
 44
0.0000000001
 40
0.0
 40
0.0
 40
0.0
 40
0.0
 40
0.2617459115
 40
1.0
 40
1.0
 40
1.0
 40
1.0
 10
226.2869996363
 20
233.5813192628
 30
0.0
 10
226.8237072636
 20
233.7422718687
 30
0.0
 10
228.8576785611
 20
234.4091293811
 30
0.0
 10
230.8260653738
 20
235.2896789706
 30
0.0
 10
232.1947234367
 20
236.0798693548
 30
0.0
  0
SPLINE
  5
25C
100
AcDbEntity
  8
0
100
AcDbSpline
 62
7
  6
CONTINUOUS
 70
0
 71
3
 72
11
 73
7
 74
0
 42
0.0000001
 43
0.0000001
 44
0.0000000001
 40
0.0
 40
0.0
 40
0.0
 40
0.0
 40
0.3027043316
 40
0.5682962359
 40
0.7965379949
 40
1.0
 40
1.0
 40
1.0
 40
1.0
 10
232.3661789958
 20
240.3895110891
 30
0.0
 10
232.5026604663
 20
240.4330541451
 30
0.0
 10
232.7530420439
 20
240.5366751964
 30
0.0
 10
233.0641817457
 20
240.756330773
 30
0.0
 10
233.2707229294
 20
241.0221053104
 30
0.0
 10
233.3221239733
 20
241.2282387871
 30
0.0
 10
233.3221675622
 20
241.324530091
 30
0.0
  0
SPLINE
  5
25D
100
AcDbEntity
  8
0
100
AcDbSpline
 62
7
  6
CONTINUOUS
 70
0
 71
3
 72
9
 73
5
 74
0
 42
0.0000001
 43
0.0000001
 44
0.0000000001
 40
0.0
 40
0.0
 40
0.0
 40
0.0
 40
0.2553036271
 40
1.0
 40
1.0
 40
1.0
 40
1.0
 10
234.6910151623
 20
237.7734676287
 30
0.0
 10
234.804487279
 20
237.8643215703
 30
0.0
 10
235.2444827011
 20
238.2257071532
 30
0.0
 10
235.6661585559
 20
238.6095563118
 30
0.0
 10
235.9671705695
 20
238.9081796842
 30
0.0
  0
SPLINE
  5
25E
100
AcDbEntity
  8
0
100
AcDbSpline
 62
7
  6
CONTINUOUS
 70
0
 71
3
 72
9
 73
5
 74
0
 42
0.0000001
 43
0.0000001
 44
0.0000000001
 40
0.0
 40
0.0
 40
0.0
 40
0.0
 40
0.2607895662
 40
1.0
 40
1.0
 40
1.0
 40
1.0
 10
232.366178191
 20
159.0579532113
 30
0.0
 10
232.4031181376
 20
159.046167903
 30
0.0
 10
232.5436582381
 20
158.9976788235
 30
0.0
 10
232.6798122491
 20
158.9357418897
 30
0.0
 10
232.7751798408
 20
158.8811119485
 30
0.0
  0
SPLINE
  5
25F
100
AcDbEntity
  8
0
100
AcDbSpline
 62
7
  6
CONTINUOUS
 70
0
 71
3
 72
9
 73
5
 74
0
 42
0.0000001
 43
0.0000001
 44
0.0000000001
 40
0.0
 40
0.0
 40
0.0
 40
0.0
 40
0.5510880621
 40
1.0
 40
1.0
 40
1.0
 40
1.0
 10
232.7751798408
 20
158.8811119485
 30
0.0
 10
232.9294866554
 20
158.7927195285
 30
0.0
 10
233.1947066443
 20
158.5911801335
 30
0.0
 10
233.3221020122
 20
158.2677935378
 30
0.0
 10
233.3221675663
 20
158.1229339573
 30
0.0
  0
SPLINE
  5
260
100
AcDbEntity
  8
0
100
AcDbSpline
 62
7
  6
CONTINUOUS
 70
0
 71
3
 72
9
 73
5
 74
0
 42
0.0000001
 43
0.0000001
 44
0.0000000001
 40
0.0
 40
0.0
 40
0.0
 40
0.0
 40
0.2617459115
 40
1.0
 40
1.0
 40
1.0
 40
1.0
 10
226.2869996365
 20
151.4575061479
 30
0.0
 10
226.8237072638
 20
151.6184587538
 30
0.0
 10
228.8576785612
 20
152.2853162663
 30
0.0
 10
230.8260653738
 20
153.1658658557
 30
0.0
 10
232.1947234367
 20
153.95605624
 30
0.0
  0
SPLINE
  5
261
100
AcDbEntity
  8
0
100
AcDbSpline
 62
7
  6
CONTINUOUS
 70
0
 71
3
 72
9
 73
5
 74
0
 42
0.0000001
 43
0.0000001
 44
0.0000000001
 40
0.0
 40
0.0
 40
0.0
 40
0.0
 40
0.2553036271
 40
1.0
 40
1.0
 40
1.0
 40
1.0
 10
234.6910151623
 20
155.6496545138
 30
0.0
 10
234.804487279
 20
155.7405084554
 30
0.0
 10
235.2444827011
 20
156.1018940384
 30
0.0
 10
235.6661585559
 20
156.4857431969
 30
0.0
 10
235.9671705695
 20
156.7843665693
 30
0.0
  0
SPLINE
  5
262
100
AcDbEntity
  8
0
100
AcDbSpline
 62
7
  6
CONTINUOUS
 70
0
 71
3
 72
9
 73
5
 74
0
 42
0.0000001
 43
0.0000001
 44
0.0000000001
 40
0.0
 40
0.0
 40
0.0
 40
0.0
 40
0.5012204843
 40
1.0
 40
1.0
 40
1.0
 40
1.0
 10
232.3043374788
 20
236.8679943328
 30
0.0
 10
232.5226145663
 20
236.9845740517
 30
0.0
 10
232.9537699095
 20
237.2252156466
 30
0.0
 10
233.3794700793
 20
237.4755300497
 30
0.0
 10
233.5963239702
 20
237.5922138883
 30
0.0
  0
SPLINE
  5
263
100
AcDbEntity
  8
0
100
AcDbSpline
 62
7
  6
CONTINUOUS
 70
0
 71
3
 72
8
 73
4
 74
0
 42
0.0000001
 43
0.0000001
 44
0.0000000001
 40
0.0
 40
0.0
 40
0.0
 40
0.0
 40
1.0
 40
1.0
 40
1.0
 40
1.0
 10
233.5963239702
 20
237.5922138883
 30
0.0
 10
233.7296964872
 20
237.6639784168
 30
0.0
 10
233.8634853469
 20
237.7349956733
 30
0.0
 10
233.9958632797
 20
237.8085786792
 30
0.0
  0
SPLINE
  5
264
100
AcDbEntity
  8
0
100
AcDbSpline
 62
7
  6
CONTINUOUS
 70
0
 71
3
 72
9
 73
5
 74
0
 42
0.0000001
 43
0.0000001
 44
0.0000000001
 40
0.0
 40
0.0
 40
0.0
 40
0.0
 40
0.5018131093
 40
1.0
 40
1.0
 40
1.0
 40
1.0
 10
232.3043374791
 20
154.7278511705
 30
0.0
 10
232.511491819
 20
154.8384903364
 30
0.0
 10
232.9211684402
 20
155.0648706689
 30
0.0
 10
233.3233908505
 20
155.3044206578
 30
0.0
 10
233.5284194651
 20
155.4154295866
 30
0.0
  0
SPLINE
  5
265
100
AcDbEntity
  8
0
100
AcDbSpline
 62
7
  6
CONTINUOUS
 70
0
 71
3
 72
8
 73
4
 74
0
 42
0.0000001
 43
0.0000001
 44
0.0000000001
 40
0.0
 40
0.0
 40
0.0
 40
0.0
 40
1.0
 40
1.0
 40
1.0
 40
1.0
 10
233.5963239734
 20
155.4520707232
 30
0.0
 10
233.7296964894
 20
155.5238352523
 30
0.0
 10
233.8634853475
 20
155.5948525104
 30
0.0
 10
233.9958632797
 20
155.668435516
 30
0.0
  0
LINE
  5
266
100
AcDbEntity
  8
0
100
AcDbLine
 62
7
  6
CONTINUOUS
 10
235.9671705693
 20
156.7680365208
 11
236.5827450092
 21
157.1129858633
  0
SPLINE
  5
267
100
AcDbEntity
  8
0
100
AcDbSpline
 62
7
  6
CONTINUOUS
 70
0
 71
3
 72
11
 73
7
 74
0
 42
0.0000001
 43
0.0000001
 44
0.0000000001
 40
0.0
 40
0.0
 40
0.0
 40
0.0
 40
0.2187311576
 40
0.452223902
 40
0.7111638566
 40
1.0
 40
1.0
 40
1.0
 40
1.0
 10
88.4342977467
 20
364.7563823366
 30
0.0
 10
87.9494087705
 20
365.0362876483
 30
0.0
 10
86.8395157756
 20
365.4442583952
 30
0.0
 10
84.9960094139
 20
365.5076701208
 30
0.0
 10
83.0293287502
 20
365.0587869824
 30
0.0
 10
81.7469593488
 20
364.4694300505
 30
0.0
 10
81.101660534
 20
364.1086119027
 30
0.0
  0
SPLINE
  5
268
100
AcDbEntity
  8
0
100
AcDbSpline
 62
7
  6
CONTINUOUS
 70
0
 71
3
 72
10
 73
6
 74
0
 42
0.0000001
 43
0.0000001
 44
0.0000000001
 40
0.0
 40
0.0
 40
0.0
 40
0.0
 40
0.2511597887
 40
0.623581312
 40
1.0
 40
1.0
 40
1.0
 40
1.0
 10
235.9671705695
 20
244.6236966041
 30
0.0
 10
235.8022631199
 20
244.5313885147
 30
0.0
 10
235.3870297439
 20
244.3126339376
 30
0.0
 10
234.7418052863
 20
243.9248945276
 30
0.0
 10
234.2434242516
 20
243.6617037344
 30
0.0
 10
233.9958632797
 20
243.5240955992
 30
0.0
  0
SPLINE
  5
269
100
AcDbEntity
  8
0
100
AcDbSpline
 62
7
  6
CONTINUOUS
 70
0
 71
3
 72
9
 73
5
 74
0
 42
0.0000001
 43
0.0000001
 44
0.0000000001
 40
0.0
 40
0.0
 40
0.0
 40
0.0
 40
0.2542455038
 40
1.0
 40
1.0
 40
1.0
 40
1.0
 10
81.101660534
 20
364.1086119027
 30
0.0
 10
84.5220625146
 20
366.0211260418
 30
0.0
 10
98.0452183171
 20
373.4172207603
 30
0.0
 10
111.8508220882
 20
380.299427546
 30
0.0
 10
122.293952654
 20
385.1022207272
 30
0.0
  0
SPLINE
  5
26A
100
AcDbEntity
  8
0
100
AcDbSpline
 62
7
  6
CONTINUOUS
 70
0
 71
3
 72
9
 73
5
 74
0
 42
0.0000001
 43
0.0000001
 44
0.0000000001
 40
0.0
 40
0.0
 40
0.0
 40
0.0
 40
0.2528044008
 40
1.0
 40
1.0
 40
1.0
 40
1.0
 10
225.4506338719
 20
139.7665816777
 30
0.0
 10
209.3810000904
 20
148.5213316676
 30
0.0
 10
146.033101401
 20
183.5493271263
 30
0.0
 10
83.5700407523
 20
220.1809350433
 30
0.0
 10
37.4769899711
 20
248.4800913783
 30
0.0
  0
SPLINE
  5
26B
100
AcDbEntity
  8
0
100
AcDbSpline
 62
7
  6
CONTINUOUS
 70
0
 71
3
 72
9
 73
5
 74
0
 42
0.0000001
 43
0.0000001
 44
0.0000000001
 40
0.0
 40
0.0
 40
0.0
 40
0.0
 40
0.2616117614
 40
1.0
 40
1.0
 40
1.0
 40
1.0
 10
232.3678478687
 20
154.8614847126
 30
0.0
 10
232.4052375523
 20
154.8734535818
 30
0.0
 10
232.5470250314
 20
154.9225602199
 30
0.0
 10
232.6843896784
 20
154.9852538751
 30
0.0
 10
232.7803505625
 20
155.0406565867
 30
0.0
  0
SPLINE
  5
26C
100
AcDbEntity
  8
0
100
AcDbSpline
 62
7
  6
CONTINUOUS
 70
0
 71
3
 72
9
 73
5
 74
0
 42
0.0000001
 43
0.0000001
 44
0.0000000001
 40
0.0
 40
0.0
 40
0.0
 40
0.0
 40
0.2647509372
 40
1.0
 40
1.0
 40
1.0
 40
1.0
 10
232.91413894
 20
238.7362014158
 30
0.0
 10
232.9462943776
 20
238.716886468
 30
0.0
 10
233.0653816398
 20
238.640197254
 30
0.0
 10
233.1750298355
 20
238.5478355106
 30
0.0
 10
233.244949278
 20
238.4706148399
 30
0.0
  0
SPLINE
  5
26D
100
AcDbEntity
  8
0
100
AcDbSpline
 62
7
  6
CONTINUOUS
 70
0
 71
3
 72
9
 73
5
 74
0
 42
0.0000001
 43
0.0000001
 44
0.0000000001
 40
0.0
 40
0.0
 40
0.0
 40
0.0
 40
0.2379649881
 40
1.0
 40
1.0
 40
1.0
 40
1.0
 10
232.7803505625
 20
157.3676884755
 30
0.0
 10
232.74936666
 20
157.3498000179
 30
0.0
 10
232.6167945265
 20
157.2787505351
 30
0.0
 10
232.4761995564
 20
157.2231591419
 30
0.0
 10
232.3670737065
 20
157.1882653167
 30
0.0
  0
SPLINE
  5
26E
100
AcDbEntity
  8
0
100
AcDbSpline
 62
7
  6
CONTINUOUS
 70
0
 71
3
 72
9
 73
5
 74
0
 42
0.0000001
 43
0.0000001
 44
0.0000000001
 40
0.0
 40
0.0
 40
0.0
 40
0.0
 40
0.2380180088
 40
1.0
 40
1.0
 40
1.0
 40
1.0
 10
232.1947234367
 20
159.6715731599
 30
0.0
 10
231.7534239215
 20
159.4167902868
 30
0.0
 10
229.8632975423
 20
158.4091260203
 30
0.0
 10
227.8495610695
 20
157.6416177397
 30
0.0
 10
226.2869996363
 20
157.1730230678
 30
0.0
  0
SPLINE
  5
26F
100
AcDbEntity
  8
0
100
AcDbSpline
 62
7
  6
CONTINUOUS
 70
0
 71
3
 72
9
 73
5
 74
0
 42
0.0000001
 43
0.0000001
 44
0.0000000001
 40
0.0
 40
0.0
 40
0.0
 40
0.0
 40
0.2469028814
 40
1.0
 40
1.0
 40
1.0
 40
1.0
 10
244.6113544215
 20
261.0043733589
 30
0.0
 10
243.0339239133
 20
260.0936479723
 30
0.0
 10
236.6455508853
 20
256.404188919
 30
0.0
 10
230.2591580623
 20
252.7113012484
 30
0.0
 10
225.4506280837
 20
249.9283949535
 30
0.0
  0
SPLINE
  5
270
100
AcDbEntity
  8
0
100
AcDbSpline
 62
7
  6
CONTINUOUS
 70
0
 71
3
 72
9
 73
5
 74
0
 42
0.0000001
 43
0.0000001
 44
0.0000000001
 40
0.0
 40
0.0
 40
0.0
 40
0.0
 40
0.2527051481
 40
1.0
 40
1.0
 40
1.0
 40
1.0
 10
225.4506280837
 20
249.9283949535
 30
0.0
 10
209.3792485362
 20
258.6656668899
 30
0.0
 10
146.0057812247
 20
293.6504659833
 30
0.0
 10
83.5507828035
 20
330.3022670413
 30
0.0
 10
37.4769971717
 20
358.6485412514
 30
0.0
  0
SPLINE
  5
271
100
AcDbEntity
  8
0
100
AcDbSpline
 62
7
  6
CONTINUOUS
 70
0
 71
3
 72
9
 73
5
 74
0
 42
0.0000001
 43
0.0000001
 44
0.0000000001
 40
0.0
 40
0.0
 40
0.0
 40
0.0
 40
0.2448095582
 40
1.0
 40
1.0
 40
1.0
 40
1.0
 10
235.9671705695
 20
162.4998834892
 30
0.0
 10
235.8682159267
 20
162.401714088
 30
0.0
 10
235.4583460819
 20
162.006438229
 30
0.0
 10
235.0266691963
 20
161.6339202054
 30
0.0
 10
234.6910151623
 20
161.3651714337
 30
0.0
  0
SPLINE
  5
272
100
AcDbEntity
  8
0
100
AcDbSpline
 62
7
  6
CONTINUOUS
 70
0
 71
3
 72
9
 73
5
 74
0
 42
0.0000001
 43
0.0000001
 44
0.0000000001
 40
0.0
 40
0.0
 40
0.0
 40
0.0
 40
0.2759789837
 40
1.0
 40
1.0
 40
1.0
 40
1.0
 10
233.0253791314
 20
156.5233221726
 30
0.0
 10
233.0719519421
 20
156.4902047211
 30
0.0
 10
233.2338059204
 20
156.3618260776
 30
0.0
 10
233.3678068524
 20
156.1910668231
 30
0.0
 10
233.4224402561
 20
156.0514522859
 30
0.0
  0
SPLINE
  5
273
100
AcDbEntity
  8
0
100
AcDbSpline
 62
7
  6
CONTINUOUS
 70
0
 71
3
 72
9
 73
5
 74
0
 42
0.0000001
 43
0.0000001
 44
0.0000000001
 40
0.0
 40
0.0
 40
0.0
 40
0.0
 40
0.2357333641
 40
1.0
 40
1.0
 40
1.0
 40
1.0
 10
232.91413894
 20
159.0618955523
 30
0.0
 10
232.8726825418
 20
159.0867973491
 30
0.0
 10
232.6925761453
 20
159.1853234667
 30
0.0
 10
232.4986452119
 20
159.2574739665
 30
0.0
 10
232.3477093325
 20
159.2999119677
 30
0.0
  0
SPLINE
  5
274
100
AcDbEntity
  8
0
100
AcDbSpline
 62
7
  6
CONTINUOUS
 70
0
 71
3
 72
9
 73
5
 74
0
 42
0.0000001
 43
0.0000001
 44
0.0000000001
 40
0.0
 40
0.0
 40
0.0
 40
0.0
 40
0.2448095582
 40
1.0
 40
1.0
 40
1.0
 40
1.0
 10
235.9671705695
 20
244.6236966041
 30
0.0
 10
235.8682159267
 20
244.5255272028
 30
0.0
 10
235.4583460819
 20
244.1302513439
 30
0.0
 10
235.0266691963
 20
243.7577333203
 30
0.0
 10
234.6910151623
 20
243.4889845486
 30
0.0
  0
SPLINE
  5
275
100
AcDbEntity
  8
0
100
AcDbSpline
 62
7
  6
CONTINUOUS
 70
0
 71
3
 72
9
 73
5
 74
0
 42
0.0000001
 43
0.0000001
 44
0.0000000001
 40
0.0
 40
0.0
 40
0.0
 40
0.0
 40
0.2380180088
 40
1.0
 40
1.0
 40
1.0
 40
1.0
 10
232.1947234367
 20
241.7953862748
 30
0.0
 10
231.7534239215
 20
241.5406034017
 30
0.0
 10
229.8632975423
 20
240.5329391352
 30
0.0
 10
227.8495610695
 20
239.7654308546
 30
0.0
 10
226.2869996363
 20
239.2968361827
 30
0.0
  0
SPLINE
  5
276
100
AcDbEntity
  8
0
100
AcDbSpline
 62
7
  6
CONTINUOUS
 70
0
 71
3
 72
9
 73
5
 74
0
 42
0.0000001
 43
0.0000001
 44
0.0000000001
 40
0.0
 40
0.0
 40
0.0
 40
0.0
 40
0.5183081994
 40
1.0
 40
1.0
 40
1.0
 40
1.0
 10
244.6113604751
 20
261.0044472187
 30
0.0
 10
252.5235676504
 20
265.5725392683
 30
0.0
 10
267.7095867281
 20
274.5245383133
 30
0.0
 10
282.7038238858
 20
283.7954542344
 30
0.0
 10
289.8657403993
 20
288.3561906962
 30
0.0
  0
LINE
  5
277
100
AcDbEntity
  8
0
100
AcDbLine
 62
7
  6
CONTINUOUS
 10
225.9041417398
 20
64.7341499689
 11
225.4506357892
 21
139.7669108099
  0
ENDSEC
  0
SECTION
  2
OBJECTS
  0
DICTIONARY
  5
C
100
AcDbDictionary
280
0
281
1
  3
ACAD_GROUP
350
D
  3
ACAD_MLINESTYLE
350
17
  3
ACAD_LAYOUT
350
1A
  3
ACAD_PLOTSETTINGS
350
19
  3
ACAD_PLOTSTYLENAME
350
E
  0
DICTIONARY
  5
D
102
{ACAD_REACTORS
330
C
102
}
100
AcDbDictionary
280
0
281
1
  0
ACDBDICTIONARYWDFLT
  5
E
102
{ACAD_REACTORS
330
C
102
}
100
AcDbDictionary
281
1
  3
Normal
350
F
100
AcDbDictionaryWithDefault
340
F
  0
DICTIONARY
  5
17
102
{ACAD_REACTORS
330
C
102
}
100
AcDbDictionary
280
0
281
1
  3
Standard
350
18
  0
DICTIONARY
  5
19
102
{ACAD_REACTORS
330
C
102
}
100
AcDbDictionary
281
1
  0
DICTIONARY
  5
1A
102
{ACAD_REACTORS
330
C
102
}
100
AcDbDictionary
281
1
  3
Model
350
278
  3
Layout1
350
279
  0
ACDBPLACEHOLDER
  5
F
102
{ACAD_REACTORS
330
E
102
}
  0
MLINESTYLE
  5
18
102
{ACAD_REACTORS
330
17
102
}
100
AcDbMlineStyle
  2
STANDARD
 70
0
  3

 62
256
 51
90.0
 52
90.0
 71
2
 49
0.5
 62
256
  6
BYLAYER
 49
-0.5
 62
256
  6
BYLAYER
  0
LAYOUT
  5
278
102
{ACAD_REACTORS
330
1A
102
}
100
AcDbPlotSettings
  1

  2
none_device
  4

  6

 40
0.0
 41
0.0
 42
0.0
 43
0.0
 44
210.0
 45
297.0
 46
0.0
 47
0.0
 48
0.0
 49
0.0
140
0.0
141
0.0
142
1.0
143
1.0
 70
1024
 72
1
 73
0
 74
0
  7

 75
0
147
1.0
148
0.0
149
0.0
100
AcDbLayout
  1
Model
 70
0
 71
0
 10
0.0
 20
0.0
 11
210.0
 21
297.0
 12
0.0
 22
0.0
 32
0.0
 14
0.0
 24
0.0
 34
0.0
 15
0.0
 25
0.0
 35
0.0
146
0.0
 13
0.0
 23
0.0
 33
0.0
 16
1.0
 26
0.0
 36
0.0
 17
0.0
 27
1.0
 37
0.0
 76
0
330
210
345
0
346
0
  0
LAYOUT
  5
279
102
{ACAD_REACTORS
330
1A
102
}
100
AcDbPlotSettings
  1

  2
none_device
  4

  6

 40
0.0
 41
0.0
 42
0.0
 43
0.0
 44
210.0
 45
297.0
 46
0.0
 47
0.0
 48
0.0
 49
0.0
140
0.0
141
0.0
142
1.0
143
1.0
 70
0
 72
1
 73
0
 74
0
  7

 75
0
147
1.0
148
0.0
149
0.0
100
AcDbLayout
  1
Layout1
 70
0
 71
1
 10
0.0
 20
0.0
 11
210.0
 21
297.0
 12
0.0
 22
0.0
 32
0.0
 14
0.0
 24
0.0
 34
0.0
 15
0.0
 25
0.0
 35
0.0
146
0.0
 13
0.0
 23
0.0
 33
0.0
 16
1.0
 26
0.0
 36
0.0
 17
0.0
 27
1.0
 37
0.0
 76
0
330
211
345
0
346
0
  0
ENDSEC
  0
EOF
