999
DXF file: C:\Users\sesa63760\Dev\_Creo\CAD\MCADFD0002810_3D-CAD\drw0001_1.dxf
999
Pro/ENGINEER 2019471 by Parametric Technology Corporation
  0
SECTION
  2
HEADER
  9
$ACADVER
  1
AC1024
  9
$DWGCODEPAGE
  3
ANSI_1252
  9
$EXTMAX
 10
420.3309683938
 20
594.4680838712
 30
0.0
  9
$EXTMIN
 10
0.0
 20
0.0
 30
0.0
  9
$LIMMIN
 10
0.0
 20
0.0
  9
$LIMMAX
 10
420.3309683938
 20
594.4680838712
  9
$VIEWCTR
 10
210.1654841969
 20
297.2340419356
  9
$VIEWSIZE
 40
594.4680838712
  9
$CLAYER
  8
0
  9
$LTSCALE
 40
38.7505121338
  9
$CELTYPE
  6
BYLAYER
  9
$DIMSCALE
 40
1.0
  9
$DIMASZ
 40
5.0039400999
  9
$DIMEXO
 40
1.0
  9
$DIMDLI
 40
26.7730811106
  9
$DIMEXE
 40
1.0
  9
$DIMCEN
 40
6.3409928946
  9
$DIMLFAC
 40
1.0
  9
$DIMBLK
  1
_FILLED
  9
$DIMALT
 70
0
  9
$DIMALTF
 40
0.0393700787
  9
$DIMTXT
 40
7.0055161399
  9
$DIMTOL
 70
1
  9
$DIMLIM
 70
0
  9
$DIMTFAC
 40
1.0
  9
$DIMTP
 40
0.01
  9
$DIMTM
 40
0.01
  9
$DIMGAP
 40
0.625
  9
$DIMDSEP
 70
46
  9
$AUNITS
 70
0
  9
$PDMODE
 70
3
  9
$PDSIZE
 40
0.3125
  9
$HANDSEED
  5
27C
  9
$TILEMODE
 70
1
  9
$MEASUREMENT
 70
1
  9
$INSUNITS
 70
4
  0
ENDSEC
  0
SECTION
  2
CLASSES
  0
CLASS
  1
ACDBDICTIONARYWDFLT
  2
AcDbDictionaryWithDefault
  3
AutoCAD 2000
 90
0
 91
1
280
0
281
0
  0
CLASS
  1
ACDBPLACEHOLDER
  2
AcDbPlaceHolder
  3
AutoCAD 2000
 90
0
 91
1
280
0
281
0
  0
CLASS
  1
LAYOUT
  2
AcDbLayout
  3
AutoCAD 2000
 90
0
 91
0
280
0
281
0
  0
ENDSEC
  0
SECTION
  2
TABLES
  0
TABLE
  2
VPORT
  5
8
100
AcDbSymbolTable
 70
2
  0
VPORT
  5
1F4
100
AcDbSymbolTableRecord
100
AcDbViewportTableRecord
  2
*ACTIVE
 70
0
 10
0.0
 20
0.0
 11
1.0
 21
1.0
 12
210.1654841969
 22
297.2340419356
 13
0.0
 23
0.0
 14
1.0
 24
1.0
 15
0.0
 25
0.0
 16
0.0
 26
0.0
 36
1.0
 17
0.0
 27
0.0
 37
0.0
 40
594.4680838712
 41
0.7070707071
 42
50.0
 43
0.0
 44
0.0
 50
0.0
 51
0.0
 71
0
 72
100
 73
1
 74
1
 75
0
 76
0
 77
0
 78
0
  0
ENDTAB
  0
TABLE
  2
LTYPE
  5
5
100
AcDbSymbolTable
 70
6
  0
LTYPE
  5
14
100
AcDbSymbolTableRecord
100
AcDbLinetypeTableRecord
  2
BYBLOCK
 70
0
  3

 72
65
 73
0
 40
0.0
  0
LTYPE
  5
15
100
AcDbSymbolTableRecord
100
AcDbLinetypeTableRecord
  2
BYLAYER
 70
0
  3

 72
65
 73
0
 40
0.0
  0
LTYPE
  5
16
100
AcDbSymbolTableRecord
100
AcDbLinetypeTableRecord
  2
CONTINUOUS
 70
64
  3
Solid line
 72
65
 73
0
 40
0.0
  0
LTYPE
  5
1F5
100
AcDbSymbolTableRecord
100
AcDbLinetypeTableRecord
  2
CENTER
 70
64
  3
____ _ ____ _ ____ _ ____ _ ____ _ ____ _ ____
 72
65
 73
4
 40
0.6
 49
0.375
 74
0
 49
-0.075
 74
0
 49
0.075
 74
0
 49
-0.075
 74
0
  0
LTYPE
  5
1F6
100
AcDbSymbolTableRecord
100
AcDbLinetypeTableRecord
  2
HIDDEN
 70
64
  3
- - - - - - - - - - - - - - - - - - - -
 72
65
 73
2
 40
0.2
 49
0.1
 74
0
 49
-0.1
 74
0
  0
LTYPE
  5
1F7
100
AcDbSymbolTableRecord
100
AcDbLinetypeTableRecord
  2
PHANTOM
 70
64
  3
_____ _ _ _____ _ _ _____ _ _ _____
 72
65
 73
6
 40
0.8
 49
0.45
 74
0
 49
-0.05
 74
0
 49
0.1
 74
0
 49
-0.05
 74
0
 49
0.1
 74
0
 49
-0.05
 74
0
  0
LTYPE
  5
1F8
100
AcDbSymbolTableRecord
100
AcDbLinetypeTableRecord
  2
DOT
 70
64
  3
. . . . . . . . . . . . . . . . . . . .
 72
65
 73
2
 40
0.2
 49
0.1
 74
0
 49
-0.1
 74
0
  0
LTYPE
  5
1F9
100
AcDbSymbolTableRecord
100
AcDbLinetypeTableRecord
  2
DASHED
 70
64
  3
- - - - - - - - - - - - - - - - - - - -
 72
65
 73
2
 40
0.2
 49
0.1
 74
0
 49
-0.1
 74
0
  0
ENDTAB
  0
TABLE
  2
LAYER
  5
2
100
AcDbSymbolTable
 70
36
  0
LAYER
  5
10
100
AcDbSymbolTableRecord
100
AcDbLayerTableRecord
  2
0
 70
0
 62
7
  6
CONTINUOUS
370
-3
390
F
  0
LAYER
  5
1FA
100
AcDbSymbolTableRecord
100
AcDbLayerTableRecord
  2
DEFAULT_1
 70
0
 62
7
  6
CENTER
370
-3
390
F
  0
LAYER
  5
1FB
100
AcDbSymbolTableRecord
100
AcDbLayerTableRecord
  2
DEFAULT_2
 70
0
 62
8
  6
HIDDEN
370
-3
390
F
  0
LAYER
  5
1FC
100
AcDbSymbolTableRecord
100
AcDbLayerTableRecord
  2
DEFAULT_3
 70
0
 62
7
  6
PHANTOM
370
-3
390
F
  0
LAYER
  5
1FD
100
AcDbSymbolTableRecord
100
AcDbLayerTableRecord
  2
00_COMPONENTS
 70
0
 62
7
  6
CONTINUOUS
370
-3
390
F
  0
LAYER
  5
1FE
100
AcDbSymbolTableRecord
100
AcDbLayerTableRecord
  2
01_1_DEFAULT_DATUMS
 70
0
 62
7
  6
CONTINUOUS
370
-3
390
F
  0
LAYER
  5
1FF
100
AcDbSymbolTableRecord
100
AcDbLayerTableRecord
  2
01_PLANES
 70
0
 62
7
  6
CONTINUOUS
370
-3
390
F
  0
LAYER
  5
200
100
AcDbSymbolTableRecord
100
AcDbLayerTableRecord
  2
02_COORD_SYS
 70
0
 62
7
  6
CONTINUOUS
370
-3
390
F
  0
LAYER
  5
201
100
AcDbSymbolTableRecord
100
AcDbLayerTableRecord
  2
03_AXES
 70
0
 62
7
  6
CONTINUOUS
370
-3
390
F
  0
LAYER
  5
202
100
AcDbSymbolTableRecord
100
AcDbLayerTableRecord
  2
04_POINTS
 70
0
 62
7
  6
CONTINUOUS
370
-3
390
F
  0
LAYER
  5
203
100
AcDbSymbolTableRecord
100
AcDbLayerTableRecord
  2
05_CURVES
 70
0
 62
7
  6
CONTINUOUS
370
-3
390
F
  0
LAYER
  5
204
100
AcDbSymbolTableRecord
100
AcDbLayerTableRecord
  2
06_SURFS
 70
0
 62
7
  6
CONTINUOUS
370
-3
390
F
  0
LAYER
  5
205
100
AcDbSymbolTableRecord
100
AcDbLayerTableRecord
  2
07_COSMETICS
 70
0
 62
7
  6
CONTINUOUS
370
-3
390
F
  0
LAYER
  5
206
100
AcDbSymbolTableRecord
100
AcDbLayerTableRecord
  2
10_NOTES
 70
0
 62
7
  6
CONTINUOUS
370
-3
390
F
  0
LAYER
  5
207
100
AcDbSymbolTableRecord
100
AcDbLayerTableRecord
  2
11_NOTES_PUB
 70
0
 62
7
  6
CONTINUOUS
370
-3
390
F
  0
LAYER
  5
208
100
AcDbSymbolTableRecord
100
AcDbLayerTableRecord
  2
13_REF_GTOL
 70
0
 62
7
  6
CONTINUOUS
370
-3
390
F
  0
LAYER
  5
209
100
AcDbSymbolTableRecord
100
AcDbLayerTableRecord
  2
16_MISC
 70
0
 62
7
  6
CONTINUOUS
370
-3
390
F
  0
LAYER
  5
20A
100
AcDbSymbolTableRecord
100
AcDbLayerTableRecord
  2
17_NO_PRINT
 70
0
 62
7
  6
CONTINUOUS
370
-3
390
F
  0
LAYER
  5
20B
100
AcDbSymbolTableRecord
100
AcDbLayerTableRecord
  2
18_DATUM_CAMS_JOINTS
 70
0
 62
7
  6
CONTINUOUS
370
-3
390
F
  0
LAYER
  5
20C
100
AcDbSymbolTableRecord
100
AcDbLayerTableRecord
  2
19_DATUM_FUNCTIONAL
 70
0
 62
7
  6
CONTINUOUS
370
-3
390
F
  0
LAYER
  5
20D
100
AcDbSymbolTableRecord
100
AcDbLayerTableRecord
  2
20_DATUM_KINEMATIC_SCHEME
 70
0
 62
7
  6
CONTINUOUS
370
-3
390
F
  0
ENDTAB
  0
TABLE
  2
STYLE
  5
3
100
AcDbSymbolTable
 70
1
  0
STYLE
  5
11
100
AcDbSymbolTableRecord
100
AcDbTextStyleTableRecord
  2
STANDARD
 70
0
 40
0.0
 41
0.8
 50
0.0
 71
0
 42
0.2
  3
txt
  4

  0
STYLE
  5
20E
100
AcDbSymbolTableRecord
100
AcDbTextStyleTableRecord
  2
TEXTSTYLE_1
 70
0
 40
0.0
 41
0.8
 50
0.0
 71
0
 42
0.2
  3
gdt
  4

  0
ENDTAB
  0
TABLE
  2
VIEW
  5
6
100
AcDbSymbolTable
 70
0
  0
ENDTAB
  0
TABLE
  2
UCS
  5
7
100
AcDbSymbolTable
 70
0
  0
ENDTAB
  0
TABLE
  2
APPID
  5
9
100
AcDbSymbolTable
 70
1
  0
APPID
  5
20F
100
AcDbSymbolTableRecord
100
AcDbRegAppTableRecord
  2
ACAD
 70
0
  0
ENDTAB
  0
TABLE
  2
BLOCK_RECORD
  5
1
100
AcDbSymbolTable
 70
0
  0
BLOCK_RECORD
  5
210
100
AcDbSymbolTableRecord
100
AcDbBlockTableRecord
  2
*Model_Space
  0
BLOCK_RECORD
  5
211
100
AcDbSymbolTableRecord
100
AcDbBlockTableRecord
  2
*Paper_Space
  0
BLOCK_RECORD
  5
212
100
AcDbSymbolTableRecord
100
AcDbBlockTableRecord
  2
_FILLED
  0
ENDTAB
  0
TABLE
  2
DIMSTYLE
  5
A
100
AcDbSymbolTable
 70
1
100
AcDbDimStyleTable
 71
0
  0
DIMSTYLE
105
213
100
AcDbSymbolTableRecord
100
AcDbDimStyleTableRecord
  2
STANDARD
 70
0
  3

  4

 40
1.0
 41
5.0039400999
 42
1.0
 43
0.38
 44
1.0
 45
0.0
 46
0.0
 47
0.01
 48
0.01
140
7.0055161399
141
0.09
142
0.0
143
25.4
144
1.0
145
0.0
146
1.0
147
0.625
 71
1
 72
0
 73
0
 74
0
 75
0
 76
0
 77
1
 78
8
 79
2
170
0
171
1
172
0
173
0
174
0
175
0
176
0
177
0
178
0
270
2
179
2
271
2
272
2
273
2
274
2
275
0
280
0
281
0
282
0
283
1
284
8
285
0
286
0
287
3
288
0
340
11
278
46
341
212
342
212
343
212
344
212
  0
ENDTAB
  0
ENDSEC
  0
SECTION
  2
BLOCKS
  0
BLOCK
  5
20
100
AcDbEntity
  8
0
100
AcDbBlockBegin
  2
*Model_Space
 70
0
 10
0.0
 20
0.0
 30
0.0
  3
*Model_Space
  1

  0
ENDBLK
  5
21
100
AcDbEntity
  8
0
100
AcDbBlockEnd
  0
BLOCK
  5
1C
100
AcDbEntity
  8
0
100
AcDbBlockBegin
  2
*Paper_Space
 70
0
 10
0.0
 20
0.0
 30
0.0
  3
*Paper_Space
  1

  0
ENDBLK
  5
1D
100
AcDbEntity
  8
0
100
AcDbBlockEnd
  0
BLOCK
  5
214
100
AcDbEntity
  8
0
100
AcDbBlockBegin
  2
_FILLED
 70
64
 10
0.0
 20
0.0
  3
_FILLED
  1

  0
SOLID
  5
215
100
AcDbEntity
  8
0
  6
BYBLOCK
 62
0
100
AcDbTrace
 10
0.0
 20
0.0
 11
-1.0
 21
0.25
 12
-1.0
 22
-0.25
 13
-1.0
 23
-0.25
  0
ENDBLK
  5
216
100
AcDbEntity
  8
0
  6
BYBLOCK
 62
0
100
AcDbBlockEnd
  0
ENDSEC
  0
SECTION
  2
ENTITIES
  0
LINE
  5
217
100
AcDbEntity
  8
0
100
AcDbLine
 62
7
  6
CONTINUOUS
 10
122.8297598327
 20
483.0377557452
 11
122.1226922099
 21
482.6295324996
  0
LINE
  5
218
100
AcDbEntity
  8
0
100
AcDbLine
 62
7
  6
CONTINUOUS
 10
135.5577348854
 20
475.6894221639
 11
133.4364233737
 21
474.4646897023
  0
LINE
  5
219
100
AcDbEntity
  8
0
100
AcDbLine
 62
7
  6
CONTINUOUS
 10
135.4870245017
 20
474.7889845854
 11
100.4334969871
 21
455.2574667527
  0
LINE
  5
21A
100
AcDbEntity
  8
0
100
AcDbLine
 62
7
  6
CONTINUOUS
 10
48.7632283565
 20
339.5460905049
 11
49.0264548188
 21
264.4305556731
  0
LINE
  5
21B
100
AcDbEntity
  8
0
100
AcDbLine
 62
7
  6
CONTINUOUS
 10
48.7632283565
 20
449.7241233425
 11
48.7632283565
 21
339.5460905049
  0
LINE
  5
21C
100
AcDbEntity
  8
0
100
AcDbLine
 62
7
  6
CONTINUOUS
 10
320.9749087925
 20
202.6007417769
 11
321.4840787536
 21
202.5750243867
  0
LINE
  5
21D
100
AcDbEntity
  8
0
100
AcDbLine
 62
7
  6
CONTINUOUS
 10
321.4840787535
 20
202.591354435
 11
322.1837092731
 21
202.5560171754
  0
LINE
  5
21E
100
AcDbEntity
  8
0
100
AcDbLine
 62
7
  6
CONTINUOUS
 10
322.1837092731
 20
208.2715340953
 11
321.4840787536
 21
208.3068713549
  0
LINE
  5
21F
100
AcDbEntity
  8
0
100
AcDbLine
 62
7
  6
CONTINUOUS
 10
133.4364233737
 20
474.4646897023
 11
133.4364233737
 21
476.0976945365
  0
LINE
  5
220
100
AcDbEntity
  8
0
100
AcDbLine
 62
7
  6
CONTINUOUS
 10
135.5577348854
 20
474.7889845854
 11
135.5577348854
 21
475.6894221639
  0
LINE
  5
221
100
AcDbEntity
  8
0
100
AcDbLine
 62
7
  6
CONTINUOUS
 10
323.4710638987
 20
204.26990612
 11
324.0791198728
 21
204.0240960575
  0
LINE
  5
222
100
AcDbEntity
  8
0
100
AcDbLine
 62
7
  6
CONTINUOUS
 10
320.9749087925
 20
284.7408849401
 11
322.1837092731
 21
284.6798302903
  0
LINE
  5
223
100
AcDbEntity
  8
0
100
AcDbLine
 62
7
  6
CONTINUOUS
 10
322.1837092731
 20
290.3953472102
 11
321.4840787535
 21
290.4306844698
  0
LINE
  5
224
100
AcDbEntity
  8
0
100
AcDbLine
 62
7
  6
CONTINUOUS
 10
365.3683955582
 20
343.0111769448
 11
364.6613279353
 21
342.6029536991
  0
LINE
  5
225
100
AcDbEntity
  8
0
100
AcDbLine
 62
7
  6
CONTINUOUS
 10
378.0963706108
 20
335.6628433634
 11
377.3767544194
 21
335.2473752416
  0
LINE
  5
226
100
AcDbEntity
  8
0
100
AcDbLine
 62
7
  6
CONTINUOUS
 10
320.4260040998
 20
285.6407452527
 11
319.8095164305
 21
285.2848180555
  0
LINE
  5
227
100
AcDbEntity
  8
0
100
AcDbLine
 62
7
  6
CONTINUOUS
 10
321.4840787537
 20
284.7151675499
 11
320.8370175217
 21
284.3559206818
  0
LINE
  5
228
100
AcDbEntity
  8
0
100
AcDbLine
 62
7
  6
CONTINUOUS
 10
66.9933269218
 20
460.9783006723
 11
332.1098575502
 21
307.9166630643
  0
LINE
  5
229
100
AcDbEntity
  8
0
100
AcDbLine
 62
7
  6
CONTINUOUS
 10
319.5407603945
 20
207.2304147842
 11
319.8095164304
 21
206.6513439309
  0
LINE
  5
22A
100
AcDbEntity
  8
0
100
AcDbLine
 62
7
  6
CONTINUOUS
 10
322.0547919904
 20
322.4258405212
 11
92.2441313176
 21
455.1040857403
  0
LINE
  5
22B
100
AcDbEntity
  8
0
100
AcDbLine
 62
7
  6
CONTINUOUS
 10
99.5768691705
 20
455.7520298647
 11
326.4131808158
 21
324.790987009
  0
LINE
  5
22C
100
AcDbEntity
  8
0
100
AcDbLine
 62
7
  6
CONTINUOUS
 10
313.4507269672
 20
111.6708561898
 11
313.165952811
 21
186.7917949233
  0
LINE
  5
22D
100
AcDbEntity
  8
0
100
AcDbLine
 62
7
  6
CONTINUOUS
 10
313.1659528108
 20
296.9661918519
 11
313.1659528108
 21
186.7917948702
  0
LINE
  5
22E
100
AcDbEntity
  8
0
100
AcDbLine
 62
7
  6
CONTINUOUS
 10
313.7912532604
 20
286.2122659864
 11
313.7912532604
 21
280.4967490665
  0
LINE
  5
22F
100
AcDbEntity
  8
0
100
AcDbLine
 62
7
  6
CONTINUOUS
 10
313.7912532604
 20
204.0884528715
 11
313.7912532604
 21
198.3729359516
  0
LINE
  5
230
100
AcDbEntity
  8
0
100
AcDbLine
 62
7
  6
CONTINUOUS
 10
319.5407603945
 20
289.354227899
 11
319.8095164304
 21
288.7751570458
  0
LINE
  5
231
100
AcDbEntity
  8
0
100
AcDbLine
 62
7
  6
CONTINUOUS
 10
319.8095164305
 20
288.7751570458
 11
319.8095164305
 21
283.0596401259
  0
LINE
  5
232
100
AcDbEntity
  8
0
100
AcDbLine
 62
7
  6
CONTINUOUS
 10
319.8095164305
 20
206.6513439309
 11
319.8095164305
 21
200.935827011
  0
LINE
  5
233
100
AcDbEntity
  8
0
100
AcDbLine
 62
7
  6
CONTINUOUS
 10
320.4260040998
 20
205.9664393892
 11
320.4260040998
 21
207.7179125484
  0
LINE
  5
234
100
AcDbEntity
  8
0
100
AcDbLine
 62
7
  6
CONTINUOUS
 10
320.4260040998
 20
285.6407452527
 11
320.4260040998
 21
287.6665789131
  0
LINE
  5
235
100
AcDbEntity
  8
0
100
AcDbLine
 62
7
  6
CONTINUOUS
 10
320.8325186706
 20
202.7013743321
 11
320.8325186706
 21
205.0284062209
  0
LINE
  5
236
100
AcDbEntity
  8
0
100
AcDbLine
 62
7
  6
CONTINUOUS
 10
320.8325186706
 20
288.2300025264
 11
320.8325186706
 21
290.0677231886
  0
LINE
  5
237
100
AcDbEntity
  8
0
100
AcDbLine
 62
7
  6
CONTINUOUS
 10
320.9749087925
 20
290.1499316731
 11
320.9749087925
 21
284.7408849401
  0
LINE
  5
238
100
AcDbEntity
  8
0
100
AcDbLine
 62
7
  6
CONTINUOUS
 10
320.9749087925
 20
208.029976947
 11
320.9749087925
 21
202.6007417769
  0
LINE
  5
239
100
AcDbEntity
  8
0
100
AcDbLine
 62
7
  6
CONTINUOUS
 10
322.1837092732
 20
202.5560171754
 11
322.1837092732
 21
208.2715340953
  0
LINE
  5
23A
100
AcDbEntity
  8
0
100
AcDbLine
 62
7
  6
CONTINUOUS
 10
322.1837092732
 20
284.6798302903
 11
322.1837092732
 21
290.3953472102
  0
LINE
  5
23B
100
AcDbEntity
  8
0
100
AcDbLine
 62
7
  6
CONTINUOUS
 10
323.4710638987
 20
291.539018634
 11
323.4710638987
 21
203.6996885992
  0
LINE
  5
23C
100
AcDbEntity
  8
0
100
AcDbLine
 62
7
  6
CONTINUOUS
 10
324.0791198728
 20
204.0240960575
 11
324.0791198728
 21
291.8797561407
  0
LINE
  5
23D
100
AcDbEntity
  8
0
100
AcDbLine
 62
7
  6
CONTINUOUS
 10
363.1286416299
 20
343.3630089105
 11
135.4870245017
 21
474.7889845854
  0
LINE
  5
23E
100
AcDbEntity
  8
0
100
AcDbLine
 62
7
  6
CONTINUOUS
 10
119.3193011358
 20
484.2480344755
 11
133.4364233737
 21
476.0976945365
  0
LINE
  5
23F
100
AcDbEntity
  8
0
100
AcDbLine
 62
7
  6
CONTINUOUS
 10
363.2470840465
 20
343.4194493174
 11
377.3642062845
 21
335.2691093785
  0
LINE
  5
240
100
AcDbEntity
  8
0
100
AcDbLine
 62
7
  6
CONTINUOUS
 10
122.8297598327
 20
483.0377557452
 11
135.5577348854
 21
475.6894221639
  0
LINE
  5
241
100
AcDbEntity
  8
0
100
AcDbLine
 62
7
  6
CONTINUOUS
 10
365.3683955582
 20
343.0111769448
 11
378.0963706108
 21
335.6628433634
  0
LINE
  5
242
100
AcDbEntity
  8
0
100
AcDbLine
 62
7
  6
CONTINUOUS
 10
332.1098520952
 20
307.9166727438
 11
332.1098520952
 21
121.7541098822
  0
LINE
  5
243
100
AcDbEntity
  8
0
100
AcDbLine
 62
7
  6
CONTINUOUS
 10
320.2996225048
 20
201.9366597432
 11
320.8334181677
 21
202.7013706045
  0
LINE
  5
244
100
AcDbEntity
  8
0
100
AcDbLine
 62
7
  6
CONTINUOUS
 10
320.8324603246
 20
205.0284063026
 11
320.2906716621
 21
204.2731608251
  0
LINE
  5
245
100
AcDbEntity
  8
0
100
AcDbLine
 62
7
  6
CONTINUOUS
 10
377.3642062845
 20
335.2691093785
 11
377.3642062845
 21
154.8220751928
  0
LINE
  5
246
100
AcDbEntity
  8
0
100
AcDbLine
 62
7
  6
CONTINUOUS
 10
378.0963706108
 20
158.4818188463
 11
378.0963706108
 21
335.6628433634
  0
LINE
  5
247
100
AcDbEntity
  8
0
100
AcDbLine
 62
7
  6
CONTINUOUS
 10
377.3642062845
 20
158.0591060987
 11
378.0963706108
 21
158.4818188463
  0
ARC
  5
248
100
AcDbEntity
  8
0
100
AcDbCircle
 62
7
  6
CONTINUOUS
 10
-52.5996156548
 20
963.5060568072
 40
770.0448999288
100
AcDbArc
 50
298.4117473981
 51
298.8992556258
  0
ARC
  5
249
100
AcDbEntity
  8
0
100
AcDbCircle
 62
7
  6
CONTINUOUS
 10
-52.5996074021
 20
881.3822300462
 40
770.0448839937
100
AcDbArc
 50
298.4117473512
 51
298.8992555789
  0
ARC
  5
24A
100
AcDbEntity
  8
0
100
AcDbCircle
 62
7
  6
CONTINUOUS
 10
143.6035136217
 20
448.280245382
 40
377.0330979265
100
AcDbArc
 50
296.7747133331
 51
299.9982091645
  0
ARC
  5
24B
100
AcDbEntity
  8
0
100
AcDbCircle
 62
7
  6
CONTINUOUS
 10
248.9376756284
 20
145.8633055349
 40
363.8697650799
100
AcDbArc
 50
120.0017213766
 51
123.3757006833
  0
ARC
  5
24C
100
AcDbEntity
  8
0
100
AcDbCircle
 62
7
  6
CONTINUOUS
 10
202.4025289519
 20
346.7580759374
 40
259.7125468942
100
AcDbArc
 50
299.9619825327
 51
312.35107504
  0
ARC
  5
24D
100
AcDbEntity
  8
0
100
AcDbCircle
 62
7
  6
CONTINUOUS
 10
308.44069064
 20
308.2103354134
 40
22.516135504
100
AcDbArc
 50
299.9995838594
 51
300.3259789941
  0
ARC
  5
24E
100
AcDbEntity
  8
0
100
AcDbCircle
 62
7
  6
CONTINUOUS
 10
308.4406906418
 20
220.3710053755
 40
22.5161355004
100
AcDbArc
 50
299.9995838593
 51
300.3259789941
  0
ARC
  5
24F
100
AcDbEntity
  8
0
100
AcDbCircle
 62
7
  6
CONTINUOUS
 10
308.4406906472
 20
302.4948184809
 40
22.5161354895
100
AcDbArc
 50
299.9995838593
 51
300.3259789942
  0
ARC
  5
250
100
AcDbEntity
  8
0
100
AcDbCircle
 62
7
  6
CONTINUOUS
 10
308.4406906491
 20
226.0865222829
 40
22.5161354859
100
AcDbArc
 50
299.9995838592
 51
300.3259789941
  0
ARC
  5
251
100
AcDbEntity
  8
0
100
AcDbCircle
 62
7
  6
CONTINUOUS
 10
314.7572981316
 20
213.8255419479
 40
13.1034017892
100
AcDbArc
 50
298.620832009
 51
298.8560105155
  0
ARC
  5
252
100
AcDbEntity
  8
0
100
AcDbCircle
 62
7
  6
CONTINUOUS
 10
327.1221237751
 20
196.7311188091
 40
12.8639136553
100
AcDbArc
 50
118.5514608174
 51
119.2811138959
  0
SPLINE
  5
253
100
AcDbEntity
  8
0
100
AcDbSpline
 62
7
  6
CONTINUOUS
 70
0
 71
3
 72
9
 73
5
 74
0
 42
0.0000001
 43
0.0000001
 44
0.0000000001
 40
0.0
 40
0.0
 40
0.0
 40
0.0
 40
0.2457836706
 40
1.0
 40
1.0
 40
1.0
 40
1.0
 10
363.2470840465
 20
343.4194493174
 30
0.0
 10
359.8052551691
 20
341.836552991
 30
0.0
 10
345.8687596583
 20
335.2513190732
 30
0.0
 10
332.2014079526
 20
328.0993100733
 30
0.0
 10
322.0547919905
 20
322.4258405213
 30
0.0
  0
SPLINE
  5
254
100
AcDbEntity
  8
0
100
AcDbSpline
 62
7
  6
CONTINUOUS
 70
0
 71
3
 72
9
 73
5
 74
0
 42
0.0000001
 43
0.0000001
 44
0.0000000001
 40
0.0
 40
0.0
 40
0.0
 40
0.0
 40
0.4964998346
 40
1.0
 40
1.0
 40
1.0
 40
1.0
 10
66.9936436729
 20
460.9781178001
 30
0.0
 10
75.2125988333
 20
465.7233054495
 30
0.0
 10
92.291388106
 20
474.3970083128
 30
0.0
 10
110.17512039
 20
481.2481904927
 30
0.0
 10
119.3200183182
 20
484.2476204194
 30
0.0
  0
SPLINE
  5
255
100
AcDbEntity
  8
0
100
AcDbSpline
 62
7
  6
CONTINUOUS
 70
0
 71
3
 72
8
 73
4
 74
0
 42
0.0000001
 43
0.0000001
 44
0.0000000001
 40
0.0
 40
0.0
 40
0.0
 40
0.0
 40
1.0
 40
1.0
 40
1.0
 40
1.0
 10
321.4840787537
 20
208.306871355
 30
0.0
 10
321.3150321868
 20
208.2129095269
 30
0.0
 10
321.1436745531
 20
208.1231649223
 30
0.0
 10
320.973843429
 20
208.0306286798
 30
0.0
  0
SPLINE
  5
256
100
AcDbEntity
  8
0
100
AcDbSpline
 62
7
  6
CONTINUOUS
 70
0
 71
3
 72
9
 73
5
 74
0
 42
0.0000001
 43
0.0000001
 44
0.0000000001
 40
0.0
 40
0.0
 40
0.0
 40
0.0
 40
0.4960425461
 40
1.0
 40
1.0
 40
1.0
 40
1.0
 10
320.830448317
 20
207.9514171323
 30
0.0
 10
320.6174044682
 20
207.8317921104
 30
0.0
 10
320.1967674643
 20
207.5749503649
 30
0.0
 10
319.7580772291
 20
207.350379402
 30
0.0
 10
319.5407603946
 20
207.2304147842
 30
0.0
  0
LINE
  5
257
100
AcDbEntity
  8
0
100
AcDbLine
 62
7
  6
CONTINUOUS
 10
324.0791198728
 20
291.8797561407
 11
323.4710638986
 21
291.539018634
  0
SPLINE
  5
258
100
AcDbEntity
  8
0
100
AcDbSpline
 62
7
  6
CONTINUOUS
 70
0
 71
3
 72
8
 73
4
 74
0
 42
0.0000001
 43
0.0000001
 44
0.0000000001
 40
0.0
 40
0.0
 40
0.0
 40
0.0
 40
1.0
 40
1.0
 40
1.0
 40
1.0
 10
321.4840787535
 20
290.4306844698
 30
0.0
 10
321.3147652063
 20
290.336574245
 30
0.0
 10
321.1421094312
 20
290.2483326393
 30
0.0
 10
320.9754246165
 20
290.149641281
 30
0.0
  0
SPLINE
  5
259
100
AcDbEntity
  8
0
100
AcDbSpline
 62
7
  6
CONTINUOUS
 70
0
 71
3
 72
8
 73
4
 74
0
 42
0.0000001
 43
0.0000001
 44
0.0000000001
 40
0.0
 40
0.0
 40
0.0
 40
0.0
 40
1.0
 40
1.0
 40
1.0
 40
1.0
 10
320.9754246165
 20
290.149641281
 30
0.0
 10
320.9285386215
 20
290.1218808486
 30
0.0
 10
320.8817849304
 20
290.0938942416
 30
0.0
 10
320.8346982841
 20
290.0664755279
 30
0.0
  0
SPLINE
  5
25A
100
AcDbEntity
  8
0
100
AcDbSpline
 62
7
  6
CONTINUOUS
 70
0
 71
3
 72
8
 73
4
 74
0
 42
0.0000001
 43
0.0000001
 44
0.0000000001
 40
0.0
 40
0.0
 40
0.0
 40
0.0
 40
1.0
 40
1.0
 40
1.0
 40
1.0
 10
320.8346982841
 20
290.0664755279
 30
0.0
 10
320.7879012474
 20
290.0392254548
 30
0.0
 10
320.7407565599
 20
290.0125375531
 30
0.0
 10
320.692932297
 20
289.9871334393
 30
0.0
  0
SPLINE
  5
25B
100
AcDbEntity
  8
0
100
AcDbSpline
 62
7
  6
CONTINUOUS
 70
0
 71
3
 72
8
 73
4
 74
0
 42
0.0000001
 43
0.0000001
 44
0.0000000001
 40
0.0
 40
0.0
 40
0.0
 40
0.0
 40
1.0
 40
1.0
 40
1.0
 40
1.0
 10
320.692932297
 20
289.9871334393
 30
0.0
 10
320.5535963979
 20
289.9131186019
 30
0.0
 10
320.4087102281
 20
289.8496946966
 30
0.0
 10
320.2706700359
 20
289.773290546
 30
0.0
  0
SPLINE
  5
25C
100
AcDbEntity
  8
0
100
AcDbSpline
 62
7
  6
CONTINUOUS
 70
0
 71
3
 72
9
 73
5
 74
0
 42
0.0000001
 43
0.0000001
 44
0.0000000001
 40
0.0
 40
0.0
 40
0.0
 40
0.0
 40
0.4942436776
 40
1.0
 40
1.0
 40
1.0
 40
1.0
 10
320.2845480086
 20
289.7809145096
 30
0.0
 10
320.160923849
 20
289.7124895186
 30
0.0
 10
319.922602217
 20
289.5535473724
 30
0.0
 10
319.6673427179
 20
289.4241046763
 30
0.0
 10
319.5407603945
 20
289.354227899
 30
0.0
  0
SPLINE
  5
25D
100
AcDbEntity
  8
0
100
AcDbSpline
 62
7
  6
CONTINUOUS
 70
0
 71
3
 72
9
 73
5
 74
0
 42
0.0000001
 43
0.0000001
 44
0.0000000001
 40
0.0
 40
0.0
 40
0.0
 40
0.0
 40
0.2617454291
 40
1.0
 40
1.0
 40
1.0
 40
1.0
 10
313.7912547099
 20
280.4967498592
 30
0.0
 10
314.3279280402
 20
280.6576988308
 30
0.0
 10
316.3617732583
 20
281.3245381
 30
0.0
 10
318.3300380803
 20
282.2050468288
 30
0.0
 10
319.698616766
 20
282.9951913849
 30
0.0
  0
SPLINE
  5
25E
100
AcDbEntity
  8
0
100
AcDbSpline
 62
7
  6
CONTINUOUS
 70
0
 71
3
 72
9
 73
5
 74
0
 42
0.0000001
 43
0.0000001
 44
0.0000000001
 40
0.0
 40
0.0
 40
0.0
 40
0.0
 40
0.255346665
 40
1.0
 40
1.0
 40
1.0
 40
1.0
 10
322.1837092731
 20
284.6798302903
 30
0.0
 10
322.2982279313
 20
284.771368221
 30
0.0
 10
322.7421813869
 20
285.1354623546
 30
0.0
 10
323.1675435395
 20
285.5223899007
 30
0.0
 10
323.4710638987
 20
285.8235017141
 30
0.0
  0
SPLINE
  5
25F
100
AcDbEntity
  8
0
100
AcDbSpline
 62
7
  6
CONTINUOUS
 70
0
 71
3
 72
9
 73
5
 74
0
 42
0.0000001
 43
0.0000001
 44
0.0000000001
 40
0.0
 40
0.0
 40
0.0
 40
0.0
 40
0.2617454279
 40
1.0
 40
1.0
 40
1.0
 40
1.0
 10
313.7912545787
 20
198.3729366696
 30
0.0
 10
314.3279279191
 20
198.5338856442
 30
0.0
 10
316.3617731701
 20
199.2007249717
 30
0.0
 10
318.3300380466
 20
200.0812336944
 30
0.0
 10
319.698616766
 20
200.87137827
 30
0.0
  0
SPLINE
  5
260
100
AcDbEntity
  8
0
100
AcDbSpline
 62
7
  6
CONTINUOUS
 70
0
 71
3
 72
9
 73
5
 74
0
 42
0.0000001
 43
0.0000001
 44
0.0000000001
 40
0.0
 40
0.0
 40
0.0
 40
0.0
 40
0.2608824418
 40
1.0
 40
1.0
 40
1.0
 40
1.0
 10
319.8714741371
 20
205.965022933
 30
0.0
 10
319.9088882098
 20
205.9531734173
 30
0.0
 10
320.0511780968
 20
205.9043820365
 30
0.0
 10
320.1890206545
 20
205.84185163
 30
0.0
 10
320.2855009404
 20
205.786584298
 30
0.0
  0
SPLINE
  5
261
100
AcDbEntity
  8
0
100
AcDbSpline
 62
7
  6
CONTINUOUS
 70
0
 71
3
 72
9
 73
5
 74
0
 42
0.0000001
 43
0.0000001
 44
0.0000000001
 40
0.0
 40
0.0
 40
0.0
 40
0.0
 40
0.5510880621
 40
1.0
 40
1.0
 40
1.0
 40
1.0
 10
320.2855009404
 20
205.786584298
 30
0.0
 10
320.439807755
 20
205.698191878
 30
0.0
 10
320.7050277439
 20
205.4966524831
 30
0.0
 10
320.8324231118
 20
205.1732658874
 30
0.0
 10
320.8324886659
 20
205.0284063069
 30
0.0
  0
SPLINE
  5
262
100
AcDbEntity
  8
0
100
AcDbSpline
 62
7
  6
CONTINUOUS
 70
0
 71
3
 72
9
 73
5
 74
0
 42
0.0000001
 43
0.0000001
 44
0.0000000001
 40
0.0
 40
0.0
 40
0.0
 40
0.0
 40
0.255346665
 40
1.0
 40
1.0
 40
1.0
 40
1.0
 10
322.1837092731
 20
202.5560171754
 30
0.0
 10
322.2982279313
 20
202.6475551061
 30
0.0
 10
322.7421813869
 20
203.0116492397
 30
0.0
 10
323.1675435395
 20
203.3985767858
 30
0.0
 10
323.4710638987
 20
203.6996885992
 30
0.0
  0
SPLINE
  5
263
100
AcDbEntity
  8
0
100
AcDbSpline
 62
7
  6
CONTINUOUS
 70
0
 71
3
 72
9
 73
5
 74
0
 42
0.0000001
 43
0.0000001
 44
0.0000000001
 40
0.0
 40
0.0
 40
0.0
 40
0.0
 40
0.2483496759
 40
1.0
 40
1.0
 40
1.0
 40
1.0
 10
49.0264593302
 20
264.430547932
 30
0.0
 10
70.7321237007
 20
251.4699943409
 30
0.0
 10
158.322386802
 20
199.6031491331
 30
0.0
 10
246.662326846
 20
149.0030861398
 30
0.0
 10
313.4507284145
 20
111.6708566848
 30
0.0
  0
SPLINE
  5
264
100
AcDbEntity
  8
0
100
AcDbSpline
 62
7
  6
CONTINUOUS
 70
0
 71
3
 72
11
 73
7
 74
0
 42
0.0000001
 43
0.0000001
 44
0.0000000001
 40
0.0
 40
0.0
 40
0.0
 40
0.0
 40
0.3028066008
 40
0.5684711222
 40
0.7966788441
 40
1.0
 40
1.0
 40
1.0
 40
1.0
 10
319.8714749169
 20
287.2933860567
 30
0.0
 10
320.0085976336
 20
287.3368146275
 30
0.0
 10
320.2601932739
 20
287.4403384896
 30
0.0
 10
320.5729625416
 20
287.6602377795
 30
0.0
 10
320.7807060247
 20
287.9266116015
 30
0.0
 10
320.8324449426
 20
288.1334232457
 30
0.0
 10
320.8324886619
 20
288.2300024406
 30
0.0
  0
SPLINE
  5
265
100
AcDbEntity
  8
0
100
AcDbSpline
 62
7
  6
CONTINUOUS
 70
0
 71
3
 72
9
 73
5
 74
0
 42
0.0000001
 43
0.0000001
 44
0.0000000001
 40
0.0
 40
0.0
 40
0.0
 40
0.0
 40
0.2624057952
 40
1.0
 40
1.0
 40
1.0
 40
1.0
 10
319.8611308684
 20
201.7591558357
 30
0.0
 10
319.8994312765
 20
201.7701443909
 30
0.0
 10
320.0444041233
 20
201.8150846407
 30
0.0
 10
320.1858941688
 20
201.8734604486
 30
0.0
 10
320.2835770497
 20
201.9282546826
 30
0.0
  0
SPLINE
  5
266
100
AcDbEntity
  8
0
100
AcDbSpline
 62
7
  6
CONTINUOUS
 70
0
 71
3
 72
10
 73
6
 74
0
 42
0.0000001
 43
0.0000001
 44
0.0000000001
 40
0.0
 40
0.0
 40
0.0
 40
0.0
 40
0.2511589138
 40
0.6235793462
 40
1.0
 40
1.0
 40
1.0
 40
1.0
 10
323.4710638987
 20
291.539018634
 30
0.0
 10
323.3048466145
 20
291.4459757648
 30
0.0
 10
322.8863124255
 20
291.2254841523
 30
0.0
 10
322.2359606437
 20
290.8346574829
 30
0.0
 10
321.7336115368
 20
290.5693832728
 30
0.0
 10
321.4840787535
 20
290.4306844698
 30
0.0
  0
SPLINE
  5
267
100
AcDbEntity
  8
0
100
AcDbSpline
 62
7
  6
CONTINUOUS
 70
0
 71
3
 72
11
 73
7
 74
0
 42
0.0000001
 43
0.0000001
 44
0.0000000001
 40
0.0
 40
0.0
 40
0.0
 40
0.0
 40
0.2187311576
 40
0.452223902
 40
0.7111638566
 40
1.0
 40
1.0
 40
1.0
 40
1.0
 10
99.5767685305
 20
455.7518561743
 30
0.0
 10
99.0918795543
 20
456.031761486
 30
0.0
 10
97.9819865594
 20
456.4397322329
 30
0.0
 10
96.1384801977
 20
456.5031439586
 30
0.0
 10
94.171799534
 20
456.0542608202
 30
0.0
 10
92.8894301326
 20
455.4649038882
 30
0.0
 10
92.2441313177
 20
455.1040857404
 30
0.0
  0
SPLINE
  5
268
100
AcDbEntity
  8
0
100
AcDbSpline
 62
7
  6
CONTINUOUS
 70
0
 71
3
 72
9
 73
5
 74
0
 42
0.0000001
 43
0.0000001
 44
0.0000000001
 40
0.0
 40
0.0
 40
0.0
 40
0.0
 40
0.2477635309
 40
1.0
 40
1.0
 40
1.0
 40
1.0
 10
48.7632283563
 20
339.5460904479
 30
0.0
 10
70.3317372128
 20
326.4756700162
 30
0.0
 10
157.664299312
 20
274.1848274689
 30
0.0
 10
246.0965921967
 20
223.732945025
 30
0.0
 10
313.1659528108
 20
186.7917948702
 30
0.0
  0
SPLINE
  5
269
100
AcDbEntity
  8
0
100
AcDbSpline
 62
7
  6
CONTINUOUS
 70
0
 71
3
 72
9
 73
5
 74
0
 42
0.0000001
 43
0.0000001
 44
0.0000000001
 40
0.0
 40
0.0
 40
0.0
 40
0.0
 40
0.2478453118
 40
1.0
 40
1.0
 40
1.0
 40
1.0
 10
48.7632283563
 20
449.7241571689
 30
0.0
 10
70.3295432509
 20
436.6336314705
 30
0.0
 10
157.632395438
 20
384.2913192896
 30
0.0
 10
246.0770707786
 20
333.8560244186
 30
0.0
 10
313.1659528108
 20
296.9661918519
 30
0.0
  0
SPLINE
  5
26A
100
AcDbEntity
  8
0
100
AcDbSpline
 62
7
  6
CONTINUOUS
 70
0
 71
3
 72
9
 73
5
 74
0
 42
0.0000001
 43
0.0000001
 44
0.0000000001
 40
0.0
 40
0.0
 40
0.0
 40
0.0
 40
0.4817151005
 40
1.0
 40
1.0
 40
1.0
 40
1.0
 10
377.3645238456
 20
335.2689260386
 30
0.0
 10
370.20225298
 20
330.7079478549
 30
0.0
 10
355.2079273193
 20
321.4371185612
 30
0.0
 10
340.0224369539
 20
312.484146717
 30
0.0
 10
332.1105667718
 20
307.9162536042
 30
0.0
  0
LINE
  5
26B
100
AcDbEntity
  8
0
100
AcDbLine
 62
7
  6
CONTINUOUS
 10
324.0791198728
 20
204.0240960575
 11
323.4710638986
 21
203.6833585508
  0
SPLINE
  5
26C
100
AcDbEntity
  8
0
100
AcDbSpline
 62
7
  6
CONTINUOUS
 70
0
 71
3
 72
9
 73
5
 74
0
 42
0.0000001
 43
0.0000001
 44
0.0000000001
 40
0.0
 40
0.0
 40
0.0
 40
0.0
 40
0.5477072323
 40
1.0
 40
1.0
 40
1.0
 40
1.0
 10
320.4260040998
 20
285.6407452527
 30
0.0
 10
320.5771140803
 20
285.5497745974
 30
0.0
 10
320.8365470189
 20
285.344535522
 30
0.0
 10
320.9716682768
 20
285.0296503742
 30
0.0
 10
320.9810613537
 20
284.884300249
 30
0.0
  0
SPLINE
  5
26D
100
AcDbEntity
  8
0
100
AcDbSpline
 62
7
  6
CONTINUOUS
 70
0
 71
3
 72
8
 73
4
 74
0
 42
0.0000001
 43
0.0000001
 44
0.0000000001
 40
0.0
 40
0.0
 40
0.0
 40
0.0
 40
1.0
 40
1.0
 40
1.0
 40
1.0
 10
320.8370175217
 20
284.3559206818
 30
0.0
 10
320.4946919795
 20
284.1660799492
 30
0.0
 10
320.1522200201
 20
283.9765030011
 30
0.0
 10
319.809602641
 20
283.7871894723
 30
0.0
  0
SPLINE
  5
26E
100
AcDbEntity
  8
0
100
AcDbSpline
 62
7
  6
CONTINUOUS
 70
0
 71
3
 72
9
 73
5
 74
0
 42
0.0000001
 43
0.0000001
 44
0.0000000001
 40
0.0
 40
0.0
 40
0.0
 40
0.0
 40
0.2380185369
 40
1.0
 40
1.0
 40
1.0
 40
1.0
 10
319.698616766
 20
206.5868951899
 30
0.0
 10
319.2573421592
 20
206.3321266976
 30
0.0
 10
317.3673286967
 20
205.3245179995
 30
0.0
 10
315.3537180702
 20
204.5570382887
 30
0.0
 10
313.7912547099
 20
204.0884536643
 30
0.0
  0
SPLINE
  5
26F
100
AcDbEntity
  8
0
100
AcDbSpline
 62
7
  6
CONTINUOUS
 70
0
 71
3
 72
9
 73
5
 74
0
 42
0.0000001
 43
0.0000001
 44
0.0000000001
 40
0.0
 40
0.0
 40
0.0
 40
0.0
 40
0.2530263546
 40
1.0
 40
1.0
 40
1.0
 40
1.0
 10
313.165952811
 20
296.9661936828
 30
0.0
 10
314.7632514029
 20
297.8905929796
 30
0.0
 10
321.0764806544
 20
301.5431805841
 30
0.0
 10
327.3915551353
 20
305.1925789845
 30
0.0
 10
332.1098520952
 20
307.9166727438
 30
0.0
  0
SPLINE
  5
270
100
AcDbEntity
  8
0
100
AcDbSpline
 62
7
  6
CONTINUOUS
 70
0
 71
3
 72
9
 73
5
 74
0
 42
0.0000001
 43
0.0000001
 44
0.0000000001
 40
0.0
 40
0.0
 40
0.0
 40
0.0
 40
0.2378628673
 40
1.0
 40
1.0
 40
1.0
 40
1.0
 10
320.2906716621
 20
204.2731608251
 30
0.0
 10
320.2593394017
 20
204.2550712441
 30
0.0
 10
320.1251922783
 20
204.1832390423
 30
0.0
 10
319.9828548307
 20
204.127209046
 30
0.0
 10
319.8723658359
 20
204.0921354475
 30
0.0
  0
SPLINE
  5
271
100
AcDbEntity
  8
0
100
AcDbSpline
 62
7
  6
CONTINUOUS
 70
0
 71
3
 72
9
 73
5
 74
0
 42
0.0000001
 43
0.0000001
 44
0.0000000001
 40
0.0
 40
0.0
 40
0.0
 40
0.0
 40
0.2447681329
 40
1.0
 40
1.0
 40
1.0
 40
1.0
 10
323.4710638987
 20
209.4152055191
 30
0.0
 10
323.3712957635
 20
209.3162290808
 30
0.0
 10
322.9579396157
 20
208.9176837818
 30
0.0
 10
322.5224205518
 20
208.542275388
 30
0.0
 10
322.1837092731
 20
208.2715340953
 30
0.0
  0
SPLINE
  5
272
100
AcDbEntity
  8
0
100
AcDbSpline
 62
7
  6
CONTINUOUS
 70
0
 71
3
 72
8
 73
4
 74
0
 42
0.0000001
 43
0.0000001
 44
0.0000000001
 40
0.0
 40
0.0
 40
0.0
 40
0.0
 40
1.0
 40
1.0
 40
1.0
 40
1.0
 10
320.2835770497
 20
201.9282546826
 30
0.0
 10
320.1225962392
 20
201.8391502456
 30
0.0
 10
319.9700905226
 20
201.735348877
 30
0.0
 10
319.8097439859
 20
201.6451080315
 30
0.0
  0
SPLINE
  5
273
100
AcDbEntity
  8
0
100
AcDbSpline
 62
7
  6
CONTINUOUS
 70
0
 71
3
 72
8
 73
4
 74
0
 42
0.0000001
 43
0.0000001
 44
0.0000000001
 40
0.0
 40
0.0
 40
0.0
 40
0.0
 40
1.0
 40
1.0
 40
1.0
 40
1.0
 10
321.4840787536
 20
202.5750243867
 30
0.0
 10
321.3494886865
 20
202.5002146524
 30
0.0
 10
321.2159950087
 20
202.4234366438
 30
0.0
 10
321.0811320886
 20
202.3491199212
 30
0.0
  0
SPLINE
  5
274
100
AcDbEntity
  8
0
100
AcDbSpline
 62
7
  6
CONTINUOUS
 70
0
 71
3
 72
8
 73
4
 74
0
 42
0.0000001
 43
0.0000001
 44
0.0000000001
 40
0.0
 40
0.0
 40
0.0
 40
0.0
 40
1.0
 40
1.0
 40
1.0
 40
1.0
 10
321.0339723762
 20
202.3232596145
 30
0.0
 10
320.7911446154
 20
202.1907449188
 30
0.0
 10
320.5416526154
 20
202.0706257523
 30
0.0
 10
320.2996225048
 20
201.9366597432
 30
0.0
  0
SPLINE
  5
275
100
AcDbEntity
  8
0
100
AcDbSpline
 62
7
  6
CONTINUOUS
 70
0
 71
3
 72
9
 73
5
 74
0
 42
0.0000001
 43
0.0000001
 44
0.0000000001
 40
0.0
 40
0.0
 40
0.0
 40
0.0
 40
0.2542455037
 40
1.0
 40
1.0
 40
1.0
 40
1.0
 10
92.2441313177
 20
455.1040857404
 30
0.0
 10
95.6645332926
 20
457.0165998763
 30
0.0
 10
109.1876890636
 20
464.4126946086
 30
0.0
 10
122.9932929054
 20
471.2949011836
 30
0.0
 10
133.4364233737
 20
476.0976945365
 30
0.0
  0
SPLINE
  5
276
100
AcDbEntity
  8
0
100
AcDbSpline
 62
7
  6
CONTINUOUS
 70
0
 71
3
 72
9
 73
5
 74
0
 42
0.0000001
 43
0.0000001
 44
0.0000000001
 40
0.0
 40
0.0
 40
0.0
 40
0.0
 40
0.2356571112
 40
1.0
 40
1.0
 40
1.0
 40
1.0
 10
320.4260040998
 20
205.9664393892
 30
0.0
 10
320.3858826072
 20
205.9905931775
 30
0.0
 10
320.2115912372
 20
206.0863449581
 30
0.0
 10
320.0241968457
 20
206.1571987912
 30
0.0
 10
319.8783145661
 20
206.1995091863
 30
0.0
  0
SPLINE
  5
277
100
AcDbEntity
  8
0
100
AcDbSpline
 62
7
  6
CONTINUOUS
 70
0
 71
3
 72
10
 73
6
 74
0
 42
0.0000001
 43
0.0000001
 44
0.0000000001
 40
0.0
 40
0.0
 40
0.0
 40
0.0
 40
0.2511589138
 40
0.6235793462
 40
1.0
 40
1.0
 40
1.0
 40
1.0
 10
323.4710638987
 20
209.4152055191
 30
0.0
 10
323.3048466146
 20
209.3221626499
 30
0.0
 10
322.8863124255
 20
209.1016710374
 30
0.0
 10
322.2359606438
 20
208.7108443681
 30
0.0
 10
321.7336115369
 20
208.4455701579
 30
0.0
 10
321.4840787536
 20
208.3068713549
 30
0.0
  0
SPLINE
  5
278
100
AcDbEntity
  8
0
100
AcDbSpline
 62
7
  6
CONTINUOUS
 70
0
 71
3
 72
9
 73
5
 74
0
 42
0.0000001
 43
0.0000001
 44
0.0000000001
 40
0.0
 40
0.0
 40
0.0
 40
0.0
 40
0.2447681329
 40
1.0
 40
1.0
 40
1.0
 40
1.0
 10
323.4710638987
 20
291.539018634
 30
0.0
 10
323.3712957635
 20
291.4400421957
 30
0.0
 10
322.9579396157
 20
291.0414968967
 30
0.0
 10
322.5224205518
 20
290.6660885029
 30
0.0
 10
322.1837092731
 20
290.3953472102
 30
0.0
  0
SPLINE
  5
279
100
AcDbEntity
  8
0
100
AcDbSpline
 62
7
  6
CONTINUOUS
 70
0
 71
3
 72
9
 73
5
 74
0
 42
0.0000001
 43
0.0000001
 44
0.0000000001
 40
0.0
 40
0.0
 40
0.0
 40
0.0
 40
0.2380185372
 40
1.0
 40
1.0
 40
1.0
 40
1.0
 10
319.698616766
 20
288.7107083048
 30
0.0
 10
319.2573421494
 20
288.4559398069
 30
0.0
 10
317.3673286463
 20
287.4483310907
 30
0.0
 10
315.3537179858
 20
286.6808513435
 30
0.0
 10
313.7912545935
 20
286.2122667094
 30
0.0
  0
ENDSEC
  0
SECTION
  2
OBJECTS
  0
DICTIONARY
  5
C
100
AcDbDictionary
280
0
281
1
  3
ACAD_GROUP
350
D
  3
ACAD_MLINESTYLE
350
17
  3
ACAD_LAYOUT
350
1A
  3
ACAD_PLOTSETTINGS
350
19
  3
ACAD_PLOTSTYLENAME
350
E
  0
DICTIONARY
  5
D
102
{ACAD_REACTORS
330
C
102
}
100
AcDbDictionary
280
0
281
1
  0
ACDBDICTIONARYWDFLT
  5
E
102
{ACAD_REACTORS
330
C
102
}
100
AcDbDictionary
281
1
  3
Normal
350
F
100
AcDbDictionaryWithDefault
340
F
  0
DICTIONARY
  5
17
102
{ACAD_REACTORS
330
C
102
}
100
AcDbDictionary
280
0
281
1
  3
Standard
350
18
  0
DICTIONARY
  5
19
102
{ACAD_REACTORS
330
C
102
}
100
AcDbDictionary
281
1
  0
DICTIONARY
  5
1A
102
{ACAD_REACTORS
330
C
102
}
100
AcDbDictionary
281
1
  3
Model
350
27A
  3
Layout1
350
27B
  0
ACDBPLACEHOLDER
  5
F
102
{ACAD_REACTORS
330
E
102
}
  0
MLINESTYLE
  5
18
102
{ACAD_REACTORS
330
17
102
}
100
AcDbMlineStyle
  2
STANDARD
 70
0
  3

 62
256
 51
90.0
 52
90.0
 71
2
 49
0.5
 62
256
  6
BYLAYER
 49
-0.5
 62
256
  6
BYLAYER
  0
LAYOUT
  5
27A
102
{ACAD_REACTORS
330
1A
102
}
100
AcDbPlotSettings
  1

  2
none_device
  4

  6

 40
0.0
 41
0.0
 42
0.0
 43
0.0
 44
210.0
 45
297.0
 46
0.0
 47
0.0
 48
0.0
 49
0.0
140
0.0
141
0.0
142
1.0
143
1.0
 70
1024
 72
1
 73
0
 74
0
  7

 75
0
147
1.0
148
0.0
149
0.0
100
AcDbLayout
  1
Model
 70
0
 71
0
 10
0.0
 20
0.0
 11
210.0
 21
297.0
 12
0.0
 22
0.0
 32
0.0
 14
0.0
 24
0.0
 34
0.0
 15
0.0
 25
0.0
 35
0.0
146
0.0
 13
0.0
 23
0.0
 33
0.0
 16
1.0
 26
0.0
 36
0.0
 17
0.0
 27
1.0
 37
0.0
 76
0
330
210
345
0
346
0
  0
LAYOUT
  5
27B
102
{ACAD_REACTORS
330
1A
102
}
100
AcDbPlotSettings
  1

  2
none_device
  4

  6

 40
0.0
 41
0.0
 42
0.0
 43
0.0
 44
210.0
 45
297.0
 46
0.0
 47
0.0
 48
0.0
 49
0.0
140
0.0
141
0.0
142
1.0
143
1.0
 70
0
 72
1
 73
0
 74
0
  7

 75
0
147
1.0
148
0.0
149
0.0
100
AcDbLayout
  1
Layout1
 70
0
 71
1
 10
0.0
 20
0.0
 11
210.0
 21
297.0
 12
0.0
 22
0.0
 32
0.0
 14
0.0
 24
0.0
 34
0.0
 15
0.0
 25
0.0
 35
0.0
146
0.0
 13
0.0
 23
0.0
 33
0.0
 16
1.0
 26
0.0
 36
0.0
 17
0.0
 27
1.0
 37
0.0
 76
0
330
211
345
0
346
0
  0
ENDSEC
  0
EOF
