999
DXF file: C:\Users\sesa63760\Dev\_Creo\CAD\MCADFD0002811_3D-CAD\drw0001_1.dxf
999
Pro/ENGINEER 2019471 by Parametric Technology Corporation
  0
SECTION
  2
HEADER
  9
$ACADVER
  1
AC1024
  9
$DWGCODEPAGE
  3
ANSI_1252
  9
$EXTMAX
 10
359.0544113888
 20
507.8055246785
 30
0.0
  9
$EXTMIN
 10
0.0
 20
0.0
 30
0.0
  9
$LIMMIN
 10
0.0
 20
0.0
  9
$LIMMAX
 10
359.0544113888
 20
507.8055246785
  9
$VIEWCTR
 10
179.5272056944
 20
253.9027623392
  9
$VIEWSIZE
 40
507.8055246785
  9
$CLAYER
  8
0
  9
$LTSCALE
 40
33.1013971642
  9
$CELTYPE
  6
BYLAYER
  9
$DIMSCALE
 40
1.0
  9
$DIMASZ
 40
4.2744572784
  9
$DIMEXO
 40
1.0
  9
$DIMDLI
 40
22.8700562226
  9
$DIMEXE
 40
1.0
  9
$DIMCEN
 40
5.4165922632
  9
$DIMLFAC
 40
1.0
  9
$DIMBLK
  1
_FILLED
  9
$DIMALT
 70
0
  9
$DIMALTF
 40
0.0393700787
  9
$DIMTXT
 40
5.9842401898
  9
$DIMTOL
 70
1
  9
$DIMLIM
 70
0
  9
$DIMTFAC
 40
1.0
  9
$DIMTP
 40
0.01
  9
$DIMTM
 40
0.01
  9
$DIMGAP
 40
0.625
  9
$DIMDSEP
 70
46
  9
$AUNITS
 70
0
  9
$PDMODE
 70
3
  9
$PDSIZE
 40
0.3125
  9
$HANDSEED
  5
27F
  9
$TILEMODE
 70
1
  9
$MEASUREMENT
 70
1
  9
$INSUNITS
 70
4
  0
ENDSEC
  0
SECTION
  2
CLASSES
  0
CLASS
  1
ACDBDICTIONARYWDFLT
  2
AcDbDictionaryWithDefault
  3
AutoCAD 2000
 90
0
 91
1
280
0
281
0
  0
CLASS
  1
ACDBPLACEHOLDER
  2
AcDbPlaceHolder
  3
AutoCAD 2000
 90
0
 91
1
280
0
281
0
  0
CLASS
  1
LAYOUT
  2
AcDbLayout
  3
AutoCAD 2000
 90
0
 91
0
280
0
281
0
  0
ENDSEC
  0
SECTION
  2
TABLES
  0
TABLE
  2
VPORT
  5
8
100
AcDbSymbolTable
 70
2
  0
VPORT
  5
1F4
100
AcDbSymbolTableRecord
100
AcDbViewportTableRecord
  2
*ACTIVE
 70
0
 10
0.0
 20
0.0
 11
1.0
 21
1.0
 12
179.5272056944
 22
253.9027623392
 13
0.0
 23
0.0
 14
1.0
 24
1.0
 15
0.0
 25
0.0
 16
0.0
 26
0.0
 36
1.0
 17
0.0
 27
0.0
 37
0.0
 40
507.8055246785
 41
0.7070707071
 42
50.0
 43
0.0
 44
0.0
 50
0.0
 51
0.0
 71
0
 72
100
 73
1
 74
1
 75
0
 76
0
 77
0
 78
0
  0
ENDTAB
  0
TABLE
  2
LTYPE
  5
5
100
AcDbSymbolTable
 70
6
  0
LTYPE
  5
14
100
AcDbSymbolTableRecord
100
AcDbLinetypeTableRecord
  2
BYBLOCK
 70
0
  3

 72
65
 73
0
 40
0.0
  0
LTYPE
  5
15
100
AcDbSymbolTableRecord
100
AcDbLinetypeTableRecord
  2
BYLAYER
 70
0
  3

 72
65
 73
0
 40
0.0
  0
LTYPE
  5
16
100
AcDbSymbolTableRecord
100
AcDbLinetypeTableRecord
  2
CONTINUOUS
 70
64
  3
Solid line
 72
65
 73
0
 40
0.0
  0
LTYPE
  5
1F5
100
AcDbSymbolTableRecord
100
AcDbLinetypeTableRecord
  2
CENTER
 70
64
  3
____ _ ____ _ ____ _ ____ _ ____ _ ____ _ ____
 72
65
 73
4
 40
0.6
 49
0.375
 74
0
 49
-0.075
 74
0
 49
0.075
 74
0
 49
-0.075
 74
0
  0
LTYPE
  5
1F6
100
AcDbSymbolTableRecord
100
AcDbLinetypeTableRecord
  2
HIDDEN
 70
64
  3
- - - - - - - - - - - - - - - - - - - -
 72
65
 73
2
 40
0.2
 49
0.1
 74
0
 49
-0.1
 74
0
  0
LTYPE
  5
1F7
100
AcDbSymbolTableRecord
100
AcDbLinetypeTableRecord
  2
PHANTOM
 70
64
  3
_____ _ _ _____ _ _ _____ _ _ _____
 72
65
 73
6
 40
0.8
 49
0.45
 74
0
 49
-0.05
 74
0
 49
0.1
 74
0
 49
-0.05
 74
0
 49
0.1
 74
0
 49
-0.05
 74
0
  0
LTYPE
  5
1F8
100
AcDbSymbolTableRecord
100
AcDbLinetypeTableRecord
  2
DOT
 70
64
  3
. . . . . . . . . . . . . . . . . . . .
 72
65
 73
2
 40
0.2
 49
0.1
 74
0
 49
-0.1
 74
0
  0
LTYPE
  5
1F9
100
AcDbSymbolTableRecord
100
AcDbLinetypeTableRecord
  2
DASHED
 70
64
  3
- - - - - - - - - - - - - - - - - - - -
 72
65
 73
2
 40
0.2
 49
0.1
 74
0
 49
-0.1
 74
0
  0
ENDTAB
  0
TABLE
  2
LAYER
  5
2
100
AcDbSymbolTable
 70
36
  0
LAYER
  5
10
100
AcDbSymbolTableRecord
100
AcDbLayerTableRecord
  2
0
 70
0
 62
7
  6
CONTINUOUS
370
-3
390
F
  0
LAYER
  5
1FA
100
AcDbSymbolTableRecord
100
AcDbLayerTableRecord
  2
DEFAULT_1
 70
0
 62
7
  6
CENTER
370
-3
390
F
  0
LAYER
  5
1FB
100
AcDbSymbolTableRecord
100
AcDbLayerTableRecord
  2
DEFAULT_2
 70
0
 62
8
  6
HIDDEN
370
-3
390
F
  0
LAYER
  5
1FC
100
AcDbSymbolTableRecord
100
AcDbLayerTableRecord
  2
DEFAULT_3
 70
0
 62
7
  6
PHANTOM
370
-3
390
F
  0
LAYER
  5
1FD
100
AcDbSymbolTableRecord
100
AcDbLayerTableRecord
  2
00_COMPONENTS
 70
0
 62
7
  6
CONTINUOUS
370
-3
390
F
  0
LAYER
  5
1FE
100
AcDbSymbolTableRecord
100
AcDbLayerTableRecord
  2
01_1_DEFAULT_DATUMS
 70
0
 62
7
  6
CONTINUOUS
370
-3
390
F
  0
LAYER
  5
1FF
100
AcDbSymbolTableRecord
100
AcDbLayerTableRecord
  2
01_PLANES
 70
0
 62
7
  6
CONTINUOUS
370
-3
390
F
  0
LAYER
  5
200
100
AcDbSymbolTableRecord
100
AcDbLayerTableRecord
  2
02_COORD_SYS
 70
0
 62
7
  6
CONTINUOUS
370
-3
390
F
  0
LAYER
  5
201
100
AcDbSymbolTableRecord
100
AcDbLayerTableRecord
  2
03_AXES
 70
0
 62
7
  6
CONTINUOUS
370
-3
390
F
  0
LAYER
  5
202
100
AcDbSymbolTableRecord
100
AcDbLayerTableRecord
  2
04_POINTS
 70
0
 62
7
  6
CONTINUOUS
370
-3
390
F
  0
LAYER
  5
203
100
AcDbSymbolTableRecord
100
AcDbLayerTableRecord
  2
05_CURVES
 70
0
 62
7
  6
CONTINUOUS
370
-3
390
F
  0
LAYER
  5
204
100
AcDbSymbolTableRecord
100
AcDbLayerTableRecord
  2
06_SURFS
 70
0
 62
7
  6
CONTINUOUS
370
-3
390
F
  0
LAYER
  5
205
100
AcDbSymbolTableRecord
100
AcDbLayerTableRecord
  2
07_COSMETICS
 70
0
 62
7
  6
CONTINUOUS
370
-3
390
F
  0
LAYER
  5
206
100
AcDbSymbolTableRecord
100
AcDbLayerTableRecord
  2
10_NOTES
 70
0
 62
7
  6
CONTINUOUS
370
-3
390
F
  0
LAYER
  5
207
100
AcDbSymbolTableRecord
100
AcDbLayerTableRecord
  2
11_NOTES_PUB
 70
0
 62
7
  6
CONTINUOUS
370
-3
390
F
  0
LAYER
  5
208
100
AcDbSymbolTableRecord
100
AcDbLayerTableRecord
  2
13_REF_GTOL
 70
0
 62
7
  6
CONTINUOUS
370
-3
390
F
  0
LAYER
  5
209
100
AcDbSymbolTableRecord
100
AcDbLayerTableRecord
  2
16_MISC
 70
0
 62
7
  6
CONTINUOUS
370
-3
390
F
  0
LAYER
  5
20A
100
AcDbSymbolTableRecord
100
AcDbLayerTableRecord
  2
17_NO_PRINT
 70
0
 62
7
  6
CONTINUOUS
370
-3
390
F
  0
LAYER
  5
20B
100
AcDbSymbolTableRecord
100
AcDbLayerTableRecord
  2
18_DATUM_CAMS_JOINTS
 70
0
 62
7
  6
CONTINUOUS
370
-3
390
F
  0
LAYER
  5
20C
100
AcDbSymbolTableRecord
100
AcDbLayerTableRecord
  2
19_DATUM_FUNCTIONAL
 70
0
 62
7
  6
CONTINUOUS
370
-3
390
F
  0
LAYER
  5
20D
100
AcDbSymbolTableRecord
100
AcDbLayerTableRecord
  2
20_DATUM_KINEMATIC_SCHEME
 70
0
 62
7
  6
CONTINUOUS
370
-3
390
F
  0
ENDTAB
  0
TABLE
  2
STYLE
  5
3
100
AcDbSymbolTable
 70
1
  0
STYLE
  5
11
100
AcDbSymbolTableRecord
100
AcDbTextStyleTableRecord
  2
STANDARD
 70
0
 40
0.0
 41
0.8
 50
0.0
 71
0
 42
0.2
  3
txt
  4

  0
STYLE
  5
20E
100
AcDbSymbolTableRecord
100
AcDbTextStyleTableRecord
  2
TEXTSTYLE_1
 70
0
 40
0.0
 41
0.8
 50
0.0
 71
0
 42
0.2
  3
gdt
  4

  0
ENDTAB
  0
TABLE
  2
VIEW
  5
6
100
AcDbSymbolTable
 70
0
  0
ENDTAB
  0
TABLE
  2
UCS
  5
7
100
AcDbSymbolTable
 70
0
  0
ENDTAB
  0
TABLE
  2
APPID
  5
9
100
AcDbSymbolTable
 70
1
  0
APPID
  5
20F
100
AcDbSymbolTableRecord
100
AcDbRegAppTableRecord
  2
ACAD
 70
0
  0
ENDTAB
  0
TABLE
  2
BLOCK_RECORD
  5
1
100
AcDbSymbolTable
 70
0
  0
BLOCK_RECORD
  5
210
100
AcDbSymbolTableRecord
100
AcDbBlockTableRecord
  2
*Model_Space
  0
BLOCK_RECORD
  5
211
100
AcDbSymbolTableRecord
100
AcDbBlockTableRecord
  2
*Paper_Space
  0
BLOCK_RECORD
  5
212
100
AcDbSymbolTableRecord
100
AcDbBlockTableRecord
  2
_FILLED
  0
ENDTAB
  0
TABLE
  2
DIMSTYLE
  5
A
100
AcDbSymbolTable
 70
1
100
AcDbDimStyleTable
 71
0
  0
DIMSTYLE
105
213
100
AcDbSymbolTableRecord
100
AcDbDimStyleTableRecord
  2
STANDARD
 70
0
  3

  4

 40
1.0
 41
4.2744572784
 42
1.0
 43
0.38
 44
1.0
 45
0.0
 46
0.0
 47
0.01
 48
0.01
140
5.9842401898
141
0.09
142
0.0
143
25.4
144
1.0
145
0.0
146
1.0
147
0.625
 71
1
 72
0
 73
0
 74
0
 75
0
 76
0
 77
1
 78
8
 79
2
170
0
171
1
172
0
173
0
174
0
175
0
176
0
177
0
178
0
270
2
179
2
271
2
272
2
273
2
274
2
275
0
280
0
281
0
282
0
283
1
284
8
285
0
286
0
287
3
288
0
340
11
278
46
341
212
342
212
343
212
344
212
  0
ENDTAB
  0
ENDSEC
  0
SECTION
  2
BLOCKS
  0
BLOCK
  5
20
100
AcDbEntity
  8
0
100
AcDbBlockBegin
  2
*Model_Space
 70
0
 10
0.0
 20
0.0
 30
0.0
  3
*Model_Space
  1

  0
ENDBLK
  5
21
100
AcDbEntity
  8
0
100
AcDbBlockEnd
  0
BLOCK
  5
1C
100
AcDbEntity
  8
0
100
AcDbBlockBegin
  2
*Paper_Space
 70
0
 10
0.0
 20
0.0
 30
0.0
  3
*Paper_Space
  1

  0
ENDBLK
  5
1D
100
AcDbEntity
  8
0
100
AcDbBlockEnd
  0
BLOCK
  5
214
100
AcDbEntity
  8
0
100
AcDbBlockBegin
  2
_FILLED
 70
64
 10
0.0
 20
0.0
  3
_FILLED
  1

  0
SOLID
  5
215
100
AcDbEntity
  8
0
  6
BYBLOCK
 62
0
100
AcDbTrace
 10
0.0
 20
0.0
 11
-1.0
 21
0.25
 12
-1.0
 22
-0.25
 13
-1.0
 23
-0.25
  0
ENDBLK
  5
216
100
AcDbEntity
  8
0
  6
BYBLOCK
 62
0
100
AcDbBlockEnd
  0
ENDSEC
  0
SECTION
  2
ENTITIES
  0
LINE
  5
217
100
AcDbEntity
  8
0
100
AcDbLine
 62
7
  6
CONTINUOUS
 10
129.4607397659
 20
468.2272568598
 11
130.1827826944
 21
468.6441260506
  0
LINE
  5
218
100
AcDbEntity
  8
0
100
AcDbLine
 62
7
  6
CONTINUOUS
 10
140.7894462354
 20
460.0710600076
 11
142.910757747
 21
461.2957924692
  0
LINE
  5
219
100
AcDbEntity
  8
0
100
AcDbLine
 62
7
  6
CONTINUOUS
 10
142.8400473633
 20
460.3782163308
 11
107.7865198487
 21
440.8466984981
  0
LINE
  5
21A
100
AcDbEntity
  8
0
100
AcDbLine
 62
7
  6
CONTINUOUS
 10
55.5497440452
 20
222.7482180576
 11
55.5497440457
 21
434.984134991
  0
LINE
  5
21B
100
AcDbEntity
  8
0
100
AcDbLine
 62
7
  6
CONTINUOUS
 10
251.9600813382
 20
130.2132635516
 11
252.5156259493
 21
130.1852038493
  0
LINE
  5
21C
100
AcDbEntity
  8
0
100
AcDbLine
 62
7
  6
CONTINUOUS
 10
252.5156259493
 20
130.2015338976
 11
253.2053550503
 21
130.1666967434
  0
LINE
  5
21D
100
AcDbEntity
  8
0
100
AcDbLine
 62
7
  6
CONTINUOUS
 10
253.2053550503
 20
135.8822136633
 11
252.5156259494
 21
135.9170508175
  0
LINE
  5
21E
100
AcDbEntity
  8
0
100
AcDbLine
 62
7
  6
CONTINUOUS
 10
254.4696601685
 20
131.8770012785
 11
255.0935546105
 21
131.6247884258
  0
LINE
  5
21F
100
AcDbEntity
  8
0
100
AcDbLine
 62
7
  6
CONTINUOUS
 10
140.7894462354
 20
461.6869262819
 11
140.7894462354
 21
460.0710600076
  0
LINE
  5
220
100
AcDbEntity
  8
0
100
AcDbLine
 62
7
  6
CONTINUOUS
 10
142.910757747
 20
461.2957924692
 11
142.910757747
 21
460.3782163308
  0
LINE
  5
221
100
AcDbEntity
  8
0
100
AcDbLine
 62
7
  6
CONTINUOUS
 10
295.6316553626
 20
372.2907547107
 11
296.3535681039
 21
372.7075487383
  0
LINE
  5
222
100
AcDbEntity
  8
0
100
AcDbLine
 62
7
  6
CONTINUOUS
 10
309.0815431566
 20
365.359215157
 11
308.3670825362
 21
364.9467235877
  0
LINE
  5
223
100
AcDbEntity
  8
0
100
AcDbLine
 62
7
  6
CONTINUOUS
 10
263.1198335024
 20
337.5815763685
 11
243.5203209222
 21
326.2658412671
  0
LINE
  5
224
100
AcDbEntity
  8
0
100
AcDbLine
 62
7
  6
CONTINUOUS
 10
251.4098138713
 20
315.3168887733
 11
250.8047960524
 21
314.9675836577
  0
LINE
  5
225
100
AcDbEntity
  8
0
100
AcDbLine
 62
7
  6
CONTINUOUS
 10
250.5362876629
 20
134.820625923
 11
250.8047960524
 21
134.2420886572
  0
LINE
  5
226
100
AcDbEntity
  8
0
100
AcDbLine
 62
7
  6
CONTINUOUS
 10
243.5203269561
 20
114.0364881307
 11
243.5203269561
 21
326.2658310031
  0
LINE
  5
227
100
AcDbEntity
  8
0
100
AcDbLine
 62
7
  6
CONTINUOUS
 10
244.795100104
 20
125.9677995162
 11
244.795100104
 21
131.6833164361
  0
LINE
  5
228
100
AcDbEntity
  8
0
100
AcDbLine
 62
7
  6
CONTINUOUS
 10
244.7950992253
 20
216.8363532549
 11
244.7950992253
 21
225.0013774262
  0
LINE
  5
229
100
AcDbEntity
  8
0
100
AcDbLine
 62
7
  6
CONTINUOUS
 10
244.795100104
 20
310.1544147723
 11
244.795100104
 21
315.8699316922
  0
LINE
  5
22A
100
AcDbEntity
  8
0
100
AcDbLine
 62
7
  6
CONTINUOUS
 10
250.8047960524
 20
318.4287039133
 11
250.8047960524
 21
312.7131869934
  0
LINE
  5
22B
100
AcDbEntity
  8
0
100
AcDbLine
 62
7
  6
CONTINUOUS
 10
250.8047960524
 20
134.2420886572
 11
250.8047960524
 21
128.5265717373
  0
LINE
  5
22C
100
AcDbEntity
  8
0
100
AcDbLine
 62
7
  6
CONTINUOUS
 10
251.9600813383
 20
314.416208856
 11
253.2053550503
 21
314.3533119995
  0
LINE
  5
22D
100
AcDbEntity
  8
0
100
AcDbLine
 62
7
  6
CONTINUOUS
 10
251.4098138713
 20
133.5797807686
 11
251.4098138713
 21
135.3036498249
  0
LINE
  5
22E
100
AcDbEntity
  8
0
100
AcDbLine
 62
7
  6
CONTINUOUS
 10
251.4098138713
 20
315.3168887733
 11
251.4098138713
 21
317.3400137719
  0
LINE
  5
22F
100
AcDbEntity
  8
0
100
AcDbLine
 62
7
  6
CONTINUOUS
 10
251.8176912163
 20
130.3138961068
 11
251.8176912163
 21
132.6409279957
  0
LINE
  5
230
100
AcDbEntity
  8
0
100
AcDbLine
 62
7
  6
CONTINUOUS
 10
251.8176912163
 20
317.9053264424
 11
251.8176912163
 21
319.7230153826
  0
LINE
  5
231
100
AcDbEntity
  8
0
100
AcDbLine
 62
7
  6
CONTINUOUS
 10
251.9600813383
 20
319.80153303
 11
251.9600813383
 21
314.416208856
  0
LINE
  5
232
100
AcDbEntity
  8
0
100
AcDbLine
 62
7
  6
CONTINUOUS
 10
251.9600813383
 20
135.6085962139
 11
251.9600813383
 21
130.2132635516
  0
LINE
  5
233
100
AcDbEntity
  8
0
100
AcDbLine
 62
7
  6
CONTINUOUS
 10
253.2053550503
 20
130.1666967434
 11
253.2053550503
 21
135.8822136633
  0
LINE
  5
234
100
AcDbEntity
  8
0
100
AcDbLine
 62
7
  6
CONTINUOUS
 10
253.2053550503
 20
314.3533119995
 11
253.2053550503
 21
320.0688289194
  0
LINE
  5
235
100
AcDbEntity
  8
0
100
AcDbLine
 62
7
  6
CONTINUOUS
 10
254.4696601685
 20
131.2751793273
 11
254.4696601685
 21
321.1936415516
  0
LINE
  5
236
100
AcDbEntity
  8
0
100
AcDbLine
 62
7
  6
CONTINUOUS
 10
255.0935546105
 20
131.6247884258
 11
255.0935546105
 21
321.5432506502
  0
LINE
  5
237
100
AcDbEntity
  8
0
100
AcDbLine
 62
7
  6
CONTINUOUS
 10
263.1198349532
 20
337.5815738549
 11
263.1198349532
 21
49.3562233438
  0
LINE
  5
238
100
AcDbEntity
  8
0
100
AcDbLine
 62
7
  6
CONTINUOUS
 10
253.2053550503
 20
320.0688289194
 11
252.5156259493
 21
320.1036660736
  0
LINE
  5
239
100
AcDbEntity
  8
0
100
AcDbLine
 62
7
  6
CONTINUOUS
 10
250.5362876629
 20
319.0072411791
 11
250.8047960524
 21
318.4287039133
  0
LINE
  5
23A
100
AcDbEntity
  8
0
100
AcDbLine
 62
7
  6
CONTINUOUS
 10
74.3215403015
 20
446.5818558547
 11
263.1198335024
 21
337.5815763685
  0
LINE
  5
23B
100
AcDbEntity
  8
0
100
AcDbLine
 62
7
  6
CONTINUOUS
 10
308.3742118881
 20
82.4243604637
 11
308.3745569628
 21
364.9337774237
  0
LINE
  5
23C
100
AcDbEntity
  8
0
100
AcDbLine
 62
7
  6
CONTINUOUS
 10
309.0815431566
 20
365.359215157
 11
309.0815431566
 21
86.0811113788
  0
LINE
  5
23D
100
AcDbEntity
  8
0
100
AcDbLine
 62
7
  6
CONTINUOUS
 10
251.8176328704
 20
132.6409280773
 11
251.2758442079
 21
131.8856825998
  0
LINE
  5
23E
100
AcDbEntity
  8
0
100
AcDbLine
 62
7
  6
CONTINUOUS
 10
251.2758442079
 20
129.558650711
 11
251.8176623612
 21
130.313896121
  0
LINE
  5
23F
100
AcDbEntity
  8
0
100
AcDbLine
 62
7
  6
CONTINUOUS
 10
99.5971541792
 20
440.6933174857
 11
253.0399645361
 21
352.1050737548
  0
LINE
  5
240
100
AcDbEntity
  8
0
100
AcDbLine
 62
7
  6
CONTINUOUS
 10
106.9298920321
 20
441.3412616101
 11
257.3983533615
 21
354.4702202425
  0
LINE
  5
241
100
AcDbEntity
  8
0
100
AcDbLine
 62
7
  6
CONTINUOUS
 10
251.9600813383
 20
135.6085962139
 11
252.5156259493
 21
135.9170508175
  0
LINE
  5
242
100
AcDbEntity
  8
0
100
AcDbLine
 62
7
  6
CONTINUOUS
 10
142.8400473633
 20
460.3782163308
 11
294.1138141756
 21
373.0422421441
  0
LINE
  5
243
100
AcDbEntity
  8
0
100
AcDbLine
 62
7
  6
CONTINUOUS
 10
308.3745569628
 20
364.9337774237
 11
294.2322565923
 21
373.098682551
  0
LINE
  5
244
100
AcDbEntity
  8
0
100
AcDbLine
 62
7
  6
CONTINUOUS
 10
140.7894462354
 20
461.6869262819
 11
126.6474909398
 21
469.8514120421
  0
LINE
  5
245
100
AcDbEntity
  8
0
100
AcDbLine
 62
7
  6
CONTINUOUS
 10
309.0815431566
 20
365.359215157
 11
296.3535681039
 21
372.7075487383
  0
LINE
  5
246
100
AcDbEntity
  8
0
100
AcDbLine
 62
7
  6
CONTINUOUS
 10
142.910757747
 20
461.2957924692
 11
130.1827826944
 21
468.6441260506
  0
LINE
  5
247
100
AcDbEntity
  8
0
100
AcDbLine
 62
7
  6
CONTINUOUS
 10
308.3742158559
 20
85.6727382089
 11
309.0815431566
 21
86.0811113788
  0
ARC
  5
248
100
AcDbEntity
  8
0
100
AcDbCircle
 62
7
  6
CONTINUOUS
 10
-122.0688426452
 20
809.8557535703
 40
771.0428047065
100
AcDbArc
 50
298.4116007363
 51
298.8977698906
  0
ARC
  5
249
100
AcDbEntity
  8
0
100
AcDbCircle
 62
7
  6
CONTINUOUS
 10
-122.0688284587
 20
994.0423429604
 40
771.0427752056
100
AcDbArc
 50
298.4116007278
 51
298.8977698965
  0
ARC
  5
24A
100
AcDbEntity
  8
0
100
AcDbCircle
 62
7
  6
CONTINUOUS
 10
-120.5108524158
 20
900.3094085708
 40
767.7821144261
100
AcDbArc
 50
298.4110453157
 51
299.2351070216
  0
ARC
  5
24B
100
AcDbEntity
  8
0
100
AcDbCircle
 62
7
  6
CONTINUOUS
 10
-118.2123145635
 20
802.8453876524
 40
763.0416855765
100
AcDbArc
 50
298.8986275075
 51
299.0208210008
  0
ARC
  5
24C
100
AcDbEntity
  8
0
100
AcDbCircle
 62
7
  6
CONTINUOUS
 10
-116.0537140586
 20
798.9597203219
 40
758.5966912512
100
AcDbArc
 50
299.0686210682
 51
299.2376146144
  0
ARC
  5
24D
100
AcDbEntity
  8
0
100
AcDbCircle
 62
7
  6
CONTINUOUS
 10
71.3877986932
 20
381.4577848774
 40
383.474407101
100
AcDbArc
 50
296.8063216477
 51
299.9991085099
  0
ARC
  5
24E
100
AcDbEntity
  8
0
100
AcDbCircle
 62
7
  6
CONTINUOUS
 10
259.4404288284
 20
125.9624046541
 40
370.2240352646
100
AcDbArc
 50
120.0012281952
 51
123.4165896363
  0
ARC
  5
24F
100
AcDbEntity
  8
0
100
AcDbCircle
 62
7
  6
CONTINUOUS
 10
133.222053157
 20
274.6214138056
 40
260.0347834454
100
AcDbArc
 50
299.9695728534
 51
312.3434323324
  0
ARC
  5
250
100
AcDbEntity
  8
0
100
AcDbCircle
 62
7
  6
CONTINUOUS
 10
264.8649828914
 20
106.2498581353
 40
26.928110587
100
AcDbArc
 50
118.3021282372
 51
118.4662470932
  0
ARC
  5
251
100
AcDbEntity
  8
0
100
AcDbCircle
 62
7
  6
CONTINUOUS
 10
239.4386649448
 20
147.969660806
 40
22.5216040479
100
AcDbArc
 50
299.9996096429
 51
300.3099001135
  0
ARC
  5
252
100
AcDbEntity
  8
0
100
AcDbCircle
 62
7
  6
CONTINUOUS
 10
239.4386649458
 20
332.1562760604
 40
22.5216040459
100
AcDbArc
 50
299.9996096429
 51
300.3099001135
  0
ARC
  5
253
100
AcDbEntity
  8
0
100
AcDbCircle
 62
7
  6
CONTINUOUS
 10
239.4386649472
 20
337.8717929778
 40
22.5216040431
100
AcDbArc
 50
299.9996096429
 51
300.3099001136
  0
ARC
  5
254
100
AcDbEntity
  8
0
100
AcDbCircle
 62
7
  6
CONTINUOUS
 10
239.4386649483
 20
153.6851777199
 40
22.521604041
100
AcDbArc
 50
299.9996096429
 51
300.3099001136
  0
ARC
  5
255
100
AcDbEntity
  8
0
100
AcDbCircle
 62
7
  6
CONTINUOUS
 10
257.8539762913
 20
309.0408753488
 40
12.2700723169
100
AcDbArc
 50
118.7134155824
 51
119.2963707652
  0
SPLINE
  5
256
100
AcDbEntity
  8
0
100
AcDbSpline
 62
7
  6
CONTINUOUS
 70
0
 71
3
 72
9
 73
5
 74
0
 42
0.0000001
 43
0.0000001
 44
0.0000000001
 40
0.0
 40
0.0
 40
0.0
 40
0.0
 40
0.2457836706
 40
1.0
 40
1.0
 40
1.0
 40
1.0
 10
294.2322565923
 20
373.098682551
 30
0.0
 10
290.7904277114
 20
371.5157862335
 30
0.0
 10
276.853932207
 20
364.9305523014
 30
0.0
 10
263.186580499
 20
357.7785433071
 30
0.0
 10
253.0399645363
 20
352.1050737548
 30
0.0
  0
LINE
  5
257
100
AcDbEntity
  8
0
100
AcDbLine
 62
7
  6
CONTINUOUS
 10
255.0935546106
 20
321.5432506501
 11
254.4696601685
 21
321.1936415516
  0
SPLINE
  5
258
100
AcDbEntity
  8
0
100
AcDbSpline
 62
7
  6
CONTINUOUS
 70
0
 71
3
 72
8
 73
4
 74
0
 42
0.0000001
 43
0.0000001
 44
0.0000000001
 40
0.0
 40
0.0
 40
0.0
 40
0.0
 40
1.0
 40
1.0
 40
1.0
 40
1.0
 10
252.5156259493
 20
320.1036660736
 30
0.0
 10
252.3312104778
 20
320.0011536826
 30
0.0
 10
252.1440937109
 20
319.9035698158
 30
0.0
 10
251.9590793793
 20
319.8021422379
 30
0.0
  0
SPLINE
  5
259
100
AcDbEntity
  8
0
100
AcDbSpline
 62
7
  6
CONTINUOUS
 70
0
 71
3
 72
9
 73
5
 74
0
 42
0.0000001
 43
0.0000001
 44
0.0000000001
 40
0.0
 40
0.0
 40
0.0
 40
0.0
 40
0.4960413018
 40
1.0
 40
1.0
 40
1.0
 40
1.0
 10
251.8498960126
 20
319.7416087194
 30
0.0
 10
251.6329034345
 20
319.6197626562
 30
0.0
 10
251.2044635312
 20
319.3581615945
 30
0.0
 10
250.7576377245
 20
319.1294262492
 30
0.0
 10
250.5362876629
 20
319.0072411791
 30
0.0
  0
SPLINE
  5
25A
100
AcDbEntity
  8
0
100
AcDbSpline
 62
7
  6
CONTINUOUS
 70
0
 71
3
 72
9
 73
5
 74
0
 42
0.0000001
 43
0.0000001
 44
0.0000000001
 40
0.0
 40
0.0
 40
0.0
 40
0.0
 40
0.2528943105
 40
1.0
 40
1.0
 40
1.0
 40
1.0
 10
244.3255564452
 20
39.193043851
 30
0.0
 10
228.2529119889
 20
47.9653038236
 30
0.0
 10
164.9103609038
 20
83.039769721
 30
0.0
 10
102.423792233
 20
119.6636045451
 30
0.0
 10
56.3023040818
 20
147.9294792387
 30
0.0
  0
SPLINE
  5
25B
100
AcDbEntity
  8
0
100
AcDbSpline
 62
7
  6
CONTINUOUS
 70
0
 71
3
 72
8
 73
4
 74
0
 42
0.0000001
 43
0.0000001
 44
0.0000000001
 40
0.0
 40
0.0
 40
0.0
 40
0.0
 40
1.0
 40
1.0
 40
1.0
 40
1.0
 10
55.5497440448
 20
222.7482180677
 30
0.0
 10
55.8004212591
 20
197.8086325004
 30
0.0
 10
56.0512746201
 20
172.8690487029
 30
0.0
 10
56.30230425
 20
147.9294666803
 30
0.0
  0
SPLINE
  5
25C
100
AcDbEntity
  8
0
100
AcDbSpline
 62
7
  6
CONTINUOUS
 70
0
 71
3
 72
9
 73
5
 74
0
 42
0.0000001
 43
0.0000001
 44
0.0000000001
 40
0.0
 40
0.0
 40
0.0
 40
0.0
 40
0.2552564232
 40
1.0
 40
1.0
 40
1.0
 40
1.0
 10
253.2053550503
 20
130.1666967434
 30
0.0
 10
253.3177160838
 20
130.2567926998
 30
0.0
 10
253.7535133475
 20
130.6151777238
 30
0.0
 10
254.1712912905
 20
130.9956277477
 30
0.0
 10
254.4696601687
 20
131.2915093757
 30
0.0
  0
SPLINE
  5
25D
100
AcDbEntity
  8
0
100
AcDbSpline
 62
7
  6
CONTINUOUS
 70
0
 71
3
 72
9
 73
5
 74
0
 42
0.0000001
 43
0.0000001
 44
0.0000000001
 40
0.0
 40
0.0
 40
0.0
 40
0.0
 40
0.2606928928
 40
1.0
 40
1.0
 40
1.0
 40
1.0
 10
250.8668576864
 20
133.5742865918
 30
0.0
 10
250.9033085969
 20
133.5625693438
 30
0.0
 10
251.0420430873
 20
133.5143984618
 30
0.0
 10
251.1764552106
 20
133.4530776449
 30
0.0
 10
251.2706734861
 20
133.3991060727
 30
0.0
  0
SPLINE
  5
25E
100
AcDbEntity
  8
0
100
AcDbSpline
 62
7
  6
CONTINUOUS
 70
0
 71
3
 72
9
 73
5
 74
0
 42
0.0000001
 43
0.0000001
 44
0.0000000001
 40
0.0
 40
0.0
 40
0.0
 40
0.0
 40
0.5510880621
 40
1.0
 40
1.0
 40
1.0
 40
1.0
 10
251.2706734861
 20
133.3991060727
 30
0.0
 10
251.4249803007
 20
133.3107136527
 30
0.0
 10
251.6902002897
 20
133.1091742578
 30
0.0
 10
251.8175956576
 20
132.7857876621
 30
0.0
 10
251.8176612116
 20
132.6409280816
 30
0.0
  0
SPLINE
  5
25F
100
AcDbEntity
  8
0
100
AcDbSpline
 62
7
  6
CONTINUOUS
 70
0
 71
3
 72
9
 73
5
 74
0
 42
0.0000001
 43
0.0000001
 44
0.0000000001
 40
0.0
 40
0.0
 40
0.0
 40
0.0
 40
0.2617412241
 40
1.0
 40
1.0
 40
1.0
 40
1.0
 10
244.7951000177
 20
125.9677995479
 30
0.0
 10
245.3314766547
 20
126.1287173346
 30
0.0
 10
247.3642315031
 20
126.7953994636
 30
0.0
 10
249.3314416763
 20
127.6755545104
 30
0.0
 10
250.6993340855
 20
128.465302847
 30
0.0
  0
SPLINE
  5
260
100
AcDbEntity
  8
0
100
AcDbSpline
 62
7
  6
CONTINUOUS
 70
0
 71
3
 72
9
 73
5
 74
0
 42
0.0000001
 43
0.0000001
 44
0.0000000001
 40
0.0
 40
0.0
 40
0.0
 40
0.0
 40
0.5034939256
 40
1.0
 40
1.0
 40
1.0
 40
1.0
 10
126.6472626295
 20
469.851464488
 30
0.0
 10
117.5026541551
 20
466.8520510444
 30
0.0
 10
99.6205062828
 20
459.9979261481
 30
0.0
 10
82.5404593774
 20
451.3275762242
 30
0.0
 10
74.3215383389
 20
446.582408275
 30
0.0
  0
SPLINE
  5
261
100
AcDbEntity
  8
0
100
AcDbSpline
 62
7
  6
CONTINUOUS
 70
0
 71
3
 72
9
 73
5
 74
0
 42
0.0000001
 43
0.0000001
 44
0.0000000001
 40
0.0
 40
0.0
 40
0.0
 40
0.0
 40
0.2552564232
 40
1.0
 40
1.0
 40
1.0
 40
1.0
 10
253.2053550503
 20
314.3533119995
 30
0.0
 10
253.3177160838
 20
314.4434079559
 30
0.0
 10
253.7535133475
 20
314.8017929799
 30
0.0
 10
254.1712912905
 20
315.1822430038
 30
0.0
 10
254.4696601687
 20
315.4781246318
 30
0.0
  0
SPLINE
  5
262
100
AcDbEntity
  8
0
100
AcDbSpline
 62
7
  6
CONTINUOUS
 70
0
 71
3
 72
11
 73
7
 74
0
 42
0.0000001
 43
0.0000001
 44
0.0000000001
 40
0.0
 40
0.0
 40
0.0
 40
0.0
 40
0.3025976017
 40
0.5681145157
 40
0.7963919425
 40
1.0
 40
1.0
 40
1.0
 40
1.0
 10
250.8668585172
 20
316.9719681087
 30
0.0
 10
251.0026774861
 20
317.0156275543
 30
0.0
 10
251.2518052307
 20
317.1193464069
 30
0.0
 10
251.5612630827
 20
317.3387465338
 30
0.0
 10
251.7665645127
 20
317.6038996876
 30
0.0
 10
251.8176177534
 20
317.8093325959
 30
0.0
 10
251.8176612076
 20
317.9053263565
 30
0.0
  0
SPLINE
  5
263
100
AcDbEntity
  8
0
100
AcDbSpline
 62
7
  6
CONTINUOUS
 70
0
 71
3
 72
9
 73
5
 74
0
 42
0.0000001
 43
0.0000001
 44
0.0000000001
 40
0.0
 40
0.0
 40
0.0
 40
0.0
 40
0.2617412234
 40
1.0
 40
1.0
 40
1.0
 40
1.0
 10
244.795099312
 20
310.1544145544
 30
0.0
 10
245.3314760101
 20
310.3153323595
 30
0.0
 10
247.3642310947
 20
310.9820145647
 30
0.0
 10
249.3314415158
 20
311.8621696739
 30
0.0
 10
250.6993340855
 20
312.6519181031
 30
0.0
  0
SPLINE
  5
264
100
AcDbEntity
  8
0
100
AcDbSpline
 62
7
  6
CONTINUOUS
 70
0
 71
3
 72
9
 73
5
 74
0
 42
0.0000001
 43
0.0000001
 44
0.0000000001
 40
0.0
 40
0.0
 40
0.0
 40
0.0
 40
0.2617412231
 40
1.0
 40
1.0
 40
1.0
 40
1.0
 10
244.7950992251
 20
216.8363532549
 30
0.0
 10
245.3314759352
 20
216.9972710473
 30
0.0
 10
247.364231037
 20
217.6639533081
 30
0.0
 10
249.3314414944
 20
218.5441084078
 30
0.0
 10
250.6993340855
 20
219.3338568493
 30
0.0
  0
SPLINE
  5
265
100
AcDbEntity
  8
0
100
AcDbSpline
 62
7
  6
CONTINUOUS
 70
0
 71
3
 72
9
 73
5
 74
0
 42
0.0000001
 43
0.0000001
 44
0.0000000001
 40
0.0
 40
0.0
 40
0.0
 40
0.0
 40
0.2636021095
 40
1.0
 40
1.0
 40
1.0
 40
1.0
 10
250.6993340855
 20
219.3338568493
 30
0.0
 10
251.0584292025
 20
219.5411792742
 30
0.0
 10
252.3983654169
 20
220.3646482159
 30
0.0
 10
253.6471580433
 20
221.3444177604
 30
0.0
 10
254.4696601687
 20
222.1600633781
 30
0.0
  0
SPLINE
  5
266
100
AcDbEntity
  8
0
100
AcDbSpline
 62
7
  6
CONTINUOUS
 70
0
 71
3
 72
9
 73
5
 74
0
 42
0.0000001
 43
0.0000001
 44
0.0000000001
 40
0.0
 40
0.0
 40
0.0
 40
0.0
 40
0.5477906544
 40
1.0
 40
1.0
 40
1.0
 40
1.0
 10
251.4098138713
 20
315.3168887733
 30
0.0
 10
251.5612821243
 20
315.2258818471
 30
0.0
 10
251.821345195
 20
315.0205216005
 30
0.0
 10
251.9568489178
 20
314.7051128548
 30
0.0
 10
251.9662388695
 20
314.5595422278
 30
0.0
  0
SPLINE
  5
267
100
AcDbEntity
  8
0
100
AcDbSpline
 62
7
  6
CONTINUOUS
 70
0
 71
3
 72
9
 73
5
 74
0
 42
0.0000001
 43
0.0000001
 44
0.0000000001
 40
0.0
 40
0.0
 40
0.0
 40
0.0
 40
0.2448549084
 40
1.0
 40
1.0
 40
1.0
 40
1.0
 10
254.4696601687
 20
321.1936415517
 30
0.0
 10
254.3715624966
 20
321.0963616373
 30
0.0
 10
253.9653710717
 20
320.7046900628
 30
0.0
 10
253.5377639031
 20
320.3353687739
 30
0.0
 10
253.2053550503
 20
320.0688289194
 30
0.0
  0
SPLINE
  5
268
100
AcDbEntity
  8
0
100
AcDbSpline
 62
7
  6
CONTINUOUS
 70
0
 71
3
 72
9
 73
5
 74
0
 42
0.0000001
 43
0.0000001
 44
0.0000000001
 40
0.0
 40
0.0
 40
0.0
 40
0.0
 40
0.2542455037
 40
1.0
 40
1.0
 40
1.0
 40
1.0
 10
99.5971541794
 20
440.6933174857
 30
0.0
 10
103.0175561546
 20
442.605831622
 30
0.0
 10
116.5407119365
 20
450.0019263297
 30
0.0
 10
130.3463156871
 20
456.8841331039
 30
0.0
 10
140.7894462354
 20
461.6869262819
 30
0.0
  0
SPLINE
  5
269
100
AcDbEntity
  8
0
100
AcDbSpline
 62
7
  6
CONTINUOUS
 70
0
 71
3
 72
9
 73
5
 74
0
 42
0.0000001
 43
0.0000001
 44
0.0000000001
 40
0.0
 40
0.0
 40
0.0
 40
0.0
 40
0.2380231133
 40
1.0
 40
1.0
 40
1.0
 40
1.0
 10
250.6993340855
 20
318.367435023
 30
0.0
 10
250.258274783
 20
318.112790836
 30
0.0
 10
248.3692374341
 20
317.105662468
 30
0.0
 10
246.3567146532
 20
316.338430051
 30
0.0
 10
244.7950993526
 20
315.8699314988
 30
0.0
  0
SPLINE
  5
26A
100
AcDbEntity
  8
0
100
AcDbSpline
 62
7
  6
CONTINUOUS
 70
0
 71
3
 72
9
 73
5
 74
0
 42
0.0000001
 43
0.0000001
 44
0.0000000001
 40
0.0
 40
0.0
 40
0.0
 40
0.0
 40
0.23688748
 40
1.0
 40
1.0
 40
1.0
 40
1.0
 10
254.4696601687
 20
230.3250875494
 30
0.0
 10
254.2050451324
 20
230.0626783858
 30
0.0
 10
253.0461479254
 20
228.9972536644
 30
0.0
 10
251.7390079207
 20
228.0991334062
 30
0.0
 10
250.6993340855
 20
227.4988810206
 30
0.0
  0
SPLINE
  5
26B
100
AcDbEntity
  8
0
100
AcDbSpline
 62
7
  6
CONTINUOUS
 70
0
 71
3
 72
9
 73
5
 74
0
 42
0.0000001
 43
0.0000001
 44
0.0000000001
 40
0.0
 40
0.0
 40
0.0
 40
0.0
 40
0.2380231135
 40
1.0
 40
1.0
 40
1.0
 40
1.0
 10
250.6993340855
 20
227.4988810206
 30
0.0
 10
250.2582747726
 20
227.2442368276
 30
0.0
 10
248.3692373788
 20
226.2371084451
 30
0.0
 10
246.3567145735
 20
225.4698759455
 30
0.0
 10
244.7950992251
 20
225.0013774262
 30
0.0
  0
SPLINE
  5
26C
100
AcDbEntity
  8
0
100
AcDbSpline
 62
7
  6
CONTINUOUS
 70
0
 71
3
 72
9
 73
5
 74
0
 42
0.0000001
 43
0.0000001
 44
0.0000000001
 40
0.0
 40
0.0
 40
0.0
 40
0.0
 40
0.5013668093
 40
1.0
 40
1.0
 40
1.0
 40
1.0
 10
250.8049551037
 20
313.4369728537
 30
0.0
 10
251.0234569228
 20
313.5536791031
 30
0.0
 10
251.4552305984
 20
313.7939749467
 30
0.0
 10
251.8809011279
 20
314.0450881104
 30
0.0
 10
252.097802489
 20
314.1619207689
 30
0.0
  0
SPLINE
  5
26D
100
AcDbEntity
  8
0
100
AcDbSpline
 62
7
  6
CONTINUOUS
 70
0
 71
3
 72
8
 73
4
 74
0
 42
0.0000001
 43
0.0000001
 44
0.0000000001
 40
0.0
 40
0.0
 40
0.0
 40
0.0
 40
1.0
 40
1.0
 40
1.0
 40
1.0
 10
252.097802489
 20
314.1619207689
 30
0.0
 10
252.2372401606
 20
314.2370280609
 30
0.0
 10
252.3771965407
 20
314.3111993753
 30
0.0
 10
252.5156259493
 20
314.3881491537
 30
0.0
  0
SPLINE
  5
26E
100
AcDbEntity
  8
0
100
AcDbSpline
 62
7
  6
CONTINUOUS
 70
0
 71
3
 72
9
 73
5
 74
0
 42
0.0000001
 43
0.0000001
 44
0.0000000001
 40
0.0
 40
0.0
 40
0.0
 40
0.0
 40
0.2615167746
 40
1.0
 40
1.0
 40
1.0
 40
1.0
 10
250.8685256209
 20
129.381144551
 30
0.0
 10
250.9054248651
 20
129.3930450682
 30
0.0
 10
251.045407077
 20
129.4418321217
 30
0.0
 10
251.1810291408
 20
129.5039095332
 30
0.0
 10
251.2758442079
 20
129.558650711
 30
0.0
  0
SPLINE
  5
26F
100
AcDbEntity
  8
0
100
AcDbSpline
 62
7
  6
CONTINUOUS
 70
0
 71
3
 72
9
 73
5
 74
0
 42
0.0000001
 43
0.0000001
 44
0.0000000001
 40
0.0
 40
0.0
 40
0.0
 40
0.0
 40
0.5019534146
 40
1.0
 40
1.0
 40
1.0
 40
1.0
 10
250.8049551041
 20
129.2340275503
 30
0.0
 10
251.0123326675
 20
129.3447921104
 30
0.0
 10
251.4226009391
 20
129.5708934368
 30
0.0
 10
251.8248838246
 20
129.8110952701
 30
0.0
 10
252.0299422245
 20
129.9223077522
 30
0.0
  0
SPLINE
  5
270
100
AcDbEntity
  8
0
100
AcDbSpline
 62
7
  6
CONTINUOUS
 70
0
 71
3
 72
8
 73
4
 74
0
 42
0.0000001
 43
0.0000001
 44
0.0000000001
 40
0.0
 40
0.0
 40
0.0
 40
0.0
 40
1.0
 40
1.0
 40
1.0
 40
1.0
 10
252.0978024922
 20
129.9589754626
 30
0.0
 10
252.2372401628
 20
130.034082755
 30
0.0
 10
252.3771965412
 20
130.1082540712
 30
0.0
 10
252.5156259493
 20
130.1852038493
 30
0.0
  0
LINE
  5
271
100
AcDbEntity
  8
0
100
AcDbLine
 62
7
  6
CONTINUOUS
 10
254.4696601685
 20
131.2751793273
 11
255.0935546105
 21
131.6247884258
  0
SPLINE
  5
272
100
AcDbEntity
  8
0
100
AcDbSpline
 62
7
  6
CONTINUOUS
 70
0
 71
3
 72
10
 73
6
 74
0
 42
0.0000001
 43
0.0000001
 44
0.0000000001
 40
0.0
 40
0.0
 40
0.0
 40
0.0
 40
0.2511608721
 40
0.6235833591
 40
1.0
 40
1.0
 40
1.0
 40
1.0
 10
254.4696601687
 20
321.1936415517
 30
0.0
 10
254.306195784
 20
321.1021432402
 30
0.0
 10
253.8945986801
 20
320.8853042048
 30
0.0
 10
253.2550243811
 20
320.5009653564
 30
0.0
 10
252.7610146172
 20
320.2400720858
 30
0.0
 10
252.5156259493
 20
320.1036660736
 30
0.0
  0
SPLINE
  5
273
100
AcDbEntity
  8
0
100
AcDbSpline
 62
7
  6
CONTINUOUS
 70
0
 71
3
 72
9
 73
5
 74
0
 42
0.0000001
 43
0.0000001
 44
0.0000000001
 40
0.0
 40
0.0
 40
0.0
 40
0.0
 40
0.2472021827
 40
1.0
 40
1.0
 40
1.0
 40
1.0
 10
55.5497440452
 20
222.7482180576
 30
0.0
 10
70.7989629
 20
213.3859169103
 30
0.0
 10
132.7392081023
 20
175.9261346111
 30
0.0
 10
195.6691807133
 20
140.1060098329
 30
0.0
 10
243.5203269565
 20
114.0364881226
 30
0.0
  0
SPLINE
  5
274
100
AcDbEntity
  8
0
100
AcDbSpline
 62
7
  6
CONTINUOUS
 70
0
 71
3
 72
11
 73
7
 74
0
 42
0.0000001
 43
0.0000001
 44
0.0000000001
 40
0.0
 40
0.0
 40
0.0
 40
0.0
 40
0.2187311576
 40
0.452223902
 40
0.7111638566
 40
1.0
 40
1.0
 40
1.0
 40
1.0
 10
106.9297913921
 20
441.3410879197
 30
0.0
 10
106.4449024159
 20
441.6209932314
 30
0.0
 10
105.335009421
 20
442.0289639783
 30
0.0
 10
103.4915030593
 20
442.0923757039
 30
0.0
 10
101.5248223956
 20
441.6434925655
 30
0.0
 10
100.2424529942
 20
441.0541356336
 30
0.0
 10
99.5971541794
 20
440.6933174857
 30
0.0
  0
SPLINE
  5
275
100
AcDbEntity
  8
0
100
AcDbSpline
 62
7
  6
CONTINUOUS
 70
0
 71
3
 72
9
 73
5
 74
0
 42
0.0000001
 43
0.0000001
 44
0.0000000001
 40
0.0
 40
0.0
 40
0.0
 40
0.0
 40
0.235884191
 40
1.0
 40
1.0
 40
1.0
 40
1.0
 10
251.4098138713
 20
133.5797807686
 30
0.0
 10
251.3704737544
 20
133.6034175574
 30
0.0
 10
251.199833623
 20
133.6971587017
 30
0.0
 10
251.0165979584
 20
133.7669928763
 30
0.0
 10
250.8739754079
 20
133.8089658551
 30
0.0
  0
SPLINE
  5
276
100
AcDbEntity
  8
0
100
AcDbSpline
 62
7
  6
CONTINUOUS
 70
0
 71
3
 72
9
 73
5
 74
0
 42
0.0000001
 43
0.0000001
 44
0.0000000001
 40
0.0
 40
0.0
 40
0.0
 40
0.0
 40
0.2527062478
 40
1.0
 40
1.0
 40
1.0
 40
1.0
 10
243.5203209222
 20
326.2658412671
 30
0.0
 10
227.4492698091
 20
335.0032483132
 30
0.0
 10
164.0772928297
 20
369.9882589211
 30
0.0
 10
101.6231501333
 20
406.6390797017
 30
0.0
 10
55.5497511461
 20
434.9841170053
 30
0.0
  0
SPLINE
  5
277
100
AcDbEntity
  8
0
100
AcDbSpline
 62
7
  6
CONTINUOUS
 70
0
 71
3
 72
9
 73
5
 74
0
 42
0.0000001
 43
0.0000001
 44
0.0000000001
 40
0.0
 40
0.0
 40
0.0
 40
0.0
 40
0.2759789837
 40
1.0
 40
1.0
 40
1.0
 40
1.0
 10
251.5208727768
 20
131.0413162969
 30
0.0
 10
251.5674455875
 20
131.0081988454
 30
0.0
 10
251.7292995658
 20
130.8798202018
 30
0.0
 10
251.8633004978
 20
130.7090609474
 30
0.0
 10
251.9179339015
 20
130.5694464102
 30
0.0
  0
SPLINE
  5
278
100
AcDbEntity
  8
0
100
AcDbSpline
 62
7
  6
CONTINUOUS
 70
0
 71
3
 72
8
 73
4
 74
0
 42
0.0000001
 43
0.0000001
 44
0.0000000001
 40
0.0
 40
0.0
 40
0.0
 40
0.0
 40
1.0
 40
1.0
 40
1.0
 40
1.0
 10
244.3255606261
 20
39.1930461165
 30
0.0
 10
244.0573361893
 20
64.1408621301
 30
0.0
 10
243.7889249598
 20
89.0886761362
 30
0.0
 10
243.5203269561
 20
114.0364881307
 30
0.0
  0
SPLINE
  5
279
100
AcDbEntity
  8
0
100
AcDbSpline
 62
7
  6
CONTINUOUS
 70
0
 71
3
 72
9
 73
5
 74
0
 42
0.0000001
 43
0.0000001
 44
0.0000000001
 40
0.0
 40
0.0
 40
0.0
 40
0.0
 40
0.2448549084
 40
1.0
 40
1.0
 40
1.0
 40
1.0
 10
254.4696601687
 20
137.0070262956
 30
0.0
 10
254.3715624966
 20
136.9097463812
 30
0.0
 10
253.9653710717
 20
136.5180748067
 30
0.0
 10
253.5377639031
 20
136.1487535178
 30
0.0
 10
253.2053550503
 20
135.8822136633
 30
0.0
  0
SPLINE
  5
27A
100
AcDbEntity
  8
0
100
AcDbSpline
 62
7
  6
CONTINUOUS
 70
0
 71
3
 72
9
 73
5
 74
0
 42
0.0000001
 43
0.0000001
 44
0.0000000001
 40
0.0
 40
0.0
 40
0.0
 40
0.0
 40
0.5183074422
 40
1.0
 40
1.0
 40
1.0
 40
1.0
 10
263.1198349532
 20
337.5816473756
 30
0.0
 10
271.0320536643
 20
342.1497417105
 30
0.0
 10
286.2181332902
 20
351.1017301457
 30
0.0
 10
301.2124693551
 20
360.372574415
 30
0.0
 10
308.3744592208
 20
364.9332628911
 30
0.0
  0
SPLINE
  5
27B
100
AcDbEntity
  8
0
100
AcDbSpline
 62
7
  6
CONTINUOUS
 70
0
 71
3
 72
9
 73
5
 74
0
 42
0.0000001
 43
0.0000001
 44
0.0000000001
 40
0.0
 40
0.0
 40
0.0
 40
0.0
 40
0.2380712316
 40
1.0
 40
1.0
 40
1.0
 40
1.0
 10
251.2758442079
 20
131.8856825998
 30
0.0
 10
251.2452202912
 20
131.8680019788
 30
0.0
 10
251.1142740689
 20
131.7977619425
 30
0.0
 10
250.9754766117
 20
131.7426281845
 30
0.0
 10
250.8677571682
 20
131.7079251564
 30
0.0
  0
SPLINE
  5
27C
100
AcDbEntity
  8
0
100
AcDbSpline
 62
7
  6
CONTINUOUS
 70
0
 71
3
 72
9
 73
5
 74
0
 42
0.0000001
 43
0.0000001
 44
0.0000000001
 40
0.0
 40
0.0
 40
0.0
 40
0.0
 40
0.2380231134
 40
1.0
 40
1.0
 40
1.0
 40
1.0
 10
250.6993340855
 20
134.1808197669
 30
0.0
 10
250.2582747789
 20
133.9261755775
 30
0.0
 10
248.3692374129
 20
132.9190472018
 30
0.0
 10
246.3567146168
 20
132.1518147715
 30
0.0
 10
244.7950993026
 20
131.6833162152
 30
0.0
  0
ENDSEC
  0
SECTION
  2
OBJECTS
  0
DICTIONARY
  5
C
100
AcDbDictionary
280
0
281
1
  3
ACAD_GROUP
350
D
  3
ACAD_MLINESTYLE
350
17
  3
ACAD_LAYOUT
350
1A
  3
ACAD_PLOTSETTINGS
350
19
  3
ACAD_PLOTSTYLENAME
350
E
  0
DICTIONARY
  5
D
102
{ACAD_REACTORS
330
C
102
}
100
AcDbDictionary
280
0
281
1
  0
ACDBDICTIONARYWDFLT
  5
E
102
{ACAD_REACTORS
330
C
102
}
100
AcDbDictionary
281
1
  3
Normal
350
F
100
AcDbDictionaryWithDefault
340
F
  0
DICTIONARY
  5
17
102
{ACAD_REACTORS
330
C
102
}
100
AcDbDictionary
280
0
281
1
  3
Standard
350
18
  0
DICTIONARY
  5
19
102
{ACAD_REACTORS
330
C
102
}
100
AcDbDictionary
281
1
  0
DICTIONARY
  5
1A
102
{ACAD_REACTORS
330
C
102
}
100
AcDbDictionary
281
1
  3
Model
350
27D
  3
Layout1
350
27E
  0
ACDBPLACEHOLDER
  5
F
102
{ACAD_REACTORS
330
E
102
}
  0
MLINESTYLE
  5
18
102
{ACAD_REACTORS
330
17
102
}
100
AcDbMlineStyle
  2
STANDARD
 70
0
  3

 62
256
 51
90.0
 52
90.0
 71
2
 49
0.5
 62
256
  6
BYLAYER
 49
-0.5
 62
256
  6
BYLAYER
  0
LAYOUT
  5
27D
102
{ACAD_REACTORS
330
1A
102
}
100
AcDbPlotSettings
  1

  2
none_device
  4

  6

 40
0.0
 41
0.0
 42
0.0
 43
0.0
 44
210.0
 45
297.0
 46
0.0
 47
0.0
 48
0.0
 49
0.0
140
0.0
141
0.0
142
1.0
143
1.0
 70
1024
 72
1
 73
0
 74
0
  7

 75
0
147
1.0
148
0.0
149
0.0
100
AcDbLayout
  1
Model
 70
0
 71
0
 10
0.0
 20
0.0
 11
210.0
 21
297.0
 12
0.0
 22
0.0
 32
0.0
 14
0.0
 24
0.0
 34
0.0
 15
0.0
 25
0.0
 35
0.0
146
0.0
 13
0.0
 23
0.0
 33
0.0
 16
1.0
 26
0.0
 36
0.0
 17
0.0
 27
1.0
 37
0.0
 76
0
330
210
345
0
346
0
  0
LAYOUT
  5
27E
102
{ACAD_REACTORS
330
1A
102
}
100
AcDbPlotSettings
  1

  2
none_device
  4

  6

 40
0.0
 41
0.0
 42
0.0
 43
0.0
 44
210.0
 45
297.0
 46
0.0
 47
0.0
 48
0.0
 49
0.0
140
0.0
141
0.0
142
1.0
143
1.0
 70
0
 72
1
 73
0
 74
0
  7

 75
0
147
1.0
148
0.0
149
0.0
100
AcDbLayout
  1
Layout1
 70
0
 71
1
 10
0.0
 20
0.0
 11
210.0
 21
297.0
 12
0.0
 22
0.0
 32
0.0
 14
0.0
 24
0.0
 34
0.0
 15
0.0
 25
0.0
 35
0.0
146
0.0
 13
0.0
 23
0.0
 33
0.0
 16
1.0
 26
0.0
 36
0.0
 17
0.0
 27
1.0
 37
0.0
 76
0
330
211
345
0
346
0
  0
ENDSEC
  0
EOF
