999
DXF file: C:\Users\sesa63760\Dev\_Creo\CAD\MCADFD0002813_3D-CAD\drw0001_1.dxf
999
Pro/ENGINEER 2019471 by Parametric Technology Corporation
  0
SECTION
  2
HEADER
  9
$ACADVER
  1
AC1024
  9
$DWGCODEPAGE
  3
ANSI_1252
  9
$EXTMAX
 10
229.6772068692
 20
324.8291925722
 30
0.0
  9
$EXTMIN
 10
0.0
 20
0.0
 30
0.0
  9
$LIMMIN
 10
0.0
 20
0.0
  9
$LIMMAX
 10
229.6772068692
 20
324.8291925722
  9
$VIEWCTR
 10
114.8386034346
 20
162.4145962861
  9
$VIEWSIZE
 40
324.8291925722
  9
$CLAYER
  8
0
  9
$LTSCALE
 40
21.1740510714
  9
$CELTYPE
  6
BYLAYER
  9
$DIMSCALE
 40
1.0
  9
$DIMASZ
 40
2.7342524627
  9
$DIMEXO
 40
1.0
  9
$DIMDLI
 40
14.6293443766
  9
$DIMEXE
 40
1.0
  9
$DIMCEN
 40
3.4648447208
  9
$DIMLFAC
 40
1.0
  9
$DIMBLK
  1
_FILLED
  9
$DIMALT
 70
0
  9
$DIMALTF
 40
0.0393700787
  9
$DIMTXT
 40
3.8279534478
  9
$DIMTOL
 70
1
  9
$DIMLIM
 70
0
  9
$DIMTFAC
 40
1.0
  9
$DIMTP
 40
0.01
  9
$DIMTM
 40
0.01
  9
$DIMGAP
 40
0.625
  9
$DIMDSEP
 70
46
  9
$AUNITS
 70
0
  9
$PDMODE
 70
3
  9
$PDSIZE
 40
0.3125
  9
$HANDSEED
  5
2F4
  9
$TILEMODE
 70
1
  9
$MEASUREMENT
 70
1
  9
$INSUNITS
 70
4
  0
ENDSEC
  0
SECTION
  2
CLASSES
  0
CLASS
  1
ACDBDICTIONARYWDFLT
  2
AcDbDictionaryWithDefault
  3
AutoCAD 2000
 90
0
 91
1
280
0
281
0
  0
CLASS
  1
ACDBPLACEHOLDER
  2
AcDbPlaceHolder
  3
AutoCAD 2000
 90
0
 91
1
280
0
281
0
  0
CLASS
  1
LAYOUT
  2
AcDbLayout
  3
AutoCAD 2000
 90
0
 91
0
280
0
281
0
  0
ENDSEC
  0
SECTION
  2
TABLES
  0
TABLE
  2
VPORT
  5
8
100
AcDbSymbolTable
 70
2
  0
VPORT
  5
1F4
100
AcDbSymbolTableRecord
100
AcDbViewportTableRecord
  2
*ACTIVE
 70
0
 10
0.0
 20
0.0
 11
1.0
 21
1.0
 12
114.8386034346
 22
162.4145962861
 13
0.0
 23
0.0
 14
1.0
 24
1.0
 15
0.0
 25
0.0
 16
0.0
 26
0.0
 36
1.0
 17
0.0
 27
0.0
 37
0.0
 40
324.8291925722
 41
0.7070707071
 42
50.0
 43
0.0
 44
0.0
 50
0.0
 51
0.0
 71
0
 72
100
 73
1
 74
1
 75
0
 76
0
 77
0
 78
0
  0
ENDTAB
  0
TABLE
  2
LTYPE
  5
5
100
AcDbSymbolTable
 70
6
  0
LTYPE
  5
14
100
AcDbSymbolTableRecord
100
AcDbLinetypeTableRecord
  2
BYBLOCK
 70
0
  3

 72
65
 73
0
 40
0.0
  0
LTYPE
  5
15
100
AcDbSymbolTableRecord
100
AcDbLinetypeTableRecord
  2
BYLAYER
 70
0
  3

 72
65
 73
0
 40
0.0
  0
LTYPE
  5
16
100
AcDbSymbolTableRecord
100
AcDbLinetypeTableRecord
  2
CONTINUOUS
 70
64
  3
Solid line
 72
65
 73
0
 40
0.0
  0
LTYPE
  5
1F5
100
AcDbSymbolTableRecord
100
AcDbLinetypeTableRecord
  2
CENTER
 70
64
  3
____ _ ____ _ ____ _ ____ _ ____ _ ____ _ ____
 72
65
 73
4
 40
0.6
 49
0.375
 74
0
 49
-0.075
 74
0
 49
0.075
 74
0
 49
-0.075
 74
0
  0
LTYPE
  5
1F6
100
AcDbSymbolTableRecord
100
AcDbLinetypeTableRecord
  2
HIDDEN
 70
64
  3
- - - - - - - - - - - - - - - - - - - -
 72
65
 73
2
 40
0.2
 49
0.1
 74
0
 49
-0.1
 74
0
  0
LTYPE
  5
1F7
100
AcDbSymbolTableRecord
100
AcDbLinetypeTableRecord
  2
PHANTOM
 70
64
  3
_____ _ _ _____ _ _ _____ _ _ _____
 72
65
 73
6
 40
0.8
 49
0.45
 74
0
 49
-0.05
 74
0
 49
0.1
 74
0
 49
-0.05
 74
0
 49
0.1
 74
0
 49
-0.05
 74
0
  0
LTYPE
  5
1F8
100
AcDbSymbolTableRecord
100
AcDbLinetypeTableRecord
  2
DOT
 70
64
  3
. . . . . . . . . . . . . . . . . . . .
 72
65
 73
2
 40
0.2
 49
0.1
 74
0
 49
-0.1
 74
0
  0
LTYPE
  5
1F9
100
AcDbSymbolTableRecord
100
AcDbLinetypeTableRecord
  2
DASHED
 70
64
  3
- - - - - - - - - - - - - - - - - - - -
 72
65
 73
2
 40
0.2
 49
0.1
 74
0
 49
-0.1
 74
0
  0
ENDTAB
  0
TABLE
  2
LAYER
  5
2
100
AcDbSymbolTable
 70
36
  0
LAYER
  5
10
100
AcDbSymbolTableRecord
100
AcDbLayerTableRecord
  2
0
 70
0
 62
7
  6
CONTINUOUS
370
-3
390
F
  0
LAYER
  5
1FA
100
AcDbSymbolTableRecord
100
AcDbLayerTableRecord
  2
DEFAULT_1
 70
0
 62
7
  6
CENTER
370
-3
390
F
  0
LAYER
  5
1FB
100
AcDbSymbolTableRecord
100
AcDbLayerTableRecord
  2
DEFAULT_2
 70
0
 62
8
  6
HIDDEN
370
-3
390
F
  0
LAYER
  5
1FC
100
AcDbSymbolTableRecord
100
AcDbLayerTableRecord
  2
DEFAULT_3
 70
0
 62
7
  6
PHANTOM
370
-3
390
F
  0
LAYER
  5
1FD
100
AcDbSymbolTableRecord
100
AcDbLayerTableRecord
  2
00_COMPONENTS
 70
0
 62
7
  6
CONTINUOUS
370
-3
390
F
  0
LAYER
  5
1FE
100
AcDbSymbolTableRecord
100
AcDbLayerTableRecord
  2
01_1_DEFAULT_DATUMS
 70
0
 62
7
  6
CONTINUOUS
370
-3
390
F
  0
LAYER
  5
1FF
100
AcDbSymbolTableRecord
100
AcDbLayerTableRecord
  2
01_PLANES
 70
0
 62
7
  6
CONTINUOUS
370
-3
390
F
  0
LAYER
  5
200
100
AcDbSymbolTableRecord
100
AcDbLayerTableRecord
  2
02_COORD_SYS
 70
0
 62
7
  6
CONTINUOUS
370
-3
390
F
  0
LAYER
  5
201
100
AcDbSymbolTableRecord
100
AcDbLayerTableRecord
  2
03_AXES
 70
0
 62
7
  6
CONTINUOUS
370
-3
390
F
  0
LAYER
  5
202
100
AcDbSymbolTableRecord
100
AcDbLayerTableRecord
  2
04_POINTS
 70
0
 62
7
  6
CONTINUOUS
370
-3
390
F
  0
LAYER
  5
203
100
AcDbSymbolTableRecord
100
AcDbLayerTableRecord
  2
05_CURVES
 70
0
 62
7
  6
CONTINUOUS
370
-3
390
F
  0
LAYER
  5
204
100
AcDbSymbolTableRecord
100
AcDbLayerTableRecord
  2
06_SURFS
 70
0
 62
7
  6
CONTINUOUS
370
-3
390
F
  0
LAYER
  5
205
100
AcDbSymbolTableRecord
100
AcDbLayerTableRecord
  2
07_COSMETICS
 70
0
 62
7
  6
CONTINUOUS
370
-3
390
F
  0
LAYER
  5
206
100
AcDbSymbolTableRecord
100
AcDbLayerTableRecord
  2
10_NOTES
 70
0
 62
7
  6
CONTINUOUS
370
-3
390
F
  0
LAYER
  5
207
100
AcDbSymbolTableRecord
100
AcDbLayerTableRecord
  2
11_NOTES_PUB
 70
0
 62
7
  6
CONTINUOUS
370
-3
390
F
  0
LAYER
  5
208
100
AcDbSymbolTableRecord
100
AcDbLayerTableRecord
  2
13_REF_GTOL
 70
0
 62
7
  6
CONTINUOUS
370
-3
390
F
  0
LAYER
  5
209
100
AcDbSymbolTableRecord
100
AcDbLayerTableRecord
  2
16_MISC
 70
0
 62
7
  6
CONTINUOUS
370
-3
390
F
  0
LAYER
  5
20A
100
AcDbSymbolTableRecord
100
AcDbLayerTableRecord
  2
17_NO_PRINT
 70
0
 62
7
  6
CONTINUOUS
370
-3
390
F
  0
LAYER
  5
20B
100
AcDbSymbolTableRecord
100
AcDbLayerTableRecord
  2
18_DATUM_CAMS_JOINTS
 70
0
 62
7
  6
CONTINUOUS
370
-3
390
F
  0
LAYER
  5
20C
100
AcDbSymbolTableRecord
100
AcDbLayerTableRecord
  2
19_DATUM_FUNCTIONAL
 70
0
 62
7
  6
CONTINUOUS
370
-3
390
F
  0
LAYER
  5
20D
100
AcDbSymbolTableRecord
100
AcDbLayerTableRecord
  2
20_DATUM_KINEMATIC_SCHEME
 70
0
 62
7
  6
CONTINUOUS
370
-3
390
F
  0
ENDTAB
  0
TABLE
  2
STYLE
  5
3
100
AcDbSymbolTable
 70
1
  0
STYLE
  5
11
100
AcDbSymbolTableRecord
100
AcDbTextStyleTableRecord
  2
STANDARD
 70
0
 40
0.0
 41
0.8
 50
0.0
 71
0
 42
0.2
  3
txt
  4

  0
STYLE
  5
20E
100
AcDbSymbolTableRecord
100
AcDbTextStyleTableRecord
  2
TEXTSTYLE_1
 70
0
 40
0.0
 41
0.8
 50
0.0
 71
0
 42
0.2
  3
gdt
  4

  0
ENDTAB
  0
TABLE
  2
VIEW
  5
6
100
AcDbSymbolTable
 70
0
  0
ENDTAB
  0
TABLE
  2
UCS
  5
7
100
AcDbSymbolTable
 70
0
  0
ENDTAB
  0
TABLE
  2
APPID
  5
9
100
AcDbSymbolTable
 70
1
  0
APPID
  5
20F
100
AcDbSymbolTableRecord
100
AcDbRegAppTableRecord
  2
ACAD
 70
0
  0
ENDTAB
  0
TABLE
  2
BLOCK_RECORD
  5
1
100
AcDbSymbolTable
 70
0
  0
BLOCK_RECORD
  5
210
100
AcDbSymbolTableRecord
100
AcDbBlockTableRecord
  2
*Model_Space
  0
BLOCK_RECORD
  5
211
100
AcDbSymbolTableRecord
100
AcDbBlockTableRecord
  2
*Paper_Space
  0
BLOCK_RECORD
  5
212
100
AcDbSymbolTableRecord
100
AcDbBlockTableRecord
  2
_FILLED
  0
ENDTAB
  0
TABLE
  2
DIMSTYLE
  5
A
100
AcDbSymbolTable
 70
1
100
AcDbDimStyleTable
 71
0
  0
DIMSTYLE
105
213
100
AcDbSymbolTableRecord
100
AcDbDimStyleTableRecord
  2
STANDARD
 70
0
  3

  4

 40
1.0
 41
2.7342524627
 42
1.0
 43
0.38
 44
1.0
 45
0.0
 46
0.0
 47
0.01
 48
0.01
140
3.8279534478
141
0.09
142
0.0
143
25.4
144
1.0
145
0.0
146
1.0
147
0.625
 71
1
 72
0
 73
0
 74
0
 75
0
 76
0
 77
1
 78
8
 79
2
170
0
171
1
172
0
173
0
174
0
175
0
176
0
177
0
178
0
270
2
179
2
271
2
272
2
273
2
274
2
275
0
280
0
281
0
282
0
283
1
284
8
285
0
286
0
287
3
288
0
340
11
278
46
341
212
342
212
343
212
344
212
  0
ENDTAB
  0
ENDSEC
  0
SECTION
  2
BLOCKS
  0
BLOCK
  5
20
100
AcDbEntity
  8
0
100
AcDbBlockBegin
  2
*Model_Space
 70
0
 10
0.0
 20
0.0
 30
0.0
  3
*Model_Space
  1

  0
ENDBLK
  5
21
100
AcDbEntity
  8
0
100
AcDbBlockEnd
  0
BLOCK
  5
1C
100
AcDbEntity
  8
0
100
AcDbBlockBegin
  2
*Paper_Space
 70
0
 10
0.0
 20
0.0
 30
0.0
  3
*Paper_Space
  1

  0
ENDBLK
  5
1D
100
AcDbEntity
  8
0
100
AcDbBlockEnd
  0
BLOCK
  5
214
100
AcDbEntity
  8
0
100
AcDbBlockBegin
  2
_FILLED
 70
64
 10
0.0
 20
0.0
  3
_FILLED
  1

  0
SOLID
  5
215
100
AcDbEntity
  8
0
  6
BYBLOCK
 62
0
100
AcDbTrace
 10
0.0
 20
0.0
 11
-1.0
 21
0.25
 12
-1.0
 22
-0.25
 13
-1.0
 23
-0.25
  0
ENDBLK
  5
216
100
AcDbEntity
  8
0
  6
BYBLOCK
 62
0
100
AcDbBlockEnd
  0
ENDSEC
  0
SECTION
  2
ENTITIES
  0
LINE
  5
217
100
AcDbEntity
  8
0
100
AcDbLine
 62
7
  6
CONTINUOUS
 10
67.2176412489
 20
286.475651724
 11
67.5002727406
 21
286.6388281177
  0
LINE
  5
218
100
AcDbEntity
  8
0
100
AcDbLine
 62
7
  6
CONTINUOUS
 10
83.3395305838
 20
278.8006390839
 11
81.9253229094
 21
277.9841507762
  0
LINE
  5
219
100
AcDbEntity
  8
0
100
AcDbLine
 62
7
  6
CONTINUOUS
 10
94.6683364289
 20
286.0442390983
 11
121.59874823
 21
300.5512327857
  0
LWPOLYLINE
  5
21A
100
AcDbEntity
  8
0
100
AcDbPolyline
 62
7
  6
CONTINUOUS
 90
4
 70
0
 10
91.5540139359
 20
287.4540381508
 10
85.1513906687
 20
284.7392298291
 10
78.4793760703
 20
281.6588795665
 10
77.2191651729
 20
281.0277498953
  0
LINE
  5
21B
100
AcDbEntity
  8
0
100
AcDbLine
 62
7
  6
CONTINUOUS
 10
108.4411157709
 20
284.6672376779
 11
126.9874513005
 21
296.1167915957
  0
LINE
  5
21C
100
AcDbEntity
  8
0
100
AcDbLine
 62
7
  6
CONTINUOUS
 10
101.0944091164
 20
282.4908773091
 11
126.9874513005
 21
297.4401339998
  0
LINE
  5
21D
100
AcDbEntity
  8
0
100
AcDbLine
 62
7
  6
CONTINUOUS
 10
128.5944395159
 20
292.8987752868
 11
111.0832731637
 21
283.1417071076
  0
LINE
  5
21E
100
AcDbEntity
  8
0
100
AcDbLine
 62
7
  6
CONTINUOUS
 10
112.8510474766
 20
282.1211052213
 11
105.1301141291
 21
277.8190689342
  0
LINE
  5
21F
100
AcDbEntity
  8
0
100
AcDbLine
 62
7
  6
CONTINUOUS
 10
117.6341579517
 20
283.0553411182
 11
94.8049020963
 21
272.1812535053
  0
LINE
  5
220
100
AcDbEntity
  8
0
100
AcDbLine
 62
7
  6
CONTINUOUS
 10
96.2191215466
 20
271.3647719963
 11
119.048377402
 21
282.2388596092
  0
LINE
  5
221
100
AcDbEntity
  8
0
100
AcDbLine
 62
7
  6
CONTINUOUS
 10
38.100111819
 20
291.5207162853
 11
38.1001668371
 21
86.3031804056
  0
LINE
  5
222
100
AcDbEntity
  8
0
100
AcDbLine
 62
7
  6
CONTINUOUS
 10
119.048377402
 20
281.0141059835
 11
117.9877216462
 21
279.8306277577
  0
LINE
  5
223
100
AcDbEntity
  8
0
100
AcDbLine
 62
7
  6
CONTINUOUS
 10
149.4540955833
 20
264.6845071648
 11
126.6248397279
 21
253.8104195519
  0
LINE
  5
224
100
AcDbEntity
  8
0
100
AcDbLine
 62
7
  6
CONTINUOUS
 10
128.0390591782
 20
252.9939380429
 11
150.8683150336
 21
263.8680256558
  0
LINE
  5
225
100
AcDbEntity
  8
0
100
AcDbLine
 62
7
  6
CONTINUOUS
 10
117.9877216462
 20
277.0920499547
 11
114.3112586059
 21
272.518452615
  0
LINE
  5
226
100
AcDbEntity
  8
0
100
AcDbLine
 62
7
  6
CONTINUOUS
 10
138.4940891453
 20
246.9578602313
 11
137.0798814709
 21
246.1413719236
  0
LINE
  5
227
100
AcDbEntity
  8
0
100
AcDbLine
 62
7
  6
CONTINUOUS
 10
139.3428332138
 20
244.8350947629
 11
139.6254647055
 21
244.9982711567
  0
LINE
  5
228
100
AcDbEntity
  8
0
100
AcDbLine
 62
7
  6
CONTINUOUS
 10
161.1120425711
 20
247.6838155216
 11
188.0424541735
 21
262.190809102
  0
LINE
  5
229
100
AcDbEntity
  8
0
100
AcDbLine
 62
7
  6
CONTINUOUS
 10
150.8683150336
 20
262.6432720301
 11
149.8076592778
 21
261.4597938043
  0
LINE
  5
22A
100
AcDbEntity
  8
0
100
AcDbLine
 62
7
  6
CONTINUOUS
 10
154.0506446241
 20
236.3436461507
 11
154.3333469886
 21
236.5068634627
  0
LINE
  5
22B
100
AcDbEntity
  8
0
100
AcDbLine
 62
7
  6
CONTINUOUS
 10
166.9778428716
 20
243.8069824511
 11
193.431157244
 21
259.0797103161
  0
LINE
  5
22C
100
AcDbEntity
  8
0
100
AcDbLine
 62
7
  6
CONTINUOUS
 10
149.8076592778
 20
258.7212160013
 11
146.1311962375
 21
254.1476186616
  0
LINE
  5
22D
100
AcDbEntity
  8
0
100
AcDbLine
 62
7
  6
CONTINUOUS
 10
167.4024198605
 20
236.788549326
 11
193.431157244
 21
252.8573534092
  0
LINE
  5
22E
100
AcDbEntity
  8
0
100
AcDbLine
 62
7
  6
CONTINUOUS
 10
186.9307078824
 20
247.6514215481
 11
167.4024198749
 21
236.3768265104
  0
LINE
  5
22F
100
AcDbEntity
  8
0
100
AcDbLine
 62
7
  6
CONTINUOUS
 10
171.7154671765
 20
89.2985711264
 11
167.4024202996
 21
91.7886535686
  0
LINE
  5
230
100
AcDbEntity
  8
0
100
AcDbLine
 62
7
  6
CONTINUOUS
 10
148.9715992191
 20
213.5685588046
 11
149.0371544339
 21
213.6186279875
  0
LINE
  5
231
100
AcDbEntity
  8
0
100
AcDbLine
 62
7
  6
CONTINUOUS
 10
148.9697879538
 20
213.5693832956
 11
149.0371544339
 21
213.6186279875
  0
LINE
  5
232
100
AcDbEntity
  8
0
100
AcDbLine
 62
7
  6
CONTINUOUS
 10
195.1444863686
 20
242.9093016092
 11
179.8597401653
 21
233.7711611086
  0
LINE
  5
233
100
AcDbEntity
  8
0
100
AcDbLine
 62
7
  6
CONTINUOUS
 10
154.0505737537
 20
219.3603549576
 11
154.3333469886
 21
219.5236131864
  0
LINE
  5
234
100
AcDbEntity
  8
0
100
AcDbLine
 62
7
  6
CONTINUOUS
 10
154.0505148744
 20
216.747535804
 11
155.4647225488
 21
217.5640241117
  0
LINE
  5
235
100
AcDbEntity
  8
0
100
AcDbLine
 62
7
  6
CONTINUOUS
 10
149.9391535088
 20
208.2129810345
 11
149.1979181003
 21
207.7850311264
  0
LINE
  5
236
100
AcDbEntity
  8
0
100
AcDbLine
 62
7
  6
CONTINUOUS
 10
150.5056364518
 20
133.6548527343
 11
151.2244283715
 21
133.6193470034
  0
LINE
  5
237
100
AcDbEntity
  8
0
100
AcDbLine
 62
7
  6
CONTINUOUS
 10
171.7154671765
 20
224.0214699528
 11
155.4647225488
 21
212.8400599782
  0
LINE
  5
238
100
AcDbEntity
  8
0
100
AcDbLine
 62
7
  6
CONTINUOUS
 10
155.4647225488
 20
211.2070551439
 11
171.7154671766
 21
222.3884651185
  0
LINE
  5
239
100
AcDbEntity
  8
0
100
AcDbLine
 62
7
  6
CONTINUOUS
 10
192.2851125244
 20
99.73530607
 11
193.431157244
 21
99.0736518112
  0
LINE
  5
23A
100
AcDbEntity
  8
0
100
AcDbLine
 62
7
  6
CONTINUOUS
 10
117.9877216462
 20
277.0920499547
 11
117.9877216462
 21
279.8306277577
  0
LINE
  5
23B
100
AcDbEntity
  8
0
100
AcDbLine
 62
7
  6
CONTINUOUS
 10
155.4647225488
 20
193.0620799302
 11
158.2598546204
 21
195.0369509875
  0
LWPOLYLINE
  5
23C
100
AcDbEntity
  8
0
100
AcDbPolyline
 62
7
  6
CONTINUOUS
 90
4
 70
0
 10
159.9118421298
 20
190.8793254523
 10
160.0321807387
 20
190.9569304682
 10
164.5876678224
 20
193.8278921301
 10
169.2710623554
 20
196.7403899638
  0
LINE
  5
23D
100
AcDbEntity
  8
0
100
AcDbLine
 62
7
  6
CONTINUOUS
 10
179.8597401654
 20
208.2278453844
 11
195.1444863686
 21
217.9256767124
  0
LINE
  5
23E
100
AcDbEntity
  8
0
100
AcDbLine
 62
7
  6
CONTINUOUS
 10
179.8597401654
 20
201.1795047334
 11
195.1444863685
 21
209.7579544064
  0
LINE
  5
23F
100
AcDbEntity
  8
0
100
AcDbLine
 62
7
  6
CONTINUOUS
 10
192.9710025229
 20
211.5691813486
 11
169.8383888159
 21
198.9129198626
  0
LINE
  5
240
100
AcDbEntity
  8
0
100
AcDbLine
 62
7
  6
CONTINUOUS
 10
119.048377402
 20
281.0141059835
 11
119.048377402
 21
282.2388596092
  0
LINE
  5
241
100
AcDbEntity
  8
0
100
AcDbLine
 62
7
  6
CONTINUOUS
 10
126.9874513005
 20
297.4401339998
 11
126.9874513005
 21
296.1167915956
  0
LINE
  5
242
100
AcDbEntity
  8
0
100
AcDbLine
 62
7
  6
CONTINUOUS
 10
155.4647225488
 20
174.7368685889
 11
161.312187377
 21
178.8683331323
  0
LINE
  5
243
100
AcDbEntity
  8
0
100
AcDbLine
 62
7
  6
CONTINUOUS
 10
155.4647154744
 20
174.5913837065
 11
155.5113579232
 21
174.6243000011
  0
LINE
  5
244
100
AcDbEntity
  8
0
100
AcDbLine
 62
7
  6
CONTINUOUS
 10
144.1602365375
 20
25.0707409185
 11
144.1605596991
 21
230.2885193592
  0
LINE
  5
245
100
AcDbEntity
  8
0
100
AcDbLine
 62
7
  6
CONTINUOUS
 10
149.1979181003
 20
213.2722411496
 11
149.1979181003
 21
205.9237193954
  0
LINE
  5
246
100
AcDbEntity
  8
0
100
AcDbLine
 62
7
  6
CONTINUOUS
 10
149.1979181003
 20
132.2752013703
 11
149.1979181009
 21
139.6378488027
  0
LINE
  5
247
100
AcDbEntity
  8
0
100
AcDbLine
 62
7
  6
CONTINUOUS
 10
149.2099039036
 20
213.7441385442
 11
149.2099039036
 21
213.2722411496
  0
LINE
  5
248
100
AcDbEntity
  8
0
100
AcDbLine
 62
7
  6
CONTINUOUS
 10
150.3613222572
 20
212.2265734966
 11
150.3930308043
 21
212.4264338345
  0
LINE
  5
249
100
AcDbEntity
  8
0
100
AcDbLine
 62
7
  6
CONTINUOUS
 10
174.1264192346
 20
161.0651069239
 11
173.0678134738
 21
160.4539242512
  0
LINE
  5
24A
100
AcDbEntity
  8
0
100
AcDbLine
 62
7
  6
CONTINUOUS
 10
173.0678134738
 20
160.4539242512
 11
171.0228388662
 21
161.6345641818
  0
LINE
  5
24B
100
AcDbEntity
  8
0
100
AcDbLine
 62
7
  6
CONTINUOUS
 10
176.2966694185
 20
159.8121407419
 11
174.1264192346
 21
161.0651069239
  0
LINE
  5
24C
100
AcDbEntity
  8
0
100
AcDbLine
 62
7
  6
CONTINUOUS
 10
195.1444863686
 20
134.6397320304
 11
192.971002523
 21
136.4509589726
  0
LINE
  5
24D
100
AcDbEntity
  8
0
100
AcDbLine
 62
7
  6
CONTINUOUS
 10
149.8076592778
 20
258.7212160013
 11
149.8076592778
 21
261.4597938043
  0
LINE
  5
24E
100
AcDbEntity
  8
0
100
AcDbLine
 62
7
  6
CONTINUOUS
 10
149.9391535088
 20
137.0139702608
 11
149.9391535088
 21
140.6131523189
  0
LINE
  5
24F
100
AcDbEntity
  8
0
100
AcDbLine
 62
7
  6
CONTINUOUS
 10
149.9391535088
 20
208.2129810345
 11
149.9391535088
 21
211.9349003476
  0
LINE
  5
250
100
AcDbEntity
  8
0
100
AcDbLine
 62
7
  6
CONTINUOUS
 10
150.3613050876
 20
214.5535936527
 11
150.3613050876
 21
212.2265617638
  0
LINE
  5
251
100
AcDbEntity
  8
0
100
AcDbLine
 62
7
  6
CONTINUOUS
 10
150.3613162413
 20
133.5565470371
 11
150.3613162413
 21
135.8835789259
  0
LINE
  5
252
100
AcDbEntity
  8
0
100
AcDbLine
 62
7
  6
CONTINUOUS
 10
150.3934167929
 20
133.7564254483
 11
150.3934167929
 21
136.0834573371
  0
LINE
  5
253
100
AcDbEntity
  8
0
100
AcDbLine
 62
7
  6
CONTINUOUS
 10
150.3934167929
 20
212.4264333387
 11
150.3934167929
 21
214.5536032884
  0
LINE
  5
254
100
AcDbEntity
  8
0
100
AcDbLine
 62
7
  6
CONTINUOUS
 10
150.5042126138
 20
133.6557239917
 11
150.5037122547
 21
141.0089727386
  0
LINE
  5
255
100
AcDbEntity
  8
0
100
AcDbLine
 62
7
  6
CONTINUOUS
 10
150.5040244928
 20
207.3042515185
 11
150.5042126136
 21
214.6527637709
  0
LINE
  5
256
100
AcDbEntity
  8
0
100
AcDbLine
 62
7
  6
CONTINUOUS
 10
150.8683150336
 20
262.6432720301
 11
150.8683150336
 21
263.8680256558
  0
LINE
  5
257
100
AcDbEntity
  8
0
100
AcDbLine
 62
7
  6
CONTINUOUS
 10
151.2244283715
 20
133.6193470034
 11
151.2244283711
 21
140.9819590369
  0
LINE
  5
258
100
AcDbEntity
  8
0
100
AcDbLine
 62
7
  6
CONTINUOUS
 10
151.2244283715
 20
207.2678650285
 11
151.2244283715
 21
214.6163867827
  0
LINE
  5
259
100
AcDbEntity
  8
0
100
AcDbLine
 62
7
  6
CONTINUOUS
 10
152.8026085231
 20
142.4872748579
 11
152.8026085231
 21
208.259207587
  0
LINE
  5
25A
100
AcDbEntity
  8
0
100
AcDbLine
 62
7
  6
CONTINUOUS
 10
152.9498334993
 20
142.3274641561
 11
152.9498334993
 21
208.3497475216
  0
LINE
  5
25B
100
AcDbEntity
  8
0
100
AcDbLine
 62
7
  6
CONTINUOUS
 10
152.9498334993
 20
215.9619310282
 11
152.9498334993
 21
216.2190793865
  0
LINE
  5
25C
100
AcDbEntity
  8
0
100
AcDbLine
 62
7
  6
CONTINUOUS
 10
153.0852060264
 20
134.7844860624
 11
153.0852060264
 21
142.1423971889
  0
LINE
  5
25D
100
AcDbEntity
  8
0
100
AcDbLine
 62
7
  6
CONTINUOUS
 10
153.0852129277
 20
215.781524451
 11
153.0852129277
 21
208.4330026968
  0
LINE
  5
25E
100
AcDbEntity
  8
0
100
AcDbLine
 62
7
  6
CONTINUOUS
 10
154.0505737537
 20
236.3437689025
 11
154.0505737537
 21
33.8511694543
  0
LINE
  5
25F
100
AcDbEntity
  8
0
100
AcDbLine
 62
7
  6
CONTINUOUS
 10
154.3333469886
 20
236.5068634627
 11
154.3333469886
 21
219.5236131864
  0
LINE
  5
260
100
AcDbEntity
  8
0
100
AcDbLine
 62
7
  6
CONTINUOUS
 10
154.3333469886
 20
69.9403703682
 11
154.3333469886
 21
52.9571200919
  0
LINE
  5
261
100
AcDbEntity
  8
0
100
AcDbLine
 62
7
  6
CONTINUOUS
 10
155.4647225488
 20
70.5935890284
 11
155.4647225488
 21
217.5640241117
  0
LINE
  5
262
100
AcDbEntity
  8
0
100
AcDbLine
 62
7
  6
CONTINUOUS
 10
150.3920450708
 20
136.0834600596
 11
150.3613222571
 21
135.883597495
  0
LINE
  5
263
100
AcDbEntity
  8
0
100
AcDbLine
 62
7
  6
CONTINUOUS
 10
148.9716295163
 20
139.9341272774
 11
149.0371534609
 21
139.9841724948
  0
LINE
  5
264
100
AcDbEntity
  8
0
100
AcDbLine
 62
7
  6
CONTINUOUS
 10
148.9698179569
 20
139.9349516893
 11
149.0371534609
 21
139.9841724948
  0
LINE
  5
265
100
AcDbEntity
  8
0
100
AcDbLine
 62
7
  6
CONTINUOUS
 10
176.2966694185
 20
159.8121407419
 11
155.4647225488
 21
145.478610565
  0
LINE
  5
266
100
AcDbEntity
  8
0
100
AcDbLine
 62
7
  6
CONTINUOUS
 10
155.4647225488
 20
143.8456057307
 11
176.2966694186
 21
158.1791359076
  0
LINE
  5
267
100
AcDbEntity
  8
0
100
AcDbLine
 62
7
  6
CONTINUOUS
 10
167.4024196712
 20
74.2433204612
 11
167.402420031
 21
84.6979516086
  0
LINE
  5
268
100
AcDbEntity
  8
0
100
AcDbLine
 62
7
  6
CONTINUOUS
 10
167.4024202197
 20
226.5115524411
 11
167.4024196636
 21
242.4239217877
  0
LINE
  5
269
100
AcDbEntity
  8
0
100
AcDbLine
 62
7
  6
CONTINUOUS
 10
155.5111775366
 20
126.5227876322
 11
155.4647225488
 21
126.4898569742
  0
LINE
  5
26A
100
AcDbEntity
  8
0
100
AcDbLine
 62
7
  6
CONTINUOUS
 10
155.4647460833
 20
126.5057216664
 11
155.5111775366
 21
126.5227876322
  0
LINE
  5
26B
100
AcDbEntity
  8
0
100
AcDbLine
 62
7
  6
CONTINUOUS
 10
155.4647225488
 20
126.5061112278
 11
155.5111775366
 21
126.5227876322
  0
LINE
  5
26C
100
AcDbEntity
  8
0
100
AcDbLine
 62
7
  6
CONTINUOUS
 10
150.505222066
 20
207.3030432502
 11
151.2244283715
 21
207.2678650285
  0
LINE
  5
26D
100
AcDbEntity
  8
0
100
AcDbLine
 62
7
  6
CONTINUOUS
 10
151.2244283715
 20
214.6163867827
 11
150.5056364516
 21
214.6518925134
  0
LINE
  5
26E
100
AcDbEntity
  8
0
100
AcDbLine
 62
7
  6
CONTINUOUS
 10
149.0371544339
 20
213.6186279875
 11
149.1979181004
 21
213.2722411496
  0
LINE
  5
26F
100
AcDbEntity
  8
0
100
AcDbLine
 62
7
  6
CONTINUOUS
 10
171.7154671765
 20
87.6655662921
 11
171.7154671765
 21
89.2985711264
  0
LINE
  5
270
100
AcDbEntity
  8
0
100
AcDbLine
 62
7
  6
CONTINUOUS
 10
171.7154671765
 20
222.3884651185
 11
171.7154671765
 21
224.0214699528
  0
LINE
  5
271
100
AcDbEntity
  8
0
100
AcDbLine
 62
7
  6
CONTINUOUS
 10
176.2966694186
 20
159.8121407419
 11
176.2966694186
 21
158.1791359076
  0
LINE
  5
272
100
AcDbEntity
  8
0
100
AcDbLine
 62
7
  6
CONTINUOUS
 10
179.8597401654
 20
233.7711611087
 11
179.8597401654
 21
208.2278453844
  0
LINE
  5
273
100
AcDbEntity
  8
0
100
AcDbLine
 62
7
  6
CONTINUOUS
 10
179.8597401654
 20
201.1795047334
 11
179.8597401654
 21
133.1096230085
  0
LINE
  5
274
100
AcDbEntity
  8
0
100
AcDbLine
 62
7
  6
CONTINUOUS
 10
179.8597401654
 20
126.0612823574
 11
179.8597401654
 21
100.5179666332
  0
LINE
  5
275
100
AcDbEntity
  8
0
100
AcDbLine
 62
7
  6
CONTINUOUS
 10
155.4647225488
 20
119.5845320113
 11
160.2937288973
 21
122.9964154666
  0
LINE
  5
276
100
AcDbEntity
  8
0
100
AcDbLine
 62
7
  6
CONTINUOUS
 10
179.8597401653
 20
133.1096230084
 11
195.1444863686
 21
142.8074543364
  0
LWPOLYLINE
  5
277
100
AcDbEntity
  8
0
100
AcDbPolyline
 62
7
  6
CONTINUOUS
 90
3
 70
0
 10
162.2378183532
 20
117.2287462828
 10
164.5876683745
 20
118.7096700978
 10
169.2710623572
 20
121.6221675872
  0
LINE
  5
278
100
AcDbEntity
  8
0
100
AcDbLine
 62
7
  6
CONTINUOUS
 10
179.8597401654
 20
126.0612823574
 11
195.1444863685
 21
134.6397320304
  0
LINE
  5
279
100
AcDbEntity
  8
0
100
AcDbLine
 62
7
  6
CONTINUOUS
 10
169.8383887594
 20
123.7946974883
 11
192.9710025141
 21
136.45095898
  0
LINE
  5
27A
100
AcDbEntity
  8
0
100
AcDbLine
 62
7
  6
CONTINUOUS
 10
155.4647225488
 20
217.5640241117
 11
154.3333469886
 21
219.5236131864
  0
LINE
  5
27B
100
AcDbEntity
  8
0
100
AcDbLine
 62
7
  6
CONTINUOUS
 10
139.6254647055
 20
244.9982711567
 11
138.4940891453
 21
246.9578602313
  0
LINE
  5
27C
100
AcDbEntity
  8
0
100
AcDbLine
 62
7
  6
CONTINUOUS
 10
186.9307078824
 20
248.8443102214
 11
186.9307078824
 21
247.6514215481
  0
LINE
  5
27D
100
AcDbEntity
  8
0
100
AcDbLine
 62
7
  6
CONTINUOUS
 10
186.9307078824
 20
102.8665596277
 11
186.9307078824
 21
104.7454163803
  0
LINE
  5
27E
100
AcDbEntity
  8
0
100
AcDbLine
 62
7
  6
CONTINUOUS
 10
158.259856247
 20
108.8355706789
 11
155.4647225488
 21
106.8606984723
  0
LINE
  5
27F
100
AcDbEntity
  8
0
100
AcDbLine
 62
7
  6
CONTINUOUS
 10
193.431157244
 20
99.0736518112
 11
193.431157244
 21
92.8512949042
  0
LINE
  5
280
100
AcDbEntity
  8
0
100
AcDbLine
 62
7
  6
CONTINUOUS
 10
193.431157244
 20
252.8573534091
 11
193.431157244
 21
259.0797103161
  0
LINE
  5
281
100
AcDbEntity
  8
0
100
AcDbLine
 62
7
  6
CONTINUOUS
 10
195.1444863686
 20
109.6561071336
 11
195.1444863686
 21
134.6397320304
  0
LINE
  5
282
100
AcDbEntity
  8
0
100
AcDbLine
 62
7
  6
CONTINUOUS
 10
195.1444863686
 20
142.8074543364
 11
195.1444863686
 21
209.7579544064
  0
LINE
  5
283
100
AcDbEntity
  8
0
100
AcDbLine
 62
7
  6
CONTINUOUS
 10
195.1444863686
 20
217.9256767124
 11
195.1444863686
 21
242.9093016092
  0
LINE
  5
284
100
AcDbEntity
  8
0
100
AcDbLine
 62
7
  6
CONTINUOUS
 10
179.8597401655
 20
100.5179666332
 11
195.1444863685
 21
109.6561071336
  0
LINE
  5
285
100
AcDbEntity
  8
0
100
AcDbLine
 62
7
  6
CONTINUOUS
 10
171.7154671765
 20
224.0214699528
 11
167.4024202197
 21
226.5115524411
  0
LINE
  5
286
100
AcDbEntity
  8
0
100
AcDbLine
 62
7
  6
CONTINUOUS
 10
50.8125538823
 20
295.9469190624
 11
154.0505737537
 21
236.3437689025
  0
LINE
  5
287
100
AcDbEntity
  8
0
100
AcDbLine
 62
7
  6
CONTINUOUS
 10
67.5002727406
 20
286.6388281177
 11
82.2081550236
 21
278.1474204237
  0
LINE
  5
288
100
AcDbEntity
  8
0
100
AcDbLine
 62
7
  6
CONTINUOUS
 10
139.6254647055
 20
244.9982711567
 11
154.3333469886
 21
236.5068634627
  0
LINE
  5
289
100
AcDbEntity
  8
0
100
AcDbLine
 62
7
  6
CONTINUOUS
 10
83.3395305838
 20
278.8006390839
 11
138.4940891453
 21
246.9578602313
  0
LINE
  5
28A
100
AcDbEntity
  8
0
100
AcDbLine
 62
7
  6
CONTINUOUS
 10
186.9307078824
 20
102.8665596277
 11
185.1632175277
 21
99.769223814
  0
LINE
  5
28B
100
AcDbEntity
  8
0
100
AcDbLine
 62
7
  6
CONTINUOUS
 10
171.7154671765
 20
89.2985711264
 11
155.4647225488
 21
78.1171611518
  0
LINE
  5
28C
100
AcDbEntity
  8
0
100
AcDbLine
 62
7
  6
CONTINUOUS
 10
155.4647225488
 20
76.4841563175
 11
171.7154671766
 21
87.6655662921
  0
LINE
  5
28D
100
AcDbEntity
  8
0
100
AcDbLine
 62
7
  6
CONTINUOUS
 10
167.3651543986
 20
91.7633892238
 11
167.4024202996
 21
91.7886535686
  0
LINE
  5
28E
100
AcDbEntity
  8
0
100
AcDbLine
 62
7
  6
CONTINUOUS
 10
167.3647580029
 20
91.7635841419
 11
167.4024202996
 21
91.7886535686
  0
LINE
  5
28F
100
AcDbEntity
  8
0
100
AcDbLine
 62
7
  6
CONTINUOUS
 10
185.1632175277
 20
99.769223814
 11
169.6423423066
 21
90.4954632507
  0
LINE
  5
290
100
AcDbEntity
  8
0
100
AcDbLine
 62
7
  6
CONTINUOUS
 10
167.4024200086
 20
84.0460520605
 11
193.431157244
 21
99.0736518112
  0
LINE
  5
291
100
AcDbEntity
  8
0
100
AcDbLine
 62
7
  6
CONTINUOUS
 10
171.7154671765
 20
88.6547582707
 11
192.2851125244
 21
99.73530607
  0
LINE
  5
292
100
AcDbEntity
  8
0
100
AcDbLine
 62
7
  6
CONTINUOUS
 10
100.6635834275
 20
280.3977632992
 11
105.8131476632
 21
277.4247282606
  0
LINE
  5
293
100
AcDbEntity
  8
0
100
AcDbLine
 62
7
  6
CONTINUOUS
 10
111.9773390298
 20
273.8659112269
 11
137.6330852948
 21
259.0538943072
  0
LINE
  5
294
100
AcDbEntity
  8
0
100
AcDbLine
 62
7
  6
CONTINUOUS
 10
143.7972766615
 20
255.4950772735
 11
153.6968128135
 21
249.7797067102
  0
LINE
  5
295
100
AcDbEntity
  8
0
100
AcDbLine
 62
7
  6
CONTINUOUS
 10
165.9923302054
 20
244.8662435245
 11
157.5151882543
 21
249.7604136159
  0
LINE
  5
296
100
AcDbEntity
  8
0
100
AcDbLine
 62
7
  6
CONTINUOUS
 10
100.9464102425
 20
282.4196739776
 11
92.469291445
 21
287.3138294192
  0
LINE
  5
297
100
AcDbEntity
  8
0
100
AcDbLine
 62
7
  6
CONTINUOUS
 10
195.1444863686
 20
209.7579544064
 11
192.9710025228
 21
211.5691813487
  0
LWPOLYLINE
  5
298
100
AcDbEntity
  8
0
100
AcDbPolyline
 62
7
  6
CONTINUOUS
 90
4
 70
0
 10
154.3333469886
 20
64.1793644872
 10
155.5100970652
 20
64.9552119755
 10
161.5137816058
 20
69.1931363102
 10
167.0662008889
 20
73.3805339219
  0
LINE
  5
299
100
AcDbEntity
  8
0
100
AcDbLine
 62
7
  6
CONTINUOUS
 10
167.4024197586
 20
76.7824907581
 11
193.431157244
 21
92.8512949042
  0
LINE
  5
29A
100
AcDbEntity
  8
0
100
AcDbLine
 62
7
  6
CONTINUOUS
 10
154.0505148744
 20
69.7771007206
 11
155.4647225489
 21
70.5935890284
  0
LINE
  5
29B
100
AcDbEntity
  8
0
100
AcDbLine
 62
7
  6
CONTINUOUS
 10
107.2008472523
 20
285.3832908418
 11
112.8510474766
 21
282.1211052213
  0
LINE
  5
29C
100
AcDbEntity
  8
0
100
AcDbLine
 62
7
  6
CONTINUOUS
 10
162.0018509512
 20
253.7446323664
 11
167.0030042386
 21
250.8571848839
  0
LINE
  5
29D
100
AcDbEntity
  8
0
100
AcDbLine
 62
7
  6
CONTINUOUS
 10
150.8683150336
 20
263.8680256558
 11
149.4540955833
 21
264.6845071648
  0
LINE
  5
29E
100
AcDbEntity
  8
0
100
AcDbLine
 62
7
  6
CONTINUOUS
 10
119.048377402
 20
282.2388596092
 11
117.6341579517
 21
283.0553411182
  0
LINE
  5
29F
100
AcDbEntity
  8
0
100
AcDbLine
 62
7
  6
CONTINUOUS
 10
154.0505737537
 20
52.7938618632
 11
154.3333469886
 21
52.9571200919
  0
LINE
  5
2A0
100
AcDbEntity
  8
0
100
AcDbLine
 62
7
  6
CONTINUOUS
 10
195.1444863686
 20
242.9093016092
 11
186.9307078824
 21
247.6514215481
  0
LINE
  5
2A1
100
AcDbEntity
  8
0
100
AcDbLine
 62
7
  6
CONTINUOUS
 10
128.5944395159
 20
292.8987752868
 11
184.804537917
 21
260.4465940102
  0
LINE
  5
2A2
100
AcDbEntity
  8
0
100
AcDbLine
 62
7
  6
CONTINUOUS
 10
193.431157244
 20
259.0797103161
 11
188.0424541735
 21
262.190809102
  0
LINE
  5
2A3
100
AcDbEntity
  8
0
100
AcDbLine
 62
7
  6
CONTINUOUS
 10
121.59874823
 20
300.5512327857
 11
126.9874513005
 21
297.4401339998
  0
ARC
  5
2A4
100
AcDbEntity
  8
0
100
AcDbCircle
 62
7
  6
CONTINUOUS
 10
-62.2345936739
 20
565.4023921777
 40
409.3655572655
100
AcDbArc
 50
302.0465149134
 51
304.122097675
  0
ARC
  5
2A5
100
AcDbEntity
  8
0
100
AcDbCircle
 62
7
  6
CONTINUOUS
 10
-61.9367105598
 20
430.2259186677
 40
408.822980165
100
AcDbArc
 50
302.1261258443
 51
304.1168860041
  0
ARC
  5
2A6
100
AcDbEntity
  8
0
100
AcDbCircle
 62
7
  6
CONTINUOUS
 10
323.4622811801
 20
-109.7222095298
 40
407.0174203013
100
AcDbArc
 50
116.1944197957
 51
117.8795914853
  0
ARC
  5
2A7
100
AcDbEntity
  8
0
100
AcDbCircle
 62
7
  6
CONTINUOUS
 10
291.6423435399
 20
-91.3513755595
 40
407.0174202823
100
AcDbArc
 50
116.1944197956
 51
117.8795914854
  0
ARC
  5
2A8
100
AcDbEntity
  8
0
100
AcDbCircle
 62
7
  6
CONTINUOUS
 10
273.6550839474
 20
-71.2743696101
 40
391.9175274432
100
AcDbArc
 50
114.8476527521
 51
116.1930948122
  0
ARC
  5
2A9
100
AcDbEntity
  8
0
100
AcDbCircle
 62
7
  6
CONTINUOUS
 10
327.4893411919
 20
-100.8726839461
 40
389.6598283588
100
AcDbArc
 50
114.8447286538
 51
115.8624175282
  0
ARC
  5
2AA
100
AcDbEntity
  8
0
100
AcDbCircle
 62
7
  6
CONTINUOUS
 10
325.5607459072
 20
-99.5305936479
 40
389.3005232911
100
AcDbArc
 50
114.8431302936
 51
116.1976172707
  0
ARC
  5
2AB
100
AcDbEntity
  8
0
100
AcDbCircle
 62
7
  6
CONTINUOUS
 10
270.0786754953
 20
-66.4366980874
 40
387.6938115876
100
AcDbArc
 50
114.842148207
 51
115.8649979746
  0
ARC
  5
2AC
100
AcDbEntity
  8
0
100
AcDbCircle
 62
7
  6
CONTINUOUS
 10
-47.837346485
 20
409.2344844392
 40
383.6037690578
100
AcDbArc
 50
304.1435907689
 51
306.4110169992
  0
ARC
  5
2AD
100
AcDbEntity
  8
0
100
AcDbCircle
 62
7
  6
CONTINUOUS
 10
-44.780461304
 20
538.1877511135
 40
378.3287993087
100
AcDbArc
 50
304.3400320444
 51
306.4249808908
  0
ARC
  5
2AE
100
AcDbEntity
  8
0
100
AcDbCircle
 62
7
  6
CONTINUOUS
 10
178.1720318328
 20
76.3188416542
 40
227.7366576039
100
AcDbArc
 50
112.1062513911
 51
112.3044862649
  0
ARC
  5
2AF
100
AcDbEntity
  8
0
100
AcDbCircle
 62
7
  6
CONTINUOUS
 10
27.8684121078
 20
253.3334769772
 40
227.0267081052
100
AcDbArc
 50
307.7248980079
 51
307.9238298972
  0
ARC
  5
2B0
100
AcDbEntity
  8
0
100
AcDbCircle
 62
7
  6
CONTINUOUS
 10
177.504425227
 20
77.8849268508
 40
226.0343722923
100
AcDbArc
 50
112.2985846435
 51
116.1834614594
  0
ARC
  5
2B1
100
AcDbEntity
  8
0
100
AcDbCircle
 62
7
  6
CONTINUOUS
 10
28.654100326
 20
252.3044825914
 40
225.7320775151
100
AcDbArc
 50
303.8358909058
 51
307.7269705839
  0
ARC
  5
2B2
100
AcDbEntity
  8
0
100
AcDbCircle
 62
7
  6
CONTINUOUS
 10
200.2274784131
 20
64.789340866
 40
90.5903653041
100
AcDbArc
 50
121.3583765225
 51
122.7469732502
  0
ARC
  5
2B3
100
AcDbEntity
  8
0
100
AcDbCircle
 62
7
  6
CONTINUOUS
 10
200.2243381112
 20
138.4294731179
 40
90.5838670419
100
AcDbArc
 50
121.3585569214
 51
122.7472551179
  0
ARC
  5
2B4
100
AcDbEntity
  8
0
100
AcDbCircle
 62
7
  6
CONTINUOUS
 10
199.8891134002
 20
131.6163224434
 40
89.9522510249
100
AcDbArc
 50
121.3536812085
 51
122.7521308813
  0
ARC
  5
2B5
100
AcDbEntity
  8
0
100
AcDbCircle
 62
7
  6
CONTINUOUS
 10
199.8890985079
 20
57.9678276668
 40
89.9522234157
100
AcDbArc
 50
121.3536808007
 51
122.7521309149
  0
ARC
  5
2B6
100
AcDbEntity
  8
0
100
AcDbCircle
 62
7
  6
CONTINUOUS
 10
183.4869577513
 20
165.8313169205
 40
58.9189491074
100
AcDbArc
 50
121.2176429749
 51
121.3852006835
  0
ARC
  5
2B7
100
AcDbEntity
  8
0
100
AcDbCircle
 62
7
  6
CONTINUOUS
 10
181.9605588666
 20
168.2806495203
 40
56.0330645321
100
AcDbArc
 50
121.3571029225
 51
124.1501518107
  0
ARC
  5
2B8
100
AcDbEntity
  8
0
100
AcDbCircle
 62
7
  6
CONTINUOUS
 10
181.0955039335
 20
96.0196329288
 40
54.4002043606
100
AcDbArc
 50
124.2200958387
 51
126.107752959
  0
ARC
  5
2B9
100
AcDbEntity
  8
0
100
AcDbCircle
 62
7
  6
CONTINUOUS
 10
180.2168370507
 20
163.5142861782
 40
52.917276013
100
AcDbArc
 50
124.1614382363
 51
125.8872819438
  0
ARC
  5
2BA
100
AcDbEntity
  8
0
100
AcDbCircle
 62
7
  6
CONTINUOUS
 10
180.1292068441
 20
92.3169098176
 40
52.765360114
100
AcDbArc
 50
124.3436899134
 51
125.8720613995
  0
ARC
  5
2BB
100
AcDbEntity
  8
0
100
AcDbCircle
 62
7
  6
CONTINUOUS
 10
179.8998689866
 20
168.9861052576
 40
52.3666290343
100
AcDbArc
 50
124.3378708853
 51
125.8778804276
  0
ARC
  5
2BC
100
AcDbEntity
  8
0
100
AcDbCircle
 62
7
  6
CONTINUOUS
 10
179.2173348629
 20
172.2610509129
 40
51.1985592786
100
AcDbArc
 50
125.880676388
 51
126.1196363532
  0
ARC
  5
2BD
100
AcDbEntity
  8
0
100
AcDbCircle
 62
7
  6
CONTINUOUS
 10
189.3554156993
 20
136.5312707477
 40
50.9558545775
100
AcDbArc
 50
130.259816958
 51
131.6197695687
  0
ARC
  5
2BE
100
AcDbEntity
  8
0
100
AcDbCircle
 62
7
  6
CONTINUOUS
 10
169.3122724935
 20
199.707059607
 40
11.9985886016
100
AcDbArc
 50
198.7161728087
 51
202.9060964403
  0
ARC
  5
2BF
100
AcDbEntity
  8
0
100
AcDbCircle
 62
7
  6
CONTINUOUS
 10
148.54482502
 20
130.9111922648
 40
8.1265718677
100
AcDbArc
 50
80.0059442232
 51
85.3511312547
  0
ARC
  5
2C0
100
AcDbEntity
  8
0
100
AcDbCircle
 62
7
  6
CONTINUOUS
 10
151.0914877809
 20
214.4394970874
 40
2.4033213737
100
AcDbArc
 50
33.9455102705
 51
37.4223381243
  0
ARC
  5
2C1
100
AcDbEntity
  8
0
100
AcDbCircle
 62
7
  6
CONTINUOUS
 10
148.8674437532
 20
135.157428654
 40
1.9548693532
100
AcDbArc
 50
60.9561964231
 51
65.6954666049
  0
ARC
  5
2C2
100
AcDbEntity
  8
0
100
AcDbCircle
 62
7
  6
CONTINUOUS
 10
149.7355266155
 20
133.759718329
 40
0.6579181541
100
AcDbArc
 50
342.011943387
 51
352.5060179076
  0
ARC
  5
2C3
100
AcDbEntity
  8
0
100
AcDbCircle
 62
7
  6
CONTINUOUS
 10
149.7556178622
 20
133.7564455761
 40
0.6375719822
100
AcDbArc
 50
352.562135127
 51
359.998443436
  0
SPLINE
  5
2C4
100
AcDbEntity
  8
0
100
AcDbSpline
 62
7
  6
CONTINUOUS
 70
0
 71
3
 72
13
 73
9
 74
0
 42
0.0000001
 43
0.0000001
 44
0.0000000001
 40
0.0
 40
0.0
 40
0.0
 40
0.0
 40
0.091136087
 40
0.1889132531
 40
0.2974377897
 40
0.418419227
 40
0.6943104908
 40
1.0
 40
1.0
 40
1.0
 40
1.0
 10
169.2709843361
 20
196.7405220684
 30
0.0
 10
169.3778171295
 20
196.8067240323
 30
0.0
 10
169.5767190023
 20
196.9833486048
 30
0.0
 10
169.788009861
 20
197.3409368475
 30
0.0
 10
169.9140648639
 20
197.7783987622
 30
0.0
 10
169.9685980853
 20
198.4768802982
 30
0.0
 10
169.8008285796
 20
199.4453434109
 30
0.0
 10
169.4811003435
 20
200.1883260312
 30
0.0
 10
169.2745872495
 20
200.5558421589
 30
0.0
  0
SPLINE
  5
2C5
100
AcDbEntity
  8
0
100
AcDbSpline
 62
7
  6
CONTINUOUS
 70
0
 71
3
 72
13
 73
9
 74
0
 42
0.0000001
 43
0.0000001
 44
0.0000000001
 40
0.0
 40
0.0
 40
0.0
 40
0.0
 40
0.0911361474
 40
0.1889132179
 40
0.2974377744
 40
0.418419229
 40
0.6943104862
 40
1.0
 40
1.0
 40
1.0
 40
1.0
 10
169.2709843439
 20
121.6222996818
 30
0.0
 10
169.3778168749
 20
121.6885022227
 30
0.0
 10
169.5767187341
 20
121.8651264432
 30
0.0
 10
169.7880100617
 20
122.2227144926
 30
0.0
 10
169.9140648265
 20
122.6601763946
 30
0.0
 10
169.9685981096
 20
123.3586579321
 30
0.0
 10
169.8008285779
 20
124.3271210628
 30
0.0
 10
169.481100359
 20
125.0701036625
 30
0.0
 10
169.2745872659
 20
125.4376197887
 30
0.0
  0
SPLINE
  5
2C6
100
AcDbEntity
  8
0
100
AcDbSpline
 62
7
  6
CONTINUOUS
 70
0
 71
3
 72
9
 73
5
 74
0
 42
0.0000001
 43
0.0000001
 44
0.0000000001
 40
0.0
 40
0.0
 40
0.0
 40
0.0
 40
0.4521888953
 40
1.0
 40
1.0
 40
1.0
 40
1.0
 10
91.5540428868
 20
287.4539826688
 30
0.0
 10
91.6866739761
 20
287.5079589877
 30
0.0
 10
92.0209922105
 20
287.5271563108
 30
0.0
 10
92.319061698
 20
287.4005723405
 30
0.0
 10
92.469291445
 20
287.3138294192
 30
0.0
  0
SPLINE
  5
2C7
100
AcDbEntity
  8
0
100
AcDbSpline
 62
7
  6
CONTINUOUS
 70
0
 71
3
 72
9
 73
5
 74
0
 42
0.0000001
 43
0.0000001
 44
0.0000000001
 40
0.0
 40
0.0
 40
0.0
 40
0.0
 40
0.5478125389
 40
1.0
 40
1.0
 40
1.0
 40
1.0
 10
167.4024196712
 20
74.2433204612
 30
0.0
 10
167.4024343202
 20
74.0698403739
 30
0.0
 10
167.3630173483
 20
73.7484024286
 30
0.0
 10
167.1792313572
 20
73.468462299
 30
0.0
 10
167.0661673632
 20
73.380586662
 30
0.0
  0
SPLINE
  5
2C8
100
AcDbEntity
  8
0
100
AcDbSpline
 62
7
  6
CONTINUOUS
 70
0
 71
3
 72
9
 73
5
 74
0
 42
0.0000001
 43
0.0000001
 44
0.0000000001
 40
0.0
 40
0.0
 40
0.0
 40
0.0
 40
0.2451932091
 40
1.0
 40
1.0
 40
1.0
 40
1.0
 10
158.259843027
 20
108.8355848846
 30
0.0
 10
158.2309668899
 20
108.8004785809
 30
0.0
 10
158.1166541589
 20
108.6544773719
 30
0.0
 10
158.0161610986
 20
108.4977764043
 30
0.0
 10
157.9481723733
 20
108.375469509
 30
0.0
  0
SPLINE
  5
2C9
100
AcDbEntity
  8
0
100
AcDbSpline
 62
7
  6
CONTINUOUS
 70
0
 71
3
 72
18
 73
14
 74
0
 42
0.0000001
 43
0.0000001
 44
0.0000000001
 40
0.0
 40
0.0
 40
0.0
 40
0.0
 40
0.0832851875
 40
0.1670695209
 40
0.2477632898
 40
0.322818176
 40
0.3920893272
 40
0.4566201723
 40
0.5176404544
 40
0.5759737297
 40
0.6873275333
 40
0.7940663381
 40
1.0
 40
1.0
 40
1.0
 40
1.0
 10
160.2937508445
 20
122.996441695
 30
0.0
 10
160.5671431739
 20
122.6579860361
 30
0.0
 10
161.0792745989
 20
121.947870202
 30
0.0
 10
161.6788713793
 20
120.7950561633
 30
0.0
 10
162.0749405941
 20
119.6020977562
 30
0.0
 10
162.261056862
 20
118.436646588
 30
0.0
 10
162.2760886342
 20
117.3423333941
 30
0.0
 10
162.161816052
 20
116.3289057099
 30
0.0
 10
161.9586275483
 20
115.3884905874
 30
0.0
 10
161.59592724
 20
114.2378909766
 30
0.0
 10
161.0201740033
 20
112.9089962911
 30
0.0
 10
159.9189243961
 20
110.983902461
 30
0.0
 10
158.9434365123
 20
109.6662692338
 30
0.0
 10
158.259843027
 20
108.8355848846
 30
0.0
  0
SPLINE
  5
2CA
100
AcDbEntity
  8
0
100
AcDbSpline
 62
7
  6
CONTINUOUS
 70
0
 71
3
 72
9
 73
5
 74
0
 42
0.0000001
 43
0.0000001
 44
0.0000000001
 40
0.0
 40
0.0
 40
0.0
 40
0.0
 40
0.4950757188
 40
1.0
 40
1.0
 40
1.0
 40
1.0
 10
157.9480677971
 20
127.5588842585
 30
0.0
 10
158.1683054107
 20
126.7368374166
 30
0.0
 10
158.8077328545
 20
125.1256553646
 30
0.0
 10
159.7486691594
 20
123.6719073733
 30
0.0
 10
160.2937508445
 20
122.996441695
 30
0.0
  0
SPLINE
  5
2CB
100
AcDbEntity
  8
0
100
AcDbSpline
 62
7
  6
CONTINUOUS
 70
0
 71
3
 72
9
 73
5
 74
0
 42
0.0000001
 43
0.0000001
 44
0.0000000001
 40
0.0
 40
0.0
 40
0.0
 40
0.0
 40
0.4944573677
 40
1.0
 40
1.0
 40
1.0
 40
1.0
 10
192.971002523
 20
136.4509589726
 30
0.0
 10
192.4282746781
 20
136.9032297805
 30
0.0
 10
191.4962230125
 20
138.0192333547
 30
0.0
 10
190.8982210463
 20
139.3409253103
 30
0.0
 10
190.710828572
 20
140.0385040636
 30
0.0
  0
SPLINE
  5
2CC
100
AcDbEntity
  8
0
100
AcDbSpline
 62
7
  6
CONTINUOUS
 70
0
 71
3
 72
9
 73
5
 74
0
 42
0.0000001
 43
0.0000001
 44
0.0000000001
 40
0.0
 40
0.0
 40
0.0
 40
0.0
 40
0.4944573677
 40
1.0
 40
1.0
 40
1.0
 40
1.0
 10
192.9710025228
 20
211.5691813487
 30
0.0
 10
192.4282746779
 20
212.0214521566
 30
0.0
 10
191.4962230124
 20
213.1374557307
 30
0.0
 10
190.8982210463
 20
214.4591476862
 30
0.0
 10
190.710828572
 20
215.1567264395
 30
0.0
  0
SPLINE
  5
2CD
100
AcDbEntity
  8
0
100
AcDbSpline
 62
7
  6
CONTINUOUS
 70
0
 71
3
 72
19
 73
15
 74
0
 42
0.0000001
 43
0.0000001
 44
0.0000000001
 40
0.0
 40
0.0
 40
0.0
 40
0.0
 40
0.1384669213
 40
0.2760648778
 40
0.4124129875
 40
0.5466741764
 40
0.61264458
 40
0.67745324
 40
0.7405819733
 40
0.8014057701
 40
0.8588248488
 40
0.9114615983
 40
0.9581868913
 40
1.0
 40
1.0
 40
1.0
 40
1.0
 10
158.2598446377
 20
195.0369453768
 30
0.0
 10
158.5663818646
 20
194.3104989673
 30
0.0
 10
159.1662470196
 20
192.8573205319
 30
0.0
 10
160.0106841368
 20
190.6657348238
 30
0.0
 10
160.7880870555
 20
188.4747435888
 30
0.0
 10
161.3541045519
 20
186.6427062912
 30
0.0
 10
161.7372875757
 20
185.1827132816
 30
0.0
 10
161.9784653679
 20
184.1048256444
 30
0.0
 10
162.1583081308
 20
183.0445417088
 30
0.0
 10
162.2653514762
 20
182.0162971629
 30
0.0
 10
162.2719922022
 20
181.0410896257
 30
0.0
 10
162.1488601383
 20
180.1522884338
 30
0.0
 10
161.8558887799
 20
179.391517045
 30
0.0
 10
161.5066668726
 20
179.005691609
 30
0.0
 10
161.3121917644
 20
178.8683256096
 30
0.0
  0
SPLINE
  5
2CE
100
AcDbEntity
  8
0
100
AcDbSpline
 62
7
  6
CONTINUOUS
 70
0
 71
3
 72
11
 73
7
 74
0
 42
0.0000001
 43
0.0000001
 44
0.0000000001
 40
0.0
 40
0.0
 40
0.0
 40
0.0
 40
0.2372202339
 40
0.4999984188
 40
0.7627774724
 40
1.0
 40
1.0
 40
1.0
 40
1.0
 10
165.9923302054
 20
244.8662435245
 30
0.0
 10
166.1925382483
 20
244.7506665753
 30
0.0
 10
166.5718060354
 20
244.4322814879
 30
0.0
 10
167.0141694451
 20
243.8279905628
 30
0.0
 10
167.3163258834
 20
243.1427476327
 30
0.0
 10
167.4024272601
 20
242.6550977488
 30
0.0
 10
167.4024196636
 20
242.4239217877
 30
0.0
  0
SPLINE
  5
2CF
100
AcDbEntity
  8
0
100
AcDbSpline
 62
7
  6
CONTINUOUS
 70
0
 71
3
 72
9
 73
5
 74
0
 42
0.0000001
 43
0.0000001
 44
0.0000000001
 40
0.0
 40
0.0
 40
0.0
 40
0.0
 40
0.2520677541
 40
1.0
 40
1.0
 40
1.0
 40
1.0
 10
155.4650669037
 20
106.4352118151
 30
0.0
 10
155.6716650441
 20
106.6008184374
 30
0.0
 10
156.4937726943
 20
107.2546997044
 30
0.0
 10
157.3241521987
 20
107.89813033
 30
0.0
 10
157.9481745668
 20
108.375460425
 30
0.0
  0
SPLINE
  5
2D0
100
AcDbEntity
  8
0
100
AcDbSpline
 62
7
  6
CONTINUOUS
 70
0
 71
3
 72
9
 73
5
 74
0
 42
0.0000001
 43
0.0000001
 44
0.0000000001
 40
0.0
 40
0.0
 40
0.0
 40
0.0
 40
0.2536403043
 40
1.0
 40
1.0
 40
1.0
 40
1.0
 10
157.9481723755
 20
127.5591190813
 30
0.0
 10
157.74532406
 20
127.463925899
 30
0.0
 10
156.9435611929
 20
127.0931187384
 30
0.0
 10
156.1285229195
 20
126.7495061477
 30
0.0
 10
155.5095799322
 20
126.5222112825
 30
0.0
  0
SPLINE
  5
2D1
100
AcDbEntity
  8
0
100
AcDbSpline
 62
7
  6
CONTINUOUS
 70
0
 71
3
 72
9
 73
5
 74
0
 42
0.0000001
 43
0.0000001
 44
0.0000000001
 40
0.0
 40
0.0
 40
0.0
 40
0.0
 40
0.2524858693
 40
1.0
 40
1.0
 40
1.0
 40
1.0
 10
155.4806066182
 20
151.3707623902
 30
0.0
 10
156.8081021319
 20
152.2045616768
 30
0.0
 10
162.0472227446
 20
155.5363903319
 30
0.0
 10
167.2109347364
 20
158.9869795089
 30
0.0
 10
171.0228388662
 20
161.6345641818
 30
0.0
  0
SPLINE
  5
2D2
100
AcDbEntity
  8
0
100
AcDbSpline
 62
7
  6
CONTINUOUS
 70
0
 71
3
 72
9
 73
5
 74
0
 42
0.0000001
 43
0.0000001
 44
0.0000000001
 40
0.0
 40
0.0
 40
0.0
 40
0.0
 40
0.2516345954
 40
1.0
 40
1.0
 40
1.0
 40
1.0
 10
157.9481745756
 20
195.856945066
 30
0.0
 10
157.7420652377
 20
195.7516407373
 30
0.0
 10
156.9210589966
 20
195.3369644561
 30
0.0
 10
156.0917080234
 20
194.9385893989
 30
0.0
 10
155.465051122
 20
194.6537803861
 30
0.0
  0
SPLINE
  5
2D3
100
AcDbEntity
  8
0
100
AcDbSpline
 62
7
  6
CONTINUOUS
 70
0
 71
3
 72
9
 73
5
 74
0
 42
0.0000001
 43
0.0000001
 44
0.0000000001
 40
0.0
 40
0.0
 40
0.0
 40
0.0
 40
0.2545940264
 40
1.0
 40
1.0
 40
1.0
 40
1.0
 10
154.3453422124
 20
234.8841253165
 30
0.0
 10
155.453341451
 20
235.5236073811
 30
0.0
 10
159.8054166299
 20
238.0352898729
 30
0.0
 10
164.1576997752
 20
240.5466120181
 30
0.0
 10
167.4020451046
 20
242.4183455794
 30
0.0
  0
SPLINE
  5
2D4
100
AcDbEntity
  8
0
100
AcDbSpline
 62
7
  6
CONTINUOUS
 70
0
 71
3
 72
9
 73
5
 74
0
 42
0.0000001
 43
0.0000001
 44
0.0000000001
 40
0.0
 40
0.0
 40
0.0
 40
0.0
 40
0.2453797751
 40
1.0
 40
1.0
 40
1.0
 40
1.0
 10
165.9926622658
 20
244.8660522584
 30
0.0
 10
164.9243427877
 20
244.249716863
 30
0.0
 10
160.5706610713
 20
241.7378565132
 30
0.0
 10
156.2172035131
 20
239.2256076451
 30
0.0
 10
152.9321113619
 20
237.32961465
 30
0.0
  0
SPLINE
  5
2D5
100
AcDbEntity
  8
0
100
AcDbSpline
 62
7
  6
CONTINUOUS
 70
0
 71
3
 72
9
 73
5
 74
0
 42
0.0000001
 43
0.0000001
 44
0.0000000001
 40
0.0
 40
0.0
 40
0.0
 40
0.0
 40
0.4941501446
 40
1.0
 40
1.0
 40
1.0
 40
1.0
 10
50.8125538823
 20
295.9469190624
 30
0.0
 10
48.884327102
 20
294.833663457
 30
0.0
 10
44.7514023049
 20
292.9615156758
 30
0.0
 10
40.3506231612
 20
291.8824571716
 30
0.0
 10
38.1002491385
 20
291.5208784192
 30
0.0
  0
SPLINE
  5
2D6
100
AcDbEntity
  8
0
100
AcDbSpline
 62
7
  6
CONTINUOUS
 70
0
 71
3
 72
9
 73
5
 74
0
 42
0.0000001
 43
0.0000001
 44
0.0000000001
 40
0.0
 40
0.0
 40
0.0
 40
0.0
 40
0.4839841756
 40
1.0
 40
1.0
 40
1.0
 40
1.0
 10
150.502394167
 20
214.6494187464
 30
0.0
 10
150.4872691828
 20
214.6391553976
 30
0.0
 10
150.458772135
 20
214.6138597996
 30
0.0
 10
150.4238521663
 20
214.5984396345
 30
0.0
 10
150.4074874614
 20
214.5878573287
 30
0.0
  0
SPLINE
  5
2D7
100
AcDbEntity
  8
0
100
AcDbSpline
 62
7
  6
CONTINUOUS
 70
0
 71
3
 72
8
 73
4
 74
0
 42
0.0000001
 43
0.0000001
 44
0.0000000001
 40
0.0
 40
0.0
 40
0.0
 40
0.0
 40
1.0
 40
1.0
 40
1.0
 40
1.0
 10
150.4074874614
 20
214.5878573287
 30
0.0
 10
150.391394371
 20
214.5774506636
 30
0.0
 10
150.377134461
 20
214.5644159736
 30
0.0
 10
150.361311311
 20
214.5536032884
 30
0.0
  0
SPLINE
  5
2D8
100
AcDbEntity
  8
0
100
AcDbSpline
 62
7
  6
CONTINUOUS
 70
0
 71
3
 72
9
 73
5
 74
0
 42
0.0000001
 43
0.0000001
 44
0.0000000001
 40
0.0
 40
0.0
 40
0.0
 40
0.0
 40
0.254925158
 40
1.0
 40
1.0
 40
1.0
 40
1.0
 10
152.8026086201
 20
216.1295602527
 30
0.0
 10
152.8204436819
 20
216.1109934312
 30
0.0
 10
152.8894354606
 20
216.0372384625
 30
0.0
 10
152.954448305
 20
215.9597363149
 30
0.0
 10
153.0001521666
 20
215.8999606741
 30
0.0
  0
SPLINE
  5
2D9
100
AcDbEntity
  8
0
100
AcDbSpline
 62
7
  6
CONTINUOUS
 70
0
 71
3
 72
9
 73
5
 74
0
 42
0.0000001
 43
0.0000001
 44
0.0000000001
 40
0.0
 40
0.0
 40
0.0
 40
0.0
 40
0.2590590492
 40
1.0
 40
1.0
 40
1.0
 40
1.0
 10
149.2051451038
 20
137.0938437537
 30
0.0
 10
149.2465833882
 20
137.0843386207
 30
0.0
 10
149.405663918
 20
137.0440378101
 30
0.0
 10
149.5612650336
 20
136.9891821557
 30
0.0
 10
149.6720415296
 20
136.9390393315
 30
0.0
  0
SPLINE
  5
2DA
100
AcDbEntity
  8
0
100
AcDbSpline
 62
7
  6
CONTINUOUS
 70
0
 71
3
 72
11
 73
7
 74
0
 42
0.0000001
 43
0.0000001
 44
0.0000000001
 40
0.0
 40
0.0
 40
0.0
 40
0.0
 40
0.290763466
 40
0.5502442325
 40
0.7829921823
 40
1.0
 40
1.0
 40
1.0
 40
1.0
 10
149.8164900904
 20
136.8664708529
 30
0.0
 10
149.9026117644
 20
136.8185457546
 30
0.0
 10
150.0589948255
 20
136.7146290284
 30
0.0
 10
150.246340037
 20
136.5233011378
 30
0.0
 10
150.3655968671
 20
136.3105924535
 30
0.0
 10
150.3931901624
 20
136.1570180307
 30
0.0
 10
150.3932087241
 20
136.0834601575
 30
0.0
  0
SPLINE
  5
2DB
100
AcDbEntity
  8
0
100
AcDbSpline
 62
7
  6
CONTINUOUS
 70
0
 71
3
 72
9
 73
5
 74
0
 42
0.0000001
 43
0.0000001
 44
0.0000000001
 40
0.0
 40
0.0
 40
0.0
 40
0.0
 40
0.2430158146
 40
1.0
 40
1.0
 40
1.0
 40
1.0
 10
153.0852109219
 20
142.1470870955
 30
0.0
 10
153.0649284184
 20
142.1772390638
 30
0.0
 10
152.978548394
 20
142.2993393833
 30
0.0
 10
152.8810304654
 20
142.4134399669
 30
0.0
 10
152.8026074884
 20
142.495066
 30
0.0
  0
SPLINE
  5
2DC
100
AcDbEntity
  8
0
100
AcDbSpline
 62
7
  6
CONTINUOUS
 70
0
 71
3
 72
9
 73
5
 74
0
 42
0.0000001
 43
0.0000001
 44
0.0000000001
 40
0.0
 40
0.0
 40
0.0
 40
0.0
 40
0.2458452338
 40
1.0
 40
1.0
 40
1.0
 40
1.0
 10
144.1602453099
 20
202.1822214293
 30
0.0
 10
144.5603168027
 20
202.5054241391
 30
0.0
 10
146.201299581
 20
203.8031273883
 30
0.0
 10
147.8956591683
 20
205.0330607276
 30
0.0
 10
149.1979181004
 20
205.9237193954
 30
0.0
  0
SPLINE
  5
2DD
100
AcDbEntity
  8
0
100
AcDbSpline
 62
7
  6
CONTINUOUS
 70
0
 71
3
 72
9
 73
5
 74
0
 42
0.0000001
 43
0.0000001
 44
0.0000000001
 40
0.0
 40
0.0
 40
0.0
 40
0.0
 40
0.5119188864
 40
1.0
 40
1.0
 40
1.0
 40
1.0
 10
149.1979181009
 20
139.6378488027
 30
0.0
 10
149.1709990285
 20
139.6958411024
 30
0.0
 10
149.1206728228
 20
139.8101947596
 30
0.0
 10
149.0628199024
 20
139.9209703945
 30
0.0
 10
149.0371543308
 20
139.9762622523
 30
0.0
  0
SPLINE
  5
2DE
100
AcDbEntity
  8
0
100
AcDbSpline
 62
7
  6
CONTINUOUS
 70
0
 71
3
 72
9
 73
5
 74
0
 42
0.0000001
 43
0.0000001
 44
0.0000000001
 40
0.0
 40
0.0
 40
0.0
 40
0.0
 40
0.2458460552
 40
1.0
 40
1.0
 40
1.0
 40
1.0
 10
144.1605389999
 20
128.53396138
 30
0.0
 10
144.5605861492
 20
128.8571460947
 30
0.0
 10
146.2014952269
 20
130.1547331487
 30
0.0
 10
147.895741518
 20
131.3845990243
 30
0.0
 10
149.1979181004
 20
132.2752013703
 30
0.0
  0
SPLINE
  5
2DF
100
AcDbEntity
  8
0
100
AcDbSpline
 62
7
  6
CONTINUOUS
 70
0
 71
3
 72
9
 73
5
 74
0
 42
0.0000001
 43
0.0000001
 44
0.0000000001
 40
0.0
 40
0.0
 40
0.0
 40
0.0
 40
0.5015860021
 40
1.0
 40
1.0
 40
1.0
 40
1.0
 10
144.160587842
 20
25.070971678
 30
0.0
 10
145.5052764483
 20
26.8402220412
 30
0.0
 10
148.519944713
 20
30.1292534905
 30
0.0
 10
152.1382089472
 20
32.7470717091
 30
0.0
 10
154.0505737537
 20
33.8511694543
 30
0.0
  0
SPLINE
  5
2E0
100
AcDbEntity
  8
0
100
AcDbSpline
 62
7
  6
CONTINUOUS
 70
0
 71
3
 72
11
 73
7
 74
0
 42
0.0000001
 43
0.0000001
 44
0.0000000001
 40
0.0
 40
0.0
 40
0.0
 40
0.0
 40
0.246068712
 40
0.4947729819
 40
0.7460552874
 40
1.0
 40
1.0
 40
1.0
 40
1.0
 10
38.1005190095
 20
86.3033956526
 30
0.0
 10
46.4904087442
 20
80.7695925452
 30
0.0
 10
63.5234594701
 20
69.8880800118
 30
0.0
 10
89.6872371344
 20
54.2585145766
 30
0.0
 10
116.5882111305
 20
39.2628531619
 30
0.0
 10
134.8970302328
 20
29.7367553937
 30
0.0
 10
144.160587842
 20
25.070971678
 30
0.0
  0
SPLINE
  5
2E1
100
AcDbEntity
  8
0
100
AcDbSpline
 62
7
  6
CONTINUOUS
 70
0
 71
3
 72
9
 73
5
 74
0
 42
0.0000001
 43
0.0000001
 44
0.0000000001
 40
0.0
 40
0.0
 40
0.0
 40
0.0
 40
0.5377240619
 40
1.0
 40
1.0
 40
1.0
 40
1.0
 10
154.0505737537
 20
236.3437689025
 30
0.0
 10
152.2502898958
 20
235.3043807368
 30
0.0
 10
148.9220630712
 20
233.3369667811
 30
0.0
 10
145.6505404923
 20
231.2754502418
 30
0.0
 10
144.1606212484
 20
230.2885833112
 30
0.0
  0
SPLINE
  5
2E2
100
AcDbEntity
  8
0
100
AcDbSpline
 62
7
  6
CONTINUOUS
 70
0
 71
3
 72
11
 73
7
 74
0
 42
0.0000001
 43
0.0000001
 44
0.0000000001
 40
0.0
 40
0.0
 40
0.0
 40
0.0
 40
0.2561708195
 40
0.5083266263
 40
0.75628145
 40
1.0
 40
1.0
 40
1.0
 40
1.0
 10
144.1606212484
 20
230.2885833112
 30
0.0
 10
134.9151727141
 20
235.1803087256
 30
0.0
 10
116.6604495829
 20
245.0606249616
 30
0.0
 10
89.7741639433
 20
260.2527735496
 30
0.0
 10
63.609436061
 20
275.6780545661
 30
0.0
 10
46.5157958334
 20
286.2093124965
 30
0.0
 10
38.1005810402
 20
291.520956168
 30
0.0
  0
SPLINE
  5
2E3
100
AcDbEntity
  8
0
100
AcDbSpline
 62
7
  6
CONTINUOUS
 70
0
 71
3
 72
9
 73
5
 74
0
 42
0.0000001
 43
0.0000001
 44
0.0000000001
 40
0.0
 40
0.0
 40
0.0
 40
0.0
 40
0.2339205767
 40
1.0
 40
1.0
 40
1.0
 40
1.0
 10
149.9391535088
 20
137.0139702608
 30
0.0
 10
149.888032052
 20
137.0440987654
 30
0.0
 10
149.66324908
 20
137.1622401465
 30
0.0
 10
149.4190483304
 20
137.2412698252
 30
0.0
 10
149.2293469469
 20
137.2834441617
 30
0.0
  0
SPLINE
  5
2E4
100
AcDbEntity
  8
0
100
AcDbSpline
 62
7
  6
CONTINUOUS
 70
0
 71
3
 72
10
 73
6
 74
0
 42
0.0000001
 43
0.0000001
 44
0.0000000001
 40
0.0
 40
0.0
 40
0.0
 40
0.0
 40
0.2433874246
 40
0.631296634
 40
1.0
 40
1.0
 40
1.0
 40
1.0
 10
150.3612863294
 20
133.5565408746
 30
0.0
 10
150.3728004779
 20
133.5644090208
 30
0.0
 10
150.3999364495
 20
133.5887086698
 30
0.0
 10
150.4526988593
 20
133.6128037589
 30
0.0
 10
150.4856955144
 20
133.6413555524
 30
0.0
 10
150.5031763195
 20
133.6532187424
 30
0.0
  0
SPLINE
  5
2E5
100
AcDbEntity
  8
0
100
AcDbSpline
 62
7
  6
CONTINUOUS
 70
0
 71
3
 72
9
 73
5
 74
0
 42
0.0000001
 43
0.0000001
 44
0.0000000001
 40
0.0
 40
0.0
 40
0.0
 40
0.0
 40
0.2648811094
 40
1.0
 40
1.0
 40
1.0
 40
1.0
 10
149.9391535088
 20
208.2129810345
 30
0.0
 10
149.9720834571
 20
208.1935737218
 30
0.0
 10
150.0940092718
 20
208.116462403
 30
0.0
 10
150.2064149763
 20
208.0232330849
 30
0.0
 10
150.2781421176
 20
207.9450775689
 30
0.0
  0
SPLINE
  5
2E6
100
AcDbEntity
  8
0
100
AcDbSpline
 62
7
  6
CONTINUOUS
 70
0
 71
3
 72
9
 73
5
 74
0
 42
0.0000001
 43
0.0000001
 44
0.0000000001
 40
0.0
 40
0.0
 40
0.0
 40
0.0
 40
0.5241948743
 40
1.0
 40
1.0
 40
1.0
 40
1.0
 10
150.2781421176
 20
207.9450775689
 30
0.0
 10
150.3447469794
 20
207.8725034046
 30
0.0
 10
150.455548222
 20
207.7164703318
 30
0.0
 10
150.5044991123
 20
207.5295698461
 30
0.0
 10
150.5092632788
 20
207.44028519
 30
0.0
  0
SPLINE
  5
2E7
100
AcDbEntity
  8
0
100
AcDbSpline
 62
7
  6
CONTINUOUS
 70
0
 71
3
 72
9
 73
5
 74
0
 42
0.0000001
 43
0.0000001
 44
0.0000000001
 40
0.0
 40
0.0
 40
0.0
 40
0.0
 40
0.2431291167
 40
1.0
 40
1.0
 40
1.0
 40
1.0
 10
144.1616257902
 20
209.5319614524
 30
0.0
 10
144.5270578191
 20
209.8863607461
 30
0.0
 10
146.0574150548
 20
211.3157279431
 30
0.0
 10
147.6912075926
 20
212.6331362303
 30
0.0
 10
148.9697879538
 20
213.5693832956
 30
0.0
  0
SPLINE
  5
2E8
100
AcDbEntity
  8
0
100
AcDbSpline
 62
7
  6
CONTINUOUS
 70
0
 71
3
 72
9
 73
5
 74
0
 42
0.0000001
 43
0.0000001
 44
0.0000000001
 40
0.0
 40
0.0
 40
0.0
 40
0.0
 40
0.2541960842
 40
1.0
 40
1.0
 40
1.0
 40
1.0
 10
149.1979181004
 20
213.2722411496
 30
0.0
 10
148.7591074555
 20
212.972123796
 30
0.0
 10
147.0440786902
 20
211.7751586833
 30
0.0
 10
145.3749361512
 20
210.5121492529
 30
0.0
 10
144.1616257902
 20
209.5319614524
 30
0.0
  0
SPLINE
  5
2E9
100
AcDbEntity
  8
0
100
AcDbSpline
 62
7
  6
CONTINUOUS
 70
0
 71
3
 72
11
 73
7
 74
0
 42
0.0000001
 43
0.0000001
 44
0.0000000001
 40
0.0
 40
0.0
 40
0.0
 40
0.0
 40
0.2496270699
 40
0.4994840334
 40
0.7498276625
 40
1.0
 40
1.0
 40
1.0
 40
1.0
 10
150.5037122547
 20
141.0089727386
 30
0.0
 10
150.5636571902
 20
141.0059493342
 30
0.0
 10
150.6838505559
 20
141.0082375494
 30
0.0
 10
150.86407836
 20
141.0021952121
 30
0.0
 10
151.0441128398
 20
140.9901667466
 30
0.0
 10
151.1643524962
 20
140.9849890454
 30
0.0
 10
151.2244283711
 20
140.9819590369
 30
0.0
  0
SPLINE
  5
2EA
100
AcDbEntity
  8
0
100
AcDbSpline
 62
7
  6
CONTINUOUS
 70
0
 71
3
 72
9
 73
5
 74
0
 42
0.0000001
 43
0.0000001
 44
0.0000000001
 40
0.0
 40
0.0
 40
0.0
 40
0.0
 40
0.2474970458
 40
1.0
 40
1.0
 40
1.0
 40
1.0
 10
150.5035383713
 20
141.0171706262
 30
0.0
 10
150.6901212749
 20
141.14379123
 30
0.0
 10
151.448184174
 20
141.6491991989
 30
0.0
 10
152.2173262168
 20
142.1380174635
 30
0.0
 10
152.8026074884
 20
142.495066
 30
0.0
  0
SPLINE
  5
2EB
100
AcDbEntity
  8
0
100
AcDbSpline
 62
7
  6
CONTINUOUS
 70
0
 71
3
 72
9
 73
5
 74
0
 42
0.0000001
 43
0.0000001
 44
0.0000000001
 40
0.0
 40
0.0
 40
0.0
 40
0.0
 40
0.2541993817
 40
1.0
 40
1.0
 40
1.0
 40
1.0
 10
149.1979181023
 20
139.6378354258
 30
0.0
 10
148.7589758468
 20
139.3376334317
 30
0.0
 10
147.0434492402
 20
138.1403524054
 30
0.0
 10
145.3739075261
 20
136.8768960893
 30
0.0
 10
144.1602480676
 20
135.896453323
 30
0.0
  0
SPLINE
  5
2EC
100
AcDbEntity
  8
0
100
AcDbSpline
 62
7
  6
CONTINUOUS
 70
0
 71
3
 72
9
 73
5
 74
0
 42
0.0000001
 43
0.0000001
 44
0.0000000001
 40
0.0
 40
0.0
 40
0.0
 40
0.0
 40
0.2431298864
 40
1.0
 40
1.0
 40
1.0
 40
1.0
 10
144.1602480676
 20
135.896453323
 30
0.0
 10
144.5257897344
 20
136.2509477951
 30
0.0
 10
146.0566533801
 20
137.680636159
 30
0.0
 10
147.6908670058
 20
138.9984580791
 30
0.0
 10
148.9698179569
 20
139.9349516893
 30
0.0
  0
ELLIPSE
  5
2ED
100
AcDbEntity
  8
0
100
AcDbEllipse
 62
7
  6
CONTINUOUS
 10
-193.5443639935
 20
214.9173892284
 30
0.0
 11
472.3201275447
 21
89.124193583
 31
0.0
 40
0.4567938164
 41
-0.8091938609
 42
-0.7497868392
  0
ELLIPSE
  5
2EE
100
AcDbEntity
  8
0
100
AcDbEllipse
 62
7
  6
CONTINUOUS
 10
-193.5443639935
 20
290.0356116043
 30
0.0
 11
472.3201275447
 21
89.124193583
 31
0.0
 40
0.4567938164
 41
-0.8185200273
 42
-0.7497868392
  0
ELLIPSE
  5
2EF
100
AcDbEntity
  8
0
100
AcDbEllipse
 62
7
  6
CONTINUOUS
 10
-193.5443639935
 20
381.5183085537
 30
0.0
 11
466.7392024486
 21
-126.082769403
 31
0.0
 40
0.6587388747
 41
-0.5488494527
 42
-0.4876996083
  0
ELLIPSE
  5
2F0
100
AcDbEntity
  8
0
100
AcDbEllipse
 62
7
  6
CONTINUOUS
 10
-193.5443639935
 20
-1075.0669817955
 30
0.0
 11
423.9206901971
 21
1279.8501229196
 31
0.0
 40
0.1658119451
 41
0.2790930024
 42
0.2792382953
  0
ELLIPSE
  5
2F1
100
AcDbEntity
  8
0
100
AcDbEllipse
 62
7
  6
CONTINUOUS
 10
-193.5443639935
 20
456.6365309296
 30
0.0
 11
466.7392024486
 21
-126.082769403
 31
0.0
 40
0.6587388747
 41
-0.5504807656
 42
-0.4876996083
  0
ENDSEC
  0
SECTION
  2
OBJECTS
  0
DICTIONARY
  5
C
100
AcDbDictionary
280
0
281
1
  3
ACAD_GROUP
350
D
  3
ACAD_MLINESTYLE
350
17
  3
ACAD_LAYOUT
350
1A
  3
ACAD_PLOTSETTINGS
350
19
  3
ACAD_PLOTSTYLENAME
350
E
  0
DICTIONARY
  5
D
102
{ACAD_REACTORS
330
C
102
}
100
AcDbDictionary
280
0
281
1
  0
ACDBDICTIONARYWDFLT
  5
E
102
{ACAD_REACTORS
330
C
102
}
100
AcDbDictionary
281
1
  3
Normal
350
F
100
AcDbDictionaryWithDefault
340
F
  0
DICTIONARY
  5
17
102
{ACAD_REACTORS
330
C
102
}
100
AcDbDictionary
280
0
281
1
  3
Standard
350
18
  0
DICTIONARY
  5
19
102
{ACAD_REACTORS
330
C
102
}
100
AcDbDictionary
281
1
  0
DICTIONARY
  5
1A
102
{ACAD_REACTORS
330
C
102
}
100
AcDbDictionary
281
1
  3
Model
350
2F2
  3
Layout1
350
2F3
  0
ACDBPLACEHOLDER
  5
F
102
{ACAD_REACTORS
330
E
102
}
  0
MLINESTYLE
  5
18
102
{ACAD_REACTORS
330
17
102
}
100
AcDbMlineStyle
  2
STANDARD
 70
0
  3

 62
256
 51
90.0
 52
90.0
 71
2
 49
0.5
 62
256
  6
BYLAYER
 49
-0.5
 62
256
  6
BYLAYER
  0
LAYOUT
  5
2F2
102
{ACAD_REACTORS
330
1A
102
}
100
AcDbPlotSettings
  1

  2
none_device
  4

  6

 40
0.0
 41
0.0
 42
0.0
 43
0.0
 44
210.0
 45
297.0
 46
0.0
 47
0.0
 48
0.0
 49
0.0
140
0.0
141
0.0
142
1.0
143
1.0
 70
1024
 72
1
 73
0
 74
0
  7

 75
0
147
1.0
148
0.0
149
0.0
100
AcDbLayout
  1
Model
 70
0
 71
0
 10
0.0
 20
0.0
 11
210.0
 21
297.0
 12
0.0
 22
0.0
 32
0.0
 14
0.0
 24
0.0
 34
0.0
 15
0.0
 25
0.0
 35
0.0
146
0.0
 13
0.0
 23
0.0
 33
0.0
 16
1.0
 26
0.0
 36
0.0
 17
0.0
 27
1.0
 37
0.0
 76
0
330
210
345
0
346
0
  0
LAYOUT
  5
2F3
102
{ACAD_REACTORS
330
1A
102
}
100
AcDbPlotSettings
  1

  2
none_device
  4

  6

 40
0.0
 41
0.0
 42
0.0
 43
0.0
 44
210.0
 45
297.0
 46
0.0
 47
0.0
 48
0.0
 49
0.0
140
0.0
141
0.0
142
1.0
143
1.0
 70
0
 72
1
 73
0
 74
0
  7

 75
0
147
1.0
148
0.0
149
0.0
100
AcDbLayout
  1
Layout1
 70
0
 71
1
 10
0.0
 20
0.0
 11
210.0
 21
297.0
 12
0.0
 22
0.0
 32
0.0
 14
0.0
 24
0.0
 34
0.0
 15
0.0
 25
0.0
 35
0.0
146
0.0
 13
0.0
 23
0.0
 33
0.0
 16
1.0
 26
0.0
 36
0.0
 17
0.0
 27
1.0
 37
0.0
 76
0
330
211
345
0
346
0
  0
ENDSEC
  0
EOF
