999
DXF file: C:\Users\sesa63760\Dev\_Creo\CAD\MCADFD0002814_3D-CAD\drw0001_1.dxf
999
Pro/ENGINEER 2019471 by Parametric Technology Corporation
  0
SECTION
  2
HEADER
  9
$ACADVER
  1
AC1024
  9
$DWGCODEPAGE
  3
ANSI_1252
  9
$EXTMAX
 10
241.9248389569
 20
342.1508436676
 30
0.0
  9
$EXTMIN
 10
0.0
 20
0.0
 30
0.0
  9
$LIMMIN
 10
0.0
 20
0.0
  9
$LIMMAX
 10
241.9248389569
 20
342.1508436676
  9
$VIEWCTR
 10
120.9624194784
 20
171.0754218338
  9
$VIEWSIZE
 40
342.1508436676
  9
$CLAYER
  8
0
  9
$LTSCALE
 40
22.3031661057
  9
$CELTYPE
  6
BYLAYER
  9
$DIMSCALE
 40
1.0
  9
$DIMASZ
 40
2.8800576066
  9
$DIMEXO
 40
1.0
  9
$DIMDLI
 40
15.4094602185
  9
$DIMEXE
 40
1.0
  9
$DIMCEN
 40
3.6496089991
  9
$DIMLFAC
 40
1.0
  9
$DIMBLK
  1
_FILLED
  9
$DIMALT
 70
0
  9
$DIMALTF
 40
0.0393700787
  9
$DIMTXT
 40
4.0320806493
  9
$DIMTOL
 70
1
  9
$DIMLIM
 70
0
  9
$DIMTFAC
 40
1.0
  9
$DIMTP
 40
0.01
  9
$DIMTM
 40
0.01
  9
$DIMGAP
 40
0.625
  9
$DIMDSEP
 70
46
  9
$AUNITS
 70
0
  9
$PDMODE
 70
3
  9
$PDSIZE
 40
0.3125
  9
$HANDSEED
  5
2F1
  9
$TILEMODE
 70
1
  9
$MEASUREMENT
 70
1
  9
$INSUNITS
 70
4
  0
ENDSEC
  0
SECTION
  2
CLASSES
  0
CLASS
  1
ACDBDICTIONARYWDFLT
  2
AcDbDictionaryWithDefault
  3
AutoCAD 2000
 90
0
 91
1
280
0
281
0
  0
CLASS
  1
ACDBPLACEHOLDER
  2
AcDbPlaceHolder
  3
AutoCAD 2000
 90
0
 91
1
280
0
281
0
  0
CLASS
  1
LAYOUT
  2
AcDbLayout
  3
AutoCAD 2000
 90
0
 91
0
280
0
281
0
  0
ENDSEC
  0
SECTION
  2
TABLES
  0
TABLE
  2
VPORT
  5
8
100
AcDbSymbolTable
 70
2
  0
VPORT
  5
1F4
100
AcDbSymbolTableRecord
100
AcDbViewportTableRecord
  2
*ACTIVE
 70
0
 10
0.0
 20
0.0
 11
1.0
 21
1.0
 12
120.9624194784
 22
171.0754218338
 13
0.0
 23
0.0
 14
1.0
 24
1.0
 15
0.0
 25
0.0
 16
0.0
 26
0.0
 36
1.0
 17
0.0
 27
0.0
 37
0.0
 40
342.1508436676
 41
0.7070707071
 42
50.0
 43
0.0
 44
0.0
 50
0.0
 51
0.0
 71
0
 72
100
 73
1
 74
1
 75
0
 76
0
 77
0
 78
0
  0
ENDTAB
  0
TABLE
  2
LTYPE
  5
5
100
AcDbSymbolTable
 70
6
  0
LTYPE
  5
14
100
AcDbSymbolTableRecord
100
AcDbLinetypeTableRecord
  2
BYBLOCK
 70
0
  3

 72
65
 73
0
 40
0.0
  0
LTYPE
  5
15
100
AcDbSymbolTableRecord
100
AcDbLinetypeTableRecord
  2
BYLAYER
 70
0
  3

 72
65
 73
0
 40
0.0
  0
LTYPE
  5
16
100
AcDbSymbolTableRecord
100
AcDbLinetypeTableRecord
  2
CONTINUOUS
 70
64
  3
Solid line
 72
65
 73
0
 40
0.0
  0
LTYPE
  5
1F5
100
AcDbSymbolTableRecord
100
AcDbLinetypeTableRecord
  2
CENTER
 70
64
  3
____ _ ____ _ ____ _ ____ _ ____ _ ____ _ ____
 72
65
 73
4
 40
0.6
 49
0.375
 74
0
 49
-0.075
 74
0
 49
0.075
 74
0
 49
-0.075
 74
0
  0
LTYPE
  5
1F6
100
AcDbSymbolTableRecord
100
AcDbLinetypeTableRecord
  2
HIDDEN
 70
64
  3
- - - - - - - - - - - - - - - - - - - -
 72
65
 73
2
 40
0.2
 49
0.1
 74
0
 49
-0.1
 74
0
  0
LTYPE
  5
1F7
100
AcDbSymbolTableRecord
100
AcDbLinetypeTableRecord
  2
PHANTOM
 70
64
  3
_____ _ _ _____ _ _ _____ _ _ _____
 72
65
 73
6
 40
0.8
 49
0.45
 74
0
 49
-0.05
 74
0
 49
0.1
 74
0
 49
-0.05
 74
0
 49
0.1
 74
0
 49
-0.05
 74
0
  0
LTYPE
  5
1F8
100
AcDbSymbolTableRecord
100
AcDbLinetypeTableRecord
  2
DOT
 70
64
  3
. . . . . . . . . . . . . . . . . . . .
 72
65
 73
2
 40
0.2
 49
0.1
 74
0
 49
-0.1
 74
0
  0
LTYPE
  5
1F9
100
AcDbSymbolTableRecord
100
AcDbLinetypeTableRecord
  2
DASHED
 70
64
  3
- - - - - - - - - - - - - - - - - - - -
 72
65
 73
2
 40
0.2
 49
0.1
 74
0
 49
-0.1
 74
0
  0
ENDTAB
  0
TABLE
  2
LAYER
  5
2
100
AcDbSymbolTable
 70
36
  0
LAYER
  5
10
100
AcDbSymbolTableRecord
100
AcDbLayerTableRecord
  2
0
 70
0
 62
7
  6
CONTINUOUS
370
-3
390
F
  0
LAYER
  5
1FA
100
AcDbSymbolTableRecord
100
AcDbLayerTableRecord
  2
DEFAULT_1
 70
0
 62
7
  6
CENTER
370
-3
390
F
  0
LAYER
  5
1FB
100
AcDbSymbolTableRecord
100
AcDbLayerTableRecord
  2
DEFAULT_2
 70
0
 62
8
  6
HIDDEN
370
-3
390
F
  0
LAYER
  5
1FC
100
AcDbSymbolTableRecord
100
AcDbLayerTableRecord
  2
DEFAULT_3
 70
0
 62
7
  6
PHANTOM
370
-3
390
F
  0
LAYER
  5
1FD
100
AcDbSymbolTableRecord
100
AcDbLayerTableRecord
  2
00_COMPONENTS
 70
0
 62
7
  6
CONTINUOUS
370
-3
390
F
  0
LAYER
  5
1FE
100
AcDbSymbolTableRecord
100
AcDbLayerTableRecord
  2
01_1_DEFAULT_DATUMS
 70
0
 62
7
  6
CONTINUOUS
370
-3
390
F
  0
LAYER
  5
1FF
100
AcDbSymbolTableRecord
100
AcDbLayerTableRecord
  2
01_PLANES
 70
0
 62
7
  6
CONTINUOUS
370
-3
390
F
  0
LAYER
  5
200
100
AcDbSymbolTableRecord
100
AcDbLayerTableRecord
  2
02_COORD_SYS
 70
0
 62
7
  6
CONTINUOUS
370
-3
390
F
  0
LAYER
  5
201
100
AcDbSymbolTableRecord
100
AcDbLayerTableRecord
  2
03_AXES
 70
0
 62
7
  6
CONTINUOUS
370
-3
390
F
  0
LAYER
  5
202
100
AcDbSymbolTableRecord
100
AcDbLayerTableRecord
  2
04_POINTS
 70
0
 62
7
  6
CONTINUOUS
370
-3
390
F
  0
LAYER
  5
203
100
AcDbSymbolTableRecord
100
AcDbLayerTableRecord
  2
05_CURVES
 70
0
 62
7
  6
CONTINUOUS
370
-3
390
F
  0
LAYER
  5
204
100
AcDbSymbolTableRecord
100
AcDbLayerTableRecord
  2
06_SURFS
 70
0
 62
7
  6
CONTINUOUS
370
-3
390
F
  0
LAYER
  5
205
100
AcDbSymbolTableRecord
100
AcDbLayerTableRecord
  2
07_COSMETICS
 70
0
 62
7
  6
CONTINUOUS
370
-3
390
F
  0
LAYER
  5
206
100
AcDbSymbolTableRecord
100
AcDbLayerTableRecord
  2
10_NOTES
 70
0
 62
7
  6
CONTINUOUS
370
-3
390
F
  0
LAYER
  5
207
100
AcDbSymbolTableRecord
100
AcDbLayerTableRecord
  2
11_NOTES_PUB
 70
0
 62
7
  6
CONTINUOUS
370
-3
390
F
  0
LAYER
  5
208
100
AcDbSymbolTableRecord
100
AcDbLayerTableRecord
  2
13_REF_GTOL
 70
0
 62
7
  6
CONTINUOUS
370
-3
390
F
  0
LAYER
  5
209
100
AcDbSymbolTableRecord
100
AcDbLayerTableRecord
  2
16_MISC
 70
0
 62
7
  6
CONTINUOUS
370
-3
390
F
  0
LAYER
  5
20A
100
AcDbSymbolTableRecord
100
AcDbLayerTableRecord
  2
17_NO_PRINT
 70
0
 62
7
  6
CONTINUOUS
370
-3
390
F
  0
LAYER
  5
20B
100
AcDbSymbolTableRecord
100
AcDbLayerTableRecord
  2
18_DATUM_CAMS_JOINTS
 70
0
 62
7
  6
CONTINUOUS
370
-3
390
F
  0
LAYER
  5
20C
100
AcDbSymbolTableRecord
100
AcDbLayerTableRecord
  2
19_DATUM_FUNCTIONAL
 70
0
 62
7
  6
CONTINUOUS
370
-3
390
F
  0
LAYER
  5
20D
100
AcDbSymbolTableRecord
100
AcDbLayerTableRecord
  2
20_DATUM_KINEMATIC_SCHEME
 70
0
 62
7
  6
CONTINUOUS
370
-3
390
F
  0
ENDTAB
  0
TABLE
  2
STYLE
  5
3
100
AcDbSymbolTable
 70
1
  0
STYLE
  5
11
100
AcDbSymbolTableRecord
100
AcDbTextStyleTableRecord
  2
STANDARD
 70
0
 40
0.0
 41
0.8
 50
0.0
 71
0
 42
0.2
  3
txt
  4

  0
STYLE
  5
20E
100
AcDbSymbolTableRecord
100
AcDbTextStyleTableRecord
  2
TEXTSTYLE_1
 70
0
 40
0.0
 41
0.8
 50
0.0
 71
0
 42
0.2
  3
gdt
  4

  0
ENDTAB
  0
TABLE
  2
VIEW
  5
6
100
AcDbSymbolTable
 70
0
  0
ENDTAB
  0
TABLE
  2
UCS
  5
7
100
AcDbSymbolTable
 70
0
  0
ENDTAB
  0
TABLE
  2
APPID
  5
9
100
AcDbSymbolTable
 70
1
  0
APPID
  5
20F
100
AcDbSymbolTableRecord
100
AcDbRegAppTableRecord
  2
ACAD
 70
0
  0
ENDTAB
  0
TABLE
  2
BLOCK_RECORD
  5
1
100
AcDbSymbolTable
 70
0
  0
BLOCK_RECORD
  5
210
100
AcDbSymbolTableRecord
100
AcDbBlockTableRecord
  2
*Model_Space
  0
BLOCK_RECORD
  5
211
100
AcDbSymbolTableRecord
100
AcDbBlockTableRecord
  2
*Paper_Space
  0
BLOCK_RECORD
  5
212
100
AcDbSymbolTableRecord
100
AcDbBlockTableRecord
  2
_FILLED
  0
ENDTAB
  0
TABLE
  2
DIMSTYLE
  5
A
100
AcDbSymbolTable
 70
1
100
AcDbDimStyleTable
 71
0
  0
DIMSTYLE
105
213
100
AcDbSymbolTableRecord
100
AcDbDimStyleTableRecord
  2
STANDARD
 70
0
  3

  4

 40
1.0
 41
2.8800576066
 42
1.0
 43
0.38
 44
1.0
 45
0.0
 46
0.0
 47
0.01
 48
0.01
140
4.0320806493
141
0.09
142
0.0
143
25.4
144
1.0
145
0.0
146
1.0
147
0.625
 71
1
 72
0
 73
0
 74
0
 75
0
 76
0
 77
1
 78
8
 79
2
170
0
171
1
172
0
173
0
174
0
175
0
176
0
177
0
178
0
270
2
179
2
271
2
272
2
273
2
274
2
275
0
280
0
281
0
282
0
283
1
284
8
285
0
286
0
287
3
288
0
340
11
278
46
341
212
342
212
343
212
344
212
  0
ENDTAB
  0
ENDSEC
  0
SECTION
  2
BLOCKS
  0
BLOCK
  5
20
100
AcDbEntity
  8
0
100
AcDbBlockBegin
  2
*Model_Space
 70
0
 10
0.0
 20
0.0
 30
0.0
  3
*Model_Space
  1

  0
ENDBLK
  5
21
100
AcDbEntity
  8
0
100
AcDbBlockEnd
  0
BLOCK
  5
1C
100
AcDbEntity
  8
0
100
AcDbBlockBegin
  2
*Paper_Space
 70
0
 10
0.0
 20
0.0
 30
0.0
  3
*Paper_Space
  1

  0
ENDBLK
  5
1D
100
AcDbEntity
  8
0
100
AcDbBlockEnd
  0
BLOCK
  5
214
100
AcDbEntity
  8
0
100
AcDbBlockBegin
  2
_FILLED
 70
64
 10
0.0
 20
0.0
  3
_FILLED
  1

  0
SOLID
  5
215
100
AcDbEntity
  8
0
  6
BYBLOCK
 62
0
100
AcDbTrace
 10
0.0
 20
0.0
 11
-1.0
 21
0.25
 12
-1.0
 22
-0.25
 13
-1.0
 23
-0.25
  0
ENDBLK
  5
216
100
AcDbEntity
  8
0
  6
BYBLOCK
 62
0
100
AcDbBlockEnd
  0
ENDSEC
  0
SECTION
  2
ENTITIES
  0
LINE
  5
217
100
AcDbEntity
  8
0
100
AcDbLine
 62
7
  6
CONTINUOUS
 10
60.7043667402
 20
302.5026705685
 11
60.9869982319
 21
302.6658469623
  0
LWPOLYLINE
  5
218
100
AcDbEntity
  8
0
100
AcDbPolyline
 62
7
  6
CONTINUOUS
 90
4
 70
0
 10
85.0407379738
 20
303.4810588581
 10
78.6465409121
 20
300.7699745073
 10
71.9603860437
 20
297.6831496384
 10
70.7058064068
 20
297.0548173847
  0
LINE
  5
219
100
AcDbEntity
  8
0
100
AcDbLine
 62
7
  6
CONTINUOUS
 10
76.8262560752
 20
294.8276579284
 11
75.4120484007
 21
294.0111696207
  0
LINE
  5
21A
100
AcDbEntity
  8
0
100
AcDbLine
 62
7
  6
CONTINUOUS
 10
88.155062284
 20
302.0712581389
 11
115.0854737213
 21
316.5782516302
  0
LINE
  5
21B
100
AcDbEntity
  8
0
100
AcDbLine
 62
7
  6
CONTINUOUS
 10
101.9278412623
 20
300.6942565225
 11
120.4741767918
 21
312.1438104402
  0
LINE
  5
21C
100
AcDbEntity
  8
0
100
AcDbLine
 62
7
  6
CONTINUOUS
 10
94.5811346075
 20
298.5178961535
 11
120.4741767918
 21
313.4671528444
  0
LINE
  5
21D
100
AcDbEntity
  8
0
100
AcDbLine
 62
7
  6
CONTINUOUS
 10
122.0811650073
 20
308.9257941313
 11
106.3758742621
 21
300.1749439885
  0
LINE
  5
21E
100
AcDbEntity
  8
0
100
AcDbLine
 62
7
  6
CONTINUOUS
 10
107.9388896798
 20
300.9194433581
 11
85.1096338245
 21
290.0453557452
  0
LINE
  5
21F
100
AcDbEntity
  8
0
100
AcDbLine
 62
7
  6
CONTINUOUS
 10
86.5238532747
 20
289.2288742362
 11
109.3531091301
 21
300.1029618491
  0
LINE
  5
220
100
AcDbEntity
  8
0
100
AcDbLine
 62
7
  6
CONTINUOUS
 10
31.5952823754
 20
102.3348143157
 11
31.595282375
 21
307.5492564413
  0
LINE
  5
221
100
AcDbEntity
  8
0
100
AcDbLine
 62
7
  6
CONTINUOUS
 10
109.3531091301
 20
298.8782082234
 11
108.2924533743
 21
297.6947299975
  0
LINE
  5
222
100
AcDbEntity
  8
0
100
AcDbLine
 62
7
  6
CONTINUOUS
 10
108.2924533743
 20
294.9561521945
 11
104.6159903341
 21
290.3825548549
  0
LINE
  5
223
100
AcDbEntity
  8
0
100
AcDbLine
 62
7
  6
CONTINUOUS
 10
171.5787649431
 20
264.1777754512
 11
148.7495090877
 21
253.3036878383
  0
LINE
  5
224
100
AcDbEntity
  8
0
100
AcDbLine
 62
7
  6
CONTINUOUS
 10
150.163728538
 20
252.4872063293
 11
172.9929843934
 21
263.3612939422
  0
LINE
  5
225
100
AcDbEntity
  8
0
100
AcDbLine
 62
7
  6
CONTINUOUS
 10
157.4367647419
 20
248.2882119131
 11
156.0225570675
 21
247.4717236053
  0
LINE
  5
226
100
AcDbEntity
  8
0
100
AcDbLine
 62
7
  6
CONTINUOUS
 10
158.2855088105
 20
246.1654464447
 11
158.5681403022
 21
246.3286228384
  0
LINE
  5
227
100
AcDbEntity
  8
0
100
AcDbLine
 62
7
  6
CONTINUOUS
 10
180.0547184074
 20
249.0141673325
 11
206.9851297701
 21
263.5211607838
  0
LINE
  5
228
100
AcDbEntity
  8
0
100
AcDbLine
 62
7
  6
CONTINUOUS
 10
169.3289278473
 20
134.9920336697
 11
170.1663206433
 21
134.9497382498
  0
LINE
  5
229
100
AcDbEntity
  8
0
100
AcDbLine
 62
7
  6
CONTINUOUS
 10
190.6581427731
 20
90.6289228081
 11
186.3450958962
 21
93.1190052504
  0
LINE
  5
22A
100
AcDbEntity
  8
0
100
AcDbLine
 62
7
  6
CONTINUOUS
 10
172.9929843934
 20
262.1365403165
 11
171.9323286376
 21
260.9530620907
  0
LINE
  5
22B
100
AcDbEntity
  8
0
100
AcDbLine
 62
7
  6
CONTINUOUS
 10
186.3450957918
 20
238.1189012145
 11
212.3738328406
 21
254.187705091
  0
LINE
  5
22C
100
AcDbEntity
  8
0
100
AcDbLine
 62
7
  6
CONTINUOUS
 10
172.9933202207
 20
237.6739978325
 11
173.2760225852
 21
237.8372151445
  0
LINE
  5
22D
100
AcDbEntity
  8
0
100
AcDbLine
 62
7
  6
CONTINUOUS
 10
185.9205193097
 20
245.1373346188
 11
212.3738328406
 21
260.4100619979
  0
LINE
  5
22E
100
AcDbEntity
  8
0
100
AcDbLine
 62
7
  6
CONTINUOUS
 10
205.873383479
 20
248.9817732299
 11
186.3450957955
 21
237.7071783792
  0
LINE
  5
22F
100
AcDbEntity
  8
0
100
AcDbLine
 62
7
  6
CONTINUOUS
 10
108.2924533743
 20
294.9561521945
 11
108.2924533743
 21
297.6947299976
  0
LINE
  5
230
100
AcDbEntity
  8
0
100
AcDbLine
 62
7
  6
CONTINUOUS
 10
109.3531091301
 20
298.8782082234
 11
109.3531091301
 21
300.1029618491
  0
LINE
  5
231
100
AcDbEntity
  8
0
100
AcDbLine
 62
7
  6
CONTINUOUS
 10
171.9323286376
 20
258.2144842877
 11
168.2558655973
 21
253.640886948
  0
LINE
  5
232
100
AcDbEntity
  8
0
100
AcDbLine
 62
7
  6
CONTINUOUS
 10
214.0871619651
 20
244.239653291
 11
198.8024157619
 21
235.1015127904
  0
LINE
  5
233
100
AcDbEntity
  8
0
100
AcDbLine
 62
7
  6
CONTINUOUS
 10
172.9932493504
 20
220.6907066395
 11
173.2760225852
 21
220.8539648682
  0
LINE
  5
234
100
AcDbEntity
  8
0
100
AcDbLine
 62
7
  6
CONTINUOUS
 10
172.993190471
 20
218.0778874857
 11
174.4073981455
 21
218.8943757935
  0
LINE
  5
235
100
AcDbEntity
  8
0
100
AcDbLine
 62
7
  6
CONTINUOUS
 10
168.7973630655
 20
209.4965508894
 11
168.1403944621
 21
209.1172521534
  0
LINE
  5
236
100
AcDbEntity
  8
0
100
AcDbLine
 62
7
  6
CONTINUOUS
 10
211.227788121
 20
101.0656577517
 11
212.3738328406
 21
100.404003493
  0
LINE
  5
237
100
AcDbEntity
  8
0
100
AcDbLine
 62
7
  6
CONTINUOUS
 10
120.4741767918
 20
313.4671528444
 11
120.4741767918
 21
312.1438104401
  0
LINE
  5
238
100
AcDbEntity
  8
0
100
AcDbLine
 62
7
  6
CONTINUOUS
 10
167.9143606754
 20
214.8989780093
 11
167.9798300305
 21
214.9489796692
  0
LINE
  5
239
100
AcDbEntity
  8
0
100
AcDbLine
 62
7
  6
CONTINUOUS
 10
167.912553334
 20
214.8998007179
 11
167.9798300305
 21
214.9489796692
  0
LINE
  5
23A
100
AcDbEntity
  8
0
100
AcDbLine
 62
7
  6
CONTINUOUS
 10
190.6581427731
 20
225.3518216345
 11
174.4073981454
 21
214.1704116599
  0
LINE
  5
23B
100
AcDbEntity
  8
0
100
AcDbLine
 62
7
  6
CONTINUOUS
 10
174.4073981454
 20
212.5374068257
 11
190.6581427731
 21
223.7188168003
  0
LINE
  5
23C
100
AcDbEntity
  8
0
100
AcDbLine
 62
7
  6
CONTINUOUS
 10
169.4494267615
 20
208.6344654802
 11
169.370388925
 21
208.5801827262
  0
LINE
  5
23D
100
AcDbEntity
  8
0
100
AcDbLine
 62
7
  6
CONTINUOUS
 10
169.4494267615
 20
208.6344654802
 11
169.3699208121
 21
208.5804117916
  0
LINE
  5
23E
100
AcDbEntity
  8
0
100
AcDbLine
 62
7
  6
CONTINUOUS
 10
174.4073981454
 20
194.3924308758
 11
177.2025316747
 21
196.3673029632
  0
LWPOLYLINE
  5
23F
100
AcDbEntity
  8
0
100
AcDbPolyline
 62
7
  6
CONTINUOUS
 90
4
 70
0
 10
178.85510062
 20
192.2101204924
 10
178.9662170662
 20
192.2817803206
 10
183.5347797897
 20
195.1610155402
 10
188.2137607153
 20
198.0707551316
  0
LINE
  5
240
100
AcDbEntity
  8
0
100
AcDbLine
 62
7
  6
CONTINUOUS
 10
198.8024157627
 20
209.5581970666
 11
214.0871619651
 21
219.2560283942
  0
LINE
  5
241
100
AcDbEntity
  8
0
100
AcDbLine
 62
7
  6
CONTINUOUS
 10
198.802415762
 20
202.5098564152
 11
214.0871619652
 21
211.0883060881
  0
LINE
  5
242
100
AcDbEntity
  8
0
100
AcDbLine
 62
7
  6
CONTINUOUS
 10
211.9136781195
 20
212.8995330304
 11
188.7810640885
 21
200.2432713672
  0
LINE
  5
243
100
AcDbEntity
  8
0
100
AcDbLine
 62
7
  6
CONTINUOUS
 10
174.4073981454
 20
176.0672202635
 11
180.2548629494
 21
180.1986847897
  0
LINE
  5
244
100
AcDbEntity
  8
0
100
AcDbLine
 62
7
  6
CONTINUOUS
 10
174.40739107
 20
175.9217354283
 11
174.4540335184
 21
175.9546516817
  0
LINE
  5
245
100
AcDbEntity
  8
0
100
AcDbLine
 62
7
  6
CONTINUOUS
 10
192.0104890705
 20
161.784275933
 11
189.9655144629
 21
162.9649158635
  0
LINE
  5
246
100
AcDbEntity
  8
0
100
AcDbLine
 62
7
  6
CONTINUOUS
 10
195.2393450151
 20
161.1424924237
 11
193.0690948313
 21
162.3954586057
  0
LINE
  5
247
100
AcDbEntity
  8
0
100
AcDbLine
 62
7
  6
CONTINUOUS
 10
214.0871619651
 20
135.9700837122
 11
211.9136781195
 21
137.7813106544
  0
LINE
  5
248
100
AcDbEntity
  8
0
100
AcDbLine
 62
7
  6
CONTINUOUS
 10
163.1080236323
 20
26.4076154513
 11
163.1080236339
 21
231.6220575779
  0
LINE
  5
249
100
AcDbEntity
  8
0
100
AcDbLine
 62
7
  6
CONTINUOUS
 10
168.1403944621
 20
214.6030221096
 11
168.1403944621
 21
207.2545003554
  0
LINE
  5
24A
100
AcDbEntity
  8
0
100
AcDbLine
 62
7
  6
CONTINUOUS
 10
168.1403944621
 20
140.9718928521
 11
168.1403944621
 21
133.6059823303
  0
LINE
  5
24B
100
AcDbEntity
  8
0
100
AcDbLine
 62
7
  6
CONTINUOUS
 10
168.1525795002
 20
215.074490226
 11
168.1525795002
 21
214.6030221096
  0
LINE
  5
24C
100
AcDbEntity
  8
0
100
AcDbLine
 62
7
  6
CONTINUOUS
 10
168.7973630655
 20
138.2975401157
 11
168.7973630655
 21
141.8840186992
  0
LINE
  5
24D
100
AcDbEntity
  8
0
100
AcDbLine
 62
7
  6
CONTINUOUS
 10
168.7973630655
 20
209.4965508894
 11
168.7973630655
 21
213.2058709553
  0
LINE
  5
24E
100
AcDbEntity
  8
0
100
AcDbLine
 62
7
  6
CONTINUOUS
 10
169.3039978538
 20
215.8839570672
 11
169.3039978538
 21
213.5569251784
  0
LINE
  5
24F
100
AcDbEntity
  8
0
100
AcDbLine
 62
7
  6
CONTINUOUS
 10
169.3039978537
 20
134.886917288
 11
169.3039978537
 21
137.2139491768
  0
LINE
  5
250
100
AcDbEntity
  8
0
100
AcDbLine
 62
7
  6
CONTINUOUS
 10
169.3289278474
 20
215.8839570671
 11
169.3289278474
 21
208.6405516948
  0
LINE
  5
251
100
AcDbEntity
  8
0
100
AcDbLine
 62
7
  6
CONTINUOUS
 10
169.3289278474
 20
142.2517134976
 11
169.3289278474
 21
134.9920336697
  0
LINE
  5
252
100
AcDbEntity
  8
0
100
AcDbLine
 62
7
  6
CONTINUOUS
 10
193.0690948313
 20
162.3954586057
 11
192.0104890705
 21
161.784275933
  0
LINE
  5
253
100
AcDbEntity
  8
0
100
AcDbLine
 62
7
  6
CONTINUOUS
 10
169.3289278473
 20
208.6405516947
 11
170.1663206433
 21
208.5982562749
  0
LINE
  5
254
100
AcDbEntity
  8
0
100
AcDbLine
 62
7
  6
CONTINUOUS
 10
170.1663206432
 20
215.946778029
 11
169.4494267619
 21
215.9829872344
  0
LINE
  5
255
100
AcDbEntity
  8
0
100
AcDbLine
 62
7
  6
CONTINUOUS
 10
170.1663206433
 20
134.9497382498
 11
170.1663206433
 21
142.31562878
  0
LINE
  5
256
100
AcDbEntity
  8
0
100
AcDbLine
 62
7
  6
CONTINUOUS
 10
170.1663206433
 20
208.5982562749
 11
170.1663206433
 21
215.946778029
  0
LINE
  5
257
100
AcDbEntity
  8
0
100
AcDbLine
 62
7
  6
CONTINUOUS
 10
171.7452840944
 20
143.8190827995
 11
171.7452840944
 21
209.5900869249
  0
LINE
  5
258
100
AcDbEntity
  8
0
100
AcDbLine
 62
7
  6
CONTINUOUS
 10
171.8925090959
 20
143.661094737
 11
171.8925090959
 21
209.6806263723
  0
LINE
  5
259
100
AcDbEntity
  8
0
100
AcDbLine
 62
7
  6
CONTINUOUS
 10
171.8925090959
 20
217.2922855541
 11
171.8925090959
 21
217.5494310683
  0
LINE
  5
25A
100
AcDbEntity
  8
0
100
AcDbLine
 62
7
  6
CONTINUOUS
 10
171.9323286376
 20
258.2144842877
 11
171.9323286376
 21
260.9530620907
  0
LINE
  5
25B
100
AcDbEntity
  8
0
100
AcDbLine
 62
7
  6
CONTINUOUS
 10
172.0276336573
 20
217.1122461261
 11
172.0276336573
 21
209.763724372
  0
LINE
  5
25C
100
AcDbEntity
  8
0
100
AcDbLine
 62
7
  6
CONTINUOUS
 10
172.0276335764
 20
136.1152064672
 11
172.0276335764
 21
143.4714430314
  0
LINE
  5
25D
100
AcDbEntity
  8
0
100
AcDbLine
 62
7
  6
CONTINUOUS
 10
172.9929843934
 20
262.1365403165
 11
172.9929843934
 21
263.3612939422
  0
LINE
  5
25E
100
AcDbEntity
  8
0
100
AcDbLine
 62
7
  6
CONTINUOUS
 10
172.9932493504
 20
237.6741205842
 11
172.9932493504
 21
35.1815211361
  0
LINE
  5
25F
100
AcDbEntity
  8
0
100
AcDbLine
 62
7
  6
CONTINUOUS
 10
173.2760225852
 20
237.8372151445
 11
173.2760225852
 21
220.8539648682
  0
LINE
  5
260
100
AcDbEntity
  8
0
100
AcDbLine
 62
7
  6
CONTINUOUS
 10
173.2760225852
 20
71.27072205
 11
173.2760225852
 21
54.2874717737
  0
LINE
  5
261
100
AcDbEntity
  8
0
100
AcDbLine
 62
7
  6
CONTINUOUS
 10
174.4073981454
 20
71.9239407102
 11
174.4073981454
 21
218.8943757936
  0
LINE
  5
262
100
AcDbEntity
  8
0
100
AcDbLine
 62
7
  6
CONTINUOUS
 10
167.9143873421
 20
141.2678218315
 11
167.9798288307
 21
141.3178008582
  0
LINE
  5
263
100
AcDbEntity
  8
0
100
AcDbLine
 62
7
  6
CONTINUOUS
 10
167.9125807013
 20
141.268644008
 11
167.9798288307
 21
141.3178008582
  0
LINE
  5
264
100
AcDbEntity
  8
0
100
AcDbLine
 62
7
  6
CONTINUOUS
 10
195.2393450151
 20
161.1424924237
 11
174.4073981454
 21
146.8089622468
  0
LINE
  5
265
100
AcDbEntity
  8
0
100
AcDbLine
 62
7
  6
CONTINUOUS
 10
174.4073981454
 20
145.1759574125
 11
195.2393450151
 21
159.5094875894
  0
LINE
  5
266
100
AcDbEntity
  8
0
100
AcDbLine
 62
7
  6
CONTINUOUS
 10
169.3289278474
 20
142.2517134976
 11
169.4494263412
 21
142.3344693311
  0
LINE
  5
267
100
AcDbEntity
  8
0
100
AcDbLine
 62
7
  6
CONTINUOUS
 10
169.3699204936
 20
142.2804156656
 11
169.4494263412
 21
142.3344693311
  0
LINE
  5
268
100
AcDbEntity
  8
0
100
AcDbLine
 62
7
  6
CONTINUOUS
 10
174.4073981454
 20
127.8364629096
 11
174.4538531337
 21
127.8531393142
  0
LINE
  5
269
100
AcDbEntity
  8
0
100
AcDbLine
 62
7
  6
CONTINUOUS
 10
186.345095723
 20
75.5735530786
 11
186.3450958268
 21
86.0283034276
  0
LINE
  5
26A
100
AcDbEntity
  8
0
100
AcDbLine
 62
7
  6
CONTINUOUS
 10
186.3450958837
 20
227.841904084
 11
186.3450957414
 21
243.754351808
  0
LINE
  5
26B
100
AcDbEntity
  8
0
100
AcDbLine
 62
7
  6
CONTINUOUS
 10
190.6581427731
 20
88.9959179739
 11
190.6581427731
 21
90.6289228081
  0
LINE
  5
26C
100
AcDbEntity
  8
0
100
AcDbLine
 62
7
  6
CONTINUOUS
 10
190.6581427731
 20
223.7188168003
 11
190.6581427731
 21
225.3518216345
  0
LINE
  5
26D
100
AcDbEntity
  8
0
100
AcDbLine
 62
7
  6
CONTINUOUS
 10
174.4538531337
 20
127.8531393142
 11
174.4073981454
 21
127.8202085763
  0
LINE
  5
26E
100
AcDbEntity
  8
0
100
AcDbLine
 62
7
  6
CONTINUOUS
 10
174.4074216799
 20
127.8360733473
 11
174.4538531337
 21
127.8531393142
  0
LINE
  5
26F
100
AcDbEntity
  8
0
100
AcDbLine
 62
7
  6
CONTINUOUS
 10
174.4073981454
 20
218.8943757936
 11
173.2760225852
 21
220.8539648683
  0
LINE
  5
270
100
AcDbEntity
  8
0
100
AcDbLine
 62
7
  6
CONTINUOUS
 10
158.5681403022
 20
246.3286228384
 11
157.4367647419
 21
248.2882119131
  0
LINE
  5
271
100
AcDbEntity
  8
0
100
AcDbLine
 62
7
  6
CONTINUOUS
 10
167.9798300305
 20
214.9489796692
 11
168.1403944621
 21
214.6030221096
  0
LINE
  5
272
100
AcDbEntity
  8
0
100
AcDbLine
 62
7
  6
CONTINUOUS
 10
195.2393450151
 20
161.1424924237
 11
195.2393450151
 21
159.5094875894
  0
LINE
  5
273
100
AcDbEntity
  8
0
100
AcDbLine
 62
7
  6
CONTINUOUS
 10
198.802415762
 20
235.1015127905
 11
198.802415762
 21
209.5581970661
  0
LINE
  5
274
100
AcDbEntity
  8
0
100
AcDbLine
 62
7
  6
CONTINUOUS
 10
198.802415762
 20
202.5098564152
 11
198.802415762
 21
134.4399746903
  0
LINE
  5
275
100
AcDbEntity
  8
0
100
AcDbLine
 62
7
  6
CONTINUOUS
 10
198.802415762
 20
127.3916340392
 11
198.802415762
 21
101.8483183149
  0
LINE
  5
276
100
AcDbEntity
  8
0
100
AcDbLine
 62
7
  6
CONTINUOUS
 10
174.4073981454
 20
120.914885969
 11
179.2364033624
 21
124.3267686249
  0
LINE
  5
277
100
AcDbEntity
  8
0
100
AcDbLine
 62
7
  6
CONTINUOUS
 10
177.2025333059
 20
110.1659206762
 11
174.4073981454
 21
108.1910474364
  0
LINE
  5
278
100
AcDbEntity
  8
0
100
AcDbLine
 62
7
  6
CONTINUOUS
 10
198.8024157626
 20
134.4399746906
 11
214.0871619651
 21
144.1378060183
  0
LWPOLYLINE
  5
279
100
AcDbEntity
  8
0
100
AcDbPolyline
 62
7
  6
CONTINUOUS
 90
3
 70
0
 10
181.1834057527
 20
118.560891879
 10
183.5347801974
 20
120.0427934139
 10
188.2137607177
 20
122.9525327552
  0
LINE
  5
27A
100
AcDbEntity
  8
0
100
AcDbLine
 62
7
  6
CONTINUOUS
 10
198.802415762
 20
127.3916340392
 11
214.0871619652
 21
135.9700837122
  0
LINE
  5
27B
100
AcDbEntity
  8
0
100
AcDbLine
 62
7
  6
CONTINUOUS
 10
188.7810640334
 20
125.1250489884
 11
211.913678112
 21
137.7813106606
  0
LINE
  5
27C
100
AcDbEntity
  8
0
100
AcDbLine
 62
7
  6
CONTINUOUS
 10
190.6581427731
 20
225.3518216345
 11
186.3450958837
 21
227.841904084
  0
LINE
  5
27D
100
AcDbEntity
  8
0
100
AcDbLine
 62
7
  6
CONTINUOUS
 10
205.873383479
 20
250.1746619032
 11
205.873383479
 21
248.9817732299
  0
LINE
  5
27E
100
AcDbEntity
  8
0
100
AcDbLine
 62
7
  6
CONTINUOUS
 10
205.873383479
 20
104.1969113095
 11
205.873383479
 21
106.0757680621
  0
LINE
  5
27F
100
AcDbEntity
  8
0
100
AcDbLine
 62
7
  6
CONTINUOUS
 10
212.3738328406
 20
100.404003493
 11
212.3738328406
 21
94.181646586
  0
LINE
  5
280
100
AcDbEntity
  8
0
100
AcDbLine
 62
7
  6
CONTINUOUS
 10
212.3738328406
 20
254.1877050909
 11
212.3738328406
 21
260.4100619979
  0
LINE
  5
281
100
AcDbEntity
  8
0
100
AcDbLine
 62
7
  6
CONTINUOUS
 10
214.0871619651
 20
110.9864588154
 11
214.0871619651
 21
135.9700837122
  0
LINE
  5
282
100
AcDbEntity
  8
0
100
AcDbLine
 62
7
  6
CONTINUOUS
 10
214.0871619651
 20
144.1378060182
 11
214.0871619651
 21
211.0883060882
  0
LINE
  5
283
100
AcDbEntity
  8
0
100
AcDbLine
 62
7
  6
CONTINUOUS
 10
214.0871619651
 20
219.2560283942
 11
214.0871619651
 21
244.239653291
  0
LINE
  5
284
100
AcDbEntity
  8
0
100
AcDbLine
 62
7
  6
CONTINUOUS
 10
44.2992793736
 20
311.9739379069
 11
172.9932493504
 21
237.6741205842
  0
LINE
  5
285
100
AcDbEntity
  8
0
100
AcDbLine
 62
7
  6
CONTINUOUS
 10
60.9869982319
 20
302.6658469623
 11
75.6948805149
 21
294.1744392682
  0
LINE
  5
286
100
AcDbEntity
  8
0
100
AcDbLine
 62
7
  6
CONTINUOUS
 10
158.5681403022
 20
246.3286228384
 11
173.2760225852
 21
237.8372151445
  0
LINE
  5
287
100
AcDbEntity
  8
0
100
AcDbLine
 62
7
  6
CONTINUOUS
 10
76.8262560752
 20
294.8276579284
 11
157.4367647419
 21
248.2882119131
  0
LINE
  5
288
100
AcDbEntity
  8
0
100
AcDbLine
 62
7
  6
CONTINUOUS
 10
214.0871619651
 20
211.0883060882
 11
211.9136781193
 21
212.8995330305
  0
LINE
  5
289
100
AcDbEntity
  8
0
100
AcDbLine
 62
7
  6
CONTINUOUS
 10
186.3078299952
 20
93.0937409056
 11
186.3450958962
 21
93.1190052504
  0
LINE
  5
28A
100
AcDbEntity
  8
0
100
AcDbLine
 62
7
  6
CONTINUOUS
 10
186.3074335995
 20
93.0939358237
 11
186.3450958962
 21
93.1190052504
  0
LINE
  5
28B
100
AcDbEntity
  8
0
100
AcDbLine
 62
7
  6
CONTINUOUS
 10
198.8024157614
 20
101.8483183145
 11
214.0871619652
 21
110.9864588154
  0
LINE
  5
28C
100
AcDbEntity
  8
0
100
AcDbLine
 62
7
  6
CONTINUOUS
 10
204.1058931243
 20
101.0995754958
 11
188.5850179033
 21
91.8258149325
  0
LINE
  5
28D
100
AcDbEntity
  8
0
100
AcDbLine
 62
7
  6
CONTINUOUS
 10
190.6581427731
 20
89.9851099525
 11
211.227788121
 21
101.0656577517
  0
LINE
  5
28E
100
AcDbEntity
  8
0
100
AcDbLine
 62
7
  6
CONTINUOUS
 10
94.1503089188
 20
296.4247821438
 11
96.1178793914
 21
295.2888305004
  0
LINE
  5
28F
100
AcDbEntity
  8
0
100
AcDbLine
 62
7
  6
CONTINUOUS
 10
102.282070758
 20
291.7300134668
 11
159.7577546546
 21
258.5471625936
  0
LINE
  5
290
100
AcDbEntity
  8
0
100
AcDbLine
 62
7
  6
CONTINUOUS
 10
165.9219460212
 20
254.9883455599
 11
172.6394884101
 21
251.110058392
  0
LINE
  5
291
100
AcDbEntity
  8
0
100
AcDbLine
 62
7
  6
CONTINUOUS
 10
184.9350966025
 20
246.1965433103
 11
176.4578638509
 21
251.0907653743
  0
LINE
  5
292
100
AcDbEntity
  8
0
100
AcDbLine
 62
7
  6
CONTINUOUS
 10
94.4331357338
 20
298.4466928964
 11
85.9559765644
 21
303.3408720942
  0
LINE
  5
293
100
AcDbEntity
  8
0
100
AcDbLine
 62
7
  6
CONTINUOUS
 10
100.6875727436
 20
301.4103096863
 11
104.4314505678
 21
299.2487712853
  0
LINE
  5
294
100
AcDbEntity
  8
0
100
AcDbLine
 62
7
  6
CONTINUOUS
 10
180.9445265477
 20
255.0749840482
 11
185.9456798352
 21
252.1875365657
  0
LINE
  5
295
100
AcDbEntity
  8
0
100
AcDbLine
 62
7
  6
CONTINUOUS
 10
205.873383479
 20
104.1969113095
 11
204.1058931243
 21
101.0995754958
  0
LINE
  5
296
100
AcDbEntity
  8
0
100
AcDbLine
 62
7
  6
CONTINUOUS
 10
190.6581427731
 20
90.6289228081
 11
174.4073981454
 21
79.4475128335
  0
LINE
  5
297
100
AcDbEntity
  8
0
100
AcDbLine
 62
7
  6
CONTINUOUS
 10
174.4073981454
 20
77.8145079993
 11
190.6581427731
 21
88.9959179739
  0
LINE
  5
298
100
AcDbEntity
  8
0
100
AcDbLine
 62
7
  6
CONTINUOUS
 10
186.3450957482
 20
78.1128426826
 11
212.3738328406
 21
94.181646586
  0
LINE
  5
299
100
AcDbEntity
  8
0
100
AcDbLine
 62
7
  6
CONTINUOUS
 10
186.3450958204
 20
85.3764038665
 11
212.3738328406
 21
100.404003493
  0
LINE
  5
29A
100
AcDbEntity
  8
0
100
AcDbLine
 62
7
  6
CONTINUOUS
 10
172.993190471
 20
71.1074524025
 11
174.4073981455
 21
71.9239407102
  0
LINE
  5
29B
100
AcDbEntity
  8
0
100
AcDbLine
 62
7
  6
CONTINUOUS
 10
172.9929843934
 20
263.3612939422
 11
171.5787649431
 21
264.1777754512
  0
LINE
  5
29C
100
AcDbEntity
  8
0
100
AcDbLine
 62
7
  6
CONTINUOUS
 10
109.3531091301
 20
300.1029618491
 11
107.9388896798
 21
300.9194433581
  0
LINE
  5
29D
100
AcDbEntity
  8
0
100
AcDbLine
 62
7
  6
CONTINUOUS
 10
214.0871619651
 20
244.239653291
 11
205.873383479
 21
248.9817732299
  0
LWPOLYLINE
  5
29E
100
AcDbEntity
  8
0
100
AcDbPolyline
 62
7
  6
CONTINUOUS
 90
4
 70
0
 10
173.2760225852
 20
65.5096188656
 10
174.4475315188
 20
66.2819863851
 10
180.4638933228
 20
70.528918943
 10
186.0088774145
 20
74.7108834293
  0
LINE
  5
29F
100
AcDbEntity
  8
0
100
AcDbLine
 62
7
  6
CONTINUOUS
 10
172.9932493504
 20
54.124213545
 11
173.2760225852
 21
54.2874717737
  0
LINE
  5
2A0
100
AcDbEntity
  8
0
100
AcDbLine
 62
7
  6
CONTINUOUS
 10
122.0811650073
 20
308.9257941313
 11
203.7472135137
 21
261.7769456919
  0
LINE
  5
2A1
100
AcDbEntity
  8
0
100
AcDbLine
 62
7
  6
CONTINUOUS
 10
212.3738328406
 20
260.4100619979
 11
206.9851297701
 21
263.5211607838
  0
LINE
  5
2A2
100
AcDbEntity
  8
0
100
AcDbLine
 62
7
  6
CONTINUOUS
 10
115.0854737213
 20
316.5782516302
 11
120.4741767918
 21
313.4671528443
  0
ARC
  5
2A3
100
AcDbEntity
  8
0
100
AcDbCircle
 62
7
  6
CONTINUOUS
 10
-43.291917985
 20
566.7327437202
 40
409.3655570984
100
AcDbArc
 50
302.0465149128
 51
304.122097675
  0
ARC
  5
2A4
100
AcDbEntity
  8
0
100
AcDbCircle
 62
7
  6
CONTINUOUS
 10
-42.9940350842
 20
431.5562705344
 40
408.8229803859
100
AcDbArc
 50
302.1261258448
 51
304.1168860036
  0
ARC
  5
2A5
100
AcDbEntity
  8
0
100
AcDbCircle
 62
7
  6
CONTINUOUS
 10
345.5869505524
 20
-110.2289412679
 40
407.0174203287
100
AcDbArc
 50
116.1944197957
 51
117.8795914853
  0
ARC
  5
2A6
100
AcDbEntity
  8
0
100
AcDbCircle
 62
7
  6
CONTINUOUS
 10
281.9470752682
 20
-73.4872733199
 40
407.0174202825
100
AcDbArc
 50
116.1944197956
 51
117.8795914854
  0
ARC
  5
2A7
100
AcDbEntity
  8
0
100
AcDbCircle
 62
7
  6
CONTINUOUS
 10
267.141809438
 20
-55.2473507641
 40
391.9175274415
100
AcDbArc
 50
114.8476527521
 51
116.1930948122
  0
ARC
  5
2A8
100
AcDbEntity
  8
0
100
AcDbCircle
 62
7
  6
CONTINUOUS
 10
346.4320170989
 20
-99.5423329197
 40
389.6598290838
100
AcDbArc
 50
114.8447286548
 51
115.8624175274
  0
ARC
  5
2A9
100
AcDbEntity
  8
0
100
AcDbCircle
 62
7
  6
CONTINUOUS
 10
344.5034215042
 20
-98.2002419669
 40
389.3005232919
100
AcDbArc
 50
114.8431302936
 51
116.1976172707
  0
ARC
  5
2AA
100
AcDbEntity
  8
0
100
AcDbCircle
 62
7
  6
CONTINUOUS
 10
263.5654009113
 20
-50.409679082
 40
387.6938114099
100
AcDbArc
 50
114.8421482069
 51
115.8649979752
  0
ARC
  5
2AB
100
AcDbEntity
  8
0
100
AcDbCircle
 62
7
  6
CONTINUOUS
 10
-28.8946708839
 20
410.5648361145
 40
383.6037690499
100
AcDbArc
 50
304.1435907689
 51
306.4110169991
  0
ARC
  5
2AC
100
AcDbEntity
  8
0
100
AcDbCircle
 62
7
  6
CONTINUOUS
 10
-25.8377857071
 20
539.5181027948
 40
378.3287993081
100
AcDbArc
 50
304.3400320444
 51
306.4249808908
  0
ARC
  5
2AD
100
AcDbEntity
  8
0
100
AcDbCircle
 62
7
  6
CONTINUOUS
 10
171.6647649344
 20
92.3314369583
 40
227.7522870507
100
AcDbArc
 50
112.1062866845
 51
112.3045080538
  0
ARC
  5
2AE
100
AcDbEntity
  8
0
100
AcDbCircle
 62
7
  6
CONTINUOUS
 10
46.801674541
 20
254.6761340576
 40
227.042202333
100
AcDbArc
 50
307.7248779372
 51
307.9237950122
  0
ARC
  5
2AF
100
AcDbEntity
  8
0
100
AcDbCircle
 62
7
  6
CONTINUOUS
 10
170.9900648271
 20
93.9143426967
 40
226.031747533
100
AcDbArc
 50
112.2985611839
 51
116.1834831406
  0
ARC
  5
2B0
100
AcDbEntity
  8
0
100
AcDbCircle
 62
7
  6
CONTINUOUS
 10
47.596708297
 20
253.6349212758
 40
225.7321892466
100
AcDbArc
 50
303.8358928349
 51
307.726971756
  0
ARC
  5
2B1
100
AcDbEntity
  8
0
100
AcDbCircle
 62
7
  6
CONTINUOUS
 10
219.1803122667
 20
66.1061953185
 40
90.6104250261
100
AcDbArc
 50
121.3583570264
 51
122.7470414222
  0
ARC
  5
2B2
100
AcDbEntity
  8
0
100
AcDbCircle
 62
7
  6
CONTINUOUS
 10
219.166729918
 20
139.7596231104
 40
90.5843401681
100
AcDbArc
 50
121.358349995
 51
122.7474383183
  0
ARC
  5
2B3
100
AcDbEntity
  8
0
100
AcDbCircle
 62
7
  6
CONTINUOUS
 10
218.831376028
 20
59.2981608911
 40
89.9524806354
100
AcDbArc
 50
121.3534710182
 51
122.7523172952
  0
ARC
  5
2B4
100
AcDbEntity
  8
0
100
AcDbCircle
 62
7
  6
CONTINUOUS
 10
218.8313759997
 20
132.9466789615
 40
89.9524805819
100
AcDbArc
 50
121.3534710177
 51
122.7523172956
  0
ARC
  5
2B5
100
AcDbEntity
  8
0
100
AcDbCircle
 62
7
  6
CONTINUOUS
 10
202.4296333616
 20
167.1616685799
 40
58.9189491336
100
AcDbArc
 50
121.2176429749
 51
121.3852006864
  0
ARC
  5
2B6
100
AcDbEntity
  8
0
100
AcDbCircle
 62
7
  6
CONTINUOUS
 10
201.3156503977
 20
95.3385462224
 40
56.7952559981
100
AcDbArc
 50
121.375764888
 51
124.1299626768
  0
ARC
  5
2B7
100
AcDbEntity
  8
0
100
AcDbCircle
 62
7
  6
CONTINUOUS
 10
200.8864731825
 20
169.6374671374
 40
56.0017421222
100
AcDbArc
 50
121.3565493752
 51
124.1497899108
  0
ARC
  5
2B8
100
AcDbEntity
  8
0
100
AcDbCircle
 62
7
  6
CONTINUOUS
 10
199.1105090073
 20
164.9142041329
 40
52.8321897851
100
AcDbArc
 50
124.2583597521
 51
125.8887214913
  0
ARC
  5
2B9
100
AcDbEntity
  8
0
100
AcDbCircle
 62
7
  6
CONTINUOUS
 10
199.0717552347
 20
93.6474424424
 40
52.765138951
100
AcDbArc
 50
124.3436867103
 51
125.8720646026
  0
ARC
  5
2BA
100
AcDbEntity
  8
0
100
AcDbCircle
 62
7
  6
CONTINUOUS
 10
198.8425298046
 20
170.3164779611
 40
52.3666033399
100
AcDbArc
 50
124.3378705076
 51
125.8778808053
  0
ARC
  5
2BB
100
AcDbEntity
  8
0
100
AcDbCircle
 62
7
  6
CONTINUOUS
 10
198.7353733864
 20
99.1482148842
 40
52.1796453607
100
AcDbArc
 50
124.3033202352
 51
126.1156117168
  0
ARC
  5
2BC
100
AcDbEntity
  8
0
100
AcDbCircle
 62
7
  6
CONTINUOUS
 10
198.1600104589
 20
173.5914025957
 40
51.1985592774
100
AcDbArc
 50
125.8806763879
 51
126.1196363532
  0
ARC
  5
2BD
100
AcDbEntity
  8
0
100
AcDbCircle
 62
7
  6
CONTINUOUS
 10
208.3134213017
 20
137.8443363243
 40
50.9789591102
100
AcDbArc
 50
130.2600405041
 51
131.61973805
  0
ARC
  5
2BE
100
AcDbEntity
  8
0
100
AcDbCircle
 62
7
  6
CONTINUOUS
 10
188.2554611219
 20
201.0376113498
 40
11.9991385642
100
AcDbArc
 50
198.7162914051
 51
202.9060234546
  0
ARC
  5
2BF
100
AcDbEntity
  8
0
100
AcDbCircle
 62
7
  6
CONTINUOUS
 10
167.4901361184
 20
132.2566108309
 40
8.111341158
100
AcDbArc
 50
80.6602607836
 51
85.3624803172
  0
ARC
  5
2C0
100
AcDbEntity
  8
0
100
AcDbCircle
 62
7
  6
CONTINUOUS
 10
170.0338702391
 20
215.7696370625
 40
2.4036829378
100
AcDbArc
 50
33.9564981893
 51
37.4294126794
  0
ARC
  5
2C1
100
AcDbEntity
  8
0
100
AcDbCircle
 62
7
  6
CONTINUOUS
 10
168.6715390515
 20
213.7624371326
 40
0.6650107517
100
AcDbArc
 50
341.9988829453
 51
351.3169522782
  0
ARC
  5
2C2
100
AcDbEntity
  8
0
100
AcDbCircle
 62
7
  6
CONTINUOUS
 10
168.6715390516
 20
135.0924292422
 40
0.6650107516
100
AcDbArc
 50
341.9988829445
 51
351.3169522772
  0
ARC
  5
2C3
100
AcDbEntity
  8
0
100
AcDbCircle
 62
7
  6
CONTINUOUS
 10
168.6715390515
 20
137.419461131
 40
0.6650107517
100
AcDbArc
 50
341.9988829459
 51
351.3169522786
  0
SPLINE
  5
2C4
100
AcDbEntity
  8
0
100
AcDbSpline
 62
7
  6
CONTINUOUS
 70
0
 71
3
 72
13
 73
9
 74
0
 42
0.0000001
 43
0.0000001
 44
0.0000000001
 40
0.0
 40
0.0
 40
0.0
 40
0.0
 40
0.0911360878
 40
0.1889134603
 40
0.2974382604
 40
0.4184198821
 40
0.6943110893
 40
1.0
 40
1.0
 40
1.0
 40
1.0
 10
188.2136808363
 20
198.0708903826
 30
0.0
 10
188.320511564
 20
198.1370940666
 30
0.0
 10
188.5194089461
 20
198.3137212123
 30
0.0
 10
188.7306935863
 20
198.6713104357
 30
0.0
 10
188.8567436638
 20
199.1087713754
 30
0.0
 10
188.9112718017
 20
199.8072489892
 30
0.0
 10
188.743500192
 20
200.775704017
 30
0.0
 10
188.4237730378
 20
201.5186800598
 30
0.0
 10
188.2172613836
 20
201.8861927756
 30
0.0
  0
SPLINE
  5
2C5
100
AcDbEntity
  8
0
100
AcDbSpline
 62
7
  6
CONTINUOUS
 70
0
 71
3
 72
13
 73
9
 74
0
 42
0.0000001
 43
0.0000001
 44
0.0000000001
 40
0.0
 40
0.0
 40
0.0
 40
0.0
 40
0.0911361519
 40
0.188913423
 40
0.2974382443
 40
0.4184198843
 40
0.6943110844
 40
1.0
 40
1.0
 40
1.0
 40
1.0
 10
188.2136808458
 20
122.9526679943
 30
0.0
 10
188.3205112951
 20
123.0188722905
 30
0.0
 10
188.5194086625
 20
123.195499063
 30
0.0
 10
188.7306937999
 20
123.5530880815
 30
0.0
 10
188.8567436242
 20
123.990549008
 30
0.0
 10
188.9112718271
 20
124.6890266234
 30
0.0
 10
188.7435001893
 20
125.6574816704
 30
0.0
 10
188.4237730531
 20
126.4004576911
 30
0.0
 10
188.2172613997
 20
126.7679704052
 30
0.0
  0
SPLINE
  5
2C6
100
AcDbEntity
  8
0
100
AcDbSpline
 62
7
  6
CONTINUOUS
 70
0
 71
3
 72
9
 73
5
 74
0
 42
0.0000001
 43
0.0000001
 44
0.0000000001
 40
0.0
 40
0.0
 40
0.0
 40
0.0
 40
0.4521910762
 40
1.0
 40
1.0
 40
1.0
 40
1.0
 10
85.040766811
 20
303.4810035959
 30
0.0
 10
85.173392456
 20
303.5349775802
 30
0.0
 10
85.5076930822
 20
303.5541771493
 30
0.0
 10
85.8057541711
 20
303.4276103478
 30
0.0
 10
85.9559765644
 20
303.3408720942
 30
0.0
  0
SPLINE
  5
2C7
100
AcDbEntity
  8
0
100
AcDbSpline
 62
7
  6
CONTINUOUS
 70
0
 71
3
 72
9
 73
5
 74
0
 42
0.0000001
 43
0.0000001
 44
0.0000000001
 40
0.0
 40
0.0
 40
0.0
 40
0.0
 40
0.5478065541
 40
1.0
 40
1.0
 40
1.0
 40
1.0
 10
186.345095723
 20
75.5735530786
 30
0.0
 10
186.3451096512
 20
75.4000958801
 30
0.0
 10
186.3056627203
 20
75.0786998416
 30
0.0
 10
186.1218956859
 20
74.7988022805
 30
0.0
 10
186.0088441371
 20
74.7109357819
 30
0.0
  0
SPLINE
  5
2C8
100
AcDbEntity
  8
0
100
AcDbSpline
 62
7
  6
CONTINUOUS
 70
0
 71
3
 72
9
 73
5
 74
0
 42
0.0000001
 43
0.0000001
 44
0.0000000001
 40
0.0
 40
0.0
 40
0.0
 40
0.0
 40
0.2451935832
 40
1.0
 40
1.0
 40
1.0
 40
1.0
 10
177.2025190562
 20
110.1659359948
 30
0.0
 10
177.1736427858
 20
110.1308297616
 30
0.0
 10
177.0593317989
 20
109.9848273898
 30
0.0
 10
176.9588370185
 20
109.8281278878
 30
0.0
 10
176.8908480908
 20
109.7058213218
 30
0.0
  0
SPLINE
  5
2C9
100
AcDbEntity
  8
0
100
AcDbSpline
 62
7
  6
CONTINUOUS
 70
0
 71
3
 72
16
 73
12
 74
0
 42
0.0000001
 43
0.0000001
 44
0.0000000001
 40
0.0
 40
0.0
 40
0.0
 40
0.0
 40
0.0833348409
 40
0.1671688403
 40
0.2479106102
 40
0.3230099551
 40
0.4566315839
 40
0.5176879364
 40
0.5760549227
 40
0.7939460107
 40
1.0
 40
1.0
 40
1.0
 40
1.0
 10
179.2364433705
 20
124.3268182498
 30
0.0
 10
179.5098383103
 20
123.9883593812
 30
0.0
 10
180.0219214962
 20
123.2782012369
 30
0.0
 10
180.6216076349
 20
122.1254363473
 30
0.0
 10
181.0174463018
 20
120.9323083337
 30
0.0
 10
181.257692535
 20
119.4346444216
 30
0.0
 10
181.1813831635
 20
118.0111851605
 30
0.0
 10
180.9011570968
 20
116.7190071645
 30
0.0
 10
180.3717721453
 20
115.0371469382
 30
0.0
 10
179.2074461049
 20
112.7778601756
 30
0.0
 10
177.886110923
 20
110.9966183772
 30
0.0
 10
177.2025190562
 20
110.1659359948
 30
0.0
  0
SPLINE
  5
2CA
100
AcDbEntity
  8
0
100
AcDbSpline
 62
7
  6
CONTINUOUS
 70
0
 71
3
 72
9
 73
5
 74
0
 42
0.0000001
 43
0.0000001
 44
0.0000000001
 40
0.0
 40
0.0
 40
0.0
 40
0.0
 40
0.4950692481
 40
1.0
 40
1.0
 40
1.0
 40
1.0
 10
176.8907429137
 20
128.8896365173
 30
0.0
 10
177.1109929905
 20
128.0675420867
 30
0.0
 10
177.7501959004
 20
126.4561385678
 30
0.0
 10
178.6913148984
 20
125.0023395153
 30
0.0
 10
179.2364433705
 20
124.3268182498
 30
0.0
  0
SPLINE
  5
2CB
100
AcDbEntity
  8
0
100
AcDbSpline
 62
7
  6
CONTINUOUS
 70
0
 71
3
 72
9
 73
5
 74
0
 42
0.0000001
 43
0.0000001
 44
0.0000000001
 40
0.0
 40
0.0
 40
0.0
 40
0.0
 40
0.4948505268
 40
1.0
 40
1.0
 40
1.0
 40
1.0
 10
211.9136781195
 20
137.7813106544
 30
0.0
 10
211.3651888675
 20
138.2383826095
 30
0.0
 10
210.4257440806
 20
139.3673174063
 30
0.0
 10
209.8268347736
 20
140.7048673381
 30
0.0
 10
209.6426194424
 20
141.4100333021
 30
0.0
  0
SPLINE
  5
2CC
100
AcDbEntity
  8
0
100
AcDbSpline
 62
7
  6
CONTINUOUS
 70
0
 71
3
 72
9
 73
5
 74
0
 42
0.0000001
 43
0.0000001
 44
0.0000000001
 40
0.0
 40
0.0
 40
0.0
 40
0.0
 40
0.4948505268
 40
1.0
 40
1.0
 40
1.0
 40
1.0
 10
211.9136781193
 20
212.8995330305
 30
0.0
 10
211.3651888674
 20
213.3566049856
 30
0.0
 10
210.4257440805
 20
214.4855397823
 30
0.0
 10
209.8268347735
 20
215.8230897141
 30
0.0
 10
209.6426194424
 20
216.528255678
 30
0.0
  0
SPLINE
  5
2CD
100
AcDbEntity
  8
0
100
AcDbSpline
 62
7
  6
CONTINUOUS
 70
0
 71
3
 72
18
 73
14
 74
0
 42
0.0000001
 43
0.0000001
 44
0.0000000001
 40
0.0
 40
0.0
 40
0.0
 40
0.0
 40
0.1384699784
 40
0.2760708801
 40
0.4124219456
 40
0.5466857324
 40
0.6774441226
 40
0.7405748368
 40
0.8013995434
 40
0.8588208186
 40
0.9114588924
 40
0.9581856468
 40
1.0
 40
1.0
 40
1.0
 40
1.0
 10
177.2025207221
 20
196.3672971418
 30
0.0
 10
177.5090574983
 20
195.6408518001
 30
0.0
 10
178.1089493626
 20
194.1876759756
 30
0.0
 10
178.9532748748
 20
191.9961000791
 30
0.0
 10
179.7310291324
 20
189.8050768118
 30
0.0
 10
180.4047391667
 20
187.6205626519
 30
0.0
 10
180.8578422847
 20
185.8055405916
 30
0.0
 10
181.1010695349
 20
184.3749331599
 30
0.0
 10
181.2079943271
 20
183.3466641817
 30
0.0
 10
181.2146886578
 20
182.3714581838
 30
0.0
 10
181.0915301899
 20
181.4826518053
 30
0.0
 10
180.7985708581
 20
180.7218717365
 30
0.0
 10
180.4493408711
 20
180.3360483047
 30
0.0
 10
180.2548659522
 20
180.1986794723
 30
0.0
  0
SPLINE
  5
2CE
100
AcDbEntity
  8
0
100
AcDbSpline
 62
7
  6
CONTINUOUS
 70
0
 71
3
 72
11
 73
7
 74
0
 42
0.0000001
 43
0.0000001
 44
0.0000000001
 40
0.0
 40
0.0
 40
0.0
 40
0.0
 40
0.2372227547
 40
0.4999994382
 40
0.7627764125
 40
1.0
 40
1.0
 40
1.0
 40
1.0
 10
184.9350966025
 20
246.1965433103
 30
0.0
 10
185.1352945614
 20
246.0809724707
 30
0.0
 10
185.5145176015
 20
245.7625782279
 30
0.0
 10
185.9568548704
 20
245.1583298138
 30
0.0
 10
186.2589804228
 20
244.4731294276
 30
0.0
 10
186.3451073333
 20
243.9855145575
 30
0.0
 10
186.3450957414
 20
243.754351808
 30
0.0
  0
SPLINE
  5
2CF
100
AcDbEntity
  8
0
100
AcDbSpline
 62
7
  6
CONTINUOUS
 70
0
 71
3
 72
9
 73
5
 74
0
 42
0.0000001
 43
0.0000001
 44
0.0000000001
 40
0.0
 40
0.0
 40
0.0
 40
0.0
 40
0.2520680431
 40
1.0
 40
1.0
 40
1.0
 40
1.0
 10
174.4077145396
 20
107.7655406542
 30
0.0
 10
174.614315225
 20
107.9311494336
 30
0.0
 10
175.4364295665
 20
108.585041609
 30
0.0
 10
176.266820731
 20
109.2284768798
 30
0.0
 10
176.8908501663
 20
109.7058120405
 30
0.0
  0
SPLINE
  5
2D0
100
AcDbEntity
  8
0
100
AcDbSpline
 62
7
  6
CONTINUOUS
 70
0
 71
3
 72
9
 73
5
 74
0
 42
0.0000001
 43
0.0000001
 44
0.0000000001
 40
0.0
 40
0.0
 40
0.0
 40
0.0
 40
0.2536411324
 40
1.0
 40
1.0
 40
1.0
 40
1.0
 10
176.8908479606
 20
128.8894705527
 30
0.0
 10
176.6879990591
 20
128.794277148
 30
0.0
 10
175.8862403366
 20
128.4234619572
 30
0.0
 10
175.0711988524
 20
128.0798576786
 30
0.0
 10
174.4522567601
 20
127.8525634083
 30
0.0
  0
SPLINE
  5
2D1
100
AcDbEntity
  8
0
100
AcDbSpline
 62
7
  6
CONTINUOUS
 70
0
 71
3
 72
9
 73
5
 74
0
 42
0.0000001
 43
0.0000001
 44
0.0000000001
 40
0.0
 40
0.0
 40
0.0
 40
0.0
 40
0.2524858693
 40
1.0
 40
1.0
 40
1.0
 40
1.0
 10
174.4232822148
 20
152.701114072
 30
0.0
 10
175.7507777285
 20
153.5349133586
 30
0.0
 10
180.9898983412
 20
156.8667420137
 30
0.0
 10
186.153610333
 20
160.3173311907
 30
0.0
 10
189.9655144628
 20
162.9649158636
 30
0.0
  0
SPLINE
  5
2D2
100
AcDbEntity
  8
0
100
AcDbSpline
 62
7
  6
CONTINUOUS
 70
0
 71
3
 72
9
 73
5
 74
0
 42
0.0000001
 43
0.0000001
 44
0.0000000001
 40
0.0
 40
0.0
 40
0.0
 40
0.0
 40
0.2516347922
 40
1.0
 40
1.0
 40
1.0
 40
1.0
 10
176.8908501751
 20
197.1872968181
 30
0.0
 10
176.6847384822
 20
197.0819911737
 30
0.0
 10
175.8637235573
 20
196.6673099074
 30
0.0
 10
175.0343627294
 20
196.2689322656
 30
0.0
 10
174.4076990471
 20
195.9841205359
 30
0.0
  0
SPLINE
  5
2D3
100
AcDbEntity
  8
0
100
AcDbSpline
 62
7
  6
CONTINUOUS
 70
0
 71
3
 72
9
 73
5
 74
0
 42
0.0000001
 43
0.0000001
 44
0.0000000001
 40
0.0
 40
0.0
 40
0.0
 40
0.0
 40
0.2545943467
 40
1.0
 40
1.0
 40
1.0
 40
1.0
 10
173.2880190196
 20
236.2144787631
 30
0.0
 10
174.396019833
 20
236.85396174
 30
0.0
 10
178.748095722
 20
239.3656446542
 30
0.0
 10
183.1003795914
 20
241.8769671974
 30
0.0
 10
186.3447240762
 20
243.7487002342
 30
0.0
  0
SPLINE
  5
2D4
100
AcDbEntity
  8
0
100
AcDbSpline
 62
7
  6
CONTINUOUS
 70
0
 71
3
 72
9
 73
5
 74
0
 42
0.0000001
 43
0.0000001
 44
0.0000000001
 40
0.0
 40
0.0
 40
0.0
 40
0.0
 40
0.2453808034
 40
1.0
 40
1.0
 40
1.0
 40
1.0
 10
184.9353376632
 20
246.1964059248
 30
0.0
 10
183.8670136624
 20
245.580067917
 30
0.0
 10
179.5133317565
 20
243.0682074554
 30
0.0
 10
175.1598740062
 20
240.5559584799
 30
0.0
 10
171.87478619
 20
238.6599679821
 30
0.0
  0
SPLINE
  5
2D5
100
AcDbEntity
  8
0
100
AcDbSpline
 62
7
  6
CONTINUOUS
 70
0
 71
3
 72
9
 73
5
 74
0
 42
0.0000001
 43
0.0000001
 44
0.0000000001
 40
0.0
 40
0.0
 40
0.0
 40
0.0
 40
0.5148400557
 40
1.0
 40
1.0
 40
1.0
 40
1.0
 10
168.1403944621
 20
140.9718928521
 30
0.0
 10
168.1134744067
 20
141.0298872695
 30
0.0
 10
168.0639979592
 20
141.1438708657
 30
0.0
 10
168.0051980387
 20
141.2533963815
 30
0.0
 10
167.9798299026
 20
141.3080474679
 30
0.0
  0
SPLINE
  5
2D6
100
AcDbEntity
  8
0
100
AcDbSpline
 62
7
  6
CONTINUOUS
 70
0
 71
3
 72
10
 73
6
 74
0
 42
0.0000001
 43
0.0000001
 44
0.0000000001
 40
0.0
 40
0.0
 40
0.0
 40
0.0
 40
0.2436885564
 40
0.6315899106
 40
1.0
 40
1.0
 40
1.0
 40
1.0
 10
169.4494267619
 20
215.9829872344
 30
0.0
 10
169.437586963
 20
215.9749531113
 30
0.0
 10
169.4097004996
 20
215.9501220127
 30
0.0
 10
169.3556653581
 20
215.9253924861
 30
0.0
 10
169.3218576172
 20
215.8961614538
 30
0.0
 10
169.3039978537
 20
215.8839570671
 30
0.0
  0
SPLINE
  5
2D7
100
AcDbEntity
  8
0
100
AcDbSpline
 62
7
  6
CONTINUOUS
 70
0
 71
3
 72
9
 73
5
 74
0
 42
0.0000001
 43
0.0000001
 44
0.0000000001
 40
0.0
 40
0.0
 40
0.0
 40
0.0
 40
0.2458528355
 40
1.0
 40
1.0
 40
1.0
 40
1.0
 10
163.1080236327
 20
203.5174174279
 30
0.0
 10
163.5076991002
 20
203.8402366882
 30
0.0
 10
165.147070641
 20
205.1362727424
 30
0.0
 10
166.8395745737
 20
206.3648354205
 30
0.0
 10
168.1403944621
 20
207.2545003554
 30
0.0
  0
SPLINE
  5
2D8
100
AcDbEntity
  8
0
100
AcDbSpline
 62
7
  6
CONTINUOUS
 70
0
 71
3
 72
9
 73
5
 74
0
 42
0.0000001
 43
0.0000001
 44
0.0000000001
 40
0.0
 40
0.0
 40
0.0
 40
0.0
 40
0.4941553688
 40
1.0
 40
1.0
 40
1.0
 40
1.0
 10
44.2992793736
 20
311.9739379069
 30
0.0
 10
42.3722286967
 20
310.8613613211
 30
0.0
 10
38.2420194795
 20
308.9901307326
 30
0.0
 10
33.8441661981
 20
307.9110462486
 30
0.0
 10
31.5952823761
 20
307.5492564425
 30
0.0
  0
SPLINE
  5
2D9
100
AcDbEntity
  8
0
100
AcDbSpline
 62
7
  6
CONTINUOUS
 70
0
 71
3
 72
9
 73
5
 74
0
 42
0.0000001
 43
0.0000001
 44
0.0000000001
 40
0.0
 40
0.0
 40
0.0
 40
0.0
 40
0.2549200444
 40
1.0
 40
1.0
 40
1.0
 40
1.0
 10
171.7452842141
 20
217.4599119329
 30
0.0
 10
171.7631008719
 20
217.4413642705
 30
0.0
 10
171.8320238558
 20
217.3676848827
 30
0.0
 10
171.8969760965
 20
217.2902659889
 30
0.0
 10
171.9426413996
 20
217.2305560618
 30
0.0
  0
SPLINE
  5
2DA
100
AcDbEntity
  8
0
100
AcDbSpline
 62
7
  6
CONTINUOUS
 70
0
 71
3
 72
9
 73
5
 74
0
 42
0.0000001
 43
0.0000001
 44
0.0000000001
 40
0.0
 40
0.0
 40
0.0
 40
0.0
 40
0.4978770924
 40
1.0
 40
1.0
 40
1.0
 40
1.0
 10
31.5952823749
 20
102.3348143153
 30
0.0
 10
53.1190690757
 20
89.2215674185
 30
0.0
 10
96.6609886746
 20
63.3897417527
 30
0.0
 10
140.805756417
 20
38.6026964087
 30
0.0
 10
163.1080236332
 20
26.4076154509
 30
0.0
  0
SPLINE
  5
2DB
100
AcDbEntity
  8
0
100
AcDbSpline
 62
7
  6
CONTINUOUS
 70
0
 71
3
 72
9
 73
5
 74
0
 42
0.0000001
 43
0.0000001
 44
0.0000000001
 40
0.0
 40
0.0
 40
0.0
 40
0.0
 40
0.5015836529
 40
1.0
 40
1.0
 40
1.0
 40
1.0
 10
163.1080236332
 20
26.4076154509
 30
0.0
 10
164.4523064801
 20
28.1755122663
 30
0.0
 10
167.4657550396
 20
31.4620404546
 30
0.0
 10
171.0820051745
 20
34.0780703834
 30
0.0
 10
172.9932493504
 20
35.1815211361
 30
0.0
  0
SPLINE
  5
2DC
100
AcDbEntity
  8
0
100
AcDbSpline
 62
7
  6
CONTINUOUS
 70
0
 71
3
 72
9
 73
5
 74
0
 42
0.0000001
 43
0.0000001
 44
0.0000000001
 40
0.0
 40
0.0
 40
0.0
 40
0.0
 40
0.2430210676
 40
1.0
 40
1.0
 40
1.0
 40
1.0
 10
172.0276322369
 20
143.4810871724
 30
0.0
 10
172.0073638424
 20
143.5112056843
 30
0.0
 10
171.921055115
 20
143.6331727092
 30
0.0
 10
171.8236266563
 20
143.7471506861
 30
0.0
 10
171.745282818
 20
143.8286943464
 30
0.0
  0
SPLINE
  5
2DD
100
AcDbEntity
  8
0
100
AcDbSpline
 62
7
  6
CONTINUOUS
 70
0
 71
3
 72
9
 73
5
 74
0
 42
0.0000001
 43
0.0000001
 44
0.0000000001
 40
0.0
 40
0.0
 40
0.0
 40
0.0
 40
0.2458528355
 40
1.0
 40
1.0
 40
1.0
 40
1.0
 10
163.1080236404
 20
129.8688994088
 30
0.0
 10
163.5076991074
 20
130.1917186685
 30
0.0
 10
165.1470706455
 20
131.4877547208
 30
0.0
 10
166.8395745758
 20
132.7163173969
 30
0.0
 10
168.1403944621
 20
133.6059823303
 30
0.0
  0
SPLINE
  5
2DE
100
AcDbEntity
  8
0
100
AcDbSpline
 62
7
  6
CONTINUOUS
 70
0
 71
3
 72
9
 73
5
 74
0
 42
0.0000001
 43
0.0000001
 44
0.0000000001
 40
0.0
 40
0.0
 40
0.0
 40
0.0
 40
0.5376967674
 40
1.0
 40
1.0
 40
1.0
 40
1.0
 10
172.9932493504
 20
237.6741205842
 30
0.0
 10
171.1939360729
 20
236.6352927801
 30
0.0
 10
167.8673199568
 20
234.6688646753
 30
0.0
 10
164.5973550542
 20
232.6084223887
 30
0.0
 10
163.1080236334
 20
231.6220575779
 30
0.0
  0
SPLINE
  5
2DF
100
AcDbEntity
  8
0
100
AcDbSpline
 62
7
  6
CONTINUOUS
 70
0
 71
3
 72
9
 73
5
 74
0
 42
0.0000001
 43
0.0000001
 44
0.0000000001
 40
0.0
 40
0.0
 40
0.0
 40
0.0
 40
0.5033268235
 40
1.0
 40
1.0
 40
1.0
 40
1.0
 10
163.1080236334
 20
231.6220575779
 30
0.0
 10
140.8525743704
 20
244.025914814
 30
0.0
 10
96.8227250219
 20
269.0062422015
 30
0.0
 10
53.1709750993
 20
294.6418681312
 30
0.0
 10
31.5952823765
 20
307.5492564416
 30
0.0
  0
SPLINE
  5
2E0
100
AcDbEntity
  8
0
100
AcDbSpline
 62
7
  6
CONTINUOUS
 70
0
 71
3
 72
9
 73
5
 74
0
 42
0.0000001
 43
0.0000001
 44
0.0000000001
 40
0.0
 40
0.0
 40
0.0
 40
0.0
 40
0.2648441847
 40
1.0
 40
1.0
 40
1.0
 40
1.0
 10
168.7973630655
 20
209.4965508894
 30
0.0
 10
168.8283162261
 20
209.4783323291
 30
0.0
 10
168.9429493717
 20
209.4059417782
 30
0.0
 10
169.0486783033
 20
209.3184516386
 30
0.0
 10
169.1161982158
 20
209.2450981073
 30
0.0
  0
SPLINE
  5
2E1
100
AcDbEntity
  8
0
100
AcDbSpline
 62
7
  6
CONTINUOUS
 70
0
 71
3
 72
11
 73
7
 74
0
 42
0.0000001
 43
0.0000001
 44
0.0000000001
 40
0.0
 40
0.0
 40
0.0
 40
0.0
 40
0.2496043842
 40
0.49945221
 40
0.7498185073
 40
1.0
 40
1.0
 40
1.0
 40
1.0
 10
169.4494263261
 20
142.3420454581
 30
0.0
 10
169.5090474918
 20
142.3390383835
 30
0.0
 10
169.6285985598
 20
142.3417467571
 30
0.0
 10
169.8078752716
 20
142.3358585547
 30
0.0
 10
169.9869499987
 20
142.3237408619
 30
0.0
 10
170.1065616279
 20
142.3186428074
 30
0.0
 10
170.1663206433
 20
142.31562878
 30
0.0
  0
SPLINE
  5
2E2
100
AcDbEntity
  8
0
100
AcDbSpline
 62
7
  6
CONTINUOUS
 70
0
 71
3
 72
10
 73
6
 74
0
 42
0.0000001
 43
0.0000001
 44
0.0000000001
 40
0.0
 40
0.0
 40
0.0
 40
0.0
 40
0.2433498807
 40
0.6311426016
 40
1.0
 40
1.0
 40
1.0
 40
1.0
 10
169.3039978537
 20
134.8869172879
 30
0.0
 10
169.3157949324
 20
134.8949787669
 30
0.0
 10
169.3435987328
 20
134.9198676097
 30
0.0
 10
169.3976276623
 20
134.9446159194
 30
0.0
 10
169.4315055721
 20
134.9737866873
 30
0.0
 10
169.4494267619
 20
134.9859474551
 30
0.0
  0
SPLINE
  5
2E3
100
AcDbEntity
  8
0
100
AcDbSpline
 62
7
  6
CONTINUOUS
 70
0
 71
3
 72
9
 73
5
 74
0
 42
0.0000001
 43
0.0000001
 44
0.0000000001
 40
0.0
 40
0.0
 40
0.0
 40
0.0
 40
0.254193423
 40
1.0
 40
1.0
 40
1.0
 40
1.0
 10
168.1403944621
 20
140.9718928521
 30
0.0
 10
167.7019420178
 20
140.6720290596
 30
0.0
 10
165.9882848145
 20
139.4760760666
 30
0.0
 10
164.3204580919
 20
138.2141626736
 30
0.0
 10
163.1080223284
 20
137.2349061777
 30
0.0
  0
SPLINE
  5
2E4
100
AcDbEntity
  8
0
100
AcDbSpline
 62
7
  6
CONTINUOUS
 70
0
 71
3
 72
9
 73
5
 74
0
 42
0.0000001
 43
0.0000001
 44
0.0000000001
 40
0.0
 40
0.0
 40
0.0
 40
0.0
 40
0.2431359487
 40
1.0
 40
1.0
 40
1.0
 40
1.0
 10
163.1080236404
 20
210.8659391881
 30
0.0
 10
163.4732283768
 20
211.2200020501
 30
0.0
 10
165.0024975623
 20
212.6480509863
 30
0.0
 10
166.6350165018
 20
213.9643219322
 30
0.0
 10
167.912553334
 20
214.8998007179
 30
0.0
  0
SPLINE
  5
2E5
100
AcDbEntity
  8
0
100
AcDbSpline
 62
7
  6
CONTINUOUS
 70
0
 71
3
 72
9
 73
5
 74
0
 42
0.0000001
 43
0.0000001
 44
0.0000000001
 40
0.0
 40
0.0
 40
0.0
 40
0.0
 40
0.2431346296
 40
1.0
 40
1.0
 40
1.0
 40
1.0
 10
163.1080223284
 20
137.2349061777
 30
0.0
 10
163.4732299217
 20
137.5889553632
 30
0.0
 10
165.0025179389
 20
139.0169557115
 30
0.0
 10
166.6350420556
 20
140.3331878395
 30
0.0
 10
167.9125807013
 20
141.268644008
 30
0.0
  0
SPLINE
  5
2E6
100
AcDbEntity
  8
0
100
AcDbSpline
 62
7
  6
CONTINUOUS
 70
0
 71
3
 72
9
 73
5
 74
0
 42
0.0000001
 43
0.0000001
 44
0.0000000001
 40
0.0
 40
0.0
 40
0.0
 40
0.0
 40
0.2345726618
 40
1.0
 40
1.0
 40
1.0
 40
1.0
 10
168.7973630655
 20
138.2975401157
 30
0.0
 10
168.7521559379
 20
138.3241483446
 30
0.0
 10
168.5542741986
 20
138.4287581546
 30
0.0
 10
168.3400825034
 20
138.5008761582
 30
0.0
 10
168.1736035791
 20
138.5406715762
 30
0.0
  0
SPLINE
  5
2E7
100
AcDbEntity
  8
0
100
AcDbSpline
 62
7
  6
CONTINUOUS
 70
0
 71
3
 72
9
 73
5
 74
0
 42
0.0000001
 43
0.0000001
 44
0.0000000001
 40
0.0
 40
0.0
 40
0.0
 40
0.0
 40
0.2541926772
 40
1.0
 40
1.0
 40
1.0
 40
1.0
 10
168.1403944621
 20
214.6030221096
 30
0.0
 10
167.7019418438
 20
214.3031528321
 30
0.0
 10
165.9882761911
 20
213.1071788965
 30
0.0
 10
164.3204558917
 20
211.8452249195
 30
0.0
 10
163.1080236404
 20
210.8659391881
 30
0.0
  0
SPLINE
  5
2E8
100
AcDbEntity
  8
0
100
AcDbSpline
 62
7
  6
CONTINUOUS
 70
0
 71
3
 72
9
 73
5
 74
0
 42
0.0000001
 43
0.0000001
 44
0.0000000001
 40
0.0
 40
0.0
 40
0.0
 40
0.0
 40
0.2691250955
 40
1.0
 40
1.0
 40
1.0
 40
1.0
 10
168.168181142
 20
138.4194825194
 30
0.0
 10
168.239416634
 20
138.402605312
 30
0.0
 10
168.5012185899
 20
138.3295746739
 30
0.0
 10
168.7536250136
 20
138.213783004
 30
0.0
 10
168.9156292877
 20
138.0985391696
 30
0.0
  0
SPLINE
  5
2E9
100
AcDbEntity
  8
0
100
AcDbSpline
 62
7
  6
CONTINUOUS
 70
0
 71
3
 72
9
 73
5
 74
0
 42
0.0000001
 43
0.0000001
 44
0.0000000001
 40
0.0
 40
0.0
 40
0.0
 40
0.0
 40
0.5414870901
 40
1.0
 40
1.0
 40
1.0
 40
1.0
 10
168.9156292877
 20
138.0985391696
 30
0.0
 10
169.0372857354
 20
138.0119972829
 30
0.0
 10
169.2445813721
 20
137.8179055367
 30
0.0
 10
169.3357530547
 20
137.5402270946
 30
0.0
 10
169.3359774995
 20
137.4138071023
 30
0.0
  0
ELLIPSE
  5
2EA
100
AcDbEntity
  8
0
100
AcDbEllipse
 62
7
  6
CONTINUOUS
 10
-174.6016883969
 20
216.2477409102
 30
0.0
 11
472.3201275447
 21
89.124193583
 31
0.0
 40
0.4567938164
 41
-0.8091911818
 42
-0.7497868392
  0
ELLIPSE
  5
2EB
100
AcDbEntity
  8
0
100
AcDbEllipse
 62
7
  6
CONTINUOUS
 10
-174.6016883969
 20
291.3659632861
 30
0.0
 11
472.3201275447
 21
89.124193583
 31
0.0
 40
0.4567938164
 41
-0.8185192809
 42
-0.7497868392
  0
ELLIPSE
  5
2EC
100
AcDbEntity
  8
0
100
AcDbEllipse
 62
7
  6
CONTINUOUS
 10
-174.6016883969
 20
382.8486602355
 30
0.0
 11
466.7392024486
 21
-126.082769403
 31
0.0
 40
0.6587388747
 41
-0.5488586768
 42
-0.4876996083
  0
ELLIPSE
  5
2ED
100
AcDbEntity
  8
0
100
AcDbEllipse
 62
7
  6
CONTINUOUS
 10
-174.6016883969
 20
-1073.7366301137
 30
0.0
 11
423.9206901971
 21
1279.8501229196
 31
0.0
 40
0.1658119451
 41
0.2790930024
 42
0.2792382953
  0
ELLIPSE
  5
2EE
100
AcDbEntity
  8
0
100
AcDbEllipse
 62
7
  6
CONTINUOUS
 10
-174.6016883969
 20
457.9668826114
 30
0.0
 11
466.7392024486
 21
-126.082769403
 31
0.0
 40
0.6587388747
 41
-0.5504791416
 42
-0.4876996083
  0
ENDSEC
  0
SECTION
  2
OBJECTS
  0
DICTIONARY
  5
C
100
AcDbDictionary
280
0
281
1
  3
ACAD_GROUP
350
D
  3
ACAD_MLINESTYLE
350
17
  3
ACAD_LAYOUT
350
1A
  3
ACAD_PLOTSETTINGS
350
19
  3
ACAD_PLOTSTYLENAME
350
E
  0
DICTIONARY
  5
D
102
{ACAD_REACTORS
330
C
102
}
100
AcDbDictionary
280
0
281
1
  0
ACDBDICTIONARYWDFLT
  5
E
102
{ACAD_REACTORS
330
C
102
}
100
AcDbDictionary
281
1
  3
Normal
350
F
100
AcDbDictionaryWithDefault
340
F
  0
DICTIONARY
  5
17
102
{ACAD_REACTORS
330
C
102
}
100
AcDbDictionary
280
0
281
1
  3
Standard
350
18
  0
DICTIONARY
  5
19
102
{ACAD_REACTORS
330
C
102
}
100
AcDbDictionary
281
1
  0
DICTIONARY
  5
1A
102
{ACAD_REACTORS
330
C
102
}
100
AcDbDictionary
281
1
  3
Model
350
2EF
  3
Layout1
350
2F0
  0
ACDBPLACEHOLDER
  5
F
102
{ACAD_REACTORS
330
E
102
}
  0
MLINESTYLE
  5
18
102
{ACAD_REACTORS
330
17
102
}
100
AcDbMlineStyle
  2
STANDARD
 70
0
  3

 62
256
 51
90.0
 52
90.0
 71
2
 49
0.5
 62
256
  6
BYLAYER
 49
-0.5
 62
256
  6
BYLAYER
  0
LAYOUT
  5
2EF
102
{ACAD_REACTORS
330
1A
102
}
100
AcDbPlotSettings
  1

  2
none_device
  4

  6

 40
0.0
 41
0.0
 42
0.0
 43
0.0
 44
210.0
 45
297.0
 46
0.0
 47
0.0
 48
0.0
 49
0.0
140
0.0
141
0.0
142
1.0
143
1.0
 70
1024
 72
1
 73
0
 74
0
  7

 75
0
147
1.0
148
0.0
149
0.0
100
AcDbLayout
  1
Model
 70
0
 71
0
 10
0.0
 20
0.0
 11
210.0
 21
297.0
 12
0.0
 22
0.0
 32
0.0
 14
0.0
 24
0.0
 34
0.0
 15
0.0
 25
0.0
 35
0.0
146
0.0
 13
0.0
 23
0.0
 33
0.0
 16
1.0
 26
0.0
 36
0.0
 17
0.0
 27
1.0
 37
0.0
 76
0
330
210
345
0
346
0
  0
LAYOUT
  5
2F0
102
{ACAD_REACTORS
330
1A
102
}
100
AcDbPlotSettings
  1

  2
none_device
  4

  6

 40
0.0
 41
0.0
 42
0.0
 43
0.0
 44
210.0
 45
297.0
 46
0.0
 47
0.0
 48
0.0
 49
0.0
140
0.0
141
0.0
142
1.0
143
1.0
 70
0
 72
1
 73
0
 74
0
  7

 75
0
147
1.0
148
0.0
149
0.0
100
AcDbLayout
  1
Layout1
 70
0
 71
1
 10
0.0
 20
0.0
 11
210.0
 21
297.0
 12
0.0
 22
0.0
 32
0.0
 14
0.0
 24
0.0
 34
0.0
 15
0.0
 25
0.0
 35
0.0
146
0.0
 13
0.0
 23
0.0
 33
0.0
 16
1.0
 26
0.0
 36
0.0
 17
0.0
 27
1.0
 37
0.0
 76
0
330
211
345
0
346
0
  0
ENDSEC
  0
EOF
