999
DXF file: C:\Users\sesa63760\Dev\_Creo\CAD\MCADFD0002817_3D-CAD\drw0001_1.dxf
999
Pro/ENGINEER 2019471 by Parametric Technology Corporation
  0
SECTION
  2
HEADER
  9
$ACADVER
  1
AC1024
  9
$DWGCODEPAGE
  3
ANSI_1252
  9
$EXTMAX
 10
427.3996820478
 20
604.4652646104
 30
0.0
  9
$EXTMIN
 10
0.0
 20
0.0
 30
0.0
  9
$LIMMIN
 10
0.0
 20
0.0
  9
$LIMMAX
 10
427.3996820478
 20
604.4652646104
  9
$VIEWCTR
 10
213.6998410239
 20
302.2326323052
  9
$VIEWSIZE
 40
604.4652646104
  9
$CLAYER
  8
0
  9
$LTSCALE
 40
39.4021802116
  9
$CELTYPE
  6
BYLAYER
  9
$DIMSCALE
 40
1.0
  9
$DIMASZ
 40
5.0880914529
  9
$DIMEXO
 40
1.0
  9
$DIMDLI
 40
27.2233245099
  9
$DIMEXE
 40
1.0
  9
$DIMCEN
 40
6.4476294892
  9
$DIMLFAC
 40
1.0
  9
$DIMBLK
  1
_FILLED
  9
$DIMALT
 70
0
  9
$DIMALTF
 40
0.0393700787
  9
$DIMTXT
 40
7.1233280341
  9
$DIMTOL
 70
1
  9
$DIMLIM
 70
0
  9
$DIMTFAC
 40
1.0
  9
$DIMTP
 40
0.01
  9
$DIMTM
 40
0.01
  9
$DIMGAP
 40
0.625
  9
$DIMDSEP
 70
46
  9
$AUNITS
 70
0
  9
$PDMODE
 70
3
  9
$PDSIZE
 40
0.3125
  9
$HANDSEED
  5
331
  9
$TILEMODE
 70
1
  9
$MEASUREMENT
 70
1
  9
$INSUNITS
 70
4
  0
ENDSEC
  0
SECTION
  2
CLASSES
  0
CLASS
  1
ACDBDICTIONARYWDFLT
  2
AcDbDictionaryWithDefault
  3
AutoCAD 2000
 90
0
 91
1
280
0
281
0
  0
CLASS
  1
ACDBPLACEHOLDER
  2
AcDbPlaceHolder
  3
AutoCAD 2000
 90
0
 91
1
280
0
281
0
  0
CLASS
  1
LAYOUT
  2
AcDbLayout
  3
AutoCAD 2000
 90
0
 91
0
280
0
281
0
  0
ENDSEC
  0
SECTION
  2
TABLES
  0
TABLE
  2
VPORT
  5
8
100
AcDbSymbolTable
 70
2
  0
VPORT
  5
1F4
100
AcDbSymbolTableRecord
100
AcDbViewportTableRecord
  2
*ACTIVE
 70
0
 10
0.0
 20
0.0
 11
1.0
 21
1.0
 12
213.6998410239
 22
302.2326323052
 13
0.0
 23
0.0
 14
1.0
 24
1.0
 15
0.0
 25
0.0
 16
0.0
 26
0.0
 36
1.0
 17
0.0
 27
0.0
 37
0.0
 40
604.4652646104
 41
0.7070707071
 42
50.0
 43
0.0
 44
0.0
 50
0.0
 51
0.0
 71
0
 72
100
 73
1
 74
1
 75
0
 76
0
 77
0
 78
0
  0
ENDTAB
  0
TABLE
  2
LTYPE
  5
5
100
AcDbSymbolTable
 70
6
  0
LTYPE
  5
14
100
AcDbSymbolTableRecord
100
AcDbLinetypeTableRecord
  2
BYBLOCK
 70
0
  3

 72
65
 73
0
 40
0.0
  0
LTYPE
  5
15
100
AcDbSymbolTableRecord
100
AcDbLinetypeTableRecord
  2
BYLAYER
 70
0
  3

 72
65
 73
0
 40
0.0
  0
LTYPE
  5
16
100
AcDbSymbolTableRecord
100
AcDbLinetypeTableRecord
  2
CONTINUOUS
 70
64
  3
Solid line
 72
65
 73
0
 40
0.0
  0
LTYPE
  5
1F5
100
AcDbSymbolTableRecord
100
AcDbLinetypeTableRecord
  2
CENTER
 70
64
  3
____ _ ____ _ ____ _ ____ _ ____ _ ____ _ ____
 72
65
 73
4
 40
0.6
 49
0.375
 74
0
 49
-0.075
 74
0
 49
0.075
 74
0
 49
-0.075
 74
0
  0
LTYPE
  5
1F6
100
AcDbSymbolTableRecord
100
AcDbLinetypeTableRecord
  2
HIDDEN
 70
64
  3
- - - - - - - - - - - - - - - - - - - -
 72
65
 73
2
 40
0.2
 49
0.1
 74
0
 49
-0.1
 74
0
  0
LTYPE
  5
1F7
100
AcDbSymbolTableRecord
100
AcDbLinetypeTableRecord
  2
PHANTOM
 70
64
  3
_____ _ _ _____ _ _ _____ _ _ _____
 72
65
 73
6
 40
0.8
 49
0.45
 74
0
 49
-0.05
 74
0
 49
0.1
 74
0
 49
-0.05
 74
0
 49
0.1
 74
0
 49
-0.05
 74
0
  0
LTYPE
  5
1F8
100
AcDbSymbolTableRecord
100
AcDbLinetypeTableRecord
  2
DOT
 70
64
  3
. . . . . . . . . . . . . . . . . . . .
 72
65
 73
2
 40
0.2
 49
0.1
 74
0
 49
-0.1
 74
0
  0
LTYPE
  5
1F9
100
AcDbSymbolTableRecord
100
AcDbLinetypeTableRecord
  2
DASHED
 70
64
  3
- - - - - - - - - - - - - - - - - - - -
 72
65
 73
2
 40
0.2
 49
0.1
 74
0
 49
-0.1
 74
0
  0
ENDTAB
  0
TABLE
  2
LAYER
  5
2
100
AcDbSymbolTable
 70
36
  0
LAYER
  5
10
100
AcDbSymbolTableRecord
100
AcDbLayerTableRecord
  2
0
 70
0
 62
7
  6
CONTINUOUS
370
-3
390
F
  0
LAYER
  5
1FA
100
AcDbSymbolTableRecord
100
AcDbLayerTableRecord
  2
DEFAULT_1
 70
0
 62
7
  6
CENTER
370
-3
390
F
  0
LAYER
  5
1FB
100
AcDbSymbolTableRecord
100
AcDbLayerTableRecord
  2
DEFAULT_2
 70
0
 62
8
  6
HIDDEN
370
-3
390
F
  0
LAYER
  5
1FC
100
AcDbSymbolTableRecord
100
AcDbLayerTableRecord
  2
DEFAULT_3
 70
0
 62
7
  6
PHANTOM
370
-3
390
F
  0
LAYER
  5
1FD
100
AcDbSymbolTableRecord
100
AcDbLayerTableRecord
  2
00_COMPONENTS
 70
0
 62
7
  6
CONTINUOUS
370
-3
390
F
  0
LAYER
  5
1FE
100
AcDbSymbolTableRecord
100
AcDbLayerTableRecord
  2
01_1_DEFAULT_DATUMS
 70
0
 62
7
  6
CONTINUOUS
370
-3
390
F
  0
LAYER
  5
1FF
100
AcDbSymbolTableRecord
100
AcDbLayerTableRecord
  2
01_PLANES
 70
0
 62
7
  6
CONTINUOUS
370
-3
390
F
  0
LAYER
  5
200
100
AcDbSymbolTableRecord
100
AcDbLayerTableRecord
  2
02_COORD_SYS
 70
0
 62
7
  6
CONTINUOUS
370
-3
390
F
  0
LAYER
  5
201
100
AcDbSymbolTableRecord
100
AcDbLayerTableRecord
  2
03_AXES
 70
0
 62
7
  6
CONTINUOUS
370
-3
390
F
  0
LAYER
  5
202
100
AcDbSymbolTableRecord
100
AcDbLayerTableRecord
  2
04_POINTS
 70
0
 62
7
  6
CONTINUOUS
370
-3
390
F
  0
LAYER
  5
203
100
AcDbSymbolTableRecord
100
AcDbLayerTableRecord
  2
05_CURVES
 70
0
 62
7
  6
CONTINUOUS
370
-3
390
F
  0
LAYER
  5
204
100
AcDbSymbolTableRecord
100
AcDbLayerTableRecord
  2
06_SURFS
 70
0
 62
7
  6
CONTINUOUS
370
-3
390
F
  0
LAYER
  5
205
100
AcDbSymbolTableRecord
100
AcDbLayerTableRecord
  2
07_COSMETICS
 70
0
 62
7
  6
CONTINUOUS
370
-3
390
F
  0
LAYER
  5
206
100
AcDbSymbolTableRecord
100
AcDbLayerTableRecord
  2
10_NOTES
 70
0
 62
7
  6
CONTINUOUS
370
-3
390
F
  0
LAYER
  5
207
100
AcDbSymbolTableRecord
100
AcDbLayerTableRecord
  2
11_NOTES_PUB
 70
0
 62
7
  6
CONTINUOUS
370
-3
390
F
  0
LAYER
  5
208
100
AcDbSymbolTableRecord
100
AcDbLayerTableRecord
  2
13_REF_GTOL
 70
0
 62
7
  6
CONTINUOUS
370
-3
390
F
  0
LAYER
  5
209
100
AcDbSymbolTableRecord
100
AcDbLayerTableRecord
  2
16_MISC
 70
0
 62
7
  6
CONTINUOUS
370
-3
390
F
  0
LAYER
  5
20A
100
AcDbSymbolTableRecord
100
AcDbLayerTableRecord
  2
17_NO_PRINT
 70
0
 62
7
  6
CONTINUOUS
370
-3
390
F
  0
LAYER
  5
20B
100
AcDbSymbolTableRecord
100
AcDbLayerTableRecord
  2
18_DATUM_CAMS_JOINTS
 70
0
 62
7
  6
CONTINUOUS
370
-3
390
F
  0
LAYER
  5
20C
100
AcDbSymbolTableRecord
100
AcDbLayerTableRecord
  2
19_DATUM_FUNCTIONAL
 70
0
 62
7
  6
CONTINUOUS
370
-3
390
F
  0
LAYER
  5
20D
100
AcDbSymbolTableRecord
100
AcDbLayerTableRecord
  2
20_DATUM_KINEMATIC_SCHEME
 70
0
 62
7
  6
CONTINUOUS
370
-3
390
F
  0
ENDTAB
  0
TABLE
  2
STYLE
  5
3
100
AcDbSymbolTable
 70
1
  0
STYLE
  5
11
100
AcDbSymbolTableRecord
100
AcDbTextStyleTableRecord
  2
STANDARD
 70
0
 40
0.0
 41
0.8
 50
0.0
 71
0
 42
0.2
  3
txt
  4

  0
STYLE
  5
20E
100
AcDbSymbolTableRecord
100
AcDbTextStyleTableRecord
  2
TEXTSTYLE_1
 70
0
 40
0.0
 41
0.8
 50
0.0
 71
0
 42
0.2
  3
gdt
  4

  0
ENDTAB
  0
TABLE
  2
VIEW
  5
6
100
AcDbSymbolTable
 70
0
  0
ENDTAB
  0
TABLE
  2
UCS
  5
7
100
AcDbSymbolTable
 70
0
  0
ENDTAB
  0
TABLE
  2
APPID
  5
9
100
AcDbSymbolTable
 70
1
  0
APPID
  5
20F
100
AcDbSymbolTableRecord
100
AcDbRegAppTableRecord
  2
ACAD
 70
0
  0
ENDTAB
  0
TABLE
  2
BLOCK_RECORD
  5
1
100
AcDbSymbolTable
 70
0
  0
BLOCK_RECORD
  5
210
100
AcDbSymbolTableRecord
100
AcDbBlockTableRecord
  2
*Model_Space
  0
BLOCK_RECORD
  5
211
100
AcDbSymbolTableRecord
100
AcDbBlockTableRecord
  2
*Paper_Space
  0
BLOCK_RECORD
  5
212
100
AcDbSymbolTableRecord
100
AcDbBlockTableRecord
  2
_FILLED
  0
ENDTAB
  0
TABLE
  2
DIMSTYLE
  5
A
100
AcDbSymbolTable
 70
1
100
AcDbDimStyleTable
 71
0
  0
DIMSTYLE
105
213
100
AcDbSymbolTableRecord
100
AcDbDimStyleTableRecord
  2
STANDARD
 70
0
  3

  4

 40
1.0
 41
5.0880914529
 42
1.0
 43
0.38
 44
1.0
 45
0.0
 46
0.0
 47
0.01
 48
0.01
140
7.1233280341
141
0.09
142
0.0
143
25.4
144
1.0
145
0.0
146
1.0
147
0.625
 71
1
 72
0
 73
0
 74
0
 75
0
 76
0
 77
1
 78
8
 79
2
170
0
171
1
172
0
173
0
174
0
175
0
176
0
177
0
178
0
270
2
179
2
271
2
272
2
273
2
274
2
275
0
280
0
281
0
282
0
283
1
284
8
285
0
286
0
287
3
288
0
340
11
278
46
341
212
342
212
343
212
344
212
  0
ENDTAB
  0
ENDSEC
  0
SECTION
  2
BLOCKS
  0
BLOCK
  5
20
100
AcDbEntity
  8
0
100
AcDbBlockBegin
  2
*Model_Space
 70
0
 10
0.0
 20
0.0
 30
0.0
  3
*Model_Space
  1

  0
ENDBLK
  5
21
100
AcDbEntity
  8
0
100
AcDbBlockEnd
  0
BLOCK
  5
1C
100
AcDbEntity
  8
0
100
AcDbBlockBegin
  2
*Paper_Space
 70
0
 10
0.0
 20
0.0
 30
0.0
  3
*Paper_Space
  1

  0
ENDBLK
  5
1D
100
AcDbEntity
  8
0
100
AcDbBlockEnd
  0
BLOCK
  5
214
100
AcDbEntity
  8
0
100
AcDbBlockBegin
  2
_FILLED
 70
64
 10
0.0
 20
0.0
  3
_FILLED
  1

  0
SOLID
  5
215
100
AcDbEntity
  8
0
  6
BYBLOCK
 62
0
100
AcDbTrace
 10
0.0
 20
0.0
 11
-1.0
 21
0.25
 12
-1.0
 22
-0.25
 13
-1.0
 23
-0.25
  0
ENDBLK
  5
216
100
AcDbEntity
  8
0
  6
BYBLOCK
 62
0
100
AcDbBlockEnd
  0
ENDSEC
  0
SECTION
  2
ENTITIES
  0
LINE
  5
217
100
AcDbEntity
  8
0
100
AcDbLine
 62
7
  6
CONTINUOUS
 10
78.3363283975
 20
477.9221040103
 11
78.6189598892
 21
478.085280404
  0
LINE
  5
218
100
AcDbEntity
  8
0
100
AcDbLine
 62
7
  6
CONTINUOUS
 10
94.4582177325
 20
470.2470913702
 11
93.0440100581
 21
469.4306030625
  0
LINE
  5
219
100
AcDbEntity
  8
0
100
AcDbLine
 62
7
  6
CONTINUOUS
 10
112.2130962645
 20
473.9373295951
 11
138.1061384491
 21
488.8865862861
  0
LINE
  5
21A
100
AcDbEntity
  8
0
100
AcDbLine
 62
7
  6
CONTINUOUS
 10
105.7870239444
 20
477.4906915823
 11
132.7174353786
 21
491.997685072
  0
LWPOLYLINE
  5
21B
100
AcDbEntity
  8
0
100
AcDbPolyline
 62
7
  6
CONTINUOUS
 90
4
 70
0
 10
102.6726992727
 20
478.9004921784
 10
96.3470284977
 20
476.21969022
 10
89.539848802
 20
473.0772924986
 10
88.3370186005
 20
472.4746835198
  0
LINE
  5
21C
100
AcDbEntity
  8
0
100
AcDbLine
 62
7
  6
CONTINUOUS
 10
119.5598029196
 20
476.1136899642
 11
138.1061384491
 21
487.563243882
  0
LINE
  5
21D
100
AcDbEntity
  8
0
100
AcDbLine
 62
7
  6
CONTINUOUS
 10
139.7131266646
 20
484.3452275731
 11
122.2019603124
 21
474.5881593939
  0
LINE
  5
21E
100
AcDbEntity
  8
0
100
AcDbLine
 62
7
  6
CONTINUOUS
 10
123.9697346253
 20
473.5675575076
 11
116.2488012778
 21
469.2655212204
  0
LINE
  5
21F
100
AcDbEntity
  8
0
100
AcDbLine
 62
7
  6
CONTINUOUS
 10
49.583282537
 20
483.0933333076
 11
49.5832804677
 21
278.049243685
  0
LINE
  5
220
100
AcDbEntity
  8
0
100
AcDbLine
 62
7
  6
CONTINUOUS
 10
155.9765695185
 20
458.7845243555
 11
133.1473136632
 21
447.9104367426
  0
LINE
  5
221
100
AcDbEntity
  8
0
100
AcDbLine
 62
7
  6
CONTINUOUS
 10
134.5615331134
 20
447.0939552336
 11
157.3907889688
 21
457.9680428465
  0
LINE
  5
222
100
AcDbEntity
  8
0
100
AcDbLine
 62
7
  6
CONTINUOUS
 10
156.330133213
 20
452.8212331919
 11
152.6536701727
 21
448.2476358523
  0
LINE
  5
223
100
AcDbEntity
  8
0
100
AcDbLine
 62
7
  6
CONTINUOUS
 10
157.3907889688
 20
456.7432892208
 11
156.330133213
 21
455.5598109949
  0
LINE
  5
224
100
AcDbEntity
  8
0
100
AcDbLine
 62
7
  6
CONTINUOUS
 10
187.089397425
 20
440.8219311566
 11
164.2601415696
 21
429.9478435437
  0
LINE
  5
225
100
AcDbEntity
  8
0
100
AcDbLine
 62
7
  6
CONTINUOUS
 10
165.6743610199
 20
429.1313620347
 11
188.5036168753
 21
440.0054496476
  0
LINE
  5
226
100
AcDbEntity
  8
0
100
AcDbLine
 62
7
  6
CONTINUOUS
 10
187.4429611194
 20
434.858639993
 11
183.7664980792
 21
430.2850426534
  0
LINE
  5
227
100
AcDbEntity
  8
0
100
AcDbLine
 62
7
  6
CONTINUOUS
 10
188.5036168753
 20
438.7806960219
 11
187.4429611194
 21
437.5972177961
  0
LINE
  5
228
100
AcDbEntity
  8
0
100
AcDbLine
 62
7
  6
CONTINUOUS
 10
218.2022253314
 20
422.8593379577
 11
195.3729694761
 21
411.9852503448
  0
LINE
  5
229
100
AcDbEntity
  8
0
100
AcDbLine
 62
7
  6
CONTINUOUS
 10
196.7871889264
 20
411.1687688358
 11
219.6164447817
 21
422.0428564487
  0
LINE
  5
22A
100
AcDbEntity
  8
0
100
AcDbLine
 62
7
  6
CONTINUOUS
 10
138.1061384491
 20
488.8865862861
 11
138.1061384491
 21
487.5632438819
  0
LINE
  5
22B
100
AcDbEntity
  8
0
100
AcDbLine
 62
7
  6
CONTINUOUS
 10
218.5557890259
 20
416.8960467941
 11
214.8793259857
 21
412.3224494545
  0
LINE
  5
22C
100
AcDbEntity
  8
0
100
AcDbLine
 62
7
  6
CONTINUOUS
 10
219.6164447817
 20
420.818102823
 11
218.5557890259
 21
419.6346245972
  0
LINE
  5
22D
100
AcDbEntity
  8
0
100
AcDbLine
 62
7
  6
CONTINUOUS
 10
249.3150532379
 20
404.8967447588
 11
226.4857973826
 21
394.0226571459
  0
LINE
  5
22E
100
AcDbEntity
  8
0
100
AcDbLine
 62
7
  6
CONTINUOUS
 10
227.9000168328
 20
393.2061756369
 11
250.7292726882
 21
404.0802632498
  0
LINE
  5
22F
100
AcDbEntity
  8
0
100
AcDbLine
 62
7
  6
CONTINUOUS
 10
340.6704655363
 20
229.5331555628
 11
339.83057534
 21
229.5710373391
  0
LINE
  5
230
100
AcDbEntity
  8
0
100
AcDbLine
 62
7
  6
CONTINUOUS
 10
339.816942974
 20
222.2277439182
 11
340.6704655363
 21
222.1846338086
  0
LINE
  5
231
100
AcDbEntity
  8
0
100
AcDbLine
 62
7
  6
CONTINUOUS
 10
156.330133213
 20
452.8212331919
 11
156.330133213
 21
455.559810995
  0
LINE
  5
232
100
AcDbEntity
  8
0
100
AcDbLine
 62
7
  6
CONTINUOUS
 10
157.3907889688
 20
456.7432892208
 11
157.3907889688
 21
457.9680428465
  0
LINE
  5
233
100
AcDbEntity
  8
0
100
AcDbLine
 62
7
  6
CONTINUOUS
 10
280.4278811444
 20
386.9341515599
 11
257.598625289
 21
376.060063947
  0
LINE
  5
234
100
AcDbEntity
  8
0
100
AcDbLine
 62
7
  6
CONTINUOUS
 10
249.6686169324
 20
398.9334535953
 11
245.9921538921
 21
394.3598562556
  0
LINE
  5
235
100
AcDbEntity
  8
0
100
AcDbLine
 62
7
  6
CONTINUOUS
 10
250.7292726882
 20
402.8555096241
 11
249.6686169324
 21
401.6720313983
  0
LINE
  5
236
100
AcDbEntity
  8
0
100
AcDbLine
 62
7
  6
CONTINUOUS
 10
259.0128447393
 20
375.243582438
 11
281.8421005947
 21
386.1176700509
  0
LINE
  5
237
100
AcDbEntity
  8
0
100
AcDbLine
 62
7
  6
CONTINUOUS
 10
361.0258050622
 20
177.8683532736
 11
356.7127581853
 21
180.3584357158
  0
LINE
  5
238
100
AcDbEntity
  8
0
100
AcDbLine
 62
7
  6
CONTINUOUS
 10
187.4429611194
 20
434.858639993
 11
187.4429611194
 21
437.5972177961
  0
LINE
  5
239
100
AcDbEntity
  8
0
100
AcDbLine
 62
7
  6
CONTINUOUS
 10
188.5036168753
 20
438.7806960219
 11
188.5036168753
 21
440.0054496476
  0
LINE
  5
23A
100
AcDbEntity
  8
0
100
AcDbLine
 62
7
  6
CONTINUOUS
 10
311.5407090508
 20
368.971558361
 11
288.7114531955
 21
358.0974707481
  0
LINE
  5
23B
100
AcDbEntity
  8
0
100
AcDbLine
 62
7
  6
CONTINUOUS
 10
290.1256726458
 20
357.2809892391
 11
312.9549285011
 21
368.155076852
  0
LINE
  5
23C
100
AcDbEntity
  8
0
100
AcDbLine
 62
7
  6
CONTINUOUS
 10
381.5954504101
 20
188.3050882171
 11
382.7414951297
 21
187.6434339584
  0
LINE
  5
23D
100
AcDbEntity
  8
0
100
AcDbLine
 62
7
  6
CONTINUOUS
 10
218.5557890259
 20
416.8960467941
 11
218.5557890259
 21
419.6346245972
  0
LINE
  5
23E
100
AcDbEntity
  8
0
100
AcDbLine
 62
7
  6
CONTINUOUS
 10
280.7814448388
 20
380.9708603964
 11
277.1049817986
 21
376.3972630567
  0
LINE
  5
23F
100
AcDbEntity
  8
0
100
AcDbLine
 62
7
  6
CONTINUOUS
 10
281.8421005947
 20
384.8929164252
 11
280.7814448388
 21
383.7094381994
  0
LINE
  5
240
100
AcDbEntity
  8
0
100
AcDbLine
 62
7
  6
CONTINUOUS
 10
339.829493324
 20
295.8702125004
 11
340.6704655363
 21
295.8331518337
  0
LINE
  5
241
100
AcDbEntity
  8
0
100
AcDbLine
 62
7
  6
CONTINUOUS
 10
219.6164447817
 20
420.818102823
 11
219.6164447817
 21
422.0428564487
  0
LINE
  5
242
100
AcDbEntity
  8
0
100
AcDbLine
 62
7
  6
CONTINUOUS
 10
340.6704655363
 20
303.1816735879
 11
339.816942974
 21
303.2247836974
  0
LINE
  5
243
100
AcDbEntity
  8
0
100
AcDbLine
 62
7
  6
CONTINUOUS
 10
249.6686169324
 20
398.9334535953
 11
249.6686169324
 21
401.6720313983
  0
LINE
  5
244
100
AcDbEntity
  8
0
100
AcDbLine
 62
7
  6
CONTINUOUS
 10
250.7292726882
 20
402.8555096241
 11
250.7292726882
 21
404.0802632498
  0
LINE
  5
245
100
AcDbEntity
  8
0
100
AcDbLine
 62
7
  6
CONTINUOUS
 10
312.9549285011
 20
366.9303232263
 11
311.8942727453
 21
365.7468450005
  0
LINE
  5
246
100
AcDbEntity
  8
0
100
AcDbLine
 62
7
  6
CONTINUOUS
 10
327.804427031
 20
335.5276423785
 11
326.3902193566
 21
334.7111540707
  0
LINE
  5
247
100
AcDbEntity
  8
0
100
AcDbLine
 62
7
  6
CONTINUOUS
 10
328.6531710995
 20
333.4048769101
 11
328.9358025913
 21
333.5680533039
  0
LINE
  5
248
100
AcDbEntity
  8
0
100
AcDbLine
 62
7
  6
CONTINUOUS
 10
350.4223806989
 20
336.2535977992
 11
377.3527920592
 21
350.7605912492
  0
LINE
  5
249
100
AcDbEntity
  8
0
100
AcDbLine
 62
7
  6
CONTINUOUS
 10
362.3781513596
 20
249.0237063984
 11
360.3331767519
 21
250.2043463289
  0
LINE
  5
24A
100
AcDbEntity
  8
0
100
AcDbLine
 62
7
  6
CONTINUOUS
 10
365.6070073042
 20
248.3819228891
 11
363.4367571203
 21
249.6348890711
  0
LINE
  5
24B
100
AcDbEntity
  8
0
100
AcDbLine
 62
7
  6
CONTINUOUS
 10
311.8942727453
 20
363.0082671975
 11
308.2178097051
 21
358.4346698578
  0
LINE
  5
24C
100
AcDbEntity
  8
0
100
AcDbLine
 62
7
  6
CONTINUOUS
 10
343.3609825098
 20
324.9134282979
 11
343.6436848743
 21
325.0766456098
  0
LINE
  5
24D
100
AcDbEntity
  8
0
100
AcDbLine
 62
7
  6
CONTINUOUS
 10
356.3003480007
 20
332.3837893134
 11
382.7414951297
 21
347.6494924633
  0
LINE
  5
24E
100
AcDbEntity
  8
0
100
AcDbLine
 62
7
  6
CONTINUOUS
 10
376.2410457681
 20
336.2212036953
 11
356.71275809
 21
324.9466088478
  0
LINE
  5
24F
100
AcDbEntity
  8
0
100
AcDbLine
 62
7
  6
CONTINUOUS
 10
342.9451809783
 20
326.3049638782
 11
342.2305673346
 21
325.8924909449
  0
LINE
  5
250
100
AcDbEntity
  8
0
100
AcDbLine
 62
7
  6
CONTINUOUS
 10
343.6436848743
 20
323.444789579
 11
344.3583142867
 21
323.8594292513
  0
LINE
  5
251
100
AcDbEntity
  8
0
100
AcDbLine
 62
7
  6
CONTINUOUS
 10
384.4548242543
 20
223.2095141776
 11
382.2813404086
 21
225.0207411198
  0
LINE
  5
252
100
AcDbEntity
  8
0
100
AcDbLine
 62
7
  6
CONTINUOUS
 10
280.7814448388
 20
380.9708603964
 11
280.7814448388
 21
383.7094381994
  0
LINE
  5
253
100
AcDbEntity
  8
0
100
AcDbLine
 62
7
  6
CONTINUOUS
 10
281.8421005947
 20
384.8929164252
 11
281.8421005947
 21
386.1176700509
  0
LINE
  5
254
100
AcDbEntity
  8
0
100
AcDbLine
 62
7
  6
CONTINUOUS
 10
339.6905922314
 20
303.1231991786
 11
339.8731594787
 21
303.248687544
  0
LINE
  5
255
100
AcDbEntity
  8
0
100
AcDbLine
 62
7
  6
CONTINUOUS
 10
339.6472929987
 20
303.0932627741
 11
339.8752685875
 21
303.2476599216
  0
LINE
  5
256
100
AcDbEntity
  8
0
100
AcDbLine
 62
7
  6
CONTINUOUS
 10
342.163476072
 20
304.7277538145
 11
342.2610575423
 21
304.7883674758
  0
LINE
  5
257
100
AcDbEntity
  8
0
100
AcDbLine
 62
7
  6
CONTINUOUS
 10
356.7127580865
 20
325.3583316833
 11
382.7414951297
 21
341.4271355564
  0
LINE
  5
258
100
AcDbEntity
  8
0
100
AcDbLine
 62
7
  6
CONTINUOUS
 10
342.1624805353
 20
304.7282970871
 11
342.2610575423
 21
304.7883674758
  0
LINE
  5
259
100
AcDbEntity
  8
0
100
AcDbLine
 62
7
  6
CONTINUOUS
 10
384.4548242543
 20
331.4790837563
 11
369.1700780511
 21
322.3409432558
  0
LINE
  5
25A
100
AcDbEntity
  8
0
100
AcDbLine
 62
7
  6
CONTINUOUS
 10
343.3609116394
 20
307.9301371048
 11
343.6436848743
 21
308.0933953335
  0
LINE
  5
25B
100
AcDbEntity
  8
0
100
AcDbLine
 62
7
  6
CONTINUOUS
 10
343.3608527601
 20
305.3173179512
 11
344.7750604345
 21
306.1338062589
  0
LINE
  5
25C
100
AcDbEntity
  8
0
100
AcDbLine
 62
7
  6
CONTINUOUS
 10
339.2509085901
 20
296.786308507
 11
338.542882098
 21
296.3775316613
  0
LINE
  5
25D
100
AcDbEntity
  8
0
100
AcDbLine
 62
7
  6
CONTINUOUS
 10
338.2893111852
 20
302.1186779695
 11
338.3666983951
 21
302.1761570557
  0
LINE
  5
25E
100
AcDbEntity
  8
0
100
AcDbLine
 62
7
  6
CONTINUOUS
 10
339.6472929987
 20
303.0932627741
 11
339.6905922314
 21
303.1231991786
  0
LINE
  5
25F
100
AcDbEntity
  8
0
100
AcDbLine
 62
7
  6
CONTINUOUS
 10
361.0258050622
 20
312.5912520999
 11
344.7750604345
 21
301.4098421254
  0
LINE
  5
260
100
AcDbEntity
  8
0
100
AcDbLine
 62
7
  6
CONTINUOUS
 10
344.7750604345
 20
299.7768372911
 11
361.0258050622
 21
310.9582472657
  0
LINE
  5
261
100
AcDbEntity
  8
0
100
AcDbLine
 62
7
  6
CONTINUOUS
 10
369.1700780511
 20
289.7492868806
 11
384.4548242542
 21
298.3277365535
  0
LINE
  5
262
100
AcDbEntity
  8
0
100
AcDbLine
 62
7
  6
CONTINUOUS
 10
359.0884749133
 20
287.449737129
 11
382.2813404423
 21
300.1389634677
  0
LINE
  5
263
100
AcDbEntity
  8
0
100
AcDbLine
 62
7
  6
CONTINUOUS
 10
361.0258050622
 20
312.5912520999
 11
356.7127581734
 21
315.081334549
  0
LINE
  5
264
100
AcDbEntity
  8
0
100
AcDbLine
 62
7
  6
CONTINUOUS
 10
61.9312410309
 20
487.3933713487
 11
343.3609116394
 21
324.9135510496
  0
LINE
  5
265
100
AcDbEntity
  8
0
100
AcDbLine
 62
7
  6
CONTINUOUS
 10
78.6189598892
 20
478.085280404
 11
93.3268421723
 21
469.59387271
  0
LINE
  5
266
100
AcDbEntity
  8
0
100
AcDbLine
 62
7
  6
CONTINUOUS
 10
328.9358025913
 20
333.5680533039
 11
343.6436848743
 21
325.0766456098
  0
LINE
  5
267
100
AcDbEntity
  8
0
100
AcDbLine
 62
7
  6
CONTINUOUS
 10
94.4582177325
 20
470.2470913702
 11
327.804427031
 21
335.5276423785
  0
LINE
  5
268
100
AcDbEntity
  8
0
100
AcDbLine
 62
7
  6
CONTINUOUS
 10
338.3601837564
 20
228.5228097487
 11
338.542882098
 21
228.129161717
  0
LINE
  5
269
100
AcDbEntity
  8
0
100
AcDbLine
 62
7
  6
CONTINUOUS
 10
311.8942727453
 20
363.0082671975
 11
311.8942727453
 21
365.7468450005
  0
LINE
  5
26A
100
AcDbEntity
  8
0
100
AcDbLine
 62
7
  6
CONTINUOUS
 10
312.9549285011
 20
366.9303232263
 11
312.9549285011
 21
368.155076852
  0
LINE
  5
26B
100
AcDbEntity
  8
0
100
AcDbLine
 62
7
  6
CONTINUOUS
 10
344.7750604345
 20
281.631853062
 11
347.5702110064
 21
283.6067371906
  0
LWPOLYLINE
  5
26C
100
AcDbEntity
  8
0
100
AcDbPolyline
 62
7
  6
CONTINUOUS
 90
4
 70
0
 10
349.2044106095
 20
279.4382406292
 10
349.2597730335
 20
279.473952957
 10
353.9403833644
 20
282.4241047651
 10
358.5815370864
 20
285.3102264878
  0
LINE
  5
26D
100
AcDbEntity
  8
0
100
AcDbLine
 62
7
  6
CONTINUOUS
 10
369.1700780511
 20
296.7976275316
 11
384.4548242543
 21
306.4954588595
  0
LINE
  5
26E
100
AcDbEntity
  8
0
100
AcDbLine
 62
7
  6
CONTINUOUS
 10
111.7822705761
 20
471.8442155855
 11
144.15555923
 21
453.1539114978
  0
LINE
  5
26F
100
AcDbEntity
  8
0
100
AcDbLine
 62
7
  6
CONTINUOUS
 10
150.3197505967
 20
449.5950944642
 11
175.2683871365
 21
435.1913182989
  0
LINE
  5
270
100
AcDbEntity
  8
0
100
AcDbLine
 62
7
  6
CONTINUOUS
 10
181.4325785031
 20
431.6325012653
 11
206.381215043
 21
417.2287251
  0
LINE
  5
271
100
AcDbEntity
  8
0
100
AcDbLine
 62
7
  6
CONTINUOUS
 10
212.5454064096
 20
413.6699080664
 11
237.4940429494
 21
399.2661319012
  0
LINE
  5
272
100
AcDbEntity
  8
0
100
AcDbLine
 62
7
  6
CONTINUOUS
 10
243.6582343161
 20
395.7073148675
 11
268.6068708559
 21
381.3035387023
  0
LINE
  5
273
100
AcDbEntity
  8
0
100
AcDbLine
 62
7
  6
CONTINUOUS
 10
274.7710622225
 20
377.7447216686
 11
299.7196987624
 21
363.3409455034
  0
LINE
  5
274
100
AcDbEntity
  8
0
100
AcDbLine
 62
7
  6
CONTINUOUS
 10
305.883890129
 20
359.7821284697
 11
343.0071506992
 21
338.3494888574
  0
LINE
  5
275
100
AcDbEntity
  8
0
100
AcDbLine
 62
7
  6
CONTINUOUS
 10
355.3029097551
 20
333.435886682
 11
346.82552614
 21
338.3301958404
  0
LINE
  5
276
100
AcDbEntity
  8
0
100
AcDbLine
 62
7
  6
CONTINUOUS
 10
112.0650973912
 20
473.8661263389
 11
103.5877284704
 21
478.7604266375
  0
LINE
  5
277
100
AcDbEntity
  8
0
100
AcDbLine
 62
7
  6
CONTINUOUS
 10
118.319534401
 20
476.8297431281
 11
123.9697346253
 21
473.5675575076
  0
LINE
  5
278
100
AcDbEntity
  8
0
100
AcDbLine
 62
7
  6
CONTINUOUS
 10
351.3121888369
 20
342.3144145136
 11
356.3133421243
 21
339.4269670311
  0
LINE
  5
279
100
AcDbEntity
  8
0
100
AcDbLine
 62
7
  6
CONTINUOUS
 10
333.8304358777
 20
113.942784581
 11
333.8304358769
 21
318.9869466793
  0
LINE
  5
27A
100
AcDbEntity
  8
0
100
AcDbLine
 62
7
  6
CONTINUOUS
 10
344.7750604345
 20
263.306650777
 11
350.6225253992
 21
267.4381154168
  0
LINE
  5
27B
100
AcDbEntity
  8
0
100
AcDbLine
 62
7
  6
CONTINUOUS
 10
363.4367571203
 20
249.6348890711
 11
362.3781513596
 21
249.0237063984
  0
LINE
  5
27C
100
AcDbEntity
  8
0
100
AcDbLine
 62
7
  6
CONTINUOUS
 10
312.9549285011
 20
368.155076852
 11
311.5407090508
 21
368.971558361
  0
LINE
  5
27D
100
AcDbEntity
  8
0
100
AcDbLine
 62
7
  6
CONTINUOUS
 10
281.8421005947
 20
386.1176700509
 11
280.4278811444
 21
386.9341515599
  0
LINE
  5
27E
100
AcDbEntity
  8
0
100
AcDbLine
 62
7
  6
CONTINUOUS
 10
250.7292726882
 20
404.0802632498
 11
249.3150532379
 21
404.8967447588
  0
LINE
  5
27F
100
AcDbEntity
  8
0
100
AcDbLine
 62
7
  6
CONTINUOUS
 10
219.6164447817
 20
422.0428564487
 11
218.2022253314
 21
422.8593379577
  0
LINE
  5
280
100
AcDbEntity
  8
0
100
AcDbLine
 62
7
  6
CONTINUOUS
 10
188.5036168753
 20
440.0054496476
 11
187.089397425
 21
440.8219311566
  0
LINE
  5
281
100
AcDbEntity
  8
0
100
AcDbLine
 62
7
  6
CONTINUOUS
 10
157.3907889688
 20
457.9680428465
 11
155.9765695185
 21
458.7845243555
  0
LINE
  5
282
100
AcDbEntity
  8
0
100
AcDbLine
 62
7
  6
CONTINUOUS
 10
384.4548242543
 20
331.4790837563
 11
376.2410457681
 21
336.2212036953
  0
LINE
  5
283
100
AcDbEntity
  8
0
100
AcDbLine
 62
7
  6
CONTINUOUS
 10
139.7131266646
 20
484.3452275731
 11
374.1148758027
 21
349.0163761573
  0
LINE
  5
284
100
AcDbEntity
  8
0
100
AcDbLine
 62
7
  6
CONTINUOUS
 10
384.4548242543
 20
298.3277365535
 11
382.2813404085
 21
300.1389634959
  0
LINE
  5
285
100
AcDbEntity
  8
0
100
AcDbLine
 62
7
  6
CONTINUOUS
 10
344.7750604345
 20
306.1338062589
 11
343.6436848743
 21
308.0933953335
  0
LINE
  5
286
100
AcDbEntity
  8
0
100
AcDbLine
 62
7
  6
CONTINUOUS
 10
328.9358025913
 20
333.5680533039
 11
327.804427031
 21
335.5276423785
  0
LINE
  5
287
100
AcDbEntity
  8
0
100
AcDbLine
 62
7
  6
CONTINUOUS
 10
338.3421989854
 20
302.2100783702
 11
338.542882098
 21
301.7776797421
  0
LINE
  5
288
100
AcDbEntity
  8
0
100
AcDbLine
 62
7
  6
CONTINUOUS
 10
337.1691779988
 20
201.3182164213
 11
337.1691779988
 21
219.8204832603
  0
LINE
  5
289
100
AcDbEntity
  8
0
100
AcDbLine
 62
7
  6
CONTINUOUS
 10
337.1691779988
 20
301.258112278
 11
337.1691779988
 21
321.1825381113
  0
LINE
  5
28A
100
AcDbEntity
  8
0
100
AcDbLine
 62
7
  6
CONTINUOUS
 10
338.542882098
 20
301.7776797421
 11
338.542882098
 21
294.4291579879
  0
LINE
  5
28B
100
AcDbEntity
  8
0
100
AcDbLine
 62
7
  6
CONTINUOUS
 10
338.542882098
 20
228.129161717
 11
338.542882098
 21
220.7806399628
  0
LINE
  5
28C
100
AcDbEntity
  8
0
100
AcDbLine
 62
7
  6
CONTINUOUS
 10
338.5940222498
 20
302.3435971693
 11
338.5940222498
 21
300.0165652805
  0
LINE
  5
28D
100
AcDbEntity
  8
0
100
AcDbLine
 62
7
  6
CONTINUOUS
 10
338.5940222497
 20
221.34655739
 11
338.5940222497
 21
223.6735892788
  0
LINE
  5
28E
100
AcDbEntity
  8
0
100
AcDbLine
 62
7
  6
CONTINUOUS
 10
339.2509085901
 20
225.5872977333
 11
339.2509085901
 21
229.1669002287
  0
LINE
  5
28F
100
AcDbEntity
  8
0
100
AcDbLine
 62
7
  6
CONTINUOUS
 10
339.2509085901
 20
296.786308507
 11
339.2509085901
 21
300.4887661688
  0
LINE
  5
290
100
AcDbEntity
  8
0
100
AcDbLine
 62
7
  6
CONTINUOUS
 10
339.6472929987
 20
303.0932627741
 11
339.6472929987
 21
300.7662308853
  0
LINE
  5
291
100
AcDbEntity
  8
0
100
AcDbLine
 62
7
  6
CONTINUOUS
 10
339.6472929987
 20
222.0962229948
 11
339.6472929987
 21
224.4232548836
  0
LINE
  5
292
100
AcDbEntity
  8
0
100
AcDbLine
 62
7
  6
CONTINUOUS
 10
339.6911197482
 20
222.3283764734
 11
339.6911197482
 21
224.6554083622
  0
LINE
  5
293
100
AcDbEntity
  8
0
100
AcDbLine
 62
7
  6
CONTINUOUS
 10
339.6911197482
 20
300.9983843638
 11
339.6911197482
 21
303.0932627741
  0
LINE
  5
294
100
AcDbEntity
  8
0
100
AcDbLine
 62
7
  6
CONTINUOUS
 10
339.816942974
 20
303.2247836974
 11
339.8246881641
 21
295.8758707456
  0
LINE
  5
295
100
AcDbEntity
  8
0
100
AcDbLine
 62
7
  6
CONTINUOUS
 10
340.6704655363
 20
222.1846338086
 11
340.6704655363
 21
229.5331555628
  0
LINE
  5
296
100
AcDbEntity
  8
0
100
AcDbLine
 62
7
  6
CONTINUOUS
 10
340.6704655363
 20
295.8331518337
 11
340.6704655363
 21
303.1816735879
  0
LINE
  5
297
100
AcDbEntity
  8
0
100
AcDbLine
 62
7
  6
CONTINUOUS
 10
342.1137549866
 20
231.0499823794
 11
342.1137549866
 21
296.7356817563
  0
LINE
  5
298
100
AcDbEntity
  8
0
100
AcDbLine
 62
7
  6
CONTINUOUS
 10
342.2610575423
 20
230.8820628805
 11
342.2610575423
 21
296.8258895961
  0
LINE
  5
299
100
AcDbEntity
  8
0
100
AcDbLine
 62
7
  6
CONTINUOUS
 10
342.2610575423
 20
304.4227805558
 11
342.2610575423
 21
304.7883674759
  0
LINE
  5
29A
100
AcDbEntity
  8
0
100
AcDbLine
 62
7
  6
CONTINUOUS
 10
342.4393631086
 20
304.283605382
 11
342.4393631086
 21
296.9350836279
  0
LINE
  5
29B
100
AcDbEntity
  8
0
100
AcDbLine
 62
7
  6
CONTINUOUS
 10
342.4393631086
 20
223.2865656028
 11
342.4393631086
 21
230.6350873569
  0
LINE
  5
29C
100
AcDbEntity
  8
0
100
AcDbLine
 62
7
  6
CONTINUOUS
 10
343.3609116394
 20
324.9135510496
 11
343.3609116394
 21
122.4209516015
  0
LINE
  5
29D
100
AcDbEntity
  8
0
100
AcDbLine
 62
7
  6
CONTINUOUS
 10
343.6436848743
 20
325.0766456098
 11
343.6436848743
 21
308.0933953335
  0
LINE
  5
29E
100
AcDbEntity
  8
0
100
AcDbLine
 62
7
  6
CONTINUOUS
 10
343.6436848743
 20
158.5101525154
 11
343.6436848743
 21
141.5269022391
  0
LINE
  5
29F
100
AcDbEntity
  8
0
100
AcDbLine
 62
7
  6
CONTINUOUS
 10
344.7750604345
 20
159.1633711756
 11
344.7750604345
 21
306.1338062589
  0
LINE
  5
2A0
100
AcDbEntity
  8
0
100
AcDbLine
 62
7
  6
CONTINUOUS
 10
339.816942974
 20
222.2277439182
 11
339.8257111454
 21
229.5758228055
  0
LINE
  5
2A1
100
AcDbEntity
  8
0
100
AcDbLine
 62
7
  6
CONTINUOUS
 10
339.6899145345
 20
224.6554114433
 11
339.6472929987
 21
224.4232548836
  0
LINE
  5
2A2
100
AcDbEntity
  8
0
100
AcDbLine
 62
7
  6
CONTINUOUS
 10
339.6472929987
 20
300.7662308853
 11
339.6908030203
 21
300.9983848043
  0
LINE
  5
2A3
100
AcDbEntity
  8
0
100
AcDbLine
 62
7
  6
CONTINUOUS
 10
338.2835273684
 20
228.4633119738
 11
338.3601837564
 21
228.5228097487
  0
LINE
  5
2A4
100
AcDbEntity
  8
0
100
AcDbLine
 62
7
  6
CONTINUOUS
 10
338.2813950871
 20
228.4642664259
 11
338.3601837564
 21
228.5228097487
  0
LINE
  5
2A5
100
AcDbEntity
  8
0
100
AcDbLine
 62
7
  6
CONTINUOUS
 10
365.6070073042
 20
248.3819228891
 11
344.7750604345
 21
234.0483927122
  0
LINE
  5
2A6
100
AcDbEntity
  8
0
100
AcDbLine
 62
7
  6
CONTINUOUS
 10
344.7750604345
 20
232.4153878779
 11
365.6070073042
 21
246.7489180548
  0
LINE
  5
2A7
100
AcDbEntity
  8
0
100
AcDbLine
 62
7
  6
CONTINUOUS
 10
339.8379031318
 20
222.2275062953
 11
339.7836635088
 21
222.1902803324
  0
LINE
  5
2A8
100
AcDbEntity
  8
0
100
AcDbLine
 62
7
  6
CONTINUOUS
 10
339.8397869591
 20
222.2265901037
 11
339.785126206
 21
222.1895709456
  0
LINE
  5
2A9
100
AcDbEntity
  8
0
100
AcDbLine
 62
7
  6
CONTINUOUS
 10
342.4393631086
 20
230.6350873569
 11
342.3873445986
 21
230.6032313081
  0
LINE
  5
2AA
100
AcDbEntity
  8
0
100
AcDbLine
 62
7
  6
CONTINUOUS
 10
382.7414951297
 20
347.6494924633
 11
377.3527920592
 21
350.7605912492
  0
LINE
  5
2AB
100
AcDbEntity
  8
0
100
AcDbLine
 62
7
  6
CONTINUOUS
 10
132.7174353786
 20
491.997685072
 11
138.1061384491
 21
488.8865862861
  0
LINE
  5
2AC
100
AcDbEntity
  8
0
100
AcDbLine
 62
7
  6
CONTINUOUS
 10
356.7127580172
 20
162.8128093876
 11
356.7127581178
 21
173.2677338942
  0
LINE
  5
2AD
100
AcDbEntity
  8
0
100
AcDbLine
 62
7
  6
CONTINUOUS
 10
356.7127581734
 20
315.081334549
 11
356.7127580388
 21
330.9939563097
  0
LINE
  5
2AE
100
AcDbEntity
  8
0
100
AcDbLine
 62
7
  6
CONTINUOUS
 10
361.0258050622
 20
176.2353484393
 11
361.0258050622
 21
177.8683532736
  0
LINE
  5
2AF
100
AcDbEntity
  8
0
100
AcDbLine
 62
7
  6
CONTINUOUS
 10
361.0258050622
 20
310.9582472657
 11
361.0258050622
 21
312.5912520999
  0
LINE
  5
2B0
100
AcDbEntity
  8
0
100
AcDbLine
 62
7
  6
CONTINUOUS
 10
365.6070073042
 20
248.3819228891
 11
365.6070073042
 21
246.7489180548
  0
LINE
  5
2B1
100
AcDbEntity
  8
0
100
AcDbLine
 62
7
  6
CONTINUOUS
 10
369.1700780511
 20
322.3409432559
 11
369.1700780511
 21
296.7976275316
  0
LINE
  5
2B2
100
AcDbEntity
  8
0
100
AcDbLine
 62
7
  6
CONTINUOUS
 10
369.1700780511
 20
289.7492868806
 11
369.1700780511
 21
221.6794051557
  0
LINE
  5
2B3
100
AcDbEntity
  8
0
100
AcDbLine
 62
7
  6
CONTINUOUS
 10
369.1700780511
 20
214.6310645046
 11
369.1700780511
 21
189.0877487803
  0
LINE
  5
2B4
100
AcDbEntity
  8
0
100
AcDbLine
 62
7
  6
CONTINUOUS
 10
338.5940222497
 20
221.34655739
 11
338.542882098
 21
221.3086224017
  0
LINE
  5
2B5
100
AcDbEntity
  8
0
100
AcDbLine
 62
7
  6
CONTINUOUS
 10
338.5940222497
 20
221.34655739
 11
338.5425052952
 21
221.3087934996
  0
LINE
  5
2B6
100
AcDbEntity
  8
0
100
AcDbLine
 62
7
  6
CONTINUOUS
 10
349.604049215
 20
211.566167161
 11
344.7750604345
 21
208.1542957418
  0
LINE
  5
2B7
100
AcDbEntity
  8
0
100
AcDbLine
 62
7
  6
CONTINUOUS
 10
369.170078051
 20
221.6794051556
 11
384.4548242543
 21
231.3772364836
  0
LINE
  5
2B8
100
AcDbEntity
  8
0
100
AcDbLine
 62
7
  6
CONTINUOUS
 10
369.1700780511
 20
214.6310645046
 11
384.4548242542
 21
223.2095141776
  0
LINE
  5
2B9
100
AcDbEntity
  8
0
100
AcDbLine
 62
7
  6
CONTINUOUS
 10
359.0884748824
 20
212.3315148711
 11
382.2813403887
 21
225.0207411364
  0
LINE
  5
2BA
100
AcDbEntity
  8
0
100
AcDbLine
 62
7
  6
CONTINUOUS
 10
376.2410457681
 20
337.4140923685
 11
376.2410457681
 21
336.2212036953
  0
LINE
  5
2BB
100
AcDbEntity
  8
0
100
AcDbLine
 62
7
  6
CONTINUOUS
 10
376.2410457681
 20
191.4363417749
 11
376.2410457681
 21
193.3151985275
  0
LINE
  5
2BC
100
AcDbEntity
  8
0
100
AcDbLine
 62
7
  6
CONTINUOUS
 10
382.7414951297
 20
187.6434339584
 11
382.7414951297
 21
181.4210770514
  0
LINE
  5
2BD
100
AcDbEntity
  8
0
100
AcDbLine
 62
7
  6
CONTINUOUS
 10
382.7414951297
 20
341.4271355563
 11
382.7414951297
 21
347.6494924633
  0
LINE
  5
2BE
100
AcDbEntity
  8
0
100
AcDbLine
 62
7
  6
CONTINUOUS
 10
384.4548242543
 20
198.2258892808
 11
384.4548242543
 21
223.2095141776
  0
LINE
  5
2BF
100
AcDbEntity
  8
0
100
AcDbLine
 62
7
  6
CONTINUOUS
 10
384.4548242543
 20
231.3772364836
 11
384.4548242543
 21
298.3277365535
  0
LINE
  5
2C0
100
AcDbEntity
  8
0
100
AcDbLine
 62
7
  6
CONTINUOUS
 10
384.4548242543
 20
306.4954588595
 11
384.4548242543
 21
331.4790837563
  0
LINE
  5
2C1
100
AcDbEntity
  8
0
100
AcDbLine
 62
7
  6
CONTINUOUS
 10
347.5702127995
 20
197.4053312018
 11
344.7750604345
 21
195.4304458063
  0
LWPOLYLINE
  5
2C2
100
AcDbEntity
  8
0
100
AcDbPolyline
 62
7
  6
CONTINUOUS
 90
3
 70
0
 10
351.5463896315
 20
205.7969670011
 10
353.9403832114
 20
207.3058822913
 10
358.5815370868
 20
210.192004112
  0
LINE
  5
2C3
100
AcDbEntity
  8
0
100
AcDbLine
 62
7
  6
CONTINUOUS
 10
102.6728828527
 20
478.9001354388
 11
103.5877284704
 21
478.7604266375
  0
LINE
  5
2C4
100
AcDbEntity
  8
0
100
AcDbLine
 62
7
  6
CONTINUOUS
 10
356.7127580172
 20
162.8128093876
 11
356.3763171833
 21
161.9506589118
  0
LINE
  5
2C5
100
AcDbEntity
  8
0
100
AcDbLine
 62
7
  6
CONTINUOUS
 10
361.0258050622
 20
177.8683532736
 11
344.7750604345
 21
166.686943299
  0
LINE
  5
2C6
100
AcDbEntity
  8
0
100
AcDbLine
 62
7
  6
CONTINUOUS
 10
344.7750604345
 20
165.0539384647
 11
361.0258050622
 21
176.2353484393
  0
LINE
  5
2C7
100
AcDbEntity
  8
0
100
AcDbLine
 62
7
  6
CONTINUOUS
 10
356.6754922843
 20
180.333171371
 11
356.7127581853
 21
180.3584357158
  0
LINE
  5
2C8
100
AcDbEntity
  8
0
100
AcDbLine
 62
7
  6
CONTINUOUS
 10
356.6750958886
 20
180.3333662891
 11
356.7127581853
 21
180.3584357158
  0
LINE
  5
2C9
100
AcDbEntity
  8
0
100
AcDbLine
 62
7
  6
CONTINUOUS
 10
369.1700780512
 20
189.0877487804
 11
384.4548242543
 21
198.2258892808
  0
LINE
  5
2CA
100
AcDbEntity
  8
0
100
AcDbLine
 62
7
  6
CONTINUOUS
 10
374.4735554134
 20
188.3390059612
 11
358.9526801923
 21
179.0652453979
  0
LINE
  5
2CB
100
AcDbEntity
  8
0
100
AcDbLine
 62
7
  6
CONTINUOUS
 10
356.7127581115
 20
172.6158343331
 11
382.7414951297
 21
187.6434339584
  0
LINE
  5
2CC
100
AcDbEntity
  8
0
100
AcDbLine
 62
7
  6
CONTINUOUS
 10
361.0258050622
 20
177.2245404179
 11
381.5954504101
 21
188.3050882171
  0
LINE
  5
2CD
100
AcDbEntity
  8
0
100
AcDbLine
 62
7
  6
CONTINUOUS
 10
376.2410457681
 20
191.4363417749
 11
374.4735554134
 21
188.3390059612
  0
LWPOLYLINE
  5
2CE
100
AcDbEntity
  8
0
100
AcDbPolyline
 62
7
  6
CONTINUOUS
 90
4
 70
0
 10
343.6436848743
 20
152.7481839438
 10
344.7670413228
 20
153.488596617
 10
350.8920436521
 20
157.8125529001
 10
356.3765394194
 20
161.9503136627
  0
LINE
  5
2CF
100
AcDbEntity
  8
0
100
AcDbLine
 62
7
  6
CONTINUOUS
 10
356.7127580416
 20
165.3522731505
 11
382.7414951297
 21
181.4210770514
  0
LINE
  5
2D0
100
AcDbEntity
  8
0
100
AcDbLine
 62
7
  6
CONTINUOUS
 10
343.3608527601
 20
158.3468828679
 11
344.7750604345
 21
159.1633711756
  0
LINE
  5
2D1
100
AcDbEntity
  8
0
100
AcDbLine
 62
7
  6
CONTINUOUS
 10
343.3609116394
 20
141.3636440104
 11
343.6436848743
 21
141.5269022391
  0
ARC
  5
2D2
100
AcDbEntity
  8
0
100
AcDbCircle
 62
7
  6
CONTINUOUS
 10
284.7737710961
 20
120.1720826761
 40
391.9175274432
100
AcDbArc
 50
114.8476527521
 51
116.1930948122
  0
ARC
  5
2D3
100
AcDbEntity
  8
0
100
AcDbCircle
 62
7
  6
CONTINUOUS
 10
281.1973625703
 20
125.0097543565
 40
387.6938114135
100
AcDbArc
 50
114.8421482069
 51
115.8649979752
  0
ARC
  5
2D4
100
AcDbEntity
  8
0
100
AcDbCircle
 62
7
  6
CONTINUOUS
 10
189.2966972338
 20
267.7509094811
 40
227.7522491619
100
AcDbArc
 50
112.1062855913
 51
112.3045036301
  0
ARC
  5
2D5
100
AcDbEntity
  8
0
100
AcDbCircle
 62
7
  6
CONTINUOUS
 10
188.8109228369
 20
268.9142553377
 40
226.4915796951
100
AcDbArc
 50
112.3025038067
 51
116.1795385278
  0
ARC
  5
2D6
100
AcDbEntity
  8
0
100
AcDbCircle
 62
7
  6
CONTINUOUS
 10
233.0588220703
 20
235.2249197661
 40
124.312720703
100
AcDbArc
 50
21.9861333717
 51
22.9043789633
  0
ARC
  5
2D7
100
AcDbEntity
  8
0
100
AcDbCircle
 62
7
  6
CONTINUOUS
 10
127.0966784708
 20
653.9402257294
 40
409.3273655647
100
AcDbArc
 50
302.0517923217
 51
304.1221804742
  0
ARC
  5
2D8
100
AcDbEntity
  8
0
100
AcDbCircle
 62
7
  6
CONTINUOUS
 10
127.3736259654
 20
518.7957028943
 40
408.8229826496
100
AcDbArc
 50
302.1261258508
 51
304.1168859985
  0
ARC
  5
2D9
100
AcDbEntity
  8
0
100
AcDbCircle
 62
7
  6
CONTINUOUS
 10
129.1235185659
 20
583.4201439284
 40
405.574498469
100
AcDbArc
 50
302.1243032215
 51
304.7557612712
  0
ARC
  5
2DA
100
AcDbEntity
  8
0
100
AcDbCircle
 62
7
  6
CONTINUOUS
 10
141.4546995029
 20
497.829968324
 40
383.6353108828
100
AcDbArc
 50
304.1388900114
 51
306.4109371081
  0
ARC
  5
2DB
100
AcDbEntity
  8
0
100
AcDbCircle
 62
7
  6
CONTINUOUS
 10
144.5298765787
 20
626.757533265
 40
378.3287993139
100
AcDbArc
 50
304.3400320444
 51
306.4249808908
  0
ARC
  5
2DC
100
AcDbEntity
  8
0
100
AcDbCircle
 62
7
  6
CONTINUOUS
 10
217.1693781098
 20
341.915499096
 40
227.0421259758
100
AcDbArc
 50
307.7248819802
 51
307.9237964646
  0
ARC
  5
2DD
100
AcDbEntity
  8
0
100
AcDbCircle
 62
7
  6
CONTINUOUS
 10
217.964534284
 20
340.8741271967
 40
225.7319121306
100
AcDbArc
 50
303.8358899411
 51
307.72697596
  0
ARC
  5
2DE
100
AcDbEntity
  8
0
100
AcDbCircle
 62
7
  6
CONTINUOUS
 10
329.9847551066
 20
84.3778076782
 40
407.0174202818
100
AcDbArc
 50
116.1944197956
 51
117.8795914854
  0
ARC
  5
2DF
100
AcDbEntity
  8
0
100
AcDbCircle
 62
7
  6
CONTINUOUS
 10
361.097583013
 20
66.4152144794
 40
407.0174202817
100
AcDbArc
 50
116.1944197956
 51
117.8795914854
  0
ARC
  5
2E0
100
AcDbEntity
  8
0
100
AcDbCircle
 62
7
  6
CONTINUOUS
 10
392.2104109195
 20
48.4526212803
 40
407.017420282
100
AcDbArc
 50
116.1944197956
 51
117.8795914854
  0
ARC
  5
2E1
100
AcDbEntity
  8
0
100
AcDbCircle
 62
7
  6
CONTINUOUS
 10
423.3232388261
 20
30.4900280811
 40
407.0174202822
100
AcDbArc
 50
116.1944197956
 51
117.8795914854
  0
ARC
  5
2E2
100
AcDbEntity
  8
0
100
AcDbCircle
 62
7
  6
CONTINUOUS
 10
390.2129589401
 20
218.2554304164
 40
92.0478369553
100
AcDbArc
 50
121.2657569486
 51
121.5036559281
  0
ARC
  5
2E3
100
AcDbEntity
  8
0
100
AcDbCircle
 62
7
  6
CONTINUOUS
 10
389.8979754516
 20
218.7694964953
 40
91.4449451519
100
AcDbArc
 50
121.5036995895
 51
121.7014231291
  0
ARC
  5
2E4
100
AcDbEntity
  8
0
100
AcDbCircle
 62
7
  6
CONTINUOUS
 10
389.4397723385
 20
226.86453427
 40
90.5690401828
100
AcDbArc
 50
121.2615541784
 51
122.5799929871
  0
ARC
  5
2E5
100
AcDbEntity
  8
0
100
AcDbCircle
 62
7
  6
CONTINUOUS
 10
389.4397723379
 20
145.8674944919
 40
90.5690401815
100
AcDbArc
 50
121.2615541784
 51
122.5799929871
  0
ARC
  5
2E6
100
AcDbEntity
  8
0
100
AcDbCircle
 62
7
  6
CONTINUOUS
 10
389.411959982
 20
153.2602705353
 40
90.5167734247
100
AcDbArc
 50
121.2997299461
 51
122.5802424349
  0
ARC
  5
2E7
100
AcDbEntity
  8
0
100
AcDbCircle
 62
7
  6
CONTINUOUS
 10
389.1211077663
 20
220.021750935
 40
89.9712911918
100
AcDbArc
 50
121.6995719829
 51
122.5824184072
  0
ARC
  5
2E8
100
AcDbEntity
  8
0
100
AcDbCircle
 62
7
  6
CONTINUOUS
 10
385.3826379417
 20
152.0366710759
 40
83.1847100484
100
AcDbArc
 50
124.2691601402
 51
125.25159357
  0
ARC
  5
2E9
100
AcDbEntity
  8
0
100
AcDbCircle
 62
7
  6
CONTINUOUS
 10
385.382637942
 20
233.0337108547
 40
83.1847100489
100
AcDbArc
 50
124.2691601402
 51
125.25159357
  0
ARC
  5
2EA
100
AcDbEntity
  8
0
100
AcDbCircle
 62
7
  6
CONTINUOUS
 10
384.5652268864
 20
153.1989236753
 40
81.7638015768
100
AcDbArc
 50
125.2539033612
 51
125.4301016042
  0
ARC
  5
2EB
100
AcDbEntity
  8
0
100
AcDbCircle
 62
7
  6
CONTINUOUS
 10
384.2922326124
 20
153.5825542928
 40
81.292953064
100
AcDbArc
 50
125.4300678747
 51
125.6412251714
  0
ARC
  5
2EC
100
AcDbEntity
  8
0
100
AcDbCircle
 62
7
  6
CONTINUOUS
 10
383.6813278087
 20
161.8350751921
 40
80.2021520244
100
AcDbArc
 50
124.2502414236
 51
128.4305470189
  0
ARC
  5
2ED
100
AcDbEntity
  8
0
100
AcDbCircle
 62
7
  6
CONTINUOUS
 10
382.8558204674
 20
236.584589928
 40
78.8265749424
100
AcDbArc
 50
125.2414101626
 51
128.4579280435
  0
ARC
  5
2EE
100
AcDbEntity
  8
0
100
AcDbCircle
 62
7
  6
CONTINUOUS
 10
382.7090436574
 20
229.4567220065
 40
78.5625054606
100
AcDbArc
 50
124.2065987102
 51
128.4741897321
  0
ARC
  5
2EF
100
AcDbEntity
  8
0
100
AcDbCircle
 62
7
  6
CONTINUOUS
 10
381.8854808339
 20
156.8711167675
 40
77.2179755151
100
AcDbArc
 50
125.6118034067
 51
128.4864669536
  0
ARC
  5
2F0
100
AcDbEntity
  8
0
100
AcDbCircle
 62
7
  6
CONTINUOUS
 10
370.8264727214
 20
257.800240261
 40
54.9896987219
100
AcDbArc
 50
121.416883305
 51
121.6177722807
  0
ARC
  5
2F1
100
AcDbEntity
  8
0
100
AcDbCircle
 62
7
  6
CONTINUOUS
 10
370.4019865216
 20
258.4871476447
 40
54.1822159705
100
AcDbArc
 50
121.6163277068
 51
122.4010516517
  0
ARC
  5
2F2
100
AcDbEntity
  8
0
100
AcDbCircle
 62
7
  6
CONTINUOUS
 10
369.4248587846
 20
186.3855436197
 40
52.3527313556
100
AcDbArc
 50
121.4446649896
 51
124.4221770316
  0
ARC
  5
2F3
100
AcDbEntity
  8
0
100
AcDbCircle
 62
7
  6
CONTINUOUS
 10
369.2217322178
 20
260.3331496669
 40
51.9911734154
100
AcDbArc
 50
122.3929582356
 51
124.3669839677
  0
ARC
  5
2F4
100
AcDbEntity
  8
0
100
AcDbCircle
 62
7
  6
CONTINUOUS
 10
378.9636955286
 20
224.7266423837
 40
51.4336472268
100
AcDbArc
 50
130.2378352377
 51
131.5908435343
  0
ARC
  5
2F5
100
AcDbEntity
  8
0
100
AcDbCircle
 62
7
  6
CONTINUOUS
 10
368.1823478905
 20
180.8701130089
 40
50.1382239639
100
AcDbArc
 50
124.5001131769
 51
124.6894238964
  0
ARC
  5
2F6
100
AcDbEntity
  8
0
100
AcDbCircle
 62
7
  6
CONTINUOUS
 10
367.8930246757
 20
183.614343426
 40
49.6305209758
100
AcDbArc
 50
124.6888968992
 51
125.1888842156
  0
ARC
  5
2F7
100
AcDbEntity
  8
0
100
AcDbCircle
 62
7
  6
CONTINUOUS
 10
367.5793646192
 20
189.0839526627
 40
49.0835452396
100
AcDbArc
 50
124.4329952137
 51
125.8369283321
  0
ARC
  5
2F8
100
AcDbEntity
  8
0
100
AcDbCircle
 62
7
  6
CONTINUOUS
 10
367.5117221001
 20
255.4821800701
 40
48.9642881034
100
AcDbArc
 50
124.434360376
 51
126.2742324365
  0
ARC
  5
2F9
100
AcDbEntity
  8
0
100
AcDbCircle
 62
7
  6
CONTINUOUS
 10
367.4715264932
 20
260.5587837876
 40
48.8960813529
100
AcDbArc
 50
124.6838896215
 51
126.1988404664
  0
ARC
  5
2FA
100
AcDbEntity
  8
0
100
AcDbCircle
 62
7
  6
CONTINUOUS
 10
367.2587634762
 20
184.5110363796
 40
48.5321845703
100
AcDbArc
 50
125.1869792523
 51
126.2019866997
  0
ARC
  5
2FB
100
AcDbEntity
  8
0
100
AcDbCircle
 62
7
  6
CONTINUOUS
 10
366.8382673182
 20
190.1114995066
 40
47.8166288845
100
AcDbArc
 50
125.8378998167
 51
126.5531781787
  0
ARC
  5
2FC
100
AcDbEntity
  8
0
100
AcDbCircle
 62
7
  6
CONTINUOUS
 10
366.6924443505
 20
263.9579460558
 40
47.5707844791
100
AcDbArc
 50
126.2042496776
 51
126.5443019637
  0
ARC
  5
2FD
100
AcDbEntity
  8
0
100
AcDbCircle
 62
7
  6
CONTINUOUS
 10
365.7423219212
 20
265.2258939395
 40
45.9863600642
100
AcDbArc
 50
126.6540250471
 51
128.4140210813
  0
ARC
  5
2FE
100
AcDbEntity
  8
0
100
AcDbCircle
 62
7
  6
CONTINUOUS
 10
358.6832820903
 20
288.2999689596
 40
12.0634716523
100
AcDbArc
 50
198.7277403832
 51
202.8951256112
  0
ARC
  5
2FF
100
AcDbEntity
  8
0
100
AcDbCircle
 62
7
  6
CONTINUOUS
 10
337.8631528264
 20
219.5517266901
 40
8.0554279863
100
AcDbArc
 50
79.6270277812
 51
85.1348499117
  0
ARC
  5
300
100
AcDbEntity
  8
0
100
AcDbCircle
 62
7
  6
CONTINUOUS
 10
340.0929625455
 20
302.7567207352
 40
2.8023245982
100
AcDbArc
 50
41.0432772018
 51
43.0593727992
  0
ARC
  5
301
100
AcDbEntity
  8
0
100
AcDbCircle
 62
7
  6
CONTINUOUS
 10
339.0581482397
 20
222.3287128305
 40
0.6327541073
100
AcDbArc
 50
353.1439493857
 51
359.9698113807
  0
ARC
  5
302
100
AcDbEntity
  8
0
100
AcDbCircle
 62
7
  6
CONTINUOUS
 10
485.5488946514
 20
-5.4351583411
 40
407.0174203096
100
AcDbArc
 50
116.1944197957
 51
117.8795914853
  0
ARC
  5
303
100
AcDbEntity
  8
0
100
AcDbCircle
 62
7
  6
CONTINUOUS
 10
454.4360667327
 20
12.527434882
 40
407.0174202825
100
AcDbArc
 50
116.1944197956
 51
117.8795914854
  0
ARC
  5
304
100
AcDbEntity
  8
0
100
AcDbCircle
 62
7
  6
CONTINUOUS
 10
516.7996793823
 20
-12.3029024424
 40
389.6598290706
100
AcDbArc
 50
114.8447286547
 51
115.8624175274
  0
ARC
  5
305
100
AcDbEntity
  8
0
100
AcDbCircle
 62
7
  6
CONTINUOUS
 10
514.8710837931
 20
-10.9608115012
 40
389.3005232916
100
AcDbArc
 50
114.8431302936
 51
116.1976172707
  0
ARC
  5
306
100
AcDbEntity
  8
0
100
AcDbCircle
 62
7
  6
CONTINUOUS
 10
4056.68258845
 20
6979.9599298359
 40
7736.250781378
100
AcDbArc
 50
240.4176435873
 51
241.2347730173
  0
ARC
  5
307
100
AcDbEntity
  8
0
100
AcDbCircle
 62
7
  6
CONTINUOUS
 10
3962.8178328491
 20
6814.1637031049
 40
7545.727996716
100
AcDbArc
 50
239.5851501843
 51
240.415972342
  0
ARC
  5
308
100
AcDbEntity
  8
0
100
AcDbCircle
 62
7
  6
CONTINUOUS
 10
3867.4941862367
 20
6651.3458198647
 40
7357.0584177611
100
AcDbArc
 50
238.7384689707
 51
239.583418964
  0
SPLINE
  5
309
100
AcDbEntity
  8
0
100
AcDbSpline
 62
7
  6
CONTINUOUS
 70
0
 71
3
 72
16
 73
12
 74
0
 42
0.0000001
 43
0.0000001
 44
0.0000000001
 40
0.0
 40
0.0
 40
0.0
 40
0.0
 40
0.042209466
 40
0.0886339479
 40
0.1404780127
 40
0.1970473391
 40
0.3198237472
 40
0.4502787987
 40
0.5848569794
 40
0.721869459
 40
1.0
 40
1.0
 40
1.0
 40
1.0
 10
350.6225247452
 20
267.4381161973
 30
0.0
 10
350.795924362
 20
267.5606472794
 30
0.0
 10
351.1116181052
 20
267.8918473019
 30
0.0
 10
351.404620905
 20
268.544958982
 30
0.0
 10
351.5535840742
 20
269.3138750914
 30
0.0
 10
351.6012081603
 20
270.4786117025
 30
0.0
 10
351.427008606
 20
272.0341013289
 30
0.0
 10
351.0155071091
 20
273.9419731711
 30
0.0
 10
350.4655495921
 20
275.8893167515
 30
0.0
 10
349.5996297365
 20
278.5159390891
 30
0.0
 10
348.8540273204
 20
280.467834004
 30
0.0
 10
348.3308366451
 20
281.765388011
 30
0.0
  0
SPLINE
  5
30A
100
AcDbEntity
  8
0
100
AcDbSpline
 62
7
  6
CONTINUOUS
 70
0
 71
3
 72
11
 73
7
 74
0
 42
0.0000001
 43
0.0000001
 44
0.0000000001
 40
0.0
 40
0.0
 40
0.0
 40
0.0
 40
0.1874036306
 40
0.4164675101
 40
0.6932723356
 40
1.0
 40
1.0
 40
1.0
 40
1.0
 10
358.5814379508
 20
210.1921741882
 30
0.0
 10
358.8000781183
 20
210.32761783
 30
0.0
 10
359.1719114631
 20
210.8149007321
 30
0.0
 10
359.3019582909
 20
211.7813133438
 30
0.0
 10
359.1130625435
 20
212.8917927469
 30
0.0
 10
358.7936749429
 20
213.6351018048
 30
0.0
 10
358.5877932464
 20
214.0022737748
 30
0.0
  0
SPLINE
  5
30B
100
AcDbEntity
  8
0
100
AcDbSpline
 62
7
  6
CONTINUOUS
 70
0
 71
3
 72
11
 73
7
 74
0
 42
0.0000001
 43
0.0000001
 44
0.0000000001
 40
0.0
 40
0.0
 40
0.0
 40
0.0
 40
0.1874032421
 40
0.4164672628
 40
0.6932722005
 40
1.0
 40
1.0
 40
1.0
 40
1.0
 10
358.5814367906
 20
285.3103985192
 30
0.0
 10
358.8000786539
 20
285.4458383333
 30
0.0
 10
359.171911269
 20
285.9331238355
 30
0.0
 10
359.3019583602
 20
286.8995346382
 30
0.0
 10
359.113062669
 20
288.010014944
 30
0.0
 10
358.7936750005
 20
288.7533240782
 30
0.0
 10
358.5877932442
 20
289.1204961504
 30
0.0
  0
SPLINE
  5
30C
100
AcDbEntity
  8
0
100
AcDbSpline
 62
7
  6
CONTINUOUS
 70
0
 71
3
 72
9
 73
5
 74
0
 42
0.0000001
 43
0.0000001
 44
0.0000000001
 40
0.0
 40
0.0
 40
0.0
 40
0.0
 40
0.4952264284
 40
1.0
 40
1.0
 40
1.0
 40
1.0
 10
382.2813404086
 20
225.0207411198
 30
0.0
 10
381.7276229205
 20
225.4821699153
 30
0.0
 10
380.781504034
 20
226.6228098511
 30
0.0
 10
380.182030244
 20
227.9747298073
 30
0.0
 10
380.0006230764
 20
228.6866533012
 30
0.0
  0
SPLINE
  5
30D
100
AcDbEntity
  8
0
100
AcDbSpline
 62
7
  6
CONTINUOUS
 70
0
 71
3
 72
9
 73
5
 74
0
 42
0.0000001
 43
0.0000001
 44
0.0000000001
 40
0.0
 40
0.0
 40
0.0
 40
0.0
 40
0.4952264286
 40
1.0
 40
1.0
 40
1.0
 40
1.0
 10
382.2813404085
 20
300.1389634959
 30
0.0
 10
381.7276229139
 20
300.6003922842
 30
0.0
 10
380.7815040374
 20
301.7410322324
 30
0.0
 10
380.1820302433
 20
303.0929521848
 30
0.0
 10
380.000623076
 20
303.8048756787
 30
0.0
  0
SPLINE
  5
30E
100
AcDbEntity
  8
0
100
AcDbSpline
 62
7
  6
CONTINUOUS
 70
0
 71
3
 72
8
 73
4
 74
0
 42
0.0000001
 43
0.0000001
 44
0.0000000001
 40
0.0
 40
0.0
 40
0.0
 40
0.0
 40
1.0
 40
1.0
 40
1.0
 40
1.0
 10
347.570186447
 20
197.4053597206
 30
0.0
 10
347.4525040081
 20
197.262299345
 30
0.0
 10
347.3485201733
 20
197.1071606168
 30
0.0
 10
347.2585116986
 20
196.9452535386
 30
0.0
  0
SPLINE
  5
30F
100
AcDbEntity
  8
0
100
AcDbSpline
 62
7
  6
CONTINUOUS
 70
0
 71
3
 72
13
 73
9
 74
0
 42
0.0000001
 43
0.0000001
 44
0.0000000001
 40
0.0
 40
0.0
 40
0.0
 40
0.0
 40
0.1669439791
 40
0.3224645465
 40
0.4562260823
 40
0.5756434522
 40
0.7937453092
 40
1.0
 40
1.0
 40
1.0
 40
1.0
 10
349.604075917
 20
211.5662028827
 30
0.0
 10
350.1511986618
 20
210.8888727607
 30
0.0
 10
351.0667620454
 20
209.445861645
 30
0.0
 10
351.6493370548
 20
207.0948764949
 30
0.0
 10
351.5337244377
 20
204.9436981092
 30
0.0
 10
350.8883454491
 20
202.5599483344
 30
0.0
 10
349.5743026131
 20
200.0176962801
 30
0.0
 10
348.2537359323
 20
198.235990597
 30
0.0
 10
347.570186447
 20
197.4053597206
 30
0.0
  0
SPLINE
  5
310
100
AcDbEntity
  8
0
100
AcDbSpline
 62
7
  6
CONTINUOUS
 70
0
 71
3
 72
9
 73
5
 74
0
 42
0.0000001
 43
0.0000001
 44
0.0000000001
 40
0.0
 40
0.0
 40
0.0
 40
0.0
 40
0.2443925099
 40
1.0
 40
1.0
 40
1.0
 40
1.0
 10
347.2585124571
 20
216.1289829102
 30
0.0
 10
347.3671002473
 20
215.7236691432
 30
0.0
 10
347.9082651145
 20
214.0924888643
 30
0.0
 10
348.78936858
 20
212.5758201081
 30
0.0
 10
349.604075917
 20
211.5662028827
 30
0.0
  0
SPLINE
  5
311
100
AcDbEntity
  8
0
100
AcDbSpline
 62
7
  6
CONTINUOUS
 70
0
 71
3
 72
9
 73
5
 74
0
 42
0.0000001
 43
0.0000001
 44
0.0000000001
 40
0.0
 40
0.0
 40
0.0
 40
0.0
 40
0.5000011693
 40
1.0
 40
1.0
 40
1.0
 40
1.0
 10
355.3029097551
 20
333.435886682
 30
0.0
 10
355.7214317352
 20
333.1942772933
 30
0.0
 10
356.3837255013
 20
332.4319403789
 30
0.0
 10
356.7127775705
 20
331.4772094105
 30
0.0
 10
356.7127580388
 20
330.9939563097
 30
0.0
  0
SPLINE
  5
312
100
AcDbEntity
  8
0
100
AcDbSpline
 62
7
  6
CONTINUOUS
 70
0
 71
3
 72
9
 73
5
 74
0
 42
0.0000001
 43
0.0000001
 44
0.0000000001
 40
0.0
 40
0.0
 40
0.0
 40
0.0
 40
0.2520668616
 40
1.0
 40
1.0
 40
1.0
 40
1.0
 10
344.7755480597
 20
195.0051226413
 30
0.0
 10
344.9821342309
 20
195.1707168112
 30
0.0
 10
345.804207068
 20
195.8245386288
 30
0.0
 10
346.6345254231
 20
196.4679430583
 30
0.0
 10
347.2585124872
 20
196.9452417817
 30
0.0
  0
SPLINE
  5
313
100
AcDbEntity
  8
0
100
AcDbSpline
 62
7
  6
CONTINUOUS
 70
0
 71
3
 72
9
 73
5
 74
0
 42
0.0000001
 43
0.0000001
 44
0.0000000001
 40
0.0
 40
0.0
 40
0.0
 40
0.0
 40
0.2456121467
 40
1.0
 40
1.0
 40
1.0
 40
1.0
 10
355.3030108864
 20
333.4358296674
 30
0.0
 10
354.2912175821
 20
332.8521053804
 30
0.0
 10
350.171793002
 20
330.475406516
 30
0.0
 10
346.0525695245
 20
328.0983590929
 30
0.0
 10
342.9451809783
 20
326.3049638782
 30
0.0
  0
SPLINE
  5
314
100
AcDbEntity
  8
0
100
AcDbSpline
 62
7
  6
CONTINUOUS
 70
0
 71
3
 72
9
 73
5
 74
0
 42
0.0000001
 43
0.0000001
 44
0.0000000001
 40
0.0
 40
0.0
 40
0.0
 40
0.0
 40
0.2535117843
 40
1.0
 40
1.0
 40
1.0
 40
1.0
 10
347.2585128309
 20
216.1289484499
 30
0.0
 10
347.0557720893
 20
216.0338062352
 30
0.0
 10
346.253420135
 20
215.6643396092
 30
0.0
 10
345.4390161747
 20
215.3193315558
 30
0.0
 10
344.8199774684
 20
215.0920149382
 30
0.0
  0
SPLINE
  5
315
100
AcDbEntity
  8
0
100
AcDbSpline
 62
7
  6
CONTINUOUS
 70
0
 71
3
 72
9
 73
5
 74
0
 42
0.0000001
 43
0.0000001
 44
0.0000000001
 40
0.0
 40
0.0
 40
0.0
 40
0.0
 40
0.2516332667
 40
1.0
 40
1.0
 40
1.0
 40
1.0
 10
347.2585124959
 20
284.4267280463
 30
0.0
 10
347.0524165294
 20
284.3214291084
 30
0.0
 10
346.2314575597
 20
283.9067750012
 30
0.0
 10
345.4021563289
 20
283.508417341
 30
0.0
 10
344.775537264
 20
283.2236165568
 30
0.0
  0
SPLINE
  5
316
100
AcDbEntity
  8
0
100
AcDbSpline
 62
7
  6
CONTINUOUS
 70
0
 71
3
 72
9
 73
5
 74
0
 42
0.0000001
 43
0.0000001
 44
0.0000000001
 40
0.0
 40
0.0
 40
0.0
 40
0.0
 40
0.254366903
 40
1.0
 40
1.0
 40
1.0
 40
1.0
 10
344.3583142867
 20
323.8594292513
 30
0.0
 10
345.4057550311
 20
324.4639478388
 30
0.0
 10
349.5236356062
 20
326.8404290589
 30
0.0
 10
353.6417033274
 20
329.216586002
 30
0.0
 10
356.7123851422
 20
330.9881292599
 30
0.0
  0
SPLINE
  5
317
100
AcDbEntity
  8
0
100
AcDbSpline
 62
7
  6
CONTINUOUS
 70
0
 71
3
 72
9
 73
5
 74
0
 42
0.0000001
 43
0.0000001
 44
0.0000000001
 40
0.0
 40
0.0
 40
0.0
 40
0.0
 40
0.4964580422
 40
1.0
 40
1.0
 40
1.0
 40
1.0
 10
54.6880870308
 20
484.2693810278
 30
0.0
 10
100.9038613554
 20
456.3767994772
 30
0.0
 10
194.5815684078
 20
401.1626444705
 30
0.0
 10
289.2448943243
 20
347.6570817762
 30
0.0
 10
337.1692173018
 20
321.1825160807
 30
0.0
  0
SPLINE
  5
318
100
AcDbEntity
  8
0
100
AcDbSpline
 62
7
  6
CONTINUOUS
 70
0
 71
3
 72
9
 73
5
 74
0
 42
0.0000001
 43
0.0000001
 44
0.0000000001
 40
0.0
 40
0.0
 40
0.0
 40
0.0
 40
0.2523373948
 40
1.0
 40
1.0
 40
1.0
 40
1.0
 10
49.5833201442
 20
483.0933124905
 30
0.0
 10
50.0184608019
 20
483.1637627311
 30
0.0
 10
51.738301246
 20
483.4703885588
 30
0.0
 10
53.4384221655
 20
483.8896407569
 30
0.0
 10
54.6880870308
 20
484.2693810278
 30
0.0
  0
SPLINE
  5
319
100
AcDbEntity
  8
0
100
AcDbSpline
 62
7
  6
CONTINUOUS
 70
0
 71
3
 72
9
 73
5
 74
0
 42
0.0000001
 43
0.0000001
 44
0.0000000001
 40
0.0
 40
0.0
 40
0.0
 40
0.0
 40
0.4975918272
 40
1.0
 40
1.0
 40
1.0
 40
1.0
 10
49.5832804677
 20
278.0492436846
 30
0.0
 10
95.9883849891
 20
249.5751478189
 30
0.0
 10
189.9958937173
 20
193.5590932215
 30
0.0
 10
285.5185170467
 20
140.169241613
 30
0.0
 10
333.8304358785
 20
113.9427845771
 30
0.0
  0
SPLINE
  5
31A
100
AcDbEntity
  8
0
100
AcDbSpline
 62
7
  6
CONTINUOUS
 70
0
 71
3
 72
9
 73
5
 74
0
 42
0.0000001
 43
0.0000001
 44
0.0000000001
 40
0.0
 40
0.0
 40
0.0
 40
0.0
 40
0.5006963607
 40
1.0
 40
1.0
 40
1.0
 40
1.0
 10
333.8304358785
 20
113.9427845771
 30
0.0
 10
335.1193878276
 20
115.6507790724
 30
0.0
 10
338.0223840214
 20
118.8290096632
 30
0.0
 10
341.512962833
 20
121.3540442293
 30
0.0
 10
343.3609116394
 20
122.4209516015
 30
0.0
  0
SPLINE
  5
31B
100
AcDbEntity
  8
0
100
AcDbSpline
 62
7
  6
CONTINUOUS
 70
0
 71
3
 72
9
 73
5
 74
0
 42
0.0000001
 43
0.0000001
 44
0.0000000001
 40
0.0
 40
0.0
 40
0.0
 40
0.0
 40
0.2529388991
 40
1.0
 40
1.0
 40
1.0
 40
1.0
 10
54.688056723
 20
484.2693990512
 30
0.0
 10
55.3251800354
 20
484.4630040673
 30
0.0
 10
57.822812628
 20
485.2961710585
 30
0.0
 10
60.2281416182
 20
486.4099381672
 30
0.0
 10
61.9313745277
 20
487.3932942761
 30
0.0
  0
SPLINE
  5
31C
100
AcDbEntity
  8
0
100
AcDbSpline
 62
7
  6
CONTINUOUS
 70
0
 71
3
 72
9
 73
5
 74
0
 42
0.0000001
 43
0.0000001
 44
0.0000000001
 40
0.0
 40
0.0
 40
0.0
 40
0.0
 40
0.2626783005
 40
1.0
 40
1.0
 40
1.0
 40
1.0
 10
338.5511752535
 20
225.6480094165
 30
0.0
 10
338.6022401034
 20
225.6355380155
 30
0.0
 10
338.7951651499
 20
225.582517219
 30
0.0
 10
338.9824888021
 20
225.5068938988
 30
0.0
 10
339.111751047
 20
225.4357469081
 30
0.0
  0
SPLINE
  5
31D
100
AcDbEntity
  8
0
100
AcDbSpline
 62
7
  6
CONTINUOUS
 70
0
 71
3
 72
9
 73
5
 74
0
 42
0.0000001
 43
0.0000001
 44
0.0000000001
 40
0.0
 40
0.0
 40
0.0
 40
0.0
 40
0.5525690974
 40
1.0
 40
1.0
 40
1.0
 40
1.0
 10
339.111751047
 20
225.4357469081
 30
0.0
 10
339.2743049691
 20
225.3462759075
 30
0.0
 10
339.554367766
 20
225.1418779662
 30
0.0
 10
339.6909553111
 20
224.8056565026
 30
0.0
 10
339.6909022592
 20
224.6554113271
 30
0.0
  0
SPLINE
  5
31E
100
AcDbEntity
  8
0
100
AcDbSpline
 62
7
  6
CONTINUOUS
 70
0
 71
3
 72
9
 73
5
 74
0
 42
0.0000001
 43
0.0000001
 44
0.0000000001
 40
0.0
 40
0.0
 40
0.0
 40
0.0
 40
0.2476428704
 40
1.0
 40
1.0
 40
1.0
 40
1.0
 10
49.5832804685
 20
362.4774893965
 30
0.0
 10
72.7435101176
 20
348.415634126
 30
0.0
 10
166.5840544799
 20
292.1576428343
 30
0.0
 10
261.6727262507
 20
237.9844251807
 30
0.0
 10
333.8304358768
 20
198.3710302893
 30
0.0
  0
SPLINE
  5
31F
100
AcDbEntity
  8
0
100
AcDbSpline
 62
7
  6
CONTINUOUS
 70
0
 71
3
 72
9
 73
5
 74
0
 42
0.0000001
 43
0.0000001
 44
0.0000000001
 40
0.0
 40
0.0
 40
0.0
 40
0.0
 40
0.2587517879
 40
1.0
 40
1.0
 40
1.0
 40
1.0
 10
342.1137549866
 20
231.0499823794
 30
0.0
 10
342.1452859077
 20
231.0171314144
 30
0.0
 10
342.2641384566
 20
230.8873545958
 30
0.0
 10
342.3704570047
 20
230.7458451323
 30
0.0
 10
342.4393631086
 20
230.6350873569
 30
0.0
  0
SPLINE
  5
320
100
AcDbEntity
  8
0
100
AcDbSpline
 62
7
  6
CONTINUOUS
 70
0
 71
3
 72
8
 73
4
 74
0
 42
0.0000001
 43
0.0000001
 44
0.0000000001
 40
0.0
 40
0.0
 40
0.0
 40
0.0
 40
1.0
 40
1.0
 40
1.0
 40
1.0
 10
342.2065144972
 20
304.5968080432
 30
0.0
 10
342.2919215681
 20
304.4986782692
 30
0.0
 10
342.3706425575
 20
304.3940649048
 30
0.0
 10
342.4393631086
 20
304.283605382
 30
0.0
  0
SPLINE
  5
321
100
AcDbEntity
  8
0
100
AcDbSpline
 62
7
  6
CONTINUOUS
 70
0
 71
3
 72
9
 73
5
 74
0
 42
0.0000001
 43
0.0000001
 44
0.0000000001
 40
0.0
 40
0.0
 40
0.0
 40
0.0
 40
0.2344266754
 40
1.0
 40
1.0
 40
1.0
 40
1.0
 10
339.2509085901
 20
225.5872977333
 30
0.0
 10
339.2038611124
 20
225.614932755
 30
0.0
 10
338.9978694123
 20
225.723731789
 30
0.0
 10
338.7752647606
 20
225.7994507861
 30
0.0
 10
338.6021571812
 20
225.8417009404
 30
0.0
  0
SPLINE
  5
322
100
AcDbEntity
  8
0
100
AcDbSpline
 62
7
  6
CONTINUOUS
 70
0
 71
3
 72
9
 73
5
 74
0
 42
0.0000001
 43
0.0000001
 44
0.0000000001
 40
0.0
 40
0.0
 40
0.0
 40
0.0
 40
0.2554214517
 40
1.0
 40
1.0
 40
1.0
 40
1.0
 10
337.1691779993
 20
201.3182164211
 30
0.0
 10
336.8720349019
 20
201.0825215268
 30
0.0
 10
335.720474757
 20
200.1450501984
 30
0.0
 10
334.6172925188
 20
199.1477100628
 30
0.0
 10
333.8304358777
 20
198.3710302888
 30
0.0
  0
SPLINE
  5
323
100
AcDbEntity
  8
0
100
AcDbSpline
 62
7
  6
CONTINUOUS
 70
0
 71
3
 72
9
 73
5
 74
0
 42
0.0000001
 43
0.0000001
 44
0.0000000001
 40
0.0
 40
0.0
 40
0.0
 40
0.0
 40
0.2431353323
 40
1.0
 40
1.0
 40
1.0
 40
1.0
 10
333.8304358771
 20
224.6624081211
 30
0.0
 10
334.168225339
 20
224.9958287586
 30
0.0
 10
335.5833314417
 20
226.3409167456
 30
0.0
 10
337.0963759299
 20
227.5818327946
 30
0.0
 10
338.2813950871
 20
228.4642664259
 30
0.0
  0
SPLINE
  5
324
100
AcDbEntity
  8
0
100
AcDbSpline
 62
7
  6
CONTINUOUS
 70
0
 71
3
 72
9
 73
5
 74
0
 42
0.0000001
 43
0.0000001
 44
0.0000000001
 40
0.0
 40
0.0
 40
0.0
 40
0.0
 40
0.2446949236
 40
1.0
 40
1.0
 40
1.0
 40
1.0
 10
333.8304358771
 20
298.3109261462
 30
0.0
 10
334.0890269142
 20
298.5661726775
 30
0.0
 10
335.1608411338
 20
299.5940112136
 30
0.0
 10
336.290491215
 20
300.5611349954
 30
0.0
 10
337.1691779988
 20
301.258112278
 30
0.0
  0
SPLINE
  5
325
100
AcDbEntity
  8
0
100
AcDbSpline
 62
7
  6
CONTINUOUS
 70
0
 71
3
 72
9
 73
5
 74
0
 42
0.0000001
 43
0.0000001
 44
0.0000000001
 40
0.0
 40
0.0
 40
0.0
 40
0.0
 40
0.5486067237
 40
1.0
 40
1.0
 40
1.0
 40
1.0
 10
339.2509085901
 20
296.786308507
 30
0.0
 10
339.4130823483
 20
296.6910499396
 30
0.0
 10
339.6903634684
 20
296.4717958521
 30
0.0
 10
339.8269414043
 20
296.1316515619
 30
0.0
 10
339.8313313389
 20
295.976960777
 30
0.0
  0
SPLINE
  5
326
100
AcDbEntity
  8
0
100
AcDbSpline
 62
7
  6
CONTINUOUS
 70
0
 71
3
 72
9
 73
5
 74
0
 42
0.0000001
 43
0.0000001
 44
0.0000000001
 40
0.0
 40
0.0
 40
0.0
 40
0.0
 40
0.262978194
 40
1.0
 40
1.0
 40
1.0
 40
1.0
 10
337.1692173018
 20
321.1825160807
 30
0.0
 10
336.873280965
 20
320.9950875613
 30
0.0
 10
335.7507783561
 20
320.277943046
 30
0.0
 10
334.6398918127
 20
319.5424684464
 30
0.0
 10
333.8305245371
 20
318.9868258942
 30
0.0
  0
SPLINE
  5
327
100
AcDbEntity
  8
0
100
AcDbSpline
 62
7
  6
CONTINUOUS
 70
0
 71
3
 72
9
 73
5
 74
0
 42
0.0000001
 43
0.0000001
 44
0.0000000001
 40
0.0
 40
0.0
 40
0.0
 40
0.0
 40
0.5038013129
 40
1.0
 40
1.0
 40
1.0
 40
1.0
 10
333.8305245371
 20
318.9868258942
 30
0.0
 10
285.6230750294
 20
345.7145216239
 30
0.0
 10
190.412590877
 20
399.6297232214
 30
0.0
 10
96.1066385566
 20
455.1129491835
 30
0.0
 10
49.5833201442
 20
483.0933124905
 30
0.0
  0
SPLINE
  5
328
100
AcDbEntity
  8
0
100
AcDbSpline
 62
7
  6
CONTINUOUS
 70
0
 71
3
 72
9
 73
5
 74
0
 42
0.0000001
 43
0.0000001
 44
0.0000000001
 40
0.0
 40
0.0
 40
0.0
 40
0.0
 40
0.2652185458
 40
1.0
 40
1.0
 40
1.0
 40
1.0
 10
343.3609681247
 20
324.9135184386
 30
0.0
 10
342.8074858405
 20
324.5939672002
 30
0.0
 10
340.7258159734
 20
323.3801415259
 30
0.0
 10
338.6651672464
 20
322.1298467034
 30
0.0
 10
337.1693139451
 20
321.1824619057
 30
0.0
  0
SPLINE
  5
329
100
AcDbEntity
  8
0
100
AcDbSpline
 62
7
  6
CONTINUOUS
 70
0
 71
3
 72
9
 73
5
 74
0
 42
0.0000001
 43
0.0000001
 44
0.0000000001
 40
0.0
 40
0.0
 40
0.0
 40
0.0
 40
0.5035419582
 40
1.0
 40
1.0
 40
1.0
 40
1.0
 10
337.1693139451
 20
321.1824619057
 30
0.0
 10
289.2449694553
 20
347.6570394473
 30
0.0
 10
194.5816007509
 20
401.1626253813
 30
0.0
 10
100.9038516976
 20
456.3768050252
 30
0.0
 10
54.688056723
 20
484.2693990512
 30
0.0
  0
SPLINE
  5
32A
100
AcDbEntity
  8
0
100
AcDbSpline
 62
7
  6
CONTINUOUS
 70
0
 71
3
 72
8
 73
4
 74
0
 42
0.0000001
 43
0.0000001
 44
0.0000000001
 40
0.0
 40
0.0
 40
0.0
 40
0.0
 40
1.0
 40
1.0
 40
1.0
 40
1.0
 10
339.6472929987
 20
222.0962229948
 30
0.0
 10
339.6665375621
 20
222.1465874285
 30
0.0
 10
339.6799450539
 20
222.1996467781
 30
0.0
 10
339.6863776503
 20
222.2531776206
 30
0.0
  0
ELLIPSE
  5
32B
100
AcDbEntity
  8
0
100
AcDbEllipse
 62
7
  6
CONTINUOUS
 10
-4.2340261078
 20
378.6053937515
 30
0.0
 11
472.3201275447
 21
89.124193583
 31
0.0
 40
0.4567938164
 41
5.464717709
 42
5.533398468
  0
ELLIPSE
  5
32C
100
AcDbEntity
  8
0
100
AcDbEllipse
 62
7
  6
CONTINUOUS
 10
-4.2340261078
 20
303.4871713756
 30
0.0
 11
472.3201275447
 21
89.124193583
 31
0.0
 40
0.4567938164
 41
5.4739089303
 42
5.533398468
  0
ELLIPSE
  5
32D
100
AcDbEntity
  8
0
100
AcDbEllipse
 62
7
  6
CONTINUOUS
 10
-4.2340261078
 20
470.0880907009
 30
0.0
 11
466.7392024486
 21
-126.082769403
 31
0.0
 40
0.6587388747
 41
-0.54904572
 42
-0.4876996083
  0
ELLIPSE
  5
32E
100
AcDbEntity
  8
0
100
AcDbEllipse
 62
7
  6
CONTINUOUS
 10
-4.2340261078
 20
545.2063130768
 30
0.0
 11
466.7392024486
 21
-126.082769403
 31
0.0
 40
0.6587388747
 41
-0.5504186124
 42
-0.4876996083
  0
ENDSEC
  0
SECTION
  2
OBJECTS
  0
DICTIONARY
  5
C
100
AcDbDictionary
280
0
281
1
  3
ACAD_GROUP
350
D
  3
ACAD_MLINESTYLE
350
17
  3
ACAD_LAYOUT
350
1A
  3
ACAD_PLOTSETTINGS
350
19
  3
ACAD_PLOTSTYLENAME
350
E
  0
DICTIONARY
  5
D
102
{ACAD_REACTORS
330
C
102
}
100
AcDbDictionary
280
0
281
1
  0
ACDBDICTIONARYWDFLT
  5
E
102
{ACAD_REACTORS
330
C
102
}
100
AcDbDictionary
281
1
  3
Normal
350
F
100
AcDbDictionaryWithDefault
340
F
  0
DICTIONARY
  5
17
102
{ACAD_REACTORS
330
C
102
}
100
AcDbDictionary
280
0
281
1
  3
Standard
350
18
  0
DICTIONARY
  5
19
102
{ACAD_REACTORS
330
C
102
}
100
AcDbDictionary
281
1
  0
DICTIONARY
  5
1A
102
{ACAD_REACTORS
330
C
102
}
100
AcDbDictionary
281
1
  3
Model
350
32F
  3
Layout1
350
330
  0
ACDBPLACEHOLDER
  5
F
102
{ACAD_REACTORS
330
E
102
}
  0
MLINESTYLE
  5
18
102
{ACAD_REACTORS
330
17
102
}
100
AcDbMlineStyle
  2
STANDARD
 70
0
  3

 62
256
 51
90.0
 52
90.0
 71
2
 49
0.5
 62
256
  6
BYLAYER
 49
-0.5
 62
256
  6
BYLAYER
  0
LAYOUT
  5
32F
102
{ACAD_REACTORS
330
1A
102
}
100
AcDbPlotSettings
  1

  2
none_device
  4

  6

 40
0.0
 41
0.0
 42
0.0
 43
0.0
 44
210.0
 45
297.0
 46
0.0
 47
0.0
 48
0.0
 49
0.0
140
0.0
141
0.0
142
1.0
143
1.0
 70
1024
 72
1
 73
0
 74
0
  7

 75
0
147
1.0
148
0.0
149
0.0
100
AcDbLayout
  1
Model
 70
0
 71
0
 10
0.0
 20
0.0
 11
210.0
 21
297.0
 12
0.0
 22
0.0
 32
0.0
 14
0.0
 24
0.0
 34
0.0
 15
0.0
 25
0.0
 35
0.0
146
0.0
 13
0.0
 23
0.0
 33
0.0
 16
1.0
 26
0.0
 36
0.0
 17
0.0
 27
1.0
 37
0.0
 76
0
330
210
345
0
346
0
  0
LAYOUT
  5
330
102
{ACAD_REACTORS
330
1A
102
}
100
AcDbPlotSettings
  1

  2
none_device
  4

  6

 40
0.0
 41
0.0
 42
0.0
 43
0.0
 44
210.0
 45
297.0
 46
0.0
 47
0.0
 48
0.0
 49
0.0
140
0.0
141
0.0
142
1.0
143
1.0
 70
0
 72
1
 73
0
 74
0
  7

 75
0
147
1.0
148
0.0
149
0.0
100
AcDbLayout
  1
Layout1
 70
0
 71
1
 10
0.0
 20
0.0
 11
210.0
 21
297.0
 12
0.0
 22
0.0
 32
0.0
 14
0.0
 24
0.0
 34
0.0
 15
0.0
 25
0.0
 35
0.0
146
0.0
 13
0.0
 23
0.0
 33
0.0
 16
1.0
 26
0.0
 36
0.0
 17
0.0
 27
1.0
 37
0.0
 76
0
330
211
345
0
346
0
  0
ENDSEC
  0
EOF
