999
DXF file: C:\Users\sesa63760\Dev\_Creo\CAD\MCADFD0002818_3D-CAD\drw0001_1.dxf
999
Pro/ENGINEER 2019471 by Parametric Technology Corporation
  0
SECTION
  2
HEADER
  9
$ACADVER
  1
AC1024
  9
$DWGCODEPAGE
  3
ANSI_1252
  9
$EXTMAX
 10
363.7735962665
 20
514.479800434
 30
0.0
  9
$EXTMIN
 10
0.0
 20
0.0
 30
0.0
  9
$LIMMIN
 10
0.0
 20
0.0
  9
$LIMMAX
 10
363.7735962665
 20
514.479800434
  9
$VIEWCTR
 10
181.8867981332
 20
257.239900217
  9
$VIEWSIZE
 40
514.479800434
  9
$CLAYER
  8
0
  9
$LTSCALE
 40
33.5364610653
  9
$CELTYPE
  6
BYLAYER
  9
$DIMSCALE
 40
1.0
  9
$DIMASZ
 40
4.3306380508
  9
$DIMEXO
 40
1.0
  9
$DIMDLI
 40
23.170645827
  9
$DIMEXE
 40
1.0
  9
$DIMCEN
 40
5.487784538
  9
$DIMLFAC
 40
1.0
  9
$DIMBLK
  1
_FILLED
  9
$DIMALT
 70
0
  9
$DIMALTF
 40
0.0393700787
  9
$DIMTXT
 40
6.0628932711
  9
$DIMTOL
 70
1
  9
$DIMLIM
 70
0
  9
$DIMTFAC
 40
1.0
  9
$DIMTP
 40
0.01
  9
$DIMTM
 40
0.01
  9
$DIMGAP
 40
0.625
  9
$DIMDSEP
 70
46
  9
$AUNITS
 70
0
  9
$PDMODE
 70
3
  9
$PDSIZE
 40
0.3125
  9
$HANDSEED
  5
314
  9
$TILEMODE
 70
1
  9
$MEASUREMENT
 70
1
  9
$INSUNITS
 70
4
  0
ENDSEC
  0
SECTION
  2
CLASSES
  0
CLASS
  1
ACDBDICTIONARYWDFLT
  2
AcDbDictionaryWithDefault
  3
AutoCAD 2000
 90
0
 91
1
280
0
281
0
  0
CLASS
  1
ACDBPLACEHOLDER
  2
AcDbPlaceHolder
  3
AutoCAD 2000
 90
0
 91
1
280
0
281
0
  0
CLASS
  1
LAYOUT
  2
AcDbLayout
  3
AutoCAD 2000
 90
0
 91
0
280
0
281
0
  0
ENDSEC
  0
SECTION
  2
TABLES
  0
TABLE
  2
VPORT
  5
8
100
AcDbSymbolTable
 70
2
  0
VPORT
  5
1F4
100
AcDbSymbolTableRecord
100
AcDbViewportTableRecord
  2
*ACTIVE
 70
0
 10
0.0
 20
0.0
 11
1.0
 21
1.0
 12
181.8867981332
 22
257.239900217
 13
0.0
 23
0.0
 14
1.0
 24
1.0
 15
0.0
 25
0.0
 16
0.0
 26
0.0
 36
1.0
 17
0.0
 27
0.0
 37
0.0
 40
514.479800434
 41
0.7070707071
 42
50.0
 43
0.0
 44
0.0
 50
0.0
 51
0.0
 71
0
 72
100
 73
1
 74
1
 75
0
 76
0
 77
0
 78
0
  0
ENDTAB
  0
TABLE
  2
LTYPE
  5
5
100
AcDbSymbolTable
 70
6
  0
LTYPE
  5
14
100
AcDbSymbolTableRecord
100
AcDbLinetypeTableRecord
  2
BYBLOCK
 70
0
  3

 72
65
 73
0
 40
0.0
  0
LTYPE
  5
15
100
AcDbSymbolTableRecord
100
AcDbLinetypeTableRecord
  2
BYLAYER
 70
0
  3

 72
65
 73
0
 40
0.0
  0
LTYPE
  5
16
100
AcDbSymbolTableRecord
100
AcDbLinetypeTableRecord
  2
CONTINUOUS
 70
64
  3
Solid line
 72
65
 73
0
 40
0.0
  0
LTYPE
  5
1F5
100
AcDbSymbolTableRecord
100
AcDbLinetypeTableRecord
  2
CENTER
 70
64
  3
____ _ ____ _ ____ _ ____ _ ____ _ ____ _ ____
 72
65
 73
4
 40
0.6
 49
0.375
 74
0
 49
-0.075
 74
0
 49
0.075
 74
0
 49
-0.075
 74
0
  0
LTYPE
  5
1F6
100
AcDbSymbolTableRecord
100
AcDbLinetypeTableRecord
  2
HIDDEN
 70
64
  3
- - - - - - - - - - - - - - - - - - - -
 72
65
 73
2
 40
0.2
 49
0.1
 74
0
 49
-0.1
 74
0
  0
LTYPE
  5
1F7
100
AcDbSymbolTableRecord
100
AcDbLinetypeTableRecord
  2
PHANTOM
 70
64
  3
_____ _ _ _____ _ _ _____ _ _ _____
 72
65
 73
6
 40
0.8
 49
0.45
 74
0
 49
-0.05
 74
0
 49
0.1
 74
0
 49
-0.05
 74
0
 49
0.1
 74
0
 49
-0.05
 74
0
  0
LTYPE
  5
1F8
100
AcDbSymbolTableRecord
100
AcDbLinetypeTableRecord
  2
DOT
 70
64
  3
. . . . . . . . . . . . . . . . . . . .
 72
65
 73
2
 40
0.2
 49
0.1
 74
0
 49
-0.1
 74
0
  0
LTYPE
  5
1F9
100
AcDbSymbolTableRecord
100
AcDbLinetypeTableRecord
  2
DASHED
 70
64
  3
- - - - - - - - - - - - - - - - - - - -
 72
65
 73
2
 40
0.2
 49
0.1
 74
0
 49
-0.1
 74
0
  0
ENDTAB
  0
TABLE
  2
LAYER
  5
2
100
AcDbSymbolTable
 70
36
  0
LAYER
  5
10
100
AcDbSymbolTableRecord
100
AcDbLayerTableRecord
  2
0
 70
0
 62
7
  6
CONTINUOUS
370
-3
390
F
  0
LAYER
  5
1FA
100
AcDbSymbolTableRecord
100
AcDbLayerTableRecord
  2
DEFAULT_1
 70
0
 62
7
  6
CENTER
370
-3
390
F
  0
LAYER
  5
1FB
100
AcDbSymbolTableRecord
100
AcDbLayerTableRecord
  2
DEFAULT_2
 70
0
 62
8
  6
HIDDEN
370
-3
390
F
  0
LAYER
  5
1FC
100
AcDbSymbolTableRecord
100
AcDbLayerTableRecord
  2
DEFAULT_3
 70
0
 62
7
  6
PHANTOM
370
-3
390
F
  0
LAYER
  5
1FD
100
AcDbSymbolTableRecord
100
AcDbLayerTableRecord
  2
00_COMPONENTS
 70
0
 62
7
  6
CONTINUOUS
370
-3
390
F
  0
LAYER
  5
1FE
100
AcDbSymbolTableRecord
100
AcDbLayerTableRecord
  2
01_1_DEFAULT_DATUMS
 70
0
 62
7
  6
CONTINUOUS
370
-3
390
F
  0
LAYER
  5
1FF
100
AcDbSymbolTableRecord
100
AcDbLayerTableRecord
  2
01_PLANES
 70
0
 62
7
  6
CONTINUOUS
370
-3
390
F
  0
LAYER
  5
200
100
AcDbSymbolTableRecord
100
AcDbLayerTableRecord
  2
02_COORD_SYS
 70
0
 62
7
  6
CONTINUOUS
370
-3
390
F
  0
LAYER
  5
201
100
AcDbSymbolTableRecord
100
AcDbLayerTableRecord
  2
03_AXES
 70
0
 62
7
  6
CONTINUOUS
370
-3
390
F
  0
LAYER
  5
202
100
AcDbSymbolTableRecord
100
AcDbLayerTableRecord
  2
04_POINTS
 70
0
 62
7
  6
CONTINUOUS
370
-3
390
F
  0
LAYER
  5
203
100
AcDbSymbolTableRecord
100
AcDbLayerTableRecord
  2
05_CURVES
 70
0
 62
7
  6
CONTINUOUS
370
-3
390
F
  0
LAYER
  5
204
100
AcDbSymbolTableRecord
100
AcDbLayerTableRecord
  2
06_SURFS
 70
0
 62
7
  6
CONTINUOUS
370
-3
390
F
  0
LAYER
  5
205
100
AcDbSymbolTableRecord
100
AcDbLayerTableRecord
  2
07_COSMETICS
 70
0
 62
7
  6
CONTINUOUS
370
-3
390
F
  0
LAYER
  5
206
100
AcDbSymbolTableRecord
100
AcDbLayerTableRecord
  2
10_NOTES
 70
0
 62
7
  6
CONTINUOUS
370
-3
390
F
  0
LAYER
  5
207
100
AcDbSymbolTableRecord
100
AcDbLayerTableRecord
  2
11_NOTES_PUB
 70
0
 62
7
  6
CONTINUOUS
370
-3
390
F
  0
LAYER
  5
208
100
AcDbSymbolTableRecord
100
AcDbLayerTableRecord
  2
13_REF_GTOL
 70
0
 62
7
  6
CONTINUOUS
370
-3
390
F
  0
LAYER
  5
209
100
AcDbSymbolTableRecord
100
AcDbLayerTableRecord
  2
16_MISC
 70
0
 62
7
  6
CONTINUOUS
370
-3
390
F
  0
LAYER
  5
20A
100
AcDbSymbolTableRecord
100
AcDbLayerTableRecord
  2
17_NO_PRINT
 70
0
 62
7
  6
CONTINUOUS
370
-3
390
F
  0
LAYER
  5
20B
100
AcDbSymbolTableRecord
100
AcDbLayerTableRecord
  2
18_DATUM_CAMS_JOINTS
 70
0
 62
7
  6
CONTINUOUS
370
-3
390
F
  0
LAYER
  5
20C
100
AcDbSymbolTableRecord
100
AcDbLayerTableRecord
  2
19_DATUM_FUNCTIONAL
 70
0
 62
7
  6
CONTINUOUS
370
-3
390
F
  0
LAYER
  5
20D
100
AcDbSymbolTableRecord
100
AcDbLayerTableRecord
  2
20_DATUM_KINEMATIC_SCHEME
 70
0
 62
7
  6
CONTINUOUS
370
-3
390
F
  0
ENDTAB
  0
TABLE
  2
STYLE
  5
3
100
AcDbSymbolTable
 70
1
  0
STYLE
  5
11
100
AcDbSymbolTableRecord
100
AcDbTextStyleTableRecord
  2
STANDARD
 70
0
 40
0.0
 41
0.8
 50
0.0
 71
0
 42
0.2
  3
txt
  4

  0
STYLE
  5
20E
100
AcDbSymbolTableRecord
100
AcDbTextStyleTableRecord
  2
TEXTSTYLE_1
 70
0
 40
0.0
 41
0.8
 50
0.0
 71
0
 42
0.2
  3
gdt
  4

  0
ENDTAB
  0
TABLE
  2
VIEW
  5
6
100
AcDbSymbolTable
 70
0
  0
ENDTAB
  0
TABLE
  2
UCS
  5
7
100
AcDbSymbolTable
 70
0
  0
ENDTAB
  0
TABLE
  2
APPID
  5
9
100
AcDbSymbolTable
 70
1
  0
APPID
  5
20F
100
AcDbSymbolTableRecord
100
AcDbRegAppTableRecord
  2
ACAD
 70
0
  0
ENDTAB
  0
TABLE
  2
BLOCK_RECORD
  5
1
100
AcDbSymbolTable
 70
0
  0
BLOCK_RECORD
  5
210
100
AcDbSymbolTableRecord
100
AcDbBlockTableRecord
  2
*Model_Space
  0
BLOCK_RECORD
  5
211
100
AcDbSymbolTableRecord
100
AcDbBlockTableRecord
  2
*Paper_Space
  0
BLOCK_RECORD
  5
212
100
AcDbSymbolTableRecord
100
AcDbBlockTableRecord
  2
_FILLED
  0
ENDTAB
  0
TABLE
  2
DIMSTYLE
  5
A
100
AcDbSymbolTable
 70
1
100
AcDbDimStyleTable
 71
0
  0
DIMSTYLE
105
213
100
AcDbSymbolTableRecord
100
AcDbDimStyleTableRecord
  2
STANDARD
 70
0
  3

  4

 40
1.0
 41
4.3306380508
 42
1.0
 43
0.38
 44
1.0
 45
0.0
 46
0.0
 47
0.01
 48
0.01
140
6.0628932711
141
0.09
142
0.0
143
25.4
144
1.0
145
0.0
146
1.0
147
0.625
 71
1
 72
0
 73
0
 74
0
 75
0
 76
0
 77
1
 78
8
 79
2
170
0
171
1
172
0
173
0
174
0
175
0
176
0
177
0
178
0
270
2
179
2
271
2
272
2
273
2
274
2
275
0
280
0
281
0
282
0
283
1
284
8
285
0
286
0
287
3
288
0
340
11
278
46
341
212
342
212
343
212
344
212
  0
ENDTAB
  0
ENDSEC
  0
SECTION
  2
BLOCKS
  0
BLOCK
  5
20
100
AcDbEntity
  8
0
100
AcDbBlockBegin
  2
*Model_Space
 70
0
 10
0.0
 20
0.0
 30
0.0
  3
*Model_Space
  1

  0
ENDBLK
  5
21
100
AcDbEntity
  8
0
100
AcDbBlockEnd
  0
BLOCK
  5
1C
100
AcDbEntity
  8
0
100
AcDbBlockBegin
  2
*Paper_Space
 70
0
 10
0.0
 20
0.0
 30
0.0
  3
*Paper_Space
  1

  0
ENDBLK
  5
1D
100
AcDbEntity
  8
0
100
AcDbBlockEnd
  0
BLOCK
  5
214
100
AcDbEntity
  8
0
100
AcDbBlockBegin
  2
_FILLED
 70
64
 10
0.0
 20
0.0
  3
_FILLED
  1

  0
SOLID
  5
215
100
AcDbEntity
  8
0
  6
BYBLOCK
 62
0
100
AcDbTrace
 10
0.0
 20
0.0
 11
-1.0
 21
0.25
 12
-1.0
 22
-0.25
 13
-1.0
 23
-0.25
  0
ENDBLK
  5
216
100
AcDbEntity
  8
0
  6
BYBLOCK
 62
0
100
AcDbBlockEnd
  0
ENDSEC
  0
SECTION
  2
ENTITIES
  0
LINE
  5
217
100
AcDbEntity
  8
0
100
AcDbLine
 62
7
  6
CONTINUOUS
 10
84.3883211905
 20
461.9516412434
 11
84.6709526822
 21
462.1148176372
  0
LWPOLYLINE
  5
218
100
AcDbEntity
  8
0
100
AcDbPolyline
 62
7
  6
CONTINUOUS
 90
4
 70
0
 10
108.7246920588
 20
462.9300294093
 10
102.4002961631
 20
460.2497905756
 10
95.5908634625
 20
457.1063583722
 10
94.38899743
 20
456.5042288145
  0
LINE
  5
219
100
AcDbEntity
  8
0
100
AcDbLine
 62
7
  6
CONTINUOUS
 10
125.6117957126
 20
460.1432271974
 11
144.1581312421
 21
471.5927811151
  0
LINE
  5
21A
100
AcDbEntity
  8
0
100
AcDbLine
 62
7
  6
CONTINUOUS
 10
100.5102105255
 20
454.2766286034
 11
99.0960028511
 21
453.4601402956
  0
LINE
  5
21B
100
AcDbEntity
  8
0
100
AcDbLine
 62
7
  6
CONTINUOUS
 10
118.2650890575
 20
457.9668668283
 11
144.1581312421
 21
472.9161235193
  0
LINE
  5
21C
100
AcDbEntity
  8
0
100
AcDbLine
 62
7
  6
CONTINUOUS
 10
145.7651194575
 20
468.3747648062
 11
128.2539531054
 21
458.6176966271
  0
LINE
  5
21D
100
AcDbEntity
  8
0
100
AcDbLine
 62
7
  6
CONTINUOUS
 10
130.0217274182
 20
457.5970947408
 11
122.3007940708
 21
453.2950584536
  0
LINE
  5
21E
100
AcDbEntity
  8
0
100
AcDbLine
 62
7
  6
CONTINUOUS
 10
111.8390167374
 20
461.5202288155
 11
138.7694281716
 21
476.0272223052
  0
LINE
  5
21F
100
AcDbEntity
  8
0
100
AcDbLine
 62
7
  6
CONTINUOUS
 10
153.8968004723
 20
447.5088302656
 11
131.0675446169
 21
436.6347426527
  0
LINE
  5
220
100
AcDbEntity
  8
0
100
AcDbLine
 62
7
  6
CONTINUOUS
 10
132.4817640672
 20
435.8182611437
 11
155.3110199226
 21
446.6923487566
  0
LINE
  5
221
100
AcDbEntity
  8
0
100
AcDbLine
 62
7
  6
CONTINUOUS
 10
185.7167381039
 20
429.1379963122
 11
162.8874822485
 21
418.2639086993
  0
LINE
  5
222
100
AcDbEntity
  8
0
100
AcDbLine
 62
7
  6
CONTINUOUS
 10
164.3017016988
 20
417.4474271903
 11
187.1309575542
 21
428.3215148032
  0
LINE
  5
223
100
AcDbEntity
  8
0
100
AcDbLine
 62
7
  6
CONTINUOUS
 10
154.2503641668
 20
441.5455391021
 11
150.5739011265
 21
436.9719417624
  0
LINE
  5
224
100
AcDbEntity
  8
0
100
AcDbLine
 62
7
  6
CONTINUOUS
 10
155.3110199226
 20
445.4675951309
 11
154.2503641668
 21
444.2841169051
  0
LINE
  5
225
100
AcDbEntity
  8
0
100
AcDbLine
 62
7
  6
CONTINUOUS
 10
55.2848259052
 20
466.999169017
 11
55.2848546045
 21
159.7240565726
  0
LINE
  5
226
100
AcDbEntity
  8
0
100
AcDbLine
 62
7
  6
CONTINUOUS
 10
217.5366757355
 20
410.7671623588
 11
194.7074198802
 21
399.8930747459
  0
LINE
  5
227
100
AcDbEntity
  8
0
100
AcDbLine
 62
7
  6
CONTINUOUS
 10
196.1216393304
 20
399.0765932369
 11
218.9508951858
 21
409.9506808498
  0
LINE
  5
228
100
AcDbEntity
  8
0
100
AcDbLine
 62
7
  6
CONTINUOUS
 10
186.0703017984
 20
423.1747051487
 11
182.3938387581
 21
418.601107809
  0
LINE
  5
229
100
AcDbEntity
  8
0
100
AcDbLine
 62
7
  6
CONTINUOUS
 10
187.1309575542
 20
427.0967611775
 11
186.0703017984
 21
425.9132829517
  0
LINE
  5
22A
100
AcDbEntity
  8
0
100
AcDbLine
 62
7
  6
CONTINUOUS
 10
269.3549196516
 20
148.293912088
 11
270.3266680141
 21
148.2448305754
  0
LINE
  5
22B
100
AcDbEntity
  8
0
100
AcDbLine
 62
7
  6
CONTINUOUS
 10
249.3566133671
 20
392.3963284054
 11
226.5273575118
 21
381.5222407925
  0
LINE
  5
22C
100
AcDbEntity
  8
0
100
AcDbLine
 62
7
  6
CONTINUOUS
 10
227.941576962
 20
380.7057592835
 11
250.7708328174
 21
391.5798468964
  0
LINE
  5
22D
100
AcDbEntity
  8
0
100
AcDbLine
 62
7
  6
CONTINUOUS
 10
270.326668014
 20
155.5933523296
 11
269.5072777923
 21
155.6347384672
  0
LINE
  5
22E
100
AcDbEntity
  8
0
100
AcDbLine
 62
7
  6
CONTINUOUS
 10
217.89023943
 20
404.8038711953
 11
214.2137763897
 21
400.2302738556
  0
LINE
  5
22F
100
AcDbEntity
  8
0
100
AcDbLine
 62
7
  6
CONTINUOUS
 10
218.9508951858
 20
408.7259272241
 11
217.89023943
 21
407.5424489983
  0
LINE
  5
230
100
AcDbEntity
  8
0
100
AcDbLine
 62
7
  6
CONTINUOUS
 10
290.7099475394
 20
103.9250898537
 11
286.3969006624
 21
106.4151722959
  0
LINE
  5
231
100
AcDbEntity
  8
0
100
AcDbLine
 62
7
  6
CONTINUOUS
 10
257.4885695081
 20
363.6471810998
 11
256.0743618337
 21
362.8306927921
  0
LINE
  5
232
100
AcDbEntity
  8
0
100
AcDbLine
 62
7
  6
CONTINUOUS
 10
258.3373135766
 20
361.5244156314
 11
258.6199450683
 21
361.6875920252
  0
LINE
  5
233
100
AcDbEntity
  8
0
100
AcDbLine
 62
7
  6
CONTINUOUS
 10
280.1065231761
 20
364.3731365207
 11
307.0369345363
 21
378.8801299705
  0
LINE
  5
234
100
AcDbEntity
  8
0
100
AcDbLine
 62
7
  6
CONTINUOUS
 10
311.2795928872
 20
114.3618247973
 11
312.4256376068
 21
113.7001705385
  0
LINE
  5
235
100
AcDbEntity
  8
0
100
AcDbLine
 62
7
  6
CONTINUOUS
 10
144.1581312421
 20
472.9161235193
 11
144.1581312421
 21
471.5927811151
  0
LINE
  5
236
100
AcDbEntity
  8
0
100
AcDbLine
 62
7
  6
CONTINUOUS
 10
250.7708328174
 20
390.3550932707
 11
249.7101770616
 21
389.1716150449
  0
LINE
  5
237
100
AcDbEntity
  8
0
100
AcDbLine
 62
7
  6
CONTINUOUS
 10
273.0451249869
 20
353.0329670192
 11
273.3278273514
 21
353.1961843312
  0
LINE
  5
238
100
AcDbEntity
  8
0
100
AcDbLine
 62
7
  6
CONTINUOUS
 10
285.9844901273
 20
360.5033278324
 11
312.4256376068
 21
375.7690311847
  0
LINE
  5
239
100
AcDbEntity
  8
0
100
AcDbLine
 62
7
  6
CONTINUOUS
 10
305.9251882452
 20
364.3407424167
 11
286.3969005672
 21
353.0661475692
  0
LINE
  5
23A
100
AcDbEntity
  8
0
100
AcDbLine
 62
7
  6
CONTINUOUS
 10
272.6293234586
 20
354.4245025958
 11
271.914709814
 21
354.0120296649
  0
LINE
  5
23B
100
AcDbEntity
  8
0
100
AcDbLine
 62
7
  6
CONTINUOUS
 10
273.3278273514
 20
351.5643282981
 11
274.0424567641
 21
351.9789679721
  0
LINE
  5
23C
100
AcDbEntity
  8
0
100
AcDbLine
 62
7
  6
CONTINUOUS
 10
154.2503641668
 20
441.5455391021
 11
154.2503641668
 21
444.2841169051
  0
LINE
  5
23D
100
AcDbEntity
  8
0
100
AcDbLine
 62
7
  6
CONTINUOUS
 10
155.3110199226
 20
445.4675951309
 11
155.3110199226
 21
446.6923487566
  0
LINE
  5
23E
100
AcDbEntity
  8
0
100
AcDbLine
 62
7
  6
CONTINUOUS
 10
249.7101770616
 20
386.4330372418
 11
246.0337140214
 21
381.8594399022
  0
LINE
  5
23F
100
AcDbEntity
  8
0
100
AcDbLine
 62
7
  6
CONTINUOUS
 10
286.3969005637
 20
353.4778704047
 11
312.4256376068
 21
369.5466742777
  0
LINE
  5
240
100
AcDbEntity
  8
0
100
AcDbLine
 62
7
  6
CONTINUOUS
 10
272.1218073728
 20
332.4121244514
 11
272.067268734
 21
332.3790534952
  0
LINE
  5
241
100
AcDbEntity
  8
0
100
AcDbLine
 62
7
  6
CONTINUOUS
 10
314.1389667314
 20
359.5986224777
 11
298.8542205282
 21
350.4604819772
  0
LINE
  5
242
100
AcDbEntity
  8
0
100
AcDbLine
 62
7
  6
CONTINUOUS
 10
273.0450541165
 20
336.0496758261
 11
273.3278273514
 21
336.2129340549
  0
LINE
  5
243
100
AcDbEntity
  8
0
100
AcDbLine
 62
7
  6
CONTINUOUS
 10
273.0449952372
 20
333.4368566725
 11
274.4592029116
 21
334.2533449803
  0
LINE
  5
244
100
AcDbEntity
  8
0
100
AcDbLine
 62
7
  6
CONTINUOUS
 10
268.7866017774
 20
324.8724262857
 11
268.2174943222
 21
324.5438539046
  0
LINE
  5
245
100
AcDbEntity
  8
0
100
AcDbLine
 62
7
  6
CONTINUOUS
 10
186.0703017984
 20
423.1747051487
 11
186.0703017984
 21
425.9132829517
  0
LINE
  5
246
100
AcDbEntity
  8
0
100
AcDbLine
 62
7
  6
CONTINUOUS
 10
267.9652547997
 20
330.257042713
 11
268.0382842675
 21
330.3128004281
  0
LINE
  5
247
100
AcDbEntity
  8
0
100
AcDbLine
 62
7
  6
CONTINUOUS
 10
267.9632472937
 20
330.2579564852
 11
268.1807083752
 21
330.4163227407
  0
LINE
  5
248
100
AcDbEntity
  8
0
100
AcDbLine
 62
7
  6
CONTINUOUS
 10
268.1807083752
 20
330.4163227407
 11
268.2521570912
 21
330.4679751063
  0
LINE
  5
249
100
AcDbEntity
  8
0
100
AcDbLine
 62
7
  6
CONTINUOUS
 10
290.7099475394
 20
340.7107908212
 11
274.4592029116
 21
329.5293808466
  0
LINE
  5
24A
100
AcDbEntity
  8
0
100
AcDbLine
 62
7
  6
CONTINUOUS
 10
274.4592029116
 20
327.8963760124
 11
290.7099475393
 21
339.077785987
  0
LINE
  5
24B
100
AcDbEntity
  8
0
100
AcDbLine
 62
7
  6
CONTINUOUS
 10
272.0672705869
 20
325.0305327929
 11
272.1218076538
 21
325.0636027833
  0
LINE
  5
24C
100
AcDbEntity
  8
0
100
AcDbLine
 62
7
  6
CONTINUOUS
 10
311.9654828853
 20
328.2585022173
 11
288.772613735
 21
315.5692739141
  0
LINE
  5
24D
100
AcDbEntity
  8
0
100
AcDbLine
 62
7
  6
CONTINUOUS
 10
314.1389667314
 20
149.2662507577
 11
311.9654828851
 21
151.0774777004
  0
LINE
  5
24E
100
AcDbEntity
  8
0
100
AcDbLine
 62
7
  6
CONTINUOUS
 10
187.1309575542
 20
427.0967611775
 11
187.1309575542
 21
428.3215148032
  0
LINE
  5
24F
100
AcDbEntity
  8
0
100
AcDbLine
 62
7
  6
CONTINUOUS
 10
274.4592029116
 20
309.7513916055
 11
277.2543538491
 21
311.7262759923
  0
LWPOLYLINE
  5
250
100
AcDbEntity
  8
0
100
AcDbPolyline
 62
7
  6
CONTINUOUS
 90
4
 70
0
 10
278.8885705387
 20
307.5578008269
 10
278.9425277995
 20
307.5926069365
 10
283.6252265992
 20
310.5440813722
 10
288.2656803727
 20
313.4297652235
  0
LINE
  5
251
100
AcDbEntity
  8
0
100
AcDbLine
 62
7
  6
CONTINUOUS
 10
298.854220528
 20
324.9171662529
 11
314.1389667314
 21
334.614997581
  0
LINE
  5
252
100
AcDbEntity
  8
0
100
AcDbLine
 62
7
  6
CONTINUOUS
 10
298.8542205282
 20
317.8688256018
 11
314.1389667313
 21
326.4472752748
  0
LINE
  5
253
100
AcDbEntity
  8
0
100
AcDbLine
 62
7
  6
CONTINUOUS
 10
217.89023943
 20
404.8038711953
 11
217.89023943
 21
407.5424489983
  0
LINE
  5
254
100
AcDbEntity
  8
0
100
AcDbLine
 62
7
  6
CONTINUOUS
 10
218.9508951858
 20
408.7259272241
 11
218.9508951858
 21
409.9506808498
  0
LINE
  5
255
100
AcDbEntity
  8
0
100
AcDbLine
 62
7
  6
CONTINUOUS
 10
274.4592029116
 20
291.4261894983
 11
280.3066678763
 21
295.557654138
  0
LINE
  5
256
100
AcDbEntity
  8
0
100
AcDbLine
 62
7
  6
CONTINUOUS
 10
292.0622938367
 20
226.1118440492
 11
290.017319229
 21
227.2924839797
  0
LINE
  5
257
100
AcDbEntity
  8
0
100
AcDbLine
 62
7
  6
CONTINUOUS
 10
295.2911497813
 20
225.4700605398
 11
293.1208995974
 21
226.7230267218
  0
LINE
  5
258
100
AcDbEntity
  8
0
100
AcDbLine
 62
7
  6
CONTINUOUS
 10
271.7996352822
 20
245.1182691541
 11
272.4413653953
 21
244.7477017785
  0
LINE
  5
259
100
AcDbEntity
  8
0
100
AcDbLine
 62
7
  6
CONTINUOUS
 10
268.0382842675
 20
154.6014802619
 11
268.2174943805
 21
154.2153480857
  0
LINE
  5
25A
100
AcDbEntity
  8
0
100
AcDbLine
 62
7
  6
CONTINUOUS
 10
249.7101770616
 20
386.4330372418
 11
249.7101770616
 21
389.1716150449
  0
LINE
  5
25B
100
AcDbEntity
  8
0
100
AcDbLine
 62
7
  6
CONTINUOUS
 10
250.7708328174
 20
390.3550932707
 11
250.7708328174
 21
391.5798468964
  0
LINE
  5
25C
100
AcDbEntity
  8
0
100
AcDbLine
 62
7
  6
CONTINUOUS
 10
263.1631499614
 20
39.708181761
 11
263.1632164444
 21
346.9832729315
  0
LINE
  5
25D
100
AcDbEntity
  8
0
100
AcDbLine
 62
7
  6
CONTINUOUS
 10
268.2174943222
 20
329.9266683775
 11
268.2174943222
 21
322.5781466234
  0
LINE
  5
25E
100
AcDbEntity
  8
0
100
AcDbLine
 62
7
  6
CONTINUOUS
 10
268.2174943805
 20
154.2153480857
 11
268.2174943805
 21
146.8668263315
  0
LINE
  5
25F
100
AcDbEntity
  8
0
100
AcDbLine
 62
7
  6
CONTINUOUS
 10
268.2521570912
 20
330.4679751063
 11
268.2521570912
 21
328.1409432175
  0
LINE
  5
260
100
AcDbEntity
  8
0
100
AcDbLine
 62
7
  6
CONTINUOUS
 10
268.2521570912
 20
147.4081331859
 11
268.2521570912
 21
149.7351650747
  0
LINE
  5
261
100
AcDbEntity
  8
0
100
AcDbLine
 62
7
  6
CONTINUOUS
 10
268.7866017774
 20
151.6106133708
 11
268.7866017774
 21
155.136170217
  0
LINE
  5
262
100
AcDbEntity
  8
0
100
AcDbLine
 62
7
  6
CONTINUOUS
 10
268.7866017774
 20
324.8724262857
 11
268.7866017774
 21
328.5209443405
  0
LINE
  5
263
100
AcDbEntity
  8
0
100
AcDbLine
 62
7
  6
CONTINUOUS
 10
269.3188723779
 20
331.2176675875
 11
269.3188723779
 21
328.8906356987
  0
LINE
  5
264
100
AcDbEntity
  8
0
100
AcDbLine
 62
7
  6
CONTINUOUS
 10
269.3188723779
 20
148.1578256671
 11
269.3188723779
 21
150.4848575559
  0
LINE
  5
265
100
AcDbEntity
  8
0
100
AcDbLine
 62
7
  6
CONTINUOUS
 10
269.3549196516
 20
331.2176675875
 11
269.3549196516
 21
324.0052322543
  0
LINE
  5
266
100
AcDbEntity
  8
0
100
AcDbLine
 62
7
  6
CONTINUOUS
 10
269.3549196516
 20
155.5301309707
 11
269.3549196516
 21
148.293912088
  0
LINE
  5
267
100
AcDbEntity
  8
0
100
AcDbLine
 62
7
  6
CONTINUOUS
 10
270.3266680141
 20
148.2448305754
 11
270.3266680141
 21
155.5933523296
  0
LINE
  5
268
100
AcDbEntity
  8
0
100
AcDbLine
 62
7
  6
CONTINUOUS
 10
270.3266677781
 20
323.9561507536
 11
270.3266677781
 21
331.3046725078
  0
LINE
  5
269
100
AcDbEntity
  8
0
100
AcDbLine
 62
7
  6
CONTINUOUS
 10
293.1208995974
 20
226.7230267218
 11
292.0622938367
 21
226.1118440492
  0
LINE
  5
26A
100
AcDbEntity
  8
0
100
AcDbLine
 62
7
  6
CONTINUOUS
 10
269.3549196516
 20
324.0052322543
 11
270.3266677781
 21
323.9561507536
  0
LINE
  5
26B
100
AcDbEntity
  8
0
100
AcDbLine
 62
7
  6
CONTINUOUS
 10
270.3266677781
 20
331.3046725078
 11
269.5072777924
 21
331.3460586335
  0
LINE
  5
26C
100
AcDbEntity
  8
0
100
AcDbLine
 62
7
  6
CONTINUOUS
 10
271.7996350102
 20
157.1091029363
 11
271.7996350102
 21
236.9983289988
  0
LINE
  5
26D
100
AcDbEntity
  8
0
100
AcDbLine
 62
7
  6
CONTINUOUS
 10
271.7996352822
 20
244.9647627366
 11
271.7996352822
 21
324.86824506
  0
LINE
  5
26E
100
AcDbEntity
  8
0
100
AcDbLine
 62
7
  6
CONTINUOUS
 10
271.9439903693
 20
156.9452507285
 11
271.9439903693
 21
237.0884992558
  0
LINE
  5
26F
100
AcDbEntity
  8
0
100
AcDbLine
 62
7
  6
CONTINUOUS
 10
271.9439903693
 20
244.9647627366
 11
271.9439903693
 21
324.9557785782
  0
LINE
  5
270
100
AcDbEntity
  8
0
100
AcDbLine
 62
7
  6
CONTINUOUS
 10
271.9439903693
 20
332.6565710101
 11
271.9439903693
 21
332.9082042027
  0
LINE
  5
271
100
AcDbEntity
  8
0
100
AcDbLine
 62
7
  6
CONTINUOUS
 10
272.1217096089
 20
332.4120655786
 11
272.1217096089
 21
325.0635438244
  0
LINE
  5
272
100
AcDbEntity
  8
0
100
AcDbLine
 62
7
  6
CONTINUOUS
 10
272.1218478566
 20
149.3522186733
 11
272.1218478566
 21
156.7007404275
  0
LINE
  5
273
100
AcDbEntity
  8
0
100
AcDbLine
 62
7
  6
CONTINUOUS
 10
272.4412468331
 20
244.7476424
 11
272.4412468331
 21
237.3991206458
  0
LINE
  5
274
100
AcDbEntity
  8
0
100
AcDbLine
 62
7
  6
CONTINUOUS
 10
273.0450541165
 20
353.033089771
 11
273.0450541165
 21
48.4776881817
  0
LINE
  5
275
100
AcDbEntity
  8
0
100
AcDbLine
 62
7
  6
CONTINUOUS
 10
273.3278273514
 20
353.1961843312
 11
273.3278273514
 21
336.2129340549
  0
LINE
  5
276
100
AcDbEntity
  8
0
100
AcDbLine
 62
7
  6
CONTINUOUS
 10
273.3278273514
 20
84.5668890956
 11
273.3278273514
 21
67.5836388193
  0
LINE
  5
277
100
AcDbEntity
  8
0
100
AcDbLine
 62
7
  6
CONTINUOUS
 10
274.4592029116
 20
85.2201077557
 11
274.4592029116
 21
334.2533449803
  0
LINE
  5
278
100
AcDbEntity
  8
0
100
AcDbLine
 62
7
  6
CONTINUOUS
 10
286.3969004943
 20
88.8696479867
 11
286.3969005949
 21
99.3244704743
  0
LINE
  5
279
100
AcDbEntity
  8
0
100
AcDbLine
 62
7
  6
CONTINUOUS
 10
286.3969006506
 20
343.2008732703
 11
286.396900516
 21
359.1133929474
  0
LINE
  5
27A
100
AcDbEntity
  8
0
100
AcDbLine
 62
7
  6
CONTINUOUS
 10
295.2911497813
 20
225.4700605398
 11
274.4592029116
 21
211.1365303629
  0
LINE
  5
27B
100
AcDbEntity
  8
0
100
AcDbLine
 62
7
  6
CONTINUOUS
 10
274.4592029116
 20
209.5035255286
 11
295.2911497814
 21
223.8370557056
  0
LINE
  5
27C
100
AcDbEntity
  8
0
100
AcDbLine
 62
7
  6
CONTINUOUS
 10
290.7099475394
 20
102.2920850194
 11
290.7099475394
 21
103.9250898537
  0
LINE
  5
27D
100
AcDbEntity
  8
0
100
AcDbLine
 62
7
  6
CONTINUOUS
 10
290.7099475394
 20
339.077785987
 11
290.7099475394
 21
340.7107908212
  0
LINE
  5
27E
100
AcDbEntity
  8
0
100
AcDbLine
 62
7
  6
CONTINUOUS
 10
295.2911497814
 20
225.4700605398
 11
295.2911497814
 21
223.8370557056
  0
LINE
  5
27F
100
AcDbEntity
  8
0
100
AcDbLine
 62
7
  6
CONTINUOUS
 10
298.8542205282
 20
350.4604819772
 11
298.8542205282
 21
324.917166253
  0
LINE
  5
280
100
AcDbEntity
  8
0
100
AcDbLine
 62
7
  6
CONTINUOUS
 10
298.8542205282
 20
317.8688256018
 11
298.8542205282
 21
147.7361417359
  0
LINE
  5
281
100
AcDbEntity
  8
0
100
AcDbLine
 62
7
  6
CONTINUOUS
 10
298.8542205282
 20
140.6878010847
 11
298.8542205282
 21
115.1444853605
  0
LINE
  5
282
100
AcDbEntity
  8
0
100
AcDbLine
 62
7
  6
CONTINUOUS
 10
274.4592029116
 20
334.2533449803
 11
273.3278273514
 21
336.2129340549
  0
LINE
  5
283
100
AcDbEntity
  8
0
100
AcDbLine
 62
7
  6
CONTINUOUS
 10
258.6199450683
 20
361.6875920252
 11
257.4885695081
 21
363.6471810998
  0
LINE
  5
284
100
AcDbEntity
  8
0
100
AcDbLine
 62
7
  6
CONTINUOUS
 10
268.0382842675
 20
330.3128004281
 11
268.2174943223
 21
329.9266683775
  0
LINE
  5
285
100
AcDbEntity
  8
0
100
AcDbLine
 62
7
  6
CONTINUOUS
 10
305.9251882452
 20
365.5336310899
 11
305.9251882452
 21
364.3407424167
  0
LINE
  5
286
100
AcDbEntity
  8
0
100
AcDbLine
 62
7
  6
CONTINUOUS
 10
305.9251882452
 20
117.4930783551
 11
305.9251882452
 21
119.3719351076
  0
LINE
  5
287
100
AcDbEntity
  8
0
100
AcDbLine
 62
7
  6
CONTINUOUS
 10
312.4256376068
 20
113.7001705385
 11
312.4256376068
 21
107.4778136316
  0
LINE
  5
288
100
AcDbEntity
  8
0
100
AcDbLine
 62
7
  6
CONTINUOUS
 10
312.4256376068
 20
369.5466742777
 11
312.4256376068
 21
375.7690311847
  0
LINE
  5
289
100
AcDbEntity
  8
0
100
AcDbLine
 62
7
  6
CONTINUOUS
 10
314.1389667314
 20
124.2826258609
 11
314.1389667314
 21
149.2662507577
  0
LINE
  5
28A
100
AcDbEntity
  8
0
100
AcDbLine
 62
7
  6
CONTINUOUS
 10
314.1389667314
 20
157.4339730639
 11
314.1389667314
 21
326.4472752748
  0
LINE
  5
28B
100
AcDbEntity
  8
0
100
AcDbLine
 62
7
  6
CONTINUOUS
 10
314.1389667314
 20
334.614997581
 11
314.1389667314
 21
359.5986224777
  0
LINE
  5
28C
100
AcDbEntity
  8
0
100
AcDbLine
 62
7
  6
CONTINUOUS
 10
267.9652550331
 20
154.5457228331
 11
268.0382842675
 21
154.6014802619
  0
LINE
  5
28D
100
AcDbEntity
  8
0
100
AcDbLine
 62
7
  6
CONTINUOUS
 10
267.9632476221
 20
154.5466365622
 11
268.0382842675
 21
154.6014802619
  0
LINE
  5
28E
100
AcDbEntity
  8
0
100
AcDbLine
 62
7
  6
CONTINUOUS
 10
269.3549196516
 20
155.5301309707
 11
269.5072777924
 21
155.6347384672
  0
LINE
  5
28F
100
AcDbEntity
  8
0
100
AcDbLine
 62
7
  6
CONTINUOUS
 10
269.4067605596
 20
155.5663851159
 11
269.5072777924
 21
155.6347384672
  0
LINE
  5
290
100
AcDbEntity
  8
0
100
AcDbLine
 62
7
  6
CONTINUOUS
 10
272.1218076917
 20
156.7008042359
 11
272.0672705842
 21
156.6677342208
  0
LINE
  5
291
100
AcDbEntity
  8
0
100
AcDbLine
 62
7
  6
CONTINUOUS
 10
290.7099475394
 20
340.7107908212
 11
286.3969006506
 21
343.2008732703
  0
LINE
  5
292
100
AcDbEntity
  8
0
100
AcDbLine
 62
7
  6
CONTINUOUS
 10
67.9832338239
 20
471.4229085819
 11
273.0450541165
 21
353.033089771
  0
LINE
  5
293
100
AcDbEntity
  8
0
100
AcDbLine
 62
7
  6
CONTINUOUS
 10
84.6709526822
 20
462.1148176372
 11
99.3788349652
 21
453.6234099432
  0
LINE
  5
294
100
AcDbEntity
  8
0
100
AcDbLine
 62
7
  6
CONTINUOUS
 10
258.6199450683
 20
361.6875920252
 11
273.3278273514
 21
353.1961843312
  0
LINE
  5
295
100
AcDbEntity
  8
0
100
AcDbLine
 62
7
  6
CONTINUOUS
 10
100.5102105255
 20
454.2766286034
 11
257.4885695081
 21
363.6471810998
  0
LINE
  5
296
100
AcDbEntity
  8
0
100
AcDbLine
 62
7
  6
CONTINUOUS
 10
314.1389667314
 20
326.4472752748
 11
311.965482885
 21
328.2585022176
  0
LINE
  5
297
100
AcDbEntity
  8
0
100
AcDbLine
 62
7
  6
CONTINUOUS
 10
279.2881916907
 20
137.6229037432
 11
274.4592029116
 21
134.211032328
  0
LINE
  5
298
100
AcDbEntity
  8
0
100
AcDbLine
 62
7
  6
CONTINUOUS
 10
298.8542205281
 20
147.7361417358
 11
314.1389667314
 21
157.4339730638
  0
LINE
  5
299
100
AcDbEntity
  8
0
100
AcDbLine
 62
7
  6
CONTINUOUS
 10
117.8342633691
 20
455.8737528187
 11
142.0757901838
 21
441.878217408
  0
LINE
  5
29A
100
AcDbEntity
  8
0
100
AcDbLine
 62
7
  6
CONTINUOUS
 10
148.2399815504
 20
438.3194003743
 11
173.8957278154
 21
423.5073834546
  0
LINE
  5
29B
100
AcDbEntity
  8
0
100
AcDbLine
 62
7
  6
CONTINUOUS
 10
180.0599191821
 20
419.9485664209
 11
205.715665447
 21
405.1365495012
  0
LINE
  5
29C
100
AcDbEntity
  8
0
100
AcDbLine
 62
7
  6
CONTINUOUS
 10
211.8798568137
 20
401.5777324675
 11
237.5356030787
 21
386.7657155477
  0
LINE
  5
29D
100
AcDbEntity
  8
0
100
AcDbLine
 62
7
  6
CONTINUOUS
 10
243.6997944453
 20
383.2068985141
 11
272.6912931763
 21
366.4690275787
  0
LINE
  5
29E
100
AcDbEntity
  8
0
100
AcDbLine
 62
7
  6
CONTINUOUS
 10
284.9869638946
 20
361.5554764041
 11
276.5096686171
 21
366.4497345619
  0
LINE
  5
29F
100
AcDbEntity
  8
0
100
AcDbLine
 62
7
  6
CONTINUOUS
 10
118.1170901842
 20
457.8956635721
 11
109.6398540629
 21
462.7898872007
  0
LINE
  5
2A0
100
AcDbEntity
  8
0
100
AcDbLine
 62
7
  6
CONTINUOUS
 10
124.3715271939
 20
460.8592803612
 11
130.0217274182
 21
457.5970947408
  0
LINE
  5
2A1
100
AcDbEntity
  8
0
100
AcDbLine
 62
7
  6
CONTINUOUS
 10
280.996331314
 20
370.433953235
 11
285.9974846014
 21
367.5465057524
  0
LINE
  5
2A2
100
AcDbEntity
  8
0
100
AcDbLine
 62
7
  6
CONTINUOUS
 10
250.7708328174
 20
391.5798468964
 11
249.3566133671
 21
392.3963284054
  0
LINE
  5
2A3
100
AcDbEntity
  8
0
100
AcDbLine
 62
7
  6
CONTINUOUS
 10
218.9508951858
 20
409.9506808498
 11
217.5366757355
 21
410.7671623588
  0
LINE
  5
2A4
100
AcDbEntity
  8
0
100
AcDbLine
 62
7
  6
CONTINUOUS
 10
187.1309575542
 20
428.3215148032
 11
185.7167381039
 21
429.1379963122
  0
LINE
  5
2A5
100
AcDbEntity
  8
0
100
AcDbLine
 62
7
  6
CONTINUOUS
 10
155.3110199226
 20
446.6923487566
 11
153.8968004723
 21
447.5088302656
  0
LINE
  5
2A6
100
AcDbEntity
  8
0
100
AcDbLine
 62
7
  6
CONTINUOUS
 10
314.1389667314
 20
359.5986224777
 11
305.9251882452
 21
364.3407424167
  0
LINE
  5
2A7
100
AcDbEntity
  8
0
100
AcDbLine
 62
7
  6
CONTINUOUS
 10
286.3969004943
 20
88.8696479867
 11
286.0604603721
 21
88.0073943797
  0
LINE
  5
2A8
100
AcDbEntity
  8
0
100
AcDbLine
 62
7
  6
CONTINUOUS
 10
277.2543556445
 20
123.4620673535
 11
274.4592029116
 21
121.4871816982
  0
LWPOLYLINE
  5
2A9
100
AcDbEntity
  8
0
100
AcDbPolyline
 62
7
  6
CONTINUOUS
 90
3
 70
0
 10
281.2305777572
 20
131.8537253443
 10
283.6252264448
 20
133.3630567563
 10
288.265680373
 20
136.2487407061
  0
LINE
  5
2AA
100
AcDbEntity
  8
0
100
AcDbLine
 62
7
  6
CONTINUOUS
 10
298.8542205282
 20
140.6878010847
 11
314.1389667313
 21
149.2662507577
  0
LINE
  5
2AB
100
AcDbEntity
  8
0
100
AcDbLine
 62
7
  6
CONTINUOUS
 10
288.7726137258
 20
138.3882494322
 11
311.9654828741
 21
151.0774777096
  0
LINE
  5
2AC
100
AcDbEntity
  8
0
100
AcDbLine
 62
7
  6
CONTINUOUS
 10
145.7651194575
 20
468.3747648062
 11
303.7990182798
 21
377.1359148787
  0
LINE
  5
2AD
100
AcDbEntity
  8
0
100
AcDbLine
 62
7
  6
CONTINUOUS
 10
312.4256376068
 20
375.7690311847
 11
307.0369345363
 21
378.8801299705
  0
LINE
  5
2AE
100
AcDbEntity
  8
0
100
AcDbLine
 62
7
  6
CONTINUOUS
 10
138.7694281716
 20
476.0272223052
 11
144.1581312421
 21
472.9161235193
  0
LINE
  5
2AF
100
AcDbEntity
  8
0
100
AcDbLine
 62
7
  6
CONTINUOUS
 10
305.9251882452
 20
117.4930783551
 11
304.1576978905
 21
114.3957425413
  0
LINE
  5
2B0
100
AcDbEntity
  8
0
100
AcDbLine
 62
7
  6
CONTINUOUS
 10
290.7099475394
 20
103.9250898537
 11
274.4592029116
 21
92.743679879
  0
LINE
  5
2B1
100
AcDbEntity
  8
0
100
AcDbLine
 62
7
  6
CONTINUOUS
 10
274.4592029116
 20
91.1106750448
 11
290.7099475393
 21
102.2920850194
  0
LINE
  5
2B2
100
AcDbEntity
  8
0
100
AcDbLine
 62
7
  6
CONTINUOUS
 10
286.3596347614
 20
106.3899079511
 11
286.3969006624
 21
106.4151722959
  0
LINE
  5
2B3
100
AcDbEntity
  8
0
100
AcDbLine
 62
7
  6
CONTINUOUS
 10
286.3592383657
 20
106.3901028693
 11
286.3969006624
 21
106.4151722959
  0
LINE
  5
2B4
100
AcDbEntity
  8
0
100
AcDbLine
 62
7
  6
CONTINUOUS
 10
298.8542205283
 20
115.1444853605
 11
314.1389667314
 21
124.2826258609
  0
LINE
  5
2B5
100
AcDbEntity
  8
0
100
AcDbLine
 62
7
  6
CONTINUOUS
 10
304.1576978905
 20
114.3957425413
 11
288.6368226694
 21
105.1219819781
  0
LINE
  5
2B6
100
AcDbEntity
  8
0
100
AcDbLine
 62
7
  6
CONTINUOUS
 10
290.7099475394
 20
103.2812769981
 11
311.2795928872
 21
114.3618247973
  0
LWPOLYLINE
  5
2B7
100
AcDbEntity
  8
0
100
AcDbPolyline
 62
7
  6
CONTINUOUS
 90
4
 70
0
 10
273.3278273514
 20
78.8049043992
 10
274.4502864224
 20
79.5447217269
 10
280.5773108991
 20
83.8701117304
 10
286.0606818911
 20
88.0070502385
  0
LINE
  5
2B8
100
AcDbEntity
  8
0
100
AcDbLine
 62
7
  6
CONTINUOUS
 10
286.3969005187
 20
91.4090097307
 11
312.4256376068
 21
107.4778136316
  0
LINE
  5
2B9
100
AcDbEntity
  8
0
100
AcDbLine
 62
7
  6
CONTINUOUS
 10
286.3969005886
 20
98.6725709132
 11
312.4256376068
 21
113.7001705385
  0
LINE
  5
2BA
100
AcDbEntity
  8
0
100
AcDbLine
 62
7
  6
CONTINUOUS
 10
273.0449952372
 20
84.403619448
 11
274.4592029116
 21
85.2201077557
  0
LINE
  5
2BB
100
AcDbEntity
  8
0
100
AcDbLine
 62
7
  6
CONTINUOUS
 10
108.7248746588
 20
462.9296745844
 11
109.6398540629
 21
462.7898872007
  0
LINE
  5
2BC
100
AcDbEntity
  8
0
100
AcDbLine
 62
7
  6
CONTINUOUS
 10
273.0450541165
 20
67.4203805905
 11
273.3278273514
 21
67.5836388193
  0
ARC
  5
2BD
100
AcDbEntity
  8
0
100
AcDbCircle
 62
7
  6
CONTINUOUS
 10
195.3486899691
 20
251.7804465898
 40
227.7522492584
100
AcDbArc
 50
112.1062855667
 51
112.3045036064
  0
ARC
  5
2BE
100
AcDbEntity
  8
0
100
AcDbCircle
 62
7
  6
CONTINUOUS
 10
146.8535216493
 20
267.9722340492
 40
227.0421240401
100
AcDbArc
 50
307.7248820184
 51
307.9237965052
  0
ARC
  5
2BF
100
AcDbEntity
  8
0
100
AcDbCircle
 62
7
  6
CONTINUOUS
 10
194.862913854
 20
252.9437965927
 40
226.4915753035
100
AcDbArc
 50
112.3025037788
 51
116.179538574
  0
ARC
  5
2C0
100
AcDbEntity
  8
0
100
AcDbCircle
 62
7
  6
CONTINUOUS
 10
147.6486801459
 20
266.9308591295
 40
225.7319063849
100
AcDbArc
 50
303.8358898842
 51
307.7269760013
  0
ARC
  5
2C1
100
AcDbEntity
  8
0
100
AcDbCircle
 62
7
  6
CONTINUOUS
 10
162.7451614322
 20
263.3453358423
 40
124.3103556909
100
AcDbArc
 50
21.9861438206
 51
22.9044005375
  0
ARC
  5
2C2
100
AcDbEntity
  8
0
100
AcDbCircle
 62
7
  6
CONTINUOUS
 10
56.7808209481
 20
682.0597644505
 40
409.3273655643
100
AcDbArc
 50
302.0517923217
 51
304.1221804742
  0
ARC
  5
2C3
100
AcDbEntity
  8
0
100
AcDbCircle
 62
7
  6
CONTINUOUS
 10
57.0577684184
 20
444.8524395112
 40
408.8229826935
100
AcDbArc
 50
302.1261258509
 51
304.1168859984
  0
ARC
  5
2C4
100
AcDbEntity
  8
0
100
AcDbCircle
 62
7
  6
CONTINUOUS
 10
58.8076610569
 20
560.5082815583
 40
405.5744984439
100
AcDbArc
 50
302.1243032214
 51
304.7557612712
  0
ARC
  5
2C5
100
AcDbEntity
  8
0
100
AcDbCircle
 62
7
  6
CONTINUOUS
 10
71.1388419802
 20
423.8867049039
 40
383.6353108824
100
AcDbArc
 50
304.1388900114
 51
306.4109371081
  0
ARC
  5
2C6
100
AcDbEntity
  8
0
100
AcDbCircle
 62
7
  6
CONTINUOUS
 10
74.2140190554
 20
654.877071987
 40
378.3287993147
100
AcDbArc
 50
304.3400320444
 51
306.4249808908
  0
ARC
  5
2C7
100
AcDbEntity
  8
0
100
AcDbCircle
 62
7
  6
CONTINUOUS
 10
423.3647989675
 20
17.9896117037
 40
407.0174203092
100
AcDbArc
 50
116.1944197957
 51
117.8795914853
  0
ARC
  5
2C8
100
AcDbEntity
  8
0
100
AcDbCircle
 62
7
  6
CONTINUOUS
 10
359.7249236925
 20
54.7312796339
 40
407.017420283
100
AcDbArc
 50
116.1944197956
 51
117.8795914854
  0
ARC
  5
2C9
100
AcDbEntity
  8
0
100
AcDbCircle
 62
7
  6
CONTINUOUS
 10
327.9049860608
 20
73.1021135875
 40
407.0174202828
100
AcDbArc
 50
116.1944197956
 51
117.8795914854
  0
ARC
  5
2CA
100
AcDbEntity
  8
0
100
AcDbCircle
 62
7
  6
CONTINUOUS
 10
391.5448613241
 20
36.3604456804
 40
407.017420283
100
AcDbArc
 50
116.1944197956
 51
117.8795914854
  0
ARC
  5
2CB
100
AcDbEntity
  8
0
100
AcDbCircle
 62
7
  6
CONTINUOUS
 10
290.8257638891
 20
104.2016199093
 40
391.9175274432
100
AcDbArc
 50
114.8476527521
 51
116.1930948122
  0
ARC
  5
2CC
100
AcDbEntity
  8
0
100
AcDbCircle
 62
7
  6
CONTINUOUS
 10
446.4838218585
 20
15.8166362808
 40
389.6598290685
100
AcDbArc
 50
114.8447286547
 51
115.8624175275
  0
ARC
  5
2CD
100
AcDbEntity
  8
0
100
AcDbCircle
 62
7
  6
CONTINUOUS
 10
444.5552262696
 20
17.1587272215
 40
389.3005232901
100
AcDbArc
 50
114.8431302936
 51
116.1976172707
  0
ARC
  5
2CE
100
AcDbEntity
  8
0
100
AcDbCircle
 62
7
  6
CONTINUOUS
 10
287.2493553619
 20
109.0392915925
 40
387.6938114104
100
AcDbArc
 50
114.8421482069
 51
115.8649979752
  0
ARC
  5
2CF
100
AcDbEntity
  8
0
100
AcDbCircle
 62
7
  6
CONTINUOUS
 10
320.2120625093
 20
164.5630152242
 40
93.3360780222
100
AcDbArc
 50
120.7847248503
 51
121.0510597611
  0
ARC
  5
2D0
100
AcDbEntity
  8
0
100
AcDbCircle
 62
7
  6
CONTINUOUS
 10
320.212060954
 20
157.2144960813
 40
93.3360749829
100
AcDbArc
 50
120.7847248505
 51
121.0510598202
  0
ARC
  5
2D1
100
AcDbEntity
  8
0
100
AcDbCircle
 62
7
  6
CONTINUOUS
 10
319.9022441926
 20
245.5849472364
 40
92.7352509498
100
AcDbArc
 50
121.0526411136
 51
121.2461839552
  0
ARC
  5
2D2
100
AcDbEntity
  8
0
100
AcDbCircle
 62
7
  6
CONTINUOUS
 10
319.8792950928
 20
157.7674195207
 40
92.6907398492
100
AcDbArc
 50
121.0511313432
 51
121.2551973279
  0
ARC
  5
2D3
100
AcDbEntity
  8
0
100
AcDbCircle
 62
7
  6
CONTINUOUS
 10
319.545113833
 20
165.6677924215
 40
92.0455933049
100
AcDbArc
 50
121.0501047358
 51
121.7261285552
  0
ARC
  5
2D4
100
AcDbEntity
  8
0
100
AcDbCircle
 62
7
  6
CONTINUOUS
 10
319.1355312089
 20
71.1360803419
 40
91.2582297053
100
AcDbArc
 50
121.0089809797
 51
122.3332928079
  0
ARC
  5
2D5
100
AcDbEntity
  8
0
100
AcDbCircle
 62
7
  6
CONTINUOUS
 10
319.1060314387
 20
254.243321856
 40
91.2024017415
100
AcDbArc
 50
121.0485871789
 51
122.333560236
  0
ARC
  5
2D6
100
AcDbEntity
  8
0
100
AcDbCircle
 62
7
  6
CONTINUOUS
 10
319.1059559501
 20
78.532118101
 40
91.2022628688
100
AcDbArc
 50
121.0485829783
 51
122.3335591588
  0
ARC
  5
2D7
100
AcDbEntity
  8
0
100
AcDbCircle
 62
7
  6
CONTINUOUS
 10
318.9614720831
 20
247.1267159289
 40
90.9291275955
100
AcDbArc
 50
121.2433048549
 51
122.33475388
  0
ARC
  5
2D8
100
AcDbEntity
  8
0
100
AcDbCircle
 62
7
  6
CONTINUOUS
 10
313.2509275818
 20
87.3700501724
 40
80.5996523504
100
AcDbArc
 50
123.9680051588
 51
128.4210957553
  0
ARC
  5
2D9
100
AcDbEntity
  8
0
100
AcDbCircle
 62
7
  6
CONTINUOUS
 10
313.2507471297
 20
263.0816337841
 40
80.5993331748
100
AcDbArc
 50
123.9680033924
 51
128.4210563334
  0
ARC
  5
2DA
100
AcDbEntity
  8
0
100
AcDbCircle
 62
7
  6
CONTINUOUS
 10
312.2121910473
 20
81.4410188922
 40
78.8420548558
100
AcDbArc
 50
123.9183238614
 51
128.4706984406
  0
ARC
  5
2DB
100
AcDbEntity
  8
0
100
AcDbCircle
 62
7
  6
CONTINUOUS
 10
312.2121418032
 20
257.1524036166
 40
78.8419739413
100
AcDbArc
 50
123.9183203281
 51
128.4706480356
  0
ARC
  5
2DC
100
AcDbEntity
  8
0
100
AcDbCircle
 62
7
  6
CONTINUOUS
 10
301.8986186096
 20
195.6150943328
 40
57.8043232944
100
AcDbArc
 50
121.3795426228
 51
122.4657548952
  0
ARC
  5
2DD
100
AcDbEntity
  8
0
100
AcDbCircle
 62
7
  6
CONTINUOUS
 10
300.9435293844
 20
109.2769668686
 40
56.0114354552
100
AcDbArc
 50
121.3537563102
 51
124.1420818655
  0
ARC
  5
2DE
100
AcDbEntity
  8
0
100
AcDbCircle
 62
7
  6
CONTINUOUS
 10
300.9434379113
 20
284.9884234883
 40
56.0112711807
100
AcDbArc
 50
121.3537488926
 51
124.1420827622
  0
ARC
  5
2DF
100
AcDbEntity
  8
0
100
AcDbCircle
 62
7
  6
CONTINUOUS
 10
299.5787562948
 20
279.6669288684
 40
53.5676826635
100
AcDbArc
 50
124.1508390255
 51
124.7953266011
  0
ARC
  5
2E0
100
AcDbEntity
  8
0
100
AcDbCircle
 62
7
  6
CONTINUOUS
 10
299.4385214233
 20
106.4858954954
 40
53.3207456908
100
AcDbArc
 50
124.3937324125
 51
124.8629329142
  0
ARC
  5
2E1
100
AcDbEntity
  8
0
100
AcDbCircle
 62
7
  6
CONTINUOUS
 10
299.1982732971
 20
111.8555261294
 40
52.8977599266
100
AcDbArc
 50
124.3456829849
 51
125.4461805319
  0
ARC
  5
2E2
100
AcDbEntity
  8
0
100
AcDbCircle
 62
7
  6
CONTINUOUS
 10
299.0158675563
 20
285.5019133889
 40
52.5784437417
100
AcDbArc
 50
124.3893154637
 51
125.8101395651
  0
ARC
  5
2E3
100
AcDbEntity
  8
0
100
AcDbCircle
 62
7
  6
CONTINUOUS
 10
298.8115005448
 20
280.7682369303
 40
52.2254613047
100
AcDbArc
 50
124.7935608655
 51
125.8611060852
  0
ARC
  5
2E4
100
AcDbEntity
  8
0
100
AcDbCircle
 62
7
  6
CONTINUOUS
 10
298.8026105717
 20
107.3960332691
 40
52.2104614987
100
AcDbArc
 50
124.8612536756
 51
125.812913516
  0
ARC
  5
2E5
100
AcDbEntity
  8
0
100
AcDbCircle
 62
7
  6
CONTINUOUS
 10
298.4086224455
 20
112.9677845954
 40
51.5336982556
100
AcDbArc
 50
125.4481189397
 51
126.1094550581
  0
ARC
  5
2E6
100
AcDbEntity
  8
0
100
AcDbCircle
 62
7
  6
CONTINUOUS
 10
308.648180116
 20
252.8457786204
 40
51.4341753416
100
AcDbArc
 50
130.2378150479
 51
131.5908309378
  0
ARC
  5
2E7
100
AcDbEntity
  8
0
100
AcDbCircle
 62
7
  6
CONTINUOUS
 10
288.3674146818
 20
316.4195052474
 40
12.0634614763
100
AcDbArc
 50
198.7277444802
 51
202.8951333569
  0
ARC
  5
2E8
100
AcDbEntity
  8
0
100
AcDbCircle
 62
7
  6
CONTINUOUS
 10
267.5414559992
 20
145.5377938632
 40
8.1274466522
100
AcDbArc
 50
80.8375679478
 51
85.1977583416
  0
ARC
  5
2E9
100
AcDbEntity
  8
0
100
AcDbCircle
 62
7
  6
CONTINUOUS
 10
270.1481201625
 20
331.1701643526
 40
2.3319318368
100
AcDbArc
 50
32.1805173278
 51
36.3225957666
  0
SPLINE
  5
2EA
100
AcDbEntity
  8
0
100
AcDbSpline
 62
7
  6
CONTINUOUS
 70
0
 71
3
 72
9
 73
5
 74
0
 42
0.0000001
 43
0.0000001
 44
0.0000000001
 40
0.0
 40
0.0
 40
0.0
 40
0.0
 40
0.5000011793
 40
1.0
 40
1.0
 40
1.0
 40
1.0
 10
284.9869638946
 20
361.5554764041
 30
0.0
 10
285.4055141239
 20
361.3138507058
 30
0.0
 10
286.0678980718
 20
360.5514964095
 30
0.0
 10
286.3969200472
 20
359.5966786482
 30
0.0
 10
286.396900516
 20
359.1133929474
 30
0.0
  0
SPLINE
  5
2EB
100
AcDbEntity
  8
0
100
AcDbSpline
 62
7
  6
CONTINUOUS
 70
0
 71
3
 72
16
 73
12
 74
0
 42
0.0000001
 43
0.0000001
 44
0.0000000001
 40
0.0
 40
0.0
 40
0.0
 40
0.0
 40
0.0422094834
 40
0.0886340044
 40
0.1404780878
 40
0.197047496
 40
0.319823987
 40
0.4502789511
 40
0.5848570975
 40
0.7218695366
 40
1.0
 40
1.0
 40
1.0
 40
1.0
 10
280.3066672277
 20
295.5576549142
 30
0.0
 10
280.4800669832
 20
295.6801862814
 30
0.0
 10
280.7957615404
 20
296.011386559
 30
0.0
 10
281.0887634514
 20
296.6644998134
 30
0.0
 10
281.237727678
 20
297.4334170576
 30
0.0
 10
281.2853498451
 20
298.598155883
 30
0.0
 10
281.1111474568
 20
300.1536467954
 30
0.0
 10
280.6996471426
 20
302.0615204584
 30
0.0
 10
280.1496887742
 20
304.0088648573
 30
0.0
 10
279.2837697216
 20
306.6354892559
 30
0.0
 10
278.5381652505
 20
308.5873847808
 30
0.0
 10
278.0149745043
 20
309.8849396902
 30
0.0
  0
SPLINE
  5
2EC
100
AcDbEntity
  8
0
100
AcDbSpline
 62
7
  6
CONTINUOUS
 70
0
 71
3
 72
11
 73
7
 74
0
 42
0.0000001
 43
0.0000001
 44
0.0000000001
 40
0.0
 40
0.0
 40
0.0
 40
0.0
 40
0.1874041753
 40
0.4164683868
 40
0.6932728318
 40
1.0
 40
1.0
 40
1.0
 40
1.0
 10
288.2655839368
 20
136.2489062013
 30
0.0
 10
288.48422177
 20
136.3843545039
 30
0.0
 10
288.8560477077
 20
136.8716417336
 30
0.0
 10
288.9860931385
 20
137.8380530124
 30
0.0
 10
288.797200333
 20
138.9485308458
 30
0.0
 10
288.4778174121
 20
139.6918393677
 30
0.0
 10
288.2719386708
 20
140.0590116935
 30
0.0
  0
SPLINE
  5
2ED
100
AcDbEntity
  8
0
100
AcDbSpline
 62
7
  6
CONTINUOUS
 70
0
 71
3
 72
11
 73
7
 74
0
 42
0.0000001
 43
0.0000001
 44
0.0000000001
 40
0.0
 40
0.0
 40
0.0
 40
0.0
 40
0.1874037812
 40
0.416468136
 40
0.6932726947
 40
1.0
 40
1.0
 40
1.0
 40
1.0
 10
288.2655827601
 20
313.4299327018
 30
0.0
 10
288.4842223134
 20
313.5653771218
 30
0.0
 10
288.8560475106
 20
314.0526669891
 30
0.0
 10
288.9860932087
 20
315.0190764327
 30
0.0
 10
288.7972004602
 20
316.1295551816
 30
0.0
 10
288.4778174705
 20
316.8728637808
 30
0.0
 10
288.2719386686
 20
317.2400362103
 30
0.0
  0
SPLINE
  5
2EE
100
AcDbEntity
  8
0
100
AcDbSpline
 62
7
  6
CONTINUOUS
 70
0
 71
3
 72
9
 73
5
 74
0
 42
0.0000001
 43
0.0000001
 44
0.0000000001
 40
0.0
 40
0.0
 40
0.0
 40
0.0
 40
0.2443925099
 40
1.0
 40
1.0
 40
1.0
 40
1.0
 10
276.9426549342
 20
142.1857194907
 30
0.0
 10
277.0512427244
 20
141.7804057239
 30
0.0
 10
277.5924075913
 20
140.1492254456
 30
0.0
 10
278.4735110561
 20
138.6325566898
 30
0.0
 10
279.2882183927
 20
137.6229394647
 30
0.0
  0
SPLINE
  5
2EF
100
AcDbEntity
  8
0
100
AcDbSpline
 62
7
  6
CONTINUOUS
 70
0
 71
3
 72
13
 73
9
 74
0
 42
0.0000001
 43
0.0000001
 44
0.0000000001
 40
0.0
 40
0.0
 40
0.0
 40
0.0
 40
0.1669440892
 40
0.322464718
 40
0.4562261592
 40
0.5756435123
 40
0.7937453562
 40
1.0
 40
1.0
 40
1.0
 40
1.0
 10
279.2882183927
 20
137.6229394647
 30
0.0
 10
279.8353414743
 20
136.9456089263
 30
0.0
 10
280.7509047529
 20
135.5025969806
 30
0.0
 10
281.3334808009
 20
133.1516112641
 30
0.0
 10
281.217862994
 20
131.0004335925
 30
0.0
 10
280.5724870325
 20
128.6166841664
 30
0.0
 10
279.2584454818
 20
126.0744315761
 30
0.0
 10
277.9378783328
 20
124.2927268065
 30
0.0
 10
277.2543290336
 20
123.4620961563
 30
0.0
  0
SPLINE
  5
2F0
100
AcDbEntity
  8
0
100
AcDbSpline
 62
7
  6
CONTINUOUS
 70
0
 71
3
 72
9
 73
5
 74
0
 42
0.0000001
 43
0.0000001
 44
0.0000000001
 40
0.0
 40
0.0
 40
0.0
 40
0.0
 40
0.7446528288
 40
1.0
 40
1.0
 40
1.0
 40
1.0
 10
277.2543290336
 20
123.4620961563
 30
0.0
 10
277.1666300337
 20
123.3554852686
 30
0.0
 10
277.059155482
 20
123.2034531012
 30
0.0
 10
276.9656550374
 20
123.0433639589
 30
0.0
 10
276.9426542024
 20
123.0019901591
 30
0.0
  0
SPLINE
  5
2F1
100
AcDbEntity
  8
0
100
AcDbSpline
 62
7
  6
CONTINUOUS
 70
0
 71
3
 72
9
 73
5
 74
0
 42
0.0000001
 43
0.0000001
 44
0.0000000001
 40
0.0
 40
0.0
 40
0.0
 40
0.0
 40
0.4952264284
 40
1.0
 40
1.0
 40
1.0
 40
1.0
 10
311.9654828851
 20
151.0774777004
 30
0.0
 10
311.411765397
 20
151.5389064958
 30
0.0
 10
310.4656465108
 20
152.6795464315
 30
0.0
 10
309.8661727209
 20
154.0314663873
 30
0.0
 10
309.6847655533
 20
154.7433898811
 30
0.0
  0
SPLINE
  5
2F2
100
AcDbEntity
  8
0
100
AcDbSpline
 62
7
  6
CONTINUOUS
 70
0
 71
3
 72
9
 73
5
 74
0
 42
0.0000001
 43
0.0000001
 44
0.0000000001
 40
0.0
 40
0.0
 40
0.0
 40
0.0
 40
0.4952264284
 40
1.0
 40
1.0
 40
1.0
 40
1.0
 10
311.965482885
 20
328.2585022176
 30
0.0
 10
311.4117653968
 20
328.7199310132
 30
0.0
 10
310.4656465102
 20
329.8605709494
 30
0.0
 10
309.8661727203
 20
331.2124909059
 30
0.0
 10
309.6847655528
 20
331.9244143999
 30
0.0
  0
SPLINE
  5
2F3
100
AcDbEntity
  8
0
100
AcDbSpline
 62
7
  6
CONTINUOUS
 70
0
 71
3
 72
9
 73
5
 74
0
 42
0.0000001
 43
0.0000001
 44
0.0000000001
 40
0.0
 40
0.0
 40
0.0
 40
0.0
 40
0.2456121484
 40
1.0
 40
1.0
 40
1.0
 40
1.0
 10
284.9871533682
 20
361.555368386
 30
0.0
 10
283.9753600566
 20
360.9716440949
 30
0.0
 10
279.8559354763
 20
358.5949452299
 30
0.0
 10
275.7367119982
 20
356.2178978065
 30
0.0
 10
272.6293234586
 20
354.4245025958
 30
0.0
  0
SPLINE
  5
2F4
100
AcDbEntity
  8
0
100
AcDbSpline
 62
7
  6
CONTINUOUS
 70
0
 71
3
 72
9
 73
5
 74
0
 42
0.0000001
 43
0.0000001
 44
0.0000000001
 40
0.0
 40
0.0
 40
0.0
 40
0.0
 40
0.2535117878
 40
1.0
 40
1.0
 40
1.0
 40
1.0
 10
276.942655308
 20
142.1856850304
 30
0.0
 10
276.7399145431
 20
142.0905428048
 30
0.0
 10
275.9375625096
 20
141.7210761361
 30
0.0
 10
275.1231584594
 20
141.3760680648
 30
0.0
 10
274.5041196923
 20
141.1487514275
 30
0.0
  0
SPLINE
  5
2F5
100
AcDbEntity
  8
0
100
AcDbSpline
 62
7
  6
CONTINUOUS
 70
0
 71
3
 72
9
 73
5
 74
0
 42
0.0000001
 43
0.0000001
 44
0.0000000001
 40
0.0
 40
0.0
 40
0.0
 40
0.0
 40
0.2520668146
 40
1.0
 40
1.0
 40
1.0
 40
1.0
 10
274.4597017146
 20
121.0618689098
 30
0.0
 10
274.6662869685
 20
121.2274621587
 30
0.0
 10
275.4883566997
 20
121.8812799612
 30
0.0
 10
276.3186707481
 20
122.5246818879
 30
0.0
 10
276.9426549649
 20
123.001978347
 30
0.0
  0
SPLINE
  5
2F6
100
AcDbEntity
  8
0
100
AcDbSpline
 62
7
  6
CONTINUOUS
 70
0
 71
3
 72
9
 73
5
 74
0
 42
0.0000001
 43
0.0000001
 44
0.0000000001
 40
0.0
 40
0.0
 40
0.0
 40
0.0
 40
0.2543669024
 40
1.0
 40
1.0
 40
1.0
 40
1.0
 10
274.0424567641
 20
351.9789679721
 30
0.0
 10
275.0898975058
 20
352.5834865579
 30
0.0
 10
279.2077780809
 20
354.9599677777
 30
0.0
 10
283.3258458021
 20
357.3361247206
 30
0.0
 10
286.396527619
 20
359.1076679807
 30
0.0
  0
SPLINE
  5
2F7
100
AcDbEntity
  8
0
100
AcDbSpline
 62
7
  6
CONTINUOUS
 70
0
 71
3
 72
9
 73
5
 74
0
 42
0.0000001
 43
0.0000001
 44
0.0000000001
 40
0.0
 40
0.0
 40
0.0
 40
0.0
 40
0.2516332718
 40
1.0
 40
1.0
 40
1.0
 40
1.0
 10
276.9426549647
 20
312.5462667764
 30
0.0
 10
276.7365598828
 20
312.4409682619
 30
0.0
 10
275.9156047518
 20
312.0263152351
 30
0.0
 10
275.0863068942
 20
311.627959602
 30
0.0
 10
274.4596907099
 20
311.3431595725
 30
0.0
  0
SPLINE
  5
2F8
100
AcDbEntity
  8
0
100
AcDbSpline
 62
7
  6
CONTINUOUS
 70
0
 71
3
 72
8
 73
4
 74
0
 42
0.0000001
 43
0.0000001
 44
0.0000000001
 40
0.0
 40
0.0
 40
0.0
 40
0.0
 40
1.0
 40
1.0
 40
1.0
 40
1.0
 10
269.3188723779
 20
328.8906356987
 30
0.0
 10
269.3355607641
 20
328.934494563
 30
0.0
 10
269.3478891399
 20
328.9803252004
 30
0.0
 10
269.3549196516
 20
329.0267221196
 30
0.0
  0
LINE
  5
2F9
100
AcDbEntity
  8
0
100
AcDbLine
 62
7
  6
CONTINUOUS
 10
271.9439903693
 20
332.9082042027
 11
271.8470554671
 21
332.8500869318
  0
SPLINE
  5
2FA
100
AcDbEntity
  8
0
100
AcDbSpline
 62
7
  6
CONTINUOUS
 70
0
 71
3
 72
8
 73
4
 74
0
 42
0.0000001
 43
0.0000001
 44
0.0000000001
 40
0.0
 40
0.0
 40
0.0
 40
0.0
 40
1.0
 40
1.0
 40
1.0
 40
1.0
 10
271.8470554671
 20
332.8500869318
 30
0.0
 10
271.8310619752
 20
332.8405025682
 30
0.0
 10
271.815546066
 20
332.830139668
 30
0.0
 10
271.799628262
 20
332.8204301199
 30
0.0
  0
SPLINE
  5
2FB
100
AcDbEntity
  8
0
100
AcDbSpline
 62
7
  6
CONTINUOUS
 70
0
 71
3
 72
10
 73
6
 74
0
 42
0.0000001
 43
0.0000001
 44
0.0000000001
 40
0.0
 40
0.0
 40
0.0
 40
0.0
 40
0.2437095489
 40
0.6316865936
 40
1.0
 40
1.0
 40
1.0
 40
1.0
 10
269.5072777924
 20
331.3460586335
 30
0.0
 10
269.4919326073
 20
331.3356488909
 30
0.0
 10
269.4558077336
 20
331.3034440272
 30
0.0
 10
269.3857628624
 20
331.2714306098
 30
0.0
 10
269.3419964843
 20
331.2334976012
 30
0.0
 10
269.3188723779
 20
331.2176675875
 30
0.0
  0
SPLINE
  5
2FC
100
AcDbEntity
  8
0
100
AcDbSpline
 62
7
  6
CONTINUOUS
 70
0
 71
3
 72
8
 73
4
 74
0
 42
0.0000001
 43
0.0000001
 44
0.0000000001
 40
0.0
 40
0.0
 40
0.0
 40
0.0
 40
1.0
 40
1.0
 40
1.0
 40
1.0
 10
271.799628262
 20
332.8204301199
 30
0.0
 10
271.8809984938
 20
332.7358140963
 30
0.0
 10
271.9574588984
 20
332.6460580416
 30
0.0
 10
272.0269453938
 20
332.5514397927
 30
0.0
  0
SPLINE
  5
2FD
100
AcDbEntity
  8
0
100
AcDbSpline
 62
7
  6
CONTINUOUS
 70
0
 71
3
 72
9
 73
5
 74
0
 42
0.0000001
 43
0.0000001
 44
0.0000000001
 40
0.0
 40
0.0
 40
0.0
 40
0.0
 40
0.505843863
 40
1.0
 40
1.0
 40
1.0
 40
1.0
 10
55.2848042806
 20
466.9991473039
 30
0.0
 10
57.5327000958
 20
467.3610885627
 30
0.0
 10
61.928601125
 20
468.4401548286
 30
0.0
 10
66.0569821152
 20
470.3107932777
 30
0.0
 10
67.9832338239
 20
471.4229085819
 30
0.0
  0
SPLINE
  5
2FE
100
AcDbEntity
  8
0
100
AcDbSpline
 62
7
  6
CONTINUOUS
 70
0
 71
3
 72
9
 73
5
 74
0
 42
0.0000001
 43
0.0000001
 44
0.0000000001
 40
0.0
 40
0.0
 40
0.0
 40
0.0
 40
0.4973661224
 40
1.0
 40
1.0
 40
1.0
 40
1.0
 10
55.284842498
 20
159.7240640225
 30
0.0
 10
89.1479785197
 20
138.8124145945
 30
0.0
 10
157.8477887559
 20
97.7535623867
 30
0.0
 10
227.7620809102
 20
58.8001417815
 30
0.0
 10
263.163167033
 20
39.7081725167
 30
0.0
  0
SPLINE
  5
2FF
100
AcDbEntity
  8
0
100
AcDbSpline
 62
7
  6
CONTINUOUS
 70
0
 71
3
 72
9
 73
5
 74
0
 42
0.0000001
 43
0.0000001
 44
0.0000000001
 40
0.0
 40
0.0
 40
0.0
 40
0.0
 40
0.5015817555
 40
1.0
 40
1.0
 40
1.0
 40
1.0
 10
263.163167033
 20
39.7081725167
 30
0.0
 10
264.5071595341
 20
41.4751265293
 30
0.0
 10
267.5197477224
 20
44.7599128664
 30
0.0
 10
271.1345924888
 20
47.3746892306
 30
0.0
 10
273.0450541165
 20
48.4776881817
 30
0.0
  0
SPLINE
  5
300
100
AcDbEntity
  8
0
100
AcDbSpline
 62
7
  6
CONTINUOUS
 70
0
 71
3
 72
9
 73
5
 74
0
 42
0.0000001
 43
0.0000001
 44
0.0000000001
 40
0.0
 40
0.0
 40
0.0
 40
0.0
 40
0.258622163
 40
1.0
 40
1.0
 40
1.0
 40
1.0
 10
271.7996280673
 20
157.1091100128
 30
0.0
 10
271.8307365943
 20
157.0767603759
 30
0.0
 10
271.9481095516
 20
156.9489386342
 30
0.0
 10
272.0533457151
 20
156.8097320821
 30
0.0
 10
272.1218076917
 20
156.7008042359
 30
0.0
  0
SPLINE
  5
301
100
AcDbEntity
  8
0
100
AcDbSpline
 62
7
  6
CONTINUOUS
 70
0
 71
3
 72
9
 73
5
 74
0
 42
0.0000001
 43
0.0000001
 44
0.0000000001
 40
0.0
 40
0.0
 40
0.0
 40
0.0
 40
0.243334096
 40
1.0
 40
1.0
 40
1.0
 40
1.0
 10
263.1631526554
 20
231.0239734431
 30
0.0
 10
263.8296381904
 20
231.5540517677
 30
0.0
 10
266.605822715
 20
233.685467118
 30
0.0
 10
269.5229092127
 20
235.6315250812
 30
0.0
 10
271.7866300601
 20
237.0054711363
 30
0.0
  0
SPLINE
  5
302
100
AcDbEntity
  8
0
100
AcDbSpline
 62
7
  6
CONTINUOUS
 70
0
 71
3
 72
9
 73
5
 74
0
 42
0.0000001
 43
0.0000001
 44
0.0000000001
 40
0.0
 40
0.0
 40
0.0
 40
0.0
 40
0.5515747708
 40
1.0
 40
1.0
 40
1.0
 40
1.0
 10
268.7866017774
 20
324.8724262857
 30
0.0
 10
268.9421789615
 20
324.7870379154
 30
0.0
 10
269.2099271913
 20
324.5926172837
 30
0.0
 10
269.352250588
 20
324.2785794065
 30
0.0
 10
269.360803561
 20
324.1345520396
 30
0.0
  0
SPLINE
  5
303
100
AcDbEntity
  8
0
100
AcDbSpline
 62
7
  6
CONTINUOUS
 70
0
 71
3
 72
9
 73
5
 74
0
 42
0.0000001
 43
0.0000001
 44
0.0000000001
 40
0.0
 40
0.0
 40
0.0
 40
0.0
 40
0.537677024
 40
1.0
 40
1.0
 40
1.0
 40
1.0
 10
273.0450541165
 20
353.033089771
 30
0.0
 10
271.2464298095
 20
351.9946597418
 30
0.0
 10
267.9209594418
 20
350.0289228928
 30
0.0
 10
264.6520879321
 20
347.969257862
 30
0.0
 10
263.1631720738
 20
346.9832474823
 30
0.0
  0
SPLINE
  5
304
100
AcDbEntity
  8
0
100
AcDbSpline
 62
7
  6
CONTINUOUS
 70
0
 71
3
 72
9
 73
5
 74
0
 42
0.0000001
 43
0.0000001
 44
0.0000000001
 40
0.0
 40
0.0
 40
0.0
 40
0.0
 40
0.5041892612
 40
1.0
 40
1.0
 40
1.0
 40
1.0
 10
263.1631720738
 20
346.9832474823
 30
0.0
 10
227.8501660548
 20
366.4908638242
 30
0.0
 10
158.1844710517
 20
405.8608290105
 30
0.0
 10
89.2485945965
 20
446.4961458898
 30
0.0
 10
55.2848042806
 20
466.9991473039
 30
0.0
  0
SPLINE
  5
305
100
AcDbEntity
  8
0
100
AcDbSpline
 62
7
  6
CONTINUOUS
 70
0
 71
3
 72
9
 73
5
 74
0
 42
0.0000001
 43
0.0000001
 44
0.0000000001
 40
0.0
 40
0.0
 40
0.0
 40
0.0
 40
0.2397047303
 40
1.0
 40
1.0
 40
1.0
 40
1.0
 10
263.1631526171
 20
238.3724951888
 30
0.0
 10
263.7245109826
 20
238.9166015314
 30
0.0
 10
266.1316163676
 20
241.1189486435
 30
0.0
 10
268.7774868092
 20
243.0541568623
 30
0.0
 10
270.869522267
 20
244.3853206158
 30
0.0
  0
SPLINE
  5
306
100
AcDbEntity
  8
0
100
AcDbSpline
 62
7
  6
CONTINUOUS
 70
0
 71
3
 72
9
 73
5
 74
0
 42
0.0000001
 43
0.0000001
 44
0.0000000001
 40
0.0
 40
0.0
 40
0.0
 40
0.0
 40
0.2563146383
 40
1.0
 40
1.0
 40
1.0
 40
1.0
 10
271.1420557632
 20
243.9591407069
 30
0.0
 10
270.4339965729
 20
243.5213688622
 30
0.0
 10
267.6951556011
 20
241.7757164203
 30
0.0
 10
265.0535188824
 20
239.8759669527
 30
0.0
 10
263.1631526171
 20
238.3724951888
 30
0.0
  0
SPLINE
  5
307
100
AcDbEntity
  8
0
100
AcDbSpline
 62
7
  6
CONTINUOUS
 70
0
 71
3
 72
9
 73
5
 74
0
 42
0.0000001
 43
0.0000001
 44
0.0000000001
 40
0.0
 40
0.0
 40
0.0
 40
0.0
 40
0.2367047925
 40
1.0
 40
1.0
 40
1.0
 40
1.0
 10
268.7866017774
 20
151.6106133708
 30
0.0
 10
268.748424304
 20
151.6315670361
 30
0.0
 10
268.5838734065
 20
151.7141058015
 30
0.0
 10
268.4086606214
 20
151.7745285352
 30
0.0
 10
268.272785237
 20
151.8100170307
 30
0.0
  0
SPLINE
  5
308
100
AcDbEntity
  8
0
100
AcDbSpline
 62
7
  6
CONTINUOUS
 70
0
 71
3
 72
9
 73
5
 74
0
 42
0.0000001
 43
0.0000001
 44
0.0000000001
 40
0.0
 40
0.0
 40
0.0
 40
0.0
 40
0.243142932
 40
1.0
 40
1.0
 40
1.0
 40
1.0
 10
263.1633789265
 20
150.5170329088
 30
0.0
 10
263.5282674482
 20
150.8707074488
 30
0.0
 10
265.0561451298
 20
152.2971602624
 30
0.0
 10
266.6870335975
 20
153.612073339
 30
0.0
 10
267.9632476221
 20
154.5466365622
 30
0.0
  0
SPLINE
  5
309
100
AcDbEntity
  8
0
100
AcDbSpline
 62
7
  6
CONTINUOUS
 70
0
 71
3
 72
10
 73
6
 74
0
 42
0.0000001
 43
0.0000001
 44
0.0000000001
 40
0.0
 40
0.0
 40
0.0
 40
0.0
 40
0.243270577
 40
0.6311066592
 40
1.0
 40
1.0
 40
1.0
 40
1.0
 10
269.3188723779
 20
148.1578256671
 30
0.0
 10
269.3341457845
 20
148.1682813461
 30
0.0
 10
269.3701316532
 20
148.2005831632
 30
0.0
 10
269.4401661331
 20
148.2326281338
 30
0.0
 10
269.4840504621
 20
148.2704599445
 30
0.0
 10
269.5072777924
 20
148.286216713
 30
0.0
  0
SPLINE
  5
30A
100
AcDbEntity
  8
0
100
AcDbSpline
 62
7
  6
CONTINUOUS
 70
0
 71
3
 72
8
 73
4
 74
0
 42
0.0000001
 43
0.0000001
 44
0.0000000001
 40
0.0
 40
0.0
 40
0.0
 40
0.0
 40
1.0
 40
1.0
 40
1.0
 40
1.0
 10
269.3188723779
 20
148.1578256671
 30
0.0
 10
269.3355607641
 20
148.2016845314
 30
0.0
 10
269.3478891399
 20
148.2475151687
 30
0.0
 10
269.3549196516
 20
148.293912088
 30
0.0
  0
SPLINE
  5
30B
100
AcDbEntity
  8
0
100
AcDbSpline
 62
7
  6
CONTINUOUS
 70
0
 71
3
 72
11
 73
7
 74
0
 42
0.0000001
 43
0.0000001
 44
0.0000000001
 40
0.0
 40
0.0
 40
0.0
 40
0.0
 40
0.302452241
 40
0.5678920152
 40
0.7962422517
 40
1.0
 40
1.0
 40
1.0
 40
1.0
 10
268.4103832285
 20
151.6476815327
 30
0.0
 10
268.5462307873
 20
151.6040650305
 30
0.0
 10
268.7953278461
 20
151.5001592563
 30
0.0
 10
269.1051494235
 20
151.2811317076
 30
0.0
 10
269.3109306669
 20
151.0158516133
 30
0.0
 10
269.3616762036
 20
150.8101468042
 30
0.0
 10
269.3618462197
 20
150.7140269525
 30
0.0
  0
SPLINE
  5
30C
100
AcDbEntity
  8
0
100
AcDbSpline
 62
7
  6
CONTINUOUS
 70
0
 71
3
 72
8
 73
4
 74
0
 42
0.0000001
 43
0.0000001
 44
0.0000000001
 40
0.0
 40
0.0
 40
0.0
 40
0.0
 40
1.0
 40
1.0
 40
1.0
 40
1.0
 10
269.3549196516
 20
150.6209439768
 30
0.0
 10
269.3478891399
 20
150.5745470576
 30
0.0
 10
269.3355607641
 20
150.5287164202
 30
0.0
 10
269.3188723779
 20
150.4848575559
 30
0.0
  0
SPLINE
  5
30D
100
AcDbEntity
  8
0
100
AcDbSpline
 62
7
  6
CONTINUOUS
 70
0
 71
3
 72
9
 73
5
 74
0
 42
0.0000001
 43
0.0000001
 44
0.0000000001
 40
0.0
 40
0.0
 40
0.0
 40
0.0
 40
0.2431426753
 40
1.0
 40
1.0
 40
1.0
 40
1.0
 10
263.1634402694
 20
326.2284009198
 30
0.0
 10
263.528323969
 20
326.5820705841
 30
0.0
 10
265.0561755883
 20
328.0085132254
 30
0.0
 10
266.6870487597
 20
329.3234044945
 30
0.0
 10
267.9632472937
 20
330.2579564852
 30
0.0
  0
ELLIPSE
  5
30E
100
AcDbEntity
  8
0
100
AcDbEllipse
 62
7
  6
CONTINUOUS
 10
-74.5498836307
 20
229.5439079558
 30
0.0
 11
472.3201275447
 21
89.124193583
 31
0.0
 40
0.4567938164
 41
5.4739089532
 42
5.533398468
  0
ELLIPSE
  5
30F
100
AcDbEntity
  8
0
100
AcDbEllipse
 62
7
  6
CONTINUOUS
 10
-74.5498836307
 20
406.7249324729
 30
0.0
 11
472.3201275447
 21
89.124193583
 31
0.0
 40
0.4567938164
 41
5.4647177478
 42
5.533398468
  0
ELLIPSE
  5
310
100
AcDbEntity
  8
0
100
AcDbEllipse
 62
7
  6
CONTINUOUS
 10
-74.5498836307
 20
573.3258517981
 30
0.0
 11
466.7392024486
 21
-126.082769403
 31
0.0
 40
0.6587388747
 41
-0.5504189226
 42
-0.4876996083
  0
ELLIPSE
  5
311
100
AcDbEntity
  8
0
100
AcDbEllipse
 62
7
  6
CONTINUOUS
 10
-74.5498836307
 20
396.144827281
 30
0.0
 11
466.7392024486
 21
-126.082769403
 31
0.0
 40
0.6587388747
 41
-0.5490455727
 42
-0.4876996083
  0
ENDSEC
  0
SECTION
  2
OBJECTS
  0
DICTIONARY
  5
C
100
AcDbDictionary
280
0
281
1
  3
ACAD_GROUP
350
D
  3
ACAD_MLINESTYLE
350
17
  3
ACAD_LAYOUT
350
1A
  3
ACAD_PLOTSETTINGS
350
19
  3
ACAD_PLOTSTYLENAME
350
E
  0
DICTIONARY
  5
D
102
{ACAD_REACTORS
330
C
102
}
100
AcDbDictionary
280
0
281
1
  0
ACDBDICTIONARYWDFLT
  5
E
102
{ACAD_REACTORS
330
C
102
}
100
AcDbDictionary
281
1
  3
Normal
350
F
100
AcDbDictionaryWithDefault
340
F
  0
DICTIONARY
  5
17
102
{ACAD_REACTORS
330
C
102
}
100
AcDbDictionary
280
0
281
1
  3
Standard
350
18
  0
DICTIONARY
  5
19
102
{ACAD_REACTORS
330
C
102
}
100
AcDbDictionary
281
1
  0
DICTIONARY
  5
1A
102
{ACAD_REACTORS
330
C
102
}
100
AcDbDictionary
281
1
  3
Model
350
312
  3
Layout1
350
313
  0
ACDBPLACEHOLDER
  5
F
102
{ACAD_REACTORS
330
E
102
}
  0
MLINESTYLE
  5
18
102
{ACAD_REACTORS
330
17
102
}
100
AcDbMlineStyle
  2
STANDARD
 70
0
  3

 62
256
 51
90.0
 52
90.0
 71
2
 49
0.5
 62
256
  6
BYLAYER
 49
-0.5
 62
256
  6
BYLAYER
  0
LAYOUT
  5
312
102
{ACAD_REACTORS
330
1A
102
}
100
AcDbPlotSettings
  1

  2
none_device
  4

  6

 40
0.0
 41
0.0
 42
0.0
 43
0.0
 44
210.0
 45
297.0
 46
0.0
 47
0.0
 48
0.0
 49
0.0
140
0.0
141
0.0
142
1.0
143
1.0
 70
1024
 72
1
 73
0
 74
0
  7

 75
0
147
1.0
148
0.0
149
0.0
100
AcDbLayout
  1
Model
 70
0
 71
0
 10
0.0
 20
0.0
 11
210.0
 21
297.0
 12
0.0
 22
0.0
 32
0.0
 14
0.0
 24
0.0
 34
0.0
 15
0.0
 25
0.0
 35
0.0
146
0.0
 13
0.0
 23
0.0
 33
0.0
 16
1.0
 26
0.0
 36
0.0
 17
0.0
 27
1.0
 37
0.0
 76
0
330
210
345
0
346
0
  0
LAYOUT
  5
313
102
{ACAD_REACTORS
330
1A
102
}
100
AcDbPlotSettings
  1

  2
none_device
  4

  6

 40
0.0
 41
0.0
 42
0.0
 43
0.0
 44
210.0
 45
297.0
 46
0.0
 47
0.0
 48
0.0
 49
0.0
140
0.0
141
0.0
142
1.0
143
1.0
 70
0
 72
1
 73
0
 74
0
  7

 75
0
147
1.0
148
0.0
149
0.0
100
AcDbLayout
  1
Layout1
 70
0
 71
1
 10
0.0
 20
0.0
 11
210.0
 21
297.0
 12
0.0
 22
0.0
 32
0.0
 14
0.0
 24
0.0
 34
0.0
 15
0.0
 25
0.0
 35
0.0
146
0.0
 13
0.0
 23
0.0
 33
0.0
 16
1.0
 26
0.0
 36
0.0
 17
0.0
 27
1.0
 37
0.0
 76
0
330
211
345
0
346
0
  0
ENDSEC
  0
EOF
