999
DXF file: C:\Users\sesa63760\Dev\_Creo\CAD\MCADFD0002819_3D-CAD\drw0001_1.dxf
999
Pro/ENGINEER 2019471 by Parametric Technology Corporation
  0
SECTION
  2
HEADER
  9
$ACADVER
  1
AC1024
  9
$DWGCODEPAGE
  3
ANSI_1252
  9
$EXTMAX
 10
448.8667238707
 20
634.8257951886
 30
0.0
  9
$EXTMIN
 10
0.0
 20
0.0
 30
0.0
  9
$LIMMIN
 10
0.0
 20
0.0
  9
$LIMMAX
 10
448.8667238707
 20
634.8257951886
  9
$VIEWCTR
 10
224.4333619353
 20
317.4128975943
  9
$VIEWSIZE
 40
634.8257951886
  9
$CLAYER
  8
0
  9
$LTSCALE
 40
41.3812370197
  9
$CELTYPE
  6
BYLAYER
  9
$DIMSCALE
 40
1.0
  9
$DIMASZ
 40
5.3436514747
  9
$DIMEXO
 40
1.0
  9
$DIMDLI
 40
28.59067285
  9
$DIMEXE
 40
1.0
  9
$DIMCEN
 40
6.7714751487
  9
$DIMLFAC
 40
1.0
  9
$DIMBLK
  1
_FILLED
  9
$DIMALT
 70
0
  9
$DIMALTF
 40
0.0393700787
  9
$DIMTXT
 40
7.4811120645
  9
$DIMTOL
 70
1
  9
$DIMLIM
 70
0
  9
$DIMTFAC
 40
1.0
  9
$DIMTP
 40
0.01
  9
$DIMTM
 40
0.01
  9
$DIMGAP
 40
0.625
  9
$DIMDSEP
 70
46
  9
$AUNITS
 70
0
  9
$PDMODE
 70
3
  9
$PDSIZE
 40
0.3125
  9
$HANDSEED
  5
314
  9
$TILEMODE
 70
1
  9
$MEASUREMENT
 70
1
  9
$INSUNITS
 70
4
  0
ENDSEC
  0
SECTION
  2
CLASSES
  0
CLASS
  1
ACDBDICTIONARYWDFLT
  2
AcDbDictionaryWithDefault
  3
AutoCAD 2000
 90
0
 91
1
280
0
281
0
  0
CLASS
  1
ACDBPLACEHOLDER
  2
AcDbPlaceHolder
  3
AutoCAD 2000
 90
0
 91
1
280
0
281
0
  0
CLASS
  1
LAYOUT
  2
AcDbLayout
  3
AutoCAD 2000
 90
0
 91
0
280
0
281
0
  0
ENDSEC
  0
SECTION
  2
TABLES
  0
TABLE
  2
VPORT
  5
8
100
AcDbSymbolTable
 70
2
  0
VPORT
  5
1F4
100
AcDbSymbolTableRecord
100
AcDbViewportTableRecord
  2
*ACTIVE
 70
0
 10
0.0
 20
0.0
 11
1.0
 21
1.0
 12
224.4333619353
 22
317.4128975943
 13
0.0
 23
0.0
 14
1.0
 24
1.0
 15
0.0
 25
0.0
 16
0.0
 26
0.0
 36
1.0
 17
0.0
 27
0.0
 37
0.0
 40
634.8257951886
 41
0.7070707071
 42
50.0
 43
0.0
 44
0.0
 50
0.0
 51
0.0
 71
0
 72
100
 73
1
 74
1
 75
0
 76
0
 77
0
 78
0
  0
ENDTAB
  0
TABLE
  2
LTYPE
  5
5
100
AcDbSymbolTable
 70
6
  0
LTYPE
  5
14
100
AcDbSymbolTableRecord
100
AcDbLinetypeTableRecord
  2
BYBLOCK
 70
0
  3

 72
65
 73
0
 40
0.0
  0
LTYPE
  5
15
100
AcDbSymbolTableRecord
100
AcDbLinetypeTableRecord
  2
BYLAYER
 70
0
  3

 72
65
 73
0
 40
0.0
  0
LTYPE
  5
16
100
AcDbSymbolTableRecord
100
AcDbLinetypeTableRecord
  2
CONTINUOUS
 70
64
  3
Solid line
 72
65
 73
0
 40
0.0
  0
LTYPE
  5
1F5
100
AcDbSymbolTableRecord
100
AcDbLinetypeTableRecord
  2
CENTER
 70
64
  3
____ _ ____ _ ____ _ ____ _ ____ _ ____ _ ____
 72
65
 73
4
 40
0.6
 49
0.375
 74
0
 49
-0.075
 74
0
 49
0.075
 74
0
 49
-0.075
 74
0
  0
LTYPE
  5
1F6
100
AcDbSymbolTableRecord
100
AcDbLinetypeTableRecord
  2
HIDDEN
 70
64
  3
- - - - - - - - - - - - - - - - - - - -
 72
65
 73
2
 40
0.2
 49
0.1
 74
0
 49
-0.1
 74
0
  0
LTYPE
  5
1F7
100
AcDbSymbolTableRecord
100
AcDbLinetypeTableRecord
  2
PHANTOM
 70
64
  3
_____ _ _ _____ _ _ _____ _ _ _____
 72
65
 73
6
 40
0.8
 49
0.45
 74
0
 49
-0.05
 74
0
 49
0.1
 74
0
 49
-0.05
 74
0
 49
0.1
 74
0
 49
-0.05
 74
0
  0
LTYPE
  5
1F8
100
AcDbSymbolTableRecord
100
AcDbLinetypeTableRecord
  2
DOT
 70
64
  3
. . . . . . . . . . . . . . . . . . . .
 72
65
 73
2
 40
0.2
 49
0.1
 74
0
 49
-0.1
 74
0
  0
LTYPE
  5
1F9
100
AcDbSymbolTableRecord
100
AcDbLinetypeTableRecord
  2
DASHED
 70
64
  3
- - - - - - - - - - - - - - - - - - - -
 72
65
 73
2
 40
0.2
 49
0.1
 74
0
 49
-0.1
 74
0
  0
ENDTAB
  0
TABLE
  2
LAYER
  5
2
100
AcDbSymbolTable
 70
36
  0
LAYER
  5
10
100
AcDbSymbolTableRecord
100
AcDbLayerTableRecord
  2
0
 70
0
 62
7
  6
CONTINUOUS
370
-3
390
F
  0
LAYER
  5
1FA
100
AcDbSymbolTableRecord
100
AcDbLayerTableRecord
  2
DEFAULT_1
 70
0
 62
7
  6
CENTER
370
-3
390
F
  0
LAYER
  5
1FB
100
AcDbSymbolTableRecord
100
AcDbLayerTableRecord
  2
DEFAULT_2
 70
0
 62
8
  6
HIDDEN
370
-3
390
F
  0
LAYER
  5
1FC
100
AcDbSymbolTableRecord
100
AcDbLayerTableRecord
  2
DEFAULT_3
 70
0
 62
7
  6
PHANTOM
370
-3
390
F
  0
LAYER
  5
1FD
100
AcDbSymbolTableRecord
100
AcDbLayerTableRecord
  2
00_COMPONENTS
 70
0
 62
7
  6
CONTINUOUS
370
-3
390
F
  0
LAYER
  5
1FE
100
AcDbSymbolTableRecord
100
AcDbLayerTableRecord
  2
01_1_DEFAULT_DATUMS
 70
0
 62
7
  6
CONTINUOUS
370
-3
390
F
  0
LAYER
  5
1FF
100
AcDbSymbolTableRecord
100
AcDbLayerTableRecord
  2
01_PLANES
 70
0
 62
7
  6
CONTINUOUS
370
-3
390
F
  0
LAYER
  5
200
100
AcDbSymbolTableRecord
100
AcDbLayerTableRecord
  2
02_COORD_SYS
 70
0
 62
7
  6
CONTINUOUS
370
-3
390
F
  0
LAYER
  5
201
100
AcDbSymbolTableRecord
100
AcDbLayerTableRecord
  2
03_AXES
 70
0
 62
7
  6
CONTINUOUS
370
-3
390
F
  0
LAYER
  5
202
100
AcDbSymbolTableRecord
100
AcDbLayerTableRecord
  2
04_POINTS
 70
0
 62
7
  6
CONTINUOUS
370
-3
390
F
  0
LAYER
  5
203
100
AcDbSymbolTableRecord
100
AcDbLayerTableRecord
  2
05_CURVES
 70
0
 62
7
  6
CONTINUOUS
370
-3
390
F
  0
LAYER
  5
204
100
AcDbSymbolTableRecord
100
AcDbLayerTableRecord
  2
06_SURFS
 70
0
 62
7
  6
CONTINUOUS
370
-3
390
F
  0
LAYER
  5
205
100
AcDbSymbolTableRecord
100
AcDbLayerTableRecord
  2
07_COSMETICS
 70
0
 62
7
  6
CONTINUOUS
370
-3
390
F
  0
LAYER
  5
206
100
AcDbSymbolTableRecord
100
AcDbLayerTableRecord
  2
10_NOTES
 70
0
 62
7
  6
CONTINUOUS
370
-3
390
F
  0
LAYER
  5
207
100
AcDbSymbolTableRecord
100
AcDbLayerTableRecord
  2
11_NOTES_PUB
 70
0
 62
7
  6
CONTINUOUS
370
-3
390
F
  0
LAYER
  5
208
100
AcDbSymbolTableRecord
100
AcDbLayerTableRecord
  2
13_REF_GTOL
 70
0
 62
7
  6
CONTINUOUS
370
-3
390
F
  0
LAYER
  5
209
100
AcDbSymbolTableRecord
100
AcDbLayerTableRecord
  2
16_MISC
 70
0
 62
7
  6
CONTINUOUS
370
-3
390
F
  0
LAYER
  5
20A
100
AcDbSymbolTableRecord
100
AcDbLayerTableRecord
  2
17_NO_PRINT
 70
0
 62
7
  6
CONTINUOUS
370
-3
390
F
  0
LAYER
  5
20B
100
AcDbSymbolTableRecord
100
AcDbLayerTableRecord
  2
18_DATUM_CAMS_JOINTS
 70
0
 62
7
  6
CONTINUOUS
370
-3
390
F
  0
LAYER
  5
20C
100
AcDbSymbolTableRecord
100
AcDbLayerTableRecord
  2
19_DATUM_FUNCTIONAL
 70
0
 62
7
  6
CONTINUOUS
370
-3
390
F
  0
LAYER
  5
20D
100
AcDbSymbolTableRecord
100
AcDbLayerTableRecord
  2
20_DATUM_KINEMATIC_SCHEME
 70
0
 62
7
  6
CONTINUOUS
370
-3
390
F
  0
ENDTAB
  0
TABLE
  2
STYLE
  5
3
100
AcDbSymbolTable
 70
1
  0
STYLE
  5
11
100
AcDbSymbolTableRecord
100
AcDbTextStyleTableRecord
  2
STANDARD
 70
0
 40
0.0
 41
0.8
 50
0.0
 71
0
 42
0.2
  3
txt
  4

  0
STYLE
  5
20E
100
AcDbSymbolTableRecord
100
AcDbTextStyleTableRecord
  2
TEXTSTYLE_1
 70
0
 40
0.0
 41
0.8
 50
0.0
 71
0
 42
0.2
  3
gdt
  4

  0
ENDTAB
  0
TABLE
  2
VIEW
  5
6
100
AcDbSymbolTable
 70
0
  0
ENDTAB
  0
TABLE
  2
UCS
  5
7
100
AcDbSymbolTable
 70
0
  0
ENDTAB
  0
TABLE
  2
APPID
  5
9
100
AcDbSymbolTable
 70
1
  0
APPID
  5
20F
100
AcDbSymbolTableRecord
100
AcDbRegAppTableRecord
  2
ACAD
 70
0
  0
ENDTAB
  0
TABLE
  2
BLOCK_RECORD
  5
1
100
AcDbSymbolTable
 70
0
  0
BLOCK_RECORD
  5
210
100
AcDbSymbolTableRecord
100
AcDbBlockTableRecord
  2
*Model_Space
  0
BLOCK_RECORD
  5
211
100
AcDbSymbolTableRecord
100
AcDbBlockTableRecord
  2
*Paper_Space
  0
BLOCK_RECORD
  5
212
100
AcDbSymbolTableRecord
100
AcDbBlockTableRecord
  2
_FILLED
  0
ENDTAB
  0
TABLE
  2
DIMSTYLE
  5
A
100
AcDbSymbolTable
 70
1
100
AcDbDimStyleTable
 71
0
  0
DIMSTYLE
105
213
100
AcDbSymbolTableRecord
100
AcDbDimStyleTableRecord
  2
STANDARD
 70
0
  3

  4

 40
1.0
 41
5.3436514747
 42
1.0
 43
0.38
 44
1.0
 45
0.0
 46
0.0
 47
0.01
 48
0.01
140
7.4811120645
141
0.09
142
0.0
143
25.4
144
1.0
145
0.0
146
1.0
147
0.625
 71
1
 72
0
 73
0
 74
0
 75
0
 76
0
 77
1
 78
8
 79
2
170
0
171
1
172
0
173
0
174
0
175
0
176
0
177
0
178
0
270
2
179
2
271
2
272
2
273
2
274
2
275
0
280
0
281
0
282
0
283
1
284
8
285
0
286
0
287
3
288
0
340
11
278
46
341
212
342
212
343
212
344
212
  0
ENDTAB
  0
ENDSEC
  0
SECTION
  2
BLOCKS
  0
BLOCK
  5
20
100
AcDbEntity
  8
0
100
AcDbBlockBegin
  2
*Model_Space
 70
0
 10
0.0
 20
0.0
 30
0.0
  3
*Model_Space
  1

  0
ENDBLK
  5
21
100
AcDbEntity
  8
0
100
AcDbBlockEnd
  0
BLOCK
  5
1C
100
AcDbEntity
  8
0
100
AcDbBlockBegin
  2
*Paper_Space
 70
0
 10
0.0
 20
0.0
 30
0.0
  3
*Paper_Space
  1

  0
ENDBLK
  5
1D
100
AcDbEntity
  8
0
100
AcDbBlockEnd
  0
BLOCK
  5
214
100
AcDbEntity
  8
0
100
AcDbBlockBegin
  2
_FILLED
 70
64
 10
0.0
 20
0.0
  3
_FILLED
  1

  0
SOLID
  5
215
100
AcDbEntity
  8
0
  6
BYBLOCK
 62
0
100
AcDbTrace
 10
0.0
 20
0.0
 11
-1.0
 21
0.25
 12
-1.0
 22
-0.25
 13
-1.0
 23
-0.25
  0
ENDBLK
  5
216
100
AcDbEntity
  8
0
  6
BYBLOCK
 62
0
100
AcDbBlockEnd
  0
ENDSEC
  0
SECTION
  2
ENTITIES
  0
LINE
  5
217
100
AcDbEntity
  8
0
100
AcDbLine
 62
7
  6
CONTINUOUS
 10
127.5957041711
 20
573.3028926441
 11
127.8783356628
 21
573.4660690379
  0
LINE
  5
218
100
AcDbEntity
  8
0
100
AcDbLine
 62
7
  6
CONTINUOUS
 10
143.7175935061
 20
565.627880004
 11
142.3033858317
 21
564.8113916963
  0
LINE
  5
219
100
AcDbEntity
  8
0
100
AcDbLine
 62
7
  6
CONTINUOUS
 10
155.0463994173
 20
572.8714800538
 11
181.9768111522
 21
587.3784737056
  0
LWPOLYLINE
  5
21A
100
AcDbEntity
  8
0
100
AcDbPolyline
 62
7
  6
CONTINUOUS
 90
4
 70
0
 10
151.9320760877
 20
574.2812789299
 10
145.6520177457
 20
571.6206199191
 10
138.7633638948
 20
568.4407922147
 10
137.5958854548
 20
567.8557659716
  0
LINE
  5
21B
100
AcDbEntity
  8
0
100
AcDbLine
 62
7
  6
CONTINUOUS
 10
168.8191786934
 20
571.4944785979
 11
187.3655142227
 21
582.9440325155
  0
LINE
  5
21C
100
AcDbEntity
  8
0
100
AcDbLine
 62
7
  6
CONTINUOUS
 10
161.4724720409
 20
569.3181182303
 11
187.3655142227
 21
584.2673749197
  0
LINE
  5
21D
100
AcDbEntity
  8
0
100
AcDbLine
 62
7
  6
CONTINUOUS
 10
188.9725024382
 20
579.7260162068
 11
171.461336086
 21
569.9689480277
  0
LINE
  5
21E
100
AcDbEntity
  8
0
100
AcDbLine
 62
7
  6
CONTINUOUS
 10
173.2291103989
 20
568.9483461414
 11
165.5081770514
 21
564.6463098543
  0
LINE
  5
21F
100
AcDbEntity
  8
0
100
AcDbLine
 62
7
  6
CONTINUOUS
 10
197.1041834529
 20
558.8600816663
 11
174.2749275976
 21
547.9859940534
  0
LINE
  5
220
100
AcDbEntity
  8
0
100
AcDbLine
 62
7
  6
CONTINUOUS
 10
175.6891470478
 20
547.1695125444
 11
198.5184029032
 21
558.0436001573
  0
LINE
  5
221
100
AcDbEntity
  8
0
100
AcDbLine
 62
7
  6
CONTINUOUS
 10
228.9241210845
 20
540.4892477129
 11
206.0948652292
 21
529.6151601
  0
LINE
  5
222
100
AcDbEntity
  8
0
100
AcDbLine
 62
7
  6
CONTINUOUS
 10
207.5090846795
 20
528.7986785909
 11
230.3383405348
 21
539.6727662039
  0
LINE
  5
223
100
AcDbEntity
  8
0
100
AcDbLine
 62
7
  6
CONTINUOUS
 10
198.5184029032
 20
556.8188465316
 11
197.4577471474
 21
555.6353683058
  0
LINE
  5
224
100
AcDbEntity
  8
0
100
AcDbLine
 62
7
  6
CONTINUOUS
 10
197.4577471474
 20
552.8967905027
 11
193.7812841072
 21
548.3231931631
  0
LINE
  5
225
100
AcDbEntity
  8
0
100
AcDbLine
 62
7
  6
CONTINUOUS
 10
260.7440587162
 20
522.1184137595
 11
237.9148028608
 21
511.2443261466
  0
LINE
  5
226
100
AcDbEntity
  8
0
100
AcDbLine
 62
7
  6
CONTINUOUS
 10
239.3290223111
 20
510.4278446375
 11
262.1582781664
 21
521.3019322505
  0
LINE
  5
227
100
AcDbEntity
  8
0
100
AcDbLine
 62
7
  6
CONTINUOUS
 10
230.3383405348
 20
538.4480125782
 11
229.277684779
 21
537.2645343523
  0
LINE
  5
228
100
AcDbEntity
  8
0
100
AcDbLine
 62
7
  6
CONTINUOUS
 10
292.5639963478
 20
503.7475798061
 11
269.7347404924
 21
492.8734921931
  0
LINE
  5
229
100
AcDbEntity
  8
0
100
AcDbLine
 62
7
  6
CONTINUOUS
 10
271.1489599427
 20
492.0570106841
 11
293.9782157981
 21
502.931098297
  0
LINE
  5
22A
100
AcDbEntity
  8
0
100
AcDbLine
 62
7
  6
CONTINUOUS
 10
313.5340509947
 20
164.8818015891
 11
312.7129902542
 21
164.9220608328
  0
LINE
  5
22B
100
AcDbEntity
  8
0
100
AcDbLine
 62
7
  6
CONTINUOUS
 10
312.7138239602
 20
157.5741083203
 11
313.5340509947
 21
157.5332798349
  0
LINE
  5
22C
100
AcDbEntity
  8
0
100
AcDbLine
 62
7
  6
CONTINUOUS
 10
98.4922410284
 20
578.3503691322
 11
98.4922375852
 21
169.0125058321
  0
LINE
  5
22D
100
AcDbEntity
  8
0
100
AcDbLine
 62
7
  6
CONTINUOUS
 10
229.277684779
 20
534.5259565493
 11
225.6012217388
 21
529.9523592096
  0
LINE
  5
22E
100
AcDbEntity
  8
0
100
AcDbLine
 62
7
  6
CONTINUOUS
 10
333.91733052
 20
113.2135391131
 11
329.604283643
 21
115.7036215554
  0
LINE
  5
22F
100
AcDbEntity
  8
0
100
AcDbLine
 62
7
  6
CONTINUOUS
 10
261.0976224106
 20
516.1551225959
 11
257.4211593704
 21
511.5815252562
  0
LINE
  5
230
100
AcDbEntity
  8
0
100
AcDbLine
 62
7
  6
CONTINUOUS
 10
262.1582781664
 20
520.0771786247
 11
261.0976224106
 21
518.8937003989
  0
LINE
  5
231
100
AcDbEntity
  8
0
100
AcDbLine
 62
7
  6
CONTINUOUS
 10
300.6959524888
 20
474.9984325005
 11
299.2817448143
 21
474.1819441928
  0
LINE
  5
232
100
AcDbEntity
  8
0
100
AcDbLine
 62
7
  6
CONTINUOUS
 10
301.5446965573
 20
472.8756670321
 11
301.827328049
 21
473.0388434259
  0
LINE
  5
233
100
AcDbEntity
  8
0
100
AcDbLine
 62
7
  6
CONTINUOUS
 10
354.4869758678
 20
123.650274057
 11
355.6330205874
 21
122.9886197982
  0
LINE
  5
234
100
AcDbEntity
  8
0
100
AcDbLine
 62
7
  6
CONTINUOUS
 10
316.2525079675
 20
464.3842184199
 11
316.535210332
 21
464.5474357318
  0
LINE
  5
235
100
AcDbEntity
  8
0
100
AcDbLine
 62
7
  6
CONTINUOUS
 10
329.1918757008
 20
471.8545807298
 11
355.6330205874
 21
487.1202825851
  0
LINE
  5
236
100
AcDbEntity
  8
0
100
AcDbLine
 62
7
  6
CONTINUOUS
 10
315.8367190575
 20
465.7757425618
 11
315.1220992986
 21
465.3632773106
  0
LINE
  5
237
100
AcDbEntity
  8
0
100
AcDbLine
 62
7
  6
CONTINUOUS
 10
316.535210332
 20
462.9155766647
 11
317.2498360058
 21
463.3302140317
  0
LINE
  5
238
100
AcDbEntity
  8
0
100
AcDbLine
 62
7
  6
CONTINUOUS
 10
323.313905948
 20
475.7243878086
 11
350.2443175169
 21
490.231381371
  0
LINE
  5
239
100
AcDbEntity
  8
0
100
AcDbLine
 62
7
  6
CONTINUOUS
 10
292.9175600423
 20
497.7842886425
 11
289.241097002
 21
493.2106913028
  0
LINE
  5
23A
100
AcDbEntity
  8
0
100
AcDbLine
 62
7
  6
CONTINUOUS
 10
293.9782157981
 20
501.7063446713
 11
292.9175600422
 21
500.5228664455
  0
LINE
  5
23B
100
AcDbEntity
  8
0
100
AcDbLine
 62
7
  6
CONTINUOUS
 10
329.6042832493
 20
464.829121623
 11
355.6330205874
 21
480.8979256781
  0
LINE
  5
23C
100
AcDbEntity
  8
0
100
AcDbLine
 62
7
  6
CONTINUOUS
 10
315.3291904256
 20
443.7633757369
 11
315.2746517849
 21
443.7303047795
  0
LINE
  5
23D
100
AcDbEntity
  8
0
100
AcDbLine
 62
7
  6
CONTINUOUS
 10
357.346349712
 20
470.9498738783
 11
342.0616035088
 21
461.8117333778
  0
LINE
  5
23E
100
AcDbEntity
  8
0
100
AcDbLine
 62
7
  6
CONTINUOUS
 10
349.1325712258
 20
475.6919938173
 11
329.6042832621
 21
464.4173988049
  0
LINE
  5
23F
100
AcDbEntity
  8
0
100
AcDbLine
 62
7
  6
CONTINUOUS
 10
316.2524370972
 20
447.4009272268
 11
316.535210332
 21
447.5641854556
  0
LINE
  5
240
100
AcDbEntity
  8
0
100
AcDbLine
 62
7
  6
CONTINUOUS
 10
316.2523782179
 20
444.7881080732
 11
317.6665858923
 21
445.6045963809
  0
LINE
  5
241
100
AcDbEntity
  8
0
100
AcDbLine
 62
7
  6
CONTINUOUS
 10
311.8716619881
 20
436.3933345786
 11
311.4248773612
 21
436.1353848937
  0
LINE
  5
242
100
AcDbEntity
  8
0
100
AcDbLine
 62
7
  6
CONTINUOUS
 10
187.3655142227
 20
584.2673749197
 11
187.3655142227
 21
582.9440325155
  0
LINE
  5
243
100
AcDbEntity
  8
0
100
AcDbLine
 62
7
  6
CONTINUOUS
 10
333.91733052
 20
452.0620422219
 11
317.6665858923
 21
440.8806322473
  0
LINE
  5
244
100
AcDbEntity
  8
0
100
AcDbLine
 62
7
  6
CONTINUOUS
 10
317.6665858923
 20
439.2476274131
 11
333.91733052
 21
450.4290373877
  0
LINE
  5
245
100
AcDbEntity
  8
0
100
AcDbLine
 62
7
  6
CONTINUOUS
 10
342.0616035087
 20
436.2684176535
 11
357.346349712
 21
445.9662489815
  0
LINE
  5
246
100
AcDbEntity
  8
0
100
AcDbLine
 62
7
  6
CONTINUOUS
 10
315.2746542508
 20
436.3817848562
 11
315.3291904756
 21
436.414854408
  0
LINE
  5
247
100
AcDbEntity
  8
0
100
AcDbLine
 62
7
  6
CONTINUOUS
 10
342.0616035088
 20
429.2200770024
 11
357.346349712
 21
437.7985266754
  0
LINE
  5
248
100
AcDbEntity
  8
0
100
AcDbLine
 62
7
  6
CONTINUOUS
 10
355.172865866
 20
439.6097536179
 11
331.9802604774
 21
426.9206696234
  0
LINE
  5
249
100
AcDbEntity
  8
0
100
AcDbLine
 62
7
  6
CONTINUOUS
 10
357.346349712
 20
158.5547000172
 11
355.1728658657
 21
160.36592696
  0
LINE
  5
24A
100
AcDbEntity
  8
0
100
AcDbLine
 62
7
  6
CONTINUOUS
 10
197.4577471474
 20
552.8967905027
 11
197.4577471474
 21
555.6353683058
  0
LINE
  5
24B
100
AcDbEntity
  8
0
100
AcDbLine
 62
7
  6
CONTINUOUS
 10
198.5184029032
 20
556.8188465316
 11
198.5184029032
 21
558.0436001573
  0
LINE
  5
24C
100
AcDbEntity
  8
0
100
AcDbLine
 62
7
  6
CONTINUOUS
 10
317.6665858923
 20
421.0958278128
 11
320.4842756051
 21
423.0756237815
  0
LINE
  5
24D
100
AcDbEntity
  8
0
100
AcDbLine
 62
7
  6
CONTINUOUS
 10
317.6665858923
 20
402.7825543924
 11
323.5329506948
 21
406.9044438019
  0
LINE
  5
24E
100
AcDbEntity
  8
0
100
AcDbLine
 62
7
  6
CONTINUOUS
 10
317.6665858923
 20
402.623337669
 11
317.9819479015
 21
402.8449327841
  0
LWPOLYLINE
  5
24F
100
AcDbEntity
  8
0
100
AcDbPolyline
 62
7
  6
CONTINUOUS
 90
3
 70
0
 10
322.1262966369
 20
418.9281709185
 10
326.5046701527
 20
421.6912194822
 10
331.4770660601
 20
424.7842079234
  0
LINE
  5
250
100
AcDbEntity
  8
0
100
AcDbLine
 62
7
  6
CONTINUOUS
 10
229.277684779
 20
534.5259565493
 11
229.277684779
 21
537.2645343524
  0
LINE
  5
251
100
AcDbEntity
  8
0
100
AcDbLine
 62
7
  6
CONTINUOUS
 10
230.3383405348
 20
538.4480125782
 11
230.3383405348
 21
539.6727662038
  0
LINE
  5
252
100
AcDbEntity
  8
0
100
AcDbLine
 62
7
  6
CONTINUOUS
 10
311.2520953277
 20
163.8944979334
 11
311.4248773612
 21
163.5037973451
  0
LINE
  5
253
100
AcDbEntity
  8
0
100
AcDbLine
 62
7
  6
CONTINUOUS
 10
261.0976224106
 20
516.1551225959
 11
261.0976224106
 21
518.8937003989
  0
LINE
  5
254
100
AcDbEntity
  8
0
100
AcDbLine
 62
7
  6
CONTINUOUS
 10
262.1582781664
 20
520.0771786247
 11
262.1582781664
 21
521.3019322504
  0
LINE
  5
255
100
AcDbEntity
  8
0
100
AcDbLine
 62
7
  6
CONTINUOUS
 10
335.2696768173
 20
286.4316943792
 11
333.2247022097
 21
287.6123343098
  0
LINE
  5
256
100
AcDbEntity
  8
0
100
AcDbLine
 62
7
  6
CONTINUOUS
 10
338.498532762
 20
285.7899108699
 11
336.3282825781
 21
287.0428770519
  0
LINE
  5
257
100
AcDbEntity
  8
0
100
AcDbLine
 62
7
  6
CONTINUOUS
 10
312.5262553585
 20
440.2418870994
 11
312.5690258839
 21
440.4710590728
  0
LINE
  5
258
100
AcDbEntity
  8
0
100
AcDbLine
 62
7
  6
CONTINUOUS
 10
292.9175600422
 20
500.5228664455
 11
292.9175600423
 21
497.7842886425
  0
LINE
  5
259
100
AcDbEntity
  8
0
100
AcDbLine
 62
7
  6
CONTINUOUS
 10
293.9782157981
 20
502.931098297
 11
293.9782157981
 21
501.7063446713
  0
LINE
  5
25A
100
AcDbEntity
  8
0
100
AcDbLine
 62
7
  6
CONTINUOUS
 10
306.3705862278
 20
48.9966673338
 11
306.3705992317
 21
458.3345241902
  0
LINE
  5
25B
100
AcDbEntity
  8
0
100
AcDbLine
 62
7
  6
CONTINUOUS
 10
336.3282825781
 20
287.0428770519
 11
335.2696768173
 21
286.4316943792
  0
LINE
  5
25C
100
AcDbEntity
  8
0
100
AcDbLine
 62
7
  6
CONTINUOUS
 10
311.4248773612
 20
441.2779196526
 11
311.4248773612
 21
433.9293978984
  0
LINE
  5
25D
100
AcDbEntity
  8
0
100
AcDbLine
 62
7
  6
CONTINUOUS
 10
311.4248773612
 20
163.5037973451
 11
311.4248773612
 21
156.155275591
  0
LINE
  5
25E
100
AcDbEntity
  8
0
100
AcDbLine
 62
7
  6
CONTINUOUS
 10
311.8716619881
 20
161.0687195225
 11
311.8716619881
 21
164.3386329653
  0
LINE
  5
25F
100
AcDbEntity
  8
0
100
AcDbLine
 62
7
  6
CONTINUOUS
 10
311.8716619881
 20
436.3933345786
 11
311.8716619881
 21
439.7862267276
  0
LINE
  5
260
100
AcDbEntity
  8
0
100
AcDbLine
 62
7
  6
CONTINUOUS
 10
312.5262553585
 20
442.5689189882
 11
312.5262553585
 21
440.2418870994
  0
LINE
  5
261
100
AcDbEntity
  8
0
100
AcDbLine
 62
7
  6
CONTINUOUS
 10
312.5262553585
 20
157.4462749265
 11
312.5262553585
 21
159.7733068154
  0
LINE
  5
262
100
AcDbEntity
  8
0
100
AcDbLine
 62
7
  6
CONTINUOUS
 10
312.5693417695
 20
157.675446461
 11
312.5693417695
 21
160.0024783499
  0
LINE
  5
263
100
AcDbEntity
  8
0
100
AcDbLine
 62
7
  6
CONTINUOUS
 10
312.5693417695
 20
440.4710586339
 11
312.5693417695
 21
442.5689189882
  0
LINE
  5
264
100
AcDbEntity
  8
0
100
AcDbLine
 62
7
  6
CONTINUOUS
 10
312.7127560746
 20
157.5747621759
 11
312.7121919455
 21
164.9233124234
  0
LINE
  5
265
100
AcDbEntity
  8
0
100
AcDbLine
 62
7
  6
CONTINUOUS
 10
312.7126373094
 20
435.348890482
 11
312.7127560747
 21
442.6974062375
  0
LINE
  5
266
100
AcDbEntity
  8
0
100
AcDbLine
 62
7
  6
CONTINUOUS
 10
313.5340509947
 20
157.5332798349
 11
313.5340509947
 21
164.8818015891
  0
LINE
  5
267
100
AcDbEntity
  8
0
100
AcDbLine
 62
7
  6
CONTINUOUS
 10
313.5340509947
 20
435.3074021424
 11
313.5340509947
 21
442.6559238966
  0
LINE
  5
268
100
AcDbEntity
  8
0
100
AcDbLine
 62
7
  6
CONTINUOUS
 10
315.0070193474
 20
166.3975507847
 11
315.0070193474
 21
297.3250231494
  0
LINE
  5
269
100
AcDbEntity
  8
0
100
AcDbLine
 62
7
  6
CONTINUOUS
 10
315.0070196201
 20
305.284611655
 11
315.0070196201
 21
436.219497178
  0
LINE
  5
26A
100
AcDbEntity
  8
0
100
AcDbLine
 62
7
  6
CONTINUOUS
 10
315.1513733499
 20
166.2336999829
 11
315.1513733499
 21
297.4158773554
  0
LINE
  5
26B
100
AcDbEntity
  8
0
100
AcDbLine
 62
7
  6
CONTINUOUS
 10
315.1513733499
 20
305.1207612097
 11
315.1513733499
 21
436.3070300641
  0
LINE
  5
26C
100
AcDbEntity
  8
0
100
AcDbLine
 62
7
  6
CONTINUOUS
 10
315.1513733499
 20
444.0078224113
 11
315.1513733499
 21
444.2594556033
  0
LINE
  5
26D
100
AcDbEntity
  8
0
100
AcDbLine
 62
7
  6
CONTINUOUS
 10
315.3290926539
 20
443.7633168594
 11
315.3290926539
 21
436.4147951052
  0
LINE
  5
26E
100
AcDbEntity
  8
0
100
AcDbLine
 62
7
  6
CONTINUOUS
 10
315.329190723
 20
304.8763146626
 11
315.329190723
 21
297.5277928962
  0
LINE
  5
26F
100
AcDbEntity
  8
0
100
AcDbLine
 62
7
  6
CONTINUOUS
 10
315.3292308371
 20
158.6406679327
 11
315.3292308371
 21
165.9891896868
  0
LINE
  5
270
100
AcDbEntity
  8
0
100
AcDbLine
 62
7
  6
CONTINUOUS
 10
316.2524370972
 20
464.3843411717
 11
316.2524370972
 21
57.7661374411
  0
LINE
  5
271
100
AcDbEntity
  8
0
100
AcDbLine
 62
7
  6
CONTINUOUS
 10
316.535210332
 20
464.5474357318
 11
316.535210332
 21
447.5641854556
  0
LINE
  5
272
100
AcDbEntity
  8
0
100
AcDbLine
 62
7
  6
CONTINUOUS
 10
316.535210332
 20
93.855338355
 11
316.535210332
 21
76.8720880787
  0
LINE
  5
273
100
AcDbEntity
  8
0
100
AcDbLine
 62
7
  6
CONTINUOUS
 10
317.6665858923
 20
94.5085570152
 11
317.6665858923
 21
445.6045963809
  0
LINE
  5
274
100
AcDbEntity
  8
0
100
AcDbLine
 62
7
  6
CONTINUOUS
 10
329.6042830789
 20
98.1579698753
 11
329.6042833986
 21
108.6129196121
  0
LINE
  5
275
100
AcDbEntity
  8
0
100
AcDbLine
 62
7
  6
CONTINUOUS
 10
329.6042835675
 20
454.5521247078
 11
329.6042830748
 21
470.4648124696
  0
LINE
  5
276
100
AcDbEntity
  8
0
100
AcDbLine
 62
7
  6
CONTINUOUS
 10
338.498532762
 20
285.7899108699
 11
317.6665858923
 21
271.4563806929
  0
LINE
  5
277
100
AcDbEntity
  8
0
100
AcDbLine
 62
7
  6
CONTINUOUS
 10
317.6665858923
 20
269.8233758587
 11
338.498532762
 21
284.1569060356
  0
LINE
  5
278
100
AcDbEntity
  8
0
100
AcDbLine
 62
7
  6
CONTINUOUS
 10
333.91733052
 20
111.5805342789
 11
333.91733052
 21
113.2135391131
  0
LINE
  5
279
100
AcDbEntity
  8
0
100
AcDbLine
 62
7
  6
CONTINUOUS
 10
333.91733052
 20
450.4290373876
 11
333.91733052
 21
452.0620422219
  0
LINE
  5
27A
100
AcDbEntity
  8
0
100
AcDbLine
 62
7
  6
CONTINUOUS
 10
338.498532762
 20
285.7899108699
 11
338.498532762
 21
284.1569060356
  0
LINE
  5
27B
100
AcDbEntity
  8
0
100
AcDbLine
 62
7
  6
CONTINUOUS
 10
342.0616035088
 20
461.8117333779
 11
342.0616035088
 21
436.2684176536
  0
LINE
  5
27C
100
AcDbEntity
  8
0
100
AcDbLine
 62
7
  6
CONTINUOUS
 10
342.0616035088
 20
429.2200770024
 11
342.0616035088
 21
157.0245909955
  0
LINE
  5
27D
100
AcDbEntity
  8
0
100
AcDbLine
 62
7
  6
CONTINUOUS
 10
342.0616035088
 20
149.9762503443
 11
342.0616035088
 21
124.4329346199
  0
LINE
  5
27E
100
AcDbEntity
  8
0
100
AcDbLine
 62
7
  6
CONTINUOUS
 10
349.1325712258
 20
476.8848824903
 11
349.1325712258
 21
475.6919938173
  0
LINE
  5
27F
100
AcDbEntity
  8
0
100
AcDbLine
 62
7
  6
CONTINUOUS
 10
349.1325712258
 20
126.7815276146
 11
349.1325712258
 21
128.6603843671
  0
LINE
  5
280
100
AcDbEntity
  8
0
100
AcDbLine
 62
7
  6
CONTINUOUS
 10
312.5673081183
 20
160.0024843016
 11
312.5262553585
 21
159.7733068154
  0
LINE
  5
281
100
AcDbEntity
  8
0
100
AcDbLine
 62
7
  6
CONTINUOUS
 10
312.7135052742
 20
435.3480079602
 11
313.5340509947
 21
435.3074021424
  0
LINE
  5
282
100
AcDbEntity
  8
0
100
AcDbLine
 62
7
  6
CONTINUOUS
 10
355.6330205874
 20
122.9886197982
 11
355.6330205874
 21
116.7662628913
  0
LINE
  5
283
100
AcDbEntity
  8
0
100
AcDbLine
 62
7
  6
CONTINUOUS
 10
355.6330205874
 20
480.8979256781
 11
355.6330205874
 21
487.1202825851
  0
LINE
  5
284
100
AcDbEntity
  8
0
100
AcDbLine
 62
7
  6
CONTINUOUS
 10
357.346349712
 20
133.5710751204
 11
357.346349712
 21
158.5547000172
  0
LINE
  5
285
100
AcDbEntity
  8
0
100
AcDbLine
 62
7
  6
CONTINUOUS
 10
357.346349712
 20
166.7224223234
 11
357.346349712
 21
437.7985266754
  0
LINE
  5
286
100
AcDbEntity
  8
0
100
AcDbLine
 62
7
  6
CONTINUOUS
 10
357.346349712
 20
445.9662489816
 11
357.346349712
 21
470.9498738783
  0
LINE
  5
287
100
AcDbEntity
  8
0
100
AcDbLine
 62
7
  6
CONTINUOUS
 10
313.5340509947
 20
442.6559238966
 11
312.7138239604
 21
442.696752382
  0
LINE
  5
288
100
AcDbEntity
  8
0
100
AcDbLine
 62
7
  6
CONTINUOUS
 10
317.6665858923
 20
445.6045963809
 11
316.535210332
 21
447.5641854556
  0
LINE
  5
289
100
AcDbEntity
  8
0
100
AcDbLine
 62
7
  6
CONTINUOUS
 10
301.827328049
 20
473.0388434259
 11
300.6959524888
 21
474.9984325005
  0
LINE
  5
28A
100
AcDbEntity
  8
0
100
AcDbLine
 62
7
  6
CONTINUOUS
 10
311.2518830739
 20
441.6819750962
 11
311.4248773612
 21
441.2779196526
  0
LINE
  5
28B
100
AcDbEntity
  8
0
100
AcDbLine
 62
7
  6
CONTINUOUS
 10
329.6042830789
 20
98.1579698753
 11
329.2678414826
 21
97.295846581
  0
LINE
  5
28C
100
AcDbEntity
  8
0
100
AcDbLine
 62
7
  6
CONTINUOUS
 10
311.1728573423
 20
163.8340260246
 11
311.2520953277
 21
163.8944979334
  0
LINE
  5
28D
100
AcDbEntity
  8
0
100
AcDbLine
 62
7
  6
CONTINUOUS
 10
311.1706769571
 20
163.835018792
 11
311.2520953277
 21
163.8944979334
  0
LINE
  5
28E
100
AcDbEntity
  8
0
100
AcDbLine
 62
7
  6
CONTINUOUS
 10
315.3291906964
 20
165.98925351
 11
315.2746539312
 21
165.9561837024
  0
LINE
  5
28F
100
AcDbEntity
  8
0
100
AcDbLine
 62
7
  6
CONTINUOUS
 10
333.91733052
 20
452.0620422219
 11
329.6042835675
 21
454.5521247078
  0
LINE
  5
290
100
AcDbEntity
  8
0
100
AcDbLine
 62
7
  6
CONTINUOUS
 10
111.1906168046
 20
582.7741599825
 11
316.2524370972
 21
464.3843411717
  0
LINE
  5
291
100
AcDbEntity
  8
0
100
AcDbLine
 62
7
  6
CONTINUOUS
 10
127.8783356628
 20
573.4660690379
 11
142.5862179459
 21
564.9746613438
  0
LINE
  5
292
100
AcDbEntity
  8
0
100
AcDbLine
 62
7
  6
CONTINUOUS
 10
301.827328049
 20
473.0388434259
 11
316.535210332
 21
464.5474357318
  0
LINE
  5
293
100
AcDbEntity
  8
0
100
AcDbLine
 62
7
  6
CONTINUOUS
 10
143.7175935061
 20
565.627880004
 11
300.6959524888
 21
474.9984325005
  0
LINE
  5
294
100
AcDbEntity
  8
0
100
AcDbLine
 62
7
  6
CONTINUOUS
 10
357.346349712
 20
437.7985266754
 11
355.1728658657
 21
439.6097536182
  0
LINE
  5
295
100
AcDbEntity
  8
0
100
AcDbLine
 62
7
  6
CONTINUOUS
 10
349.1325712258
 20
126.7815276146
 11
347.3650808711
 21
123.6841918008
  0
LINE
  5
296
100
AcDbEntity
  8
0
100
AcDbLine
 62
7
  6
CONTINUOUS
 10
317.9817553015
 20
150.5956109128
 11
317.6665858923
 21
150.3741817131
  0
LINE
  5
297
100
AcDbEntity
  8
0
100
AcDbLine
 62
7
  6
CONTINUOUS
 10
322.5181023197
 20
146.8872498619
 11
317.6665858923
 21
143.47842388
  0
LINE
  5
298
100
AcDbEntity
  8
0
100
AcDbLine
 62
7
  6
CONTINUOUS
 10
342.0616035087
 20
157.0245909953
 11
357.346349712
 21
166.7224223234
  0
LWPOLYLINE
  5
299
100
AcDbEntity
  8
0
100
AcDbPolyline
 62
7
  6
CONTINUOUS
 90
3
 70
0
 10
324.417963824
 20
141.1306079692
 10
326.5736814723
 20
142.4905700817
 10
331.4771062527
 20
145.5404061594
  0
LINE
  5
29A
100
AcDbEntity
  8
0
100
AcDbLine
 62
7
  6
CONTINUOUS
 10
355.1728658659
 20
160.3659269598
 11
331.9802604772
 21
147.6768429653
  0
LINE
  5
29B
100
AcDbEntity
  8
0
100
AcDbLine
 62
7
  6
CONTINUOUS
 10
161.0416463498
 20
567.2250042194
 11
185.2831731645
 21
553.2294688086
  0
LINE
  5
29C
100
AcDbEntity
  8
0
100
AcDbLine
 62
7
  6
CONTINUOUS
 10
191.4473645311
 20
549.670651775
 11
217.1031107961
 21
534.8586348552
  0
LINE
  5
29D
100
AcDbEntity
  8
0
100
AcDbLine
 62
7
  6
CONTINUOUS
 10
223.2673021627
 20
531.2998178216
 11
248.9230484277
 21
516.4878009018
  0
LINE
  5
29E
100
AcDbEntity
  8
0
100
AcDbLine
 62
7
  6
CONTINUOUS
 10
255.0872397943
 20
512.9289838682
 11
280.7429860593
 21
498.1169669484
  0
LINE
  5
29F
100
AcDbEntity
  8
0
100
AcDbLine
 62
7
  6
CONTINUOUS
 10
286.9071774259
 20
494.5581499147
 11
315.898676157
 21
477.8202789794
  0
LINE
  5
2A0
100
AcDbEntity
  8
0
100
AcDbLine
 62
7
  6
CONTINUOUS
 10
328.1944693537
 20
472.9066566419
 11
319.7170515977
 21
477.8009858901
  0
LINE
  5
2A1
100
AcDbEntity
  8
0
100
AcDbLine
 62
7
  6
CONTINUOUS
 10
161.3244731648
 20
569.2469149026
 11
152.8470605455
 21
574.1412400712
  0
LINE
  5
2A2
100
AcDbEntity
  8
0
100
AcDbLine
 62
7
  6
CONTINUOUS
 10
167.5789101746
 20
572.2105317619
 11
173.2291103989
 21
568.9483461414
  0
LINE
  5
2A3
100
AcDbEntity
  8
0
100
AcDbLine
 62
7
  6
CONTINUOUS
 10
324.2037142946
 20
481.7852046356
 11
329.2048675822
 21
478.897757153
  0
LINE
  5
2A4
100
AcDbEntity
  8
0
100
AcDbLine
 62
7
  6
CONTINUOUS
 10
262.1582781664
 20
521.3019322504
 11
260.7440587162
 21
522.1184137595
  0
LINE
  5
2A5
100
AcDbEntity
  8
0
100
AcDbLine
 62
7
  6
CONTINUOUS
 10
230.3383405348
 20
539.6727662038
 11
228.9241210845
 21
540.4892477129
  0
LINE
  5
2A6
100
AcDbEntity
  8
0
100
AcDbLine
 62
7
  6
CONTINUOUS
 10
198.5184029032
 20
558.0436001573
 11
197.1041834529
 21
558.8600816663
  0
LINE
  5
2A7
100
AcDbEntity
  8
0
100
AcDbLine
 62
7
  6
CONTINUOUS
 10
292.5639963478
 20
503.7475798061
 11
293.9782157981
 21
502.931098297
  0
LINE
  5
2A8
100
AcDbEntity
  8
0
100
AcDbLine
 62
7
  6
CONTINUOUS
 10
357.346349712
 20
470.9498738783
 11
349.1325712258
 21
475.6919938173
  0
LINE
  5
2A9
100
AcDbEntity
  8
0
100
AcDbLine
 62
7
  6
CONTINUOUS
 10
320.4842774717
 20
132.7263976155
 11
317.6665858923
 21
130.7466003353
  0
LINE
  5
2AA
100
AcDbEntity
  8
0
100
AcDbLine
 62
7
  6
CONTINUOUS
 10
342.0616035088
 20
149.9762503443
 11
357.346349712
 21
158.5547000172
  0
LINE
  5
2AB
100
AcDbEntity
  8
0
100
AcDbLine
 62
7
  6
CONTINUOUS
 10
188.9725024382
 20
579.7260162069
 11
347.0064012606
 21
488.4871662792
  0
LINE
  5
2AC
100
AcDbEntity
  8
0
100
AcDbLine
 62
7
  6
CONTINUOUS
 10
355.6330205874
 20
487.1202825851
 11
350.2443175169
 21
490.231381371
  0
LINE
  5
2AD
100
AcDbEntity
  8
0
100
AcDbLine
 62
7
  6
CONTINUOUS
 10
181.9768111522
 20
587.3784737056
 11
187.3655142227
 21
584.2673749197
  0
LINE
  5
2AE
100
AcDbEntity
  8
0
100
AcDbLine
 62
7
  6
CONTINUOUS
 10
333.91733052
 20
113.2135391131
 11
317.6665858923
 21
102.0321291385
  0
LINE
  5
2AF
100
AcDbEntity
  8
0
100
AcDbLine
 62
7
  6
CONTINUOUS
 10
317.6665858923
 20
100.3991243043
 11
333.91733052
 21
111.5805342789
  0
LWPOLYLINE
  5
2B0
100
AcDbEntity
  8
0
100
AcDbPolyline
 62
7
  6
CONTINUOUS
 90
4
 70
0
 10
316.535210332
 20
88.0927821716
 10
317.6256692368
 20
88.8113745041
 10
323.8238242544
 20
93.187174493
 10
329.2680637076
 20
97.2955013491
  0
LINE
  5
2B1
100
AcDbEntity
  8
0
100
AcDbLine
 62
7
  6
CONTINUOUS
 10
329.6042831566
 20
100.6974587788
 11
355.6330205874
 21
116.7662628913
  0
LINE
  5
2B2
100
AcDbEntity
  8
0
100
AcDbLine
 62
7
  6
CONTINUOUS
 10
342.0616035089
 20
124.43293462
 11
357.346349712
 21
133.5710751204
  0
LINE
  5
2B3
100
AcDbEntity
  8
0
100
AcDbLine
 62
7
  6
CONTINUOUS
 10
347.3650808711
 20
123.6841918008
 11
331.8442056501
 21
114.4104312375
  0
LINE
  5
2B4
100
AcDbEntity
  8
0
100
AcDbLine
 62
7
  6
CONTINUOUS
 10
329.6042833787
 20
107.9610200629
 11
355.6330205874
 21
122.9886197982
  0
LINE
  5
2B5
100
AcDbEntity
  8
0
100
AcDbLine
 62
7
  6
CONTINUOUS
 10
316.2523782179
 20
93.6920687074
 11
317.6665858923
 21
94.5085570152
  0
LINE
  5
2B6
100
AcDbEntity
  8
0
100
AcDbLine
 62
7
  6
CONTINUOUS
 10
333.91733052
 20
112.5697262578
 11
354.4869758678
 21
123.650274057
  0
LINE
  5
2B7
100
AcDbEntity
  8
0
100
AcDbLine
 62
7
  6
CONTINUOUS
 10
316.2524370972
 20
76.70882985
 11
316.535210332
 21
76.8720880787
  0
LINE
  5
2B8
100
AcDbEntity
  8
0
100
AcDbLine
 62
7
  6
CONTINUOUS
 10
151.9322596728
 20
574.2809221805
 11
152.8470605455
 21
574.1412400712
  0
ARC
  5
2B9
100
AcDbEntity
  8
0
100
AcDbCircle
 62
7
  6
CONTINUOUS
 10
114.3645168576
 20
433.1494524272
 40
383.6037690593
100
AcDbArc
 50
304.1435907689
 51
306.4110169992
  0
ARC
  5
2BA
100
AcDbEntity
  8
0
100
AcDbCircle
 62
7
  6
CONTINUOUS
 10
238.5489795641
 20
363.148700293
 40
227.7338419499
100
AcDbArc
 50
112.1062458345
 51
112.3044721046
  0
ARC
  5
2BB
100
AcDbEntity
  8
0
100
AcDbCircle
 62
7
  6
CONTINUOUS
 10
190.071946862
 20
277.2462548364
 40
227.0239557737
100
AcDbArc
 50
307.7249085149
 51
307.9238353632
  0
ARC
  5
2BC
100
AcDbEntity
  8
0
100
AcDbCircle
 62
7
  6
CONTINUOUS
 10
238.0042420246
 20
364.4417769039
 40
226.330770238
100
AcDbArc
 50
112.301125183
 51
116.1809225704
  0
ARC
  5
2BD
100
AcDbEntity
  8
0
100
AcDbCircle
 62
7
  6
CONTINUOUS
 10
190.9557180575
 20
276.0810799926
 40
225.5615983723
100
AcDbArc
 50
303.8344140215
 51
307.7284421266
  0
ARC
  5
2BE
100
AcDbEntity
  8
0
100
AcDbCircle
 62
7
  6
CONTINUOUS
 10
205.9942411647
 20
374.7059669298
 40
124.2883087469
100
AcDbArc
 50
21.9797503866
 51
22.903046948
  0
ARC
  5
2BF
100
AcDbEntity
  8
0
100
AcDbCircle
 62
7
  6
CONTINUOUS
 10
292.1944173991
 20
217.6175321767
 40
71.8117311168
100
AcDbArc
 50
290.7756453445
 51
291.0447164586
  0
ARC
  5
2C0
100
AcDbEntity
  8
0
100
AcDbCircle
 62
7
  6
CONTINUOUS
 10
99.9882045394
 20
793.4110149133
 40
409.3273644454
100
AcDbArc
 50
302.0517923189
 51
304.1221804773
  0
ARC
  5
2C1
100
AcDbEntity
  8
0
100
AcDbCircle
 62
7
  6
CONTINUOUS
 10
100.2827640691
 20
454.1132697242
 40
408.7902265385
100
AcDbArc
 50
302.1260938356
 51
304.1233238277
  0
ARC
  5
2C2
100
AcDbEntity
  8
0
100
AcDbCircle
 62
7
  6
CONTINUOUS
 10
102.0150476476
 20
620.8281264616
 40
405.5744919273
100
AcDbArc
 50
302.1243031971
 51
304.7557612893
  0
ARC
  5
2C3
100
AcDbEntity
  8
0
100
AcDbCircle
 62
7
  6
CONTINUOUS
 10
117.4214020362
 20
766.2283233873
 40
378.3287993143
100
AcDbArc
 50
304.3400320444
 51
306.4249808908
  0
ARC
  5
2C4
100
AcDbEntity
  8
0
100
AcDbCircle
 62
7
  6
CONTINUOUS
 10
434.752244305
 20
147.7116970807
 40
407.0174202835
100
AcDbArc
 50
116.1944197957
 51
117.8795914854
  0
ARC
  5
2C5
100
AcDbEntity
  8
0
100
AcDbCircle
 62
7
  6
CONTINUOUS
 10
402.932306673
 20
166.0825310347
 40
407.0174202828
100
AcDbArc
 50
116.1944197956
 51
117.8795914854
  0
ARC
  5
2C6
100
AcDbEntity
  8
0
100
AcDbCircle
 62
7
  6
CONTINUOUS
 10
371.1123690409
 20
184.4533649891
 40
407.0174202817
100
AcDbArc
 50
116.1944197956
 51
117.8795914854
  0
ARC
  5
2C7
100
AcDbEntity
  8
0
100
AcDbCircle
 62
7
  6
CONTINUOUS
 10
466.5721819317
 20
129.3408631369
 40
407.0174202726
100
AcDbArc
 50
116.1944197956
 51
117.8795914854
  0
ARC
  5
2C8
100
AcDbEntity
  8
0
100
AcDbCircle
 62
7
  6
CONTINUOUS
 10
334.0331468692
 20
215.5528713111
 40
391.917527442
100
AcDbArc
 50
114.8476527521
 51
116.1930948122
  0
ARC
  5
2C9
100
AcDbEntity
  8
0
100
AcDbCircle
 62
7
  6
CONTINUOUS
 10
489.6912025547
 20
127.167892503
 40
389.6598237335
100
AcDbArc
 50
114.8447286478
 51
115.8624175342
  0
ARC
  5
2CA
100
AcDbEntity
  8
0
100
AcDbCircle
 62
7
  6
CONTINUOUS
 10
487.7626092518
 20
128.5099786189
 40
389.3005232938
100
AcDbArc
 50
114.8431302936
 51
116.1976172707
  0
ARC
  5
2CB
100
AcDbEntity
  8
0
100
AcDbCircle
 62
7
  6
CONTINUOUS
 10
330.4567381103
 20
220.3905434812
 40
387.69381087
100
AcDbArc
 50
114.842148206
 51
115.8649979756
  0
ARC
  5
2CC
100
AcDbEntity
  8
0
100
AcDbCircle
 62
7
  6
CONTINUOUS
 10
363.1033322409
 20
218.0597212223
 40
92.7229368244
100
AcDbArc
 50
121.0131922424
 51
121.2508845015
  0
ARC
  5
2CD
100
AcDbEntity
  8
0
100
AcDbCircle
 62
7
  6
CONTINUOUS
 10
363.1017912158
 20
356.9492631528
 40
92.7200169421
100
AcDbArc
 50
121.0526566215
 51
121.2462309358
  0
ARC
  5
2CE
100
AcDbEntity
  8
0
100
AcDbCircle
 62
7
  6
CONTINUOUS
 10
362.769232348
 20
225.9605264898
 40
92.0774628903
100
AcDbArc
 50
121.0120822285
 51
121.7257982715
  0
ARC
  5
2CF
100
AcDbEntity
  8
0
100
AcDbCircle
 62
7
  6
CONTINUOUS
 10
362.3429141903
 20
80.4245295998
 40
91.2582297071
100
AcDbArc
 50
121.0089809797
 51
122.3332928077
  0
ARC
  5
2D0
100
AcDbEntity
  8
0
100
AcDbCircle
 62
7
  6
CONTINUOUS
 10
362.3134146882
 20
365.594572849
 40
91.2024020935
100
AcDbArc
 50
121.0485871915
 51
122.3335601205
  0
ARC
  5
2D1
100
AcDbEntity
  8
0
100
AcDbCircle
 62
7
  6
CONTINUOUS
 10
362.3133397101
 20
87.8205661079
 40
91.202264344
100
AcDbArc
 50
121.0485827224
 51
122.3335591517
  0
ARC
  5
2D2
100
AcDbEntity
  8
0
100
AcDbCircle
 62
7
  6
CONTINUOUS
 10
362.1707959424
 20
358.4748584453
 40
90.9327923803
100
AcDbArc
 50
121.2433335089
 51
122.3347393218
  0
ARC
  5
2D3
100
AcDbEntity
  8
0
100
AcDbCircle
 62
7
  6
CONTINUOUS
 10
356.4592525231
 20
374.4312430505
 40
80.6013220671
100
AcDbArc
 50
123.9680129072
 51
128.4210183465
  0
ARC
  5
2D4
100
AcDbEntity
  8
0
100
AcDbCircle
 62
7
  6
CONTINUOUS
 10
356.4590547857
 20
96.6574092498
 40
80.6009723123
100
AcDbArc
 50
123.9680109197
 51
128.4209966938
  0
ARC
  5
2D5
100
AcDbEntity
  8
0
100
AcDbCircle
 62
7
  6
CONTINUOUS
 10
355.4203098101
 20
90.7284376678
 40
78.8433205604
100
AcDbArc
 50
123.9183497001
 51
128.4707159191
  0
ARC
  5
2D6
100
AcDbEntity
  8
0
100
AcDbCircle
 62
7
  6
CONTINUOUS
 10
355.419529544
 20
368.5036484013
 40
78.8419819509
100
AcDbArc
 50
123.9183205316
 51
128.4706488425
  0
ARC
  5
2D7
100
AcDbEntity
  8
0
100
AcDbCircle
 62
7
  6
CONTINUOUS
 10
345.6899882834
 20
393.8699668662
 40
58.9211980297
100
AcDbArc
 50
121.2180126167
 51
121.3823037072
  0
ARC
  5
2D8
100
AcDbEntity
  8
0
100
AcDbCircle
 62
7
  6
CONTINUOUS
 10
345.1047115429
 20
255.9370318071
 40
57.8018697255
100
AcDbArc
 50
121.379528103
 51
122.4686962217
  0
ARC
  5
2D9
100
AcDbEntity
  8
0
100
AcDbCircle
 62
7
  6
CONTINUOUS
 10
355.6076041874
 20
359.7236521502
 40
57.2287939297
100
AcDbArc
 50
129.6762488255
 51
131.1064620343
  0
ARC
  5
2DA
100
AcDbEntity
  8
0
100
AcDbCircle
 62
7
  6
CONTINUOUS
 10
344.1634218482
 20
396.3197745427
 40
56.0348220379
100
AcDbArc
 50
121.3541643311
 51
124.1423544588
  0
ARC
  5
2DB
100
AcDbEntity
  8
0
100
AcDbCircle
 62
7
  6
CONTINUOUS
 10
344.1562237778
 20
118.5569638934
 40
56.0214168745
100
AcDbArc
 50
121.353897334
 51
124.1437870503
  0
ARC
  5
2DC
100
AcDbEntity
  8
0
100
AcDbCircle
 62
7
  6
CONTINUOUS
 10
342.7999659838
 20
113.2361510879
 40
53.5820175511
100
AcDbArc
 50
124.1618234737
 51
124.4021237496
  0
ARC
  5
2DD
100
AcDbEntity
  8
0
100
AcDbCircle
 62
7
  6
CONTINUOUS
 10
342.6459043997
 20
115.774344761
 40
53.3207456833
100
AcDbArc
 50
124.3937324125
 51
124.8629329143
  0
ARC
  5
2DE
100
AcDbEntity
  8
0
100
AcDbCircle
 62
7
  6
CONTINUOUS
 10
342.4833134624
 20
121.0326734914
 40
53.033470507
100
AcDbArc
 50
124.151308533
 51
125.4311565335
  0
ARC
  5
2DF
100
AcDbEntity
  8
0
100
AcDbCircle
 62
7
  6
CONTINUOUS
 10
342.2232505364
 20
396.8531647903
 40
52.5784437409
100
AcDbArc
 50
124.3893154637
 51
125.8101395651
  0
ARC
  5
2E0
100
AcDbEntity
  8
0
100
AcDbCircle
 62
7
  6
CONTINUOUS
 10
342.0799161142
 20
392.0411268988
 40
52.3246780377
100
AcDbArc
 50
124.1433972411
 51
125.8649503648
  0
ARC
  5
2E1
100
AcDbEntity
  8
0
100
AcDbCircle
 62
7
  6
CONTINUOUS
 10
342.0099935526
 20
116.6844825281
 40
52.2104614993
100
AcDbArc
 50
124.8612536756
 51
125.812913516
  0
ARC
  5
2E2
100
AcDbEntity
  8
0
100
AcDbCircle
 62
7
  6
CONTINUOUS
 10
341.5011607614
 20
122.4133882626
 40
51.3390687895
100
AcDbArc
 50
125.4313389969
 51
126.0899276947
  0
ARC
  5
2E3
100
AcDbEntity
  8
0
100
AcDbCircle
 62
7
  6
CONTINUOUS
 10
339.1860008138
 20
125.4904502745
 40
47.4885702625
100
AcDbArc
 50
126.1526260889
 51
130.2690843712
  0
ARC
  5
2E4
100
AcDbEntity
  8
0
100
AcDbCircle
 62
7
  6
CONTINUOUS
 10
335.9881389533
 20
129.2308468805
 40
42.5675610343
100
AcDbArc
 50
130.2390512221
 51
134.0888178925
  0
ARC
  5
2E5
100
AcDbEntity
  8
0
100
AcDbCircle
 62
7
  6
CONTINUOUS
 10
328.7000761608
 20
417.6107822855
 40
29.7298127361
100
AcDbArc
 50
125.9367730105
 51
126.1503014939
  0
ARC
  5
2E6
100
AcDbEntity
  8
0
100
AcDbCircle
 62
7
  6
CONTINUOUS
 10
331.5631316594
 20
427.7555297255
 40
12.0267761739
100
AcDbArc
 50
198.3822540376
 51
202.900051322
  0
ARC
  5
2E7
100
AcDbEntity
  8
0
100
AcDbCircle
 62
7
  6
CONTINUOUS
 10
310.7433145548
 20
154.7728096131
 40
8.1811502242
100
AcDbArc
 50
81.775130686
 51
85.1479266906
  0
ARC
  5
2E8
100
AcDbEntity
  8
0
100
AcDbCircle
 62
7
  6
CONTINUOUS
 10
311.9406797975
 20
157.6752690877
 40
0.628271383
100
AcDbArc
 50
353.3706548801
 51
0.016737075
  0
ARC
  5
2E9
100
AcDbEntity
  8
0
100
AcDbCircle
 62
7
  6
CONTINUOUS
 10
313.3555033224
 20
442.5214158762
 40
2.3319316192
100
AcDbArc
 50
32.1805137775
 51
36.3225936376
  0
SPLINE
  5
2EA
100
AcDbEntity
  8
0
100
AcDbSpline
 62
7
  6
CONTINUOUS
 70
0
 71
3
 72
8
 73
4
 74
0
 42
0.0000001
 43
0.0000001
 44
0.0000000001
 40
0.0
 40
0.0
 40
0.0
 40
0.0
 40
1.0
 40
1.0
 40
1.0
 40
1.0
 10
312.7119770967
 20
442.6953278067
 30
0.0
 10
312.6705510965
 20
442.6672255717
 30
0.0
 10
312.6281272041
 20
442.6406229061
 30
0.0
 10
312.5861150062
 20
442.6134048179
 30
0.0
  0
SPLINE
  5
2EB
100
AcDbEntity
  8
0
100
AcDbSpline
 62
7
  6
CONTINUOUS
 70
0
 71
3
 72
8
 73
4
 74
0
 42
0.0000001
 43
0.0000001
 44
0.0000000001
 40
0.0
 40
0.0
 40
0.0
 40
0.0
 40
1.0
 40
1.0
 40
1.0
 40
1.0
 10
312.5861150062
 20
442.6134048179
 30
0.0
 10
312.565250953
 20
442.5998877997
 30
0.0
 10
312.5467690646
 20
442.5829620064
 30
0.0
 10
312.5262553585
 20
442.5689189882
 30
0.0
  0
SPLINE
  5
2EC
100
AcDbEntity
  8
0
100
AcDbSpline
 62
7
  6
CONTINUOUS
 70
0
 71
3
 72
9
 73
5
 74
0
 42
0.0000001
 43
0.0000001
 44
0.0000000001
 40
0.0
 40
0.0
 40
0.0
 40
0.0
 40
0.494158658
 40
1.0
 40
1.0
 40
1.0
 40
1.0
 10
111.1906168046
 20
582.7741599825
 30
0.0
 10
109.2643663294
 20
581.6620453906
 30
0.0
 10
105.1360002613
 20
579.7914441791
 30
0.0
 10
100.7401395624
 20
578.7123279348
 30
0.0
 10
98.492268132
 20
578.3503888511
 30
0.0
  0
SPLINE
  5
2ED
100
AcDbEntity
  8
0
100
AcDbSpline
 62
7
  6
CONTINUOUS
 70
0
 71
3
 72
9
 73
5
 74
0
 42
0.0000001
 43
0.0000001
 44
0.0000000001
 40
0.0
 40
0.0
 40
0.0
 40
0.0
 40
0.2702349301
 40
1.0
 40
1.0
 40
1.0
 40
1.0
 10
311.4921635975
 20
160.9728236911
 30
0.0
 10
311.5602814143
 20
160.9547746078
 30
0.0
 10
311.8092156702
 20
160.8779248128
 30
0.0
 10
312.0480257379
 20
160.7595756367
 30
0.0
 10
312.1989081773
 20
160.643609287
 30
0.0
  0
SPLINE
  5
2EE
100
AcDbEntity
  8
0
100
AcDbSpline
 62
7
  6
CONTINUOUS
 70
0
 71
3
 72
9
 73
5
 74
0
 42
0.0000001
 43
0.0000001
 44
0.0000000001
 40
0.0
 40
0.0
 40
0.0
 40
0.0
 40
0.5380110869
 40
1.0
 40
1.0
 40
1.0
 40
1.0
 10
312.1989081773
 20
160.643609287
 30
0.0
 10
312.3070482559
 20
160.5604941795
 30
0.0
 10
312.490591728
 20
160.3752528515
 30
0.0
 10
312.5689022423
 20
160.1196028269
 30
0.0
 10
312.5689508287
 20
160.0024845288
 30
0.0
  0
SPLINE
  5
2EF
100
AcDbEntity
  8
0
100
AcDbSpline
 62
7
  6
CONTINUOUS
 70
0
 71
3
 72
8
 73
4
 74
0
 42
0.0000001
 43
0.0000001
 44
0.0000000001
 40
0.0
 40
0.0
 40
0.0
 40
0.0
 40
1.0
 40
1.0
 40
1.0
 40
1.0
 10
315.0070112425
 20
444.1716815205
 30
0.0
 10
315.0883814959
 20
444.0870654744
 30
0.0
 10
315.1648419196
 20
443.9973093943
 30
0.0
 10
315.2343284298
 20
443.9026911177
 30
0.0
  0
SPLINE
  5
2F0
100
AcDbEntity
  8
0
100
AcDbSpline
 62
7
  6
CONTINUOUS
 70
0
 71
3
 72
9
 73
5
 74
0
 42
0.0000001
 43
0.0000001
 44
0.0000000001
 40
0.0
 40
0.0
 40
0.0
 40
0.0
 40
0.2586220428
 40
1.0
 40
1.0
 40
1.0
 40
1.0
 10
315.0070107486
 20
305.284620914
 30
0.0
 10
315.0381192696
 20
305.2522712312
 30
0.0
 10
315.1554928151
 20
305.1244495886
 30
0.0
 10
315.2607249876
 20
304.9852403394
 30
0.0
 10
315.329190723
 20
304.8763146626
 30
0.0
  0
SPLINE
  5
2F1
100
AcDbEntity
  8
0
100
AcDbSpline
 62
7
  6
CONTINUOUS
 70
0
 71
3
 72
9
 73
5
 74
0
 42
0.0000001
 43
0.0000001
 44
0.0000000001
 40
0.0
 40
0.0
 40
0.0
 40
0.0
 40
0.2433310708
 40
1.0
 40
1.0
 40
1.0
 40
1.0
 10
306.3705338495
 20
291.3438222072
 30
0.0
 10
307.0374503893
 20
291.8742433446
 30
0.0
 10
309.8154874039
 20
294.0070350377
 30
0.0
 10
312.7346038374
 20
295.9542299508
 30
0.0
 10
314.9999284773
 20
297.3289180121
 30
0.0
  0
SPLINE
  5
2F2
100
AcDbEntity
  8
0
100
AcDbSpline
 62
7
  6
CONTINUOUS
 70
0
 71
3
 72
9
 73
5
 74
0
 42
0.0000001
 43
0.0000001
 44
0.0000000001
 40
0.0
 40
0.0
 40
0.0
 40
0.0
 40
0.2586221491
 40
1.0
 40
1.0
 40
1.0
 40
1.0
 10
315.0070111715
 20
166.3975591349
 30
0.0
 10
315.0381196643
 20
166.3652094902
 30
0.0
 10
315.1554926076
 20
166.2373878215
 30
0.0
 10
315.2607287426
 20
166.09818132
 30
0.0
 10
315.3291906964
 20
165.98925351
 30
0.0
  0
SPLINE
  5
2F3
100
AcDbEntity
  8
0
100
AcDbSpline
 62
7
  6
CONTINUOUS
 70
0
 71
3
 72
9
 73
5
 74
0
 42
0.0000001
 43
0.0000001
 44
0.0000000001
 40
0.0
 40
0.0
 40
0.0
 40
0.0
 40
0.5015817556
 40
1.0
 40
1.0
 40
1.0
 40
1.0
 10
306.3705500138
 20
48.9966217763
 30
0.0
 10
307.7145425149
 20
50.763575789
 30
0.0
 10
310.7271307046
 20
54.0483621244
 30
0.0
 10
314.3419754696
 20
56.6631384902
 30
0.0
 10
316.2524370972
 20
57.7661374411
 30
0.0
  0
SPLINE
  5
2F4
100
AcDbEntity
  8
0
100
AcDbSpline
 62
7
  6
CONTINUOUS
 70
0
 71
3
 72
9
 73
5
 74
0
 42
0.0000001
 43
0.0000001
 44
0.0000000001
 40
0.0
 40
0.0
 40
0.0
 40
0.0
 40
0.4973661224
 40
1.0
 40
1.0
 40
1.0
 40
1.0
 10
98.4922254786
 20
169.0125132819
 30
0.0
 10
132.3553615003
 20
148.100863854
 30
0.0
 10
201.0551717366
 20
107.0420116461
 30
0.0
 10
270.9694638909
 20
68.0885910411
 30
0.0
 10
306.3705500138
 20
48.9966217763
 30
0.0
  0
SPLINE
  5
2F5
100
AcDbEntity
  8
0
100
AcDbSpline
 62
7
  6
CONTINUOUS
 70
0
 71
3
 72
8
 73
4
 74
0
 42
0.0000001
 43
0.0000001
 44
0.0000000001
 40
0.0
 40
0.0
 40
0.0
 40
0.0
 40
1.0
 40
1.0
 40
1.0
 40
1.0
 10
311.8716619881
 20
161.0687195225
 30
0.0
 10
311.7401197132
 20
161.122254869
 30
0.0
 10
311.6034739894
 20
161.1641105537
 30
0.0
 10
311.4651393656
 20
161.1962498643
 30
0.0
  0
SPLINE
  5
2F6
100
AcDbEntity
  8
0
100
AcDbSpline
 62
7
  6
CONTINUOUS
 70
0
 71
3
 72
8
 73
4
 74
0
 42
0.0000001
 43
0.0000001
 44
0.0000000001
 40
0.0
 40
0.0
 40
0.0
 40
0.0
 40
1.0
 40
1.0
 40
1.0
 40
1.0
 10
312.5262553585
 20
157.4462749266
 30
0.0
 10
312.5453559762
 20
157.4964733931
 30
0.0
 10
312.55855111
 20
157.5493871094
 30
0.0
 10
312.5647504123
 20
157.6027377261
 30
0.0
  0
SPLINE
  5
2F7
100
AcDbEntity
  8
0
100
AcDbSpline
 62
7
  6
CONTINUOUS
 70
0
 71
3
 72
9
 73
5
 74
0
 42
0.0000001
 43
0.0000001
 44
0.0000000001
 40
0.0
 40
0.0
 40
0.0
 40
0.0
 40
0.5041892789
 40
1.0
 40
1.0
 40
1.0
 40
1.0
 10
306.3705550088
 20
458.3344988375
 30
0.0
 10
271.0575561875
 20
477.8421112041
 30
0.0
 10
201.3918756977
 20
517.2120633949
 30
0.0
 10
132.4560237537
 20
557.8473841496
 30
0.0
 10
98.4922427761
 20
578.3503799261
 30
0.0
  0
SPLINE
  5
2F8
100
AcDbEntity
  8
0
100
AcDbSpline
 62
7
  6
CONTINUOUS
 70
0
 71
3
 72
9
 73
5
 74
0
 42
0.0000001
 43
0.0000001
 44
0.0000000001
 40
0.0
 40
0.0
 40
0.0
 40
0.0
 40
0.4913166176
 40
1.0
 40
1.0
 40
1.0
 40
1.0
 10
306.3707515611
 20
437.5796016226
 30
0.0
 10
307.1079522303
 20
438.2941457828
 30
0.0
 10
308.6691992259
 20
439.6854571614
 30
0.0
 10
310.3039854515
 20
440.9897481029
 30
0.0
 10
311.1622965276
 20
441.616782595
 30
0.0
  0
SPLINE
  5
2F9
100
AcDbEntity
  8
0
100
AcDbSpline
 62
7
  6
CONTINUOUS
 70
0
 71
3
 72
9
 73
5
 74
0
 42
0.0000001
 43
0.0000001
 44
0.0000000001
 40
0.0
 40
0.0
 40
0.0
 40
0.0
 40
0.2212275278
 40
1.0
 40
1.0
 40
1.0
 40
1.0
 10
306.3705992317
 20
458.3345241902
 30
0.0
 10
307.0830472873
 20
458.8063313662
 30
0.0
 10
310.327738797
 20
460.9023697876
 30
0.0
 10
313.6473698786
 20
462.8803138896
 30
0.0
 10
316.2524370972
 20
464.3843411717
 30
0.0
  0
SPLINE
  5
2FA
100
AcDbEntity
  8
0
100
AcDbSpline
 62
7
  6
CONTINUOUS
 70
0
 71
3
 72
9
 73
5
 74
0
 42
0.0000001
 43
0.0000001
 44
0.0000000001
 40
0.0
 40
0.0
 40
0.0
 40
0.0
 40
0.5641067859
 40
1.0
 40
1.0
 40
1.0
 40
1.0
 10
311.8716619881
 20
436.3933345786
 30
0.0
 10
312.1022993383
 20
436.2994693137
 30
0.0
 10
312.5012860836
 20
436.0778312118
 30
0.0
 10
312.71893623
 20
435.6419787613
 30
0.0
 10
312.7194926342
 20
435.4495686965
 30
0.0
  0
SPLINE
  5
2FB
100
AcDbEntity
  8
0
100
AcDbSpline
 62
7
  6
CONTINUOUS
 70
0
 71
3
 72
8
 73
4
 74
0
 42
0.0000001
 43
0.0000001
 44
0.0000000001
 40
0.0
 40
0.0
 40
0.0
 40
0.0
 40
1.0
 40
1.0
 40
1.0
 40
1.0
 10
311.3068763714
 20
441.7853030974
 30
0.0
 10
311.352850868
 20
441.6410789493
 30
0.0
 10
311.3915323244
 20
441.494118805
 30
0.0
 10
311.4192643163
 20
441.3453061851
 30
0.0
  0
SPLINE
  5
2FC
100
AcDbEntity
  8
0
100
AcDbSpline
 62
7
  6
CONTINUOUS
 70
0
 71
3
 72
8
 73
4
 74
0
 42
0.0000001
 43
0.0000001
 44
0.0000000001
 40
0.0
 40
0.0
 40
0.0
 40
0.0
 40
1.0
 40
1.0
 40
1.0
 40
1.0
 10
311.4595400718
 20
441.043703936
 30
0.0
 10
311.4799070669
 20
440.7857402443
 30
0.0
 10
311.4645006366
 20
440.5261234648
 30
0.0
 10
311.4595400718
 20
440.2674045565
 30
0.0
  0
SPLINE
  5
2FD
100
AcDbEntity
  8
0
100
AcDbSpline
 62
7
  6
CONTINUOUS
 70
0
 71
3
 72
9
 73
5
 74
0
 42
0.0000001
 43
0.0000001
 44
0.0000000001
 40
0.0
 40
0.0
 40
0.0
 40
0.0
 40
0.2563137889
 40
1.0
 40
1.0
 40
1.0
 40
1.0
 10
314.3498668216
 20
304.2792612493
 30
0.0
 10
313.6417714954
 20
303.8414706568
 30
0.0
 10
310.9027843146
 20
302.0957330374
 30
0.0
 10
308.2610012773
 20
300.1958962524
 30
0.0
 10
306.3705344325
 20
298.6923444373
 30
0.0
  0
SPLINE
  5
2FE
100
AcDbEntity
  8
0
100
AcDbSpline
 62
7
  6
CONTINUOUS
 70
0
 71
3
 72
9
 73
5
 74
0
 42
0.0000001
 43
0.0000001
 44
0.0000000001
 40
0.0
 40
0.0
 40
0.0
 40
0.0
 40
0.2397074569
 40
1.0
 40
1.0
 40
1.0
 40
1.0
 10
306.3705344325
 20
298.6923444373
 30
0.0
 10
306.9317311699
 20
299.2362941444
 30
0.0
 10
309.3380973137
 20
301.4380016362
 30
0.0
 10
311.9830955679
 20
303.3727265434
 30
0.0
 10
314.0744287519
 20
304.7035950824
 30
0.0
  0
SPLINE
  5
2FF
100
AcDbEntity
  8
0
100
AcDbSpline
 62
7
  6
CONTINUOUS
 70
0
 71
3
 72
16
 73
12
 74
0
 42
0.0000001
 43
0.0000001
 44
0.0000000001
 40
0.0
 40
0.0
 40
0.0
 40
0.0
 40
0.0422066885
 40
0.0886109424
 40
0.1404290399
 40
0.1969915132
 40
0.319752337
 40
0.4502072818
 40
0.5848050298
 40
0.7218323697
 40
1.0
 40
1.0
 40
1.0
 40
1.0
 10
323.5329616924
 20
406.9044259939
 30
0.0
 10
323.706578164
 20
407.0264749176
 30
0.0
 10
324.0230174825
 20
407.3565741808
 30
0.0
 10
324.3169729084
 20
408.0087114048
 30
0.0
 10
324.4672667382
 20
408.7767941153
 30
0.0
 10
324.5152404062
 20
409.9408420398
 30
0.0
 10
324.342387464
 20
411.4956732636
 30
0.0
 10
323.9318410196
 20
413.4030069783
 30
0.0
 10
323.3821346538
 20
415.3497398955
 30
0.0
 10
322.5168950506
 20
417.9757758767
 30
0.0
 10
321.7717350037
 20
419.9272120898
 30
0.0
 10
321.2488022213
 20
421.2244562304
 30
0.0
  0
SPLINE
  5
300
100
AcDbEntity
  8
0
100
AcDbSpline
 62
7
  6
CONTINUOUS
 70
0
 71
3
 72
11
 73
7
 74
0
 42
0.0000001
 43
0.0000001
 44
0.0000000001
 40
0.0
 40
0.0
 40
0.0
 40
0.0
 40
0.1874983336
 40
0.4165332361
 40
0.6935273147
 40
1.0
 40
1.0
 40
1.0
 40
1.0
 10
331.4770368769
 20
145.5405252115
 30
0.0
 10
331.6953962704
 20
145.6759389198
 30
0.0
 10
332.0618861568
 20
146.1664201911
 30
0.0
 10
332.1945774092
 20
147.1300526869
 30
0.0
 10
332.0012862081
 20
148.2386325875
 30
0.0
 10
331.6848896075
 20
148.9813985098
 30
0.0
 10
331.4789867021
 20
149.3474366145
 30
0.0
  0
SPLINE
  5
301
100
AcDbEntity
  8
0
100
AcDbSpline
 62
7
  6
CONTINUOUS
 70
0
 71
3
 72
11
 73
7
 74
0
 42
0.0000001
 43
0.0000001
 44
0.0000000001
 40
0.0
 40
0.0
 40
0.0
 40
0.0
 40
0.1874976525
 40
0.4165316594
 40
0.6935260197
 40
1.0
 40
1.0
 40
1.0
 40
1.0
 10
331.4769966988
 20
424.7843269549
 30
0.0
 10
331.6953635082
 20
424.9197323326
 30
0.0
 10
332.0618746821
 20
425.4102064929
 30
0.0
 10
332.1945798923
 20
426.3738482439
 30
0.0
 10
332.0012927261
 20
427.4824426258
 30
0.0
 10
331.6848927579
 20
428.2252195676
 30
0.0
 10
331.4789867022
 20
428.5912632727
 30
0.0
  0
SPLINE
  5
302
100
AcDbEntity
  8
0
100
AcDbSpline
 62
7
  6
CONTINUOUS
 70
0
 71
3
 72
9
 73
5
 74
0
 42
0.0000001
 43
0.0000001
 44
0.0000000001
 40
0.0
 40
0.0
 40
0.0
 40
0.0
 40
0.4952276907
 40
1.0
 40
1.0
 40
1.0
 40
1.0
 10
355.1728658657
 20
160.36592696
 30
0.0
 10
354.6191610633
 20
160.8273451841
 30
0.0
 10
353.6730370542
 20
161.9679381205
 30
0.0
 10
353.0736237476
 20
163.3198411989
 30
0.0
 10
352.8922056625
 20
164.0317407132
 30
0.0
  0
SPLINE
  5
303
100
AcDbEntity
  8
0
100
AcDbSpline
 62
7
  6
CONTINUOUS
 70
0
 71
3
 72
9
 73
5
 74
0
 42
0.0000001
 43
0.0000001
 44
0.0000000001
 40
0.0
 40
0.0
 40
0.0
 40
0.0
 40
0.4952276907
 40
1.0
 40
1.0
 40
1.0
 40
1.0
 10
355.1728658657
 20
439.6097536182
 30
0.0
 10
354.619161063
 20
440.0711718425
 30
0.0
 10
353.6730370536
 20
441.2117647796
 30
0.0
 10
353.0736237469
 20
442.5636678588
 30
0.0
 10
352.892205662
 20
443.2755673734
 30
0.0
  0
SPLINE
  5
304
100
AcDbEntity
  8
0
100
AcDbSpline
 62
7
  6
CONTINUOUS
 70
0
 71
3
 72
9
 73
5
 74
0
 42
0.0000001
 43
0.0000001
 44
0.0000000001
 40
0.0
 40
0.0
 40
0.0
 40
0.0
 40
0.5000001125
 40
1.0
 40
1.0
 40
1.0
 40
1.0
 10
328.1944693537
 20
472.9066566419
 30
0.0
 10
328.612973315
 20
472.6650521381
 30
0.0
 10
329.2752351671
 20
471.9027361946
 30
0.0
 10
329.6042858663
 20
470.9480495664
 30
0.0
 10
329.6042830748
 20
470.4648124696
 30
0.0
  0
SPLINE
  5
305
100
AcDbEntity
  8
0
100
AcDbSpline
 62
7
  6
CONTINUOUS
 70
0
 71
3
 72
8
 73
4
 74
0
 42
0.0000001
 43
0.0000001
 44
0.0000000001
 40
0.0
 40
0.0
 40
0.0
 40
0.0
 40
1.0
 40
1.0
 40
1.0
 40
1.0
 10
320.4842421475
 20
132.726436329
 30
0.0
 10
320.3566518551
 20
132.5713464411
 30
0.0
 10
320.2451663466
 20
132.402010455
 30
0.0
 10
320.1500370081
 20
132.2251416759
 30
0.0
  0
SPLINE
  5
306
100
AcDbEntity
  8
0
100
AcDbSpline
 62
7
  6
CONTINUOUS
 70
0
 71
3
 72
12
 73
8
 74
0
 42
0.0000001
 43
0.0000001
 44
0.0000000001
 40
0.0
 40
0.0
 40
0.0
 40
0.0
 40
0.1671988658
 40
0.3229547877
 40
0.5750800883
 40
0.7934696842
 40
1.0
 40
1.0
 40
1.0
 40
1.0
 10
322.5181260088
 20
146.8872817833
 30
0.0
 10
323.0653161922
 20
146.2098681468
 30
0.0
 10
323.9802101777
 20
144.7665129397
 30
0.0
 10
324.7168956692
 20
141.8077474902
 30
0.0
 10
324.1238726879
 20
138.4851218386
 30
0.0
 10
322.4877605915
 20
135.3421909018
 30
0.0
 10
321.1677459091
 20
133.5570116372
 30
0.0
 10
320.4842421475
 20
132.726436329
 30
0.0
  0
SPLINE
  5
307
100
AcDbEntity
  8
0
100
AcDbSpline
 62
7
  6
CONTINUOUS
 70
0
 71
3
 72
9
 73
5
 74
0
 42
0.0000001
 43
0.0000001
 44
0.0000000001
 40
0.0
 40
0.0
 40
0.0
 40
0.0
 40
0.2439835392
 40
1.0
 40
1.0
 40
1.0
 40
1.0
 10
320.150037904
 20
151.5354107945
 30
0.0
 10
320.2568761346
 20
151.1230114235
 30
0.0
 10
320.7961848074
 20
149.460409651
 30
0.0
 10
321.6891206981
 20
147.9145662303
 30
0.0
 10
322.5181260088
 20
146.8872817833
 30
0.0
  0
SPLINE
  5
308
100
AcDbEntity
  8
0
100
AcDbSpline
 62
7
  6
CONTINUOUS
 70
0
 71
3
 72
9
 73
5
 74
0
 42
0.0000001
 43
0.0000001
 44
0.0000000001
 40
0.0
 40
0.0
 40
0.0
 40
0.0
 40
0.2520526899
 40
1.0
 40
1.0
 40
1.0
 40
1.0
 10
317.66684821
 20
130.294913235
 30
0.0
 10
317.8734776074
 20
130.4596338589
 30
0.0
 10
318.6957255848
 20
131.1100628243
 30
0.0
 10
319.5260639615
 20
131.7502158446
 30
0.0
 10
320.1500379395
 20
132.2251260098
 30
0.0
  0
SPLINE
  5
309
100
AcDbEntity
  8
0
100
AcDbSpline
 62
7
  6
CONTINUOUS
 70
0
 71
3
 72
9
 73
5
 74
0
 42
0.0000001
 43
0.0000001
 44
0.0000000001
 40
0.0
 40
0.0
 40
0.0
 40
0.0
 40
0.2456107955
 40
1.0
 40
1.0
 40
1.0
 40
1.0
 10
328.1945497424
 20
472.9066087595
 30
0.0
 10
327.1827619386
 20
472.3228876533
 30
0.0
 10
323.0633370974
 20
469.9461886566
 30
0.0
 10
318.9441133647
 20
467.5691410908
 30
0.0
 10
315.8367190575
 20
465.7757425618
 30
0.0
  0
SPLINE
  5
30A
100
AcDbEntity
  8
0
100
AcDbSpline
 62
7
  6
CONTINUOUS
 70
0
 71
3
 72
9
 73
5
 74
0
 42
0.0000001
 43
0.0000001
 44
0.0000000001
 40
0.0
 40
0.0
 40
0.0
 40
0.0
 40
0.2543670459
 40
1.0
 40
1.0
 40
1.0
 40
1.0
 10
317.2498360058
 20
463.3302140317
 30
0.0
 10
318.2972771731
 20
463.9347328605
 30
0.0
 10
322.4151570994
 20
466.3112136932
 30
0.0
 10
326.5332241617
 20
468.6873702663
 30
0.0
 10
329.6039048828
 20
470.4589129332
 30
0.0
  0
LINE
  5
30B
100
AcDbEntity
  8
0
100
AcDbLine
 62
7
  6
CONTINUOUS
 10
317.666725677
 20
402.5690436263
 11
317.9819479015
 21
402.8449327841
  0
SPLINE
  5
30C
100
AcDbEntity
  8
0
100
AcDbSpline
 62
7
  6
CONTINUOUS
 70
0
 71
3
 72
9
 73
5
 74
0
 42
0.0000001
 43
0.0000001
 44
0.0000000001
 40
0.0
 40
0.0
 40
0.0
 40
0.0
 40
0.253042213
 40
1.0
 40
1.0
 40
1.0
 40
1.0
 10
320.1500383375
 20
151.5353802744
 30
0.0
 10
319.9696160957
 20
151.4502287547
 30
0.0
 10
319.2545191288
 20
151.1182747679
 30
0.0
 10
318.5297790009
 20
150.8061198945
 30
0.0
 10
317.9800128678
 20
150.5949537216
 30
0.0
  0
SPLINE
  5
30D
100
AcDbEntity
  8
0
100
AcDbSpline
 62
7
  6
CONTINUOUS
 70
0
 71
3
 72
9
 73
5
 74
0
 42
0.0000001
 43
0.0000001
 44
0.0000000001
 40
0.0
 40
0.0
 40
0.0
 40
0.0
 40
0.2482478206
 40
1.0
 40
1.0
 40
1.0
 40
1.0
 10
317.6668479963
 20
422.7495214339
 30
0.0
 10
317.8747156257
 20
422.8449112175
 30
0.0
 10
318.7093084569
 20
423.2351442872
 30
0.0
 10
319.5342384112
 20
423.6458490232
 30
0.0
 10
320.1500348099
 20
423.9628202628
 30
0.0
  0
ELLIPSE
  5
30E
100
AcDbEntity
  8
0
100
AcDbEllipse
 62
7
  6
CONTINUOUS
 10
-31.34250065
 20
518.0761838735
 30
0.0
 11
472.3201275447
 21
89.124193583
 31
0.0
 40
0.4567938164
 41
5.464714143
 42
5.533398468
  0
ELLIPSE
  5
30F
100
AcDbEntity
  8
0
100
AcDbEllipse
 62
7
  6
CONTINUOUS
 10
-31.34250065
 20
238.8323572153
 30
0.0
 11
472.3201275447
 21
89.124193583
 31
0.0
 40
0.4567938164
 41
5.4739281413
 42
5.533398468
  0
ELLIPSE
  5
310
100
AcDbEntity
  8
0
100
AcDbEllipse
 62
7
  6
CONTINUOUS
 10
-31.34250065
 20
405.4332765405
 30
0.0
 11
466.7392024486
 21
-126.082769403
 31
0.0
 40
0.6587388747
 41
-0.5487188975
 42
-0.4876996083
  0
ELLIPSE
  5
311
100
AcDbEntity
  8
0
100
AcDbEllipse
 62
7
  6
CONTINUOUS
 10
-31.34250065
 20
684.6771031987
 30
0.0
 11
466.7392024486
 21
-126.082769403
 31
0.0
 40
0.6587388747
 41
-0.5504398134
 42
-0.4876996083
  0
ENDSEC
  0
SECTION
  2
OBJECTS
  0
DICTIONARY
  5
C
100
AcDbDictionary
280
0
281
1
  3
ACAD_GROUP
350
D
  3
ACAD_MLINESTYLE
350
17
  3
ACAD_LAYOUT
350
1A
  3
ACAD_PLOTSETTINGS
350
19
  3
ACAD_PLOTSTYLENAME
350
E
  0
DICTIONARY
  5
D
102
{ACAD_REACTORS
330
C
102
}
100
AcDbDictionary
280
0
281
1
  0
ACDBDICTIONARYWDFLT
  5
E
102
{ACAD_REACTORS
330
C
102
}
100
AcDbDictionary
281
1
  3
Normal
350
F
100
AcDbDictionaryWithDefault
340
F
  0
DICTIONARY
  5
17
102
{ACAD_REACTORS
330
C
102
}
100
AcDbDictionary
280
0
281
1
  3
Standard
350
18
  0
DICTIONARY
  5
19
102
{ACAD_REACTORS
330
C
102
}
100
AcDbDictionary
281
1
  0
DICTIONARY
  5
1A
102
{ACAD_REACTORS
330
C
102
}
100
AcDbDictionary
281
1
  3
Model
350
312
  3
Layout1
350
313
  0
ACDBPLACEHOLDER
  5
F
102
{ACAD_REACTORS
330
E
102
}
  0
MLINESTYLE
  5
18
102
{ACAD_REACTORS
330
17
102
}
100
AcDbMlineStyle
  2
STANDARD
 70
0
  3

 62
256
 51
90.0
 52
90.0
 71
2
 49
0.5
 62
256
  6
BYLAYER
 49
-0.5
 62
256
  6
BYLAYER
  0
LAYOUT
  5
312
102
{ACAD_REACTORS
330
1A
102
}
100
AcDbPlotSettings
  1

  2
none_device
  4

  6

 40
0.0
 41
0.0
 42
0.0
 43
0.0
 44
210.0
 45
297.0
 46
0.0
 47
0.0
 48
0.0
 49
0.0
140
0.0
141
0.0
142
1.0
143
1.0
 70
1024
 72
1
 73
0
 74
0
  7

 75
0
147
1.0
148
0.0
149
0.0
100
AcDbLayout
  1
Model
 70
0
 71
0
 10
0.0
 20
0.0
 11
210.0
 21
297.0
 12
0.0
 22
0.0
 32
0.0
 14
0.0
 24
0.0
 34
0.0
 15
0.0
 25
0.0
 35
0.0
146
0.0
 13
0.0
 23
0.0
 33
0.0
 16
1.0
 26
0.0
 36
0.0
 17
0.0
 27
1.0
 37
0.0
 76
0
330
210
345
0
346
0
  0
LAYOUT
  5
313
102
{ACAD_REACTORS
330
1A
102
}
100
AcDbPlotSettings
  1

  2
none_device
  4

  6

 40
0.0
 41
0.0
 42
0.0
 43
0.0
 44
210.0
 45
297.0
 46
0.0
 47
0.0
 48
0.0
 49
0.0
140
0.0
141
0.0
142
1.0
143
1.0
 70
0
 72
1
 73
0
 74
0
  7

 75
0
147
1.0
148
0.0
149
0.0
100
AcDbLayout
  1
Layout1
 70
0
 71
1
 10
0.0
 20
0.0
 11
210.0
 21
297.0
 12
0.0
 22
0.0
 32
0.0
 14
0.0
 24
0.0
 34
0.0
 15
0.0
 25
0.0
 35
0.0
146
0.0
 13
0.0
 23
0.0
 33
0.0
 16
1.0
 26
0.0
 36
0.0
 17
0.0
 27
1.0
 37
0.0
 76
0
330
211
345
0
346
0
  0
ENDSEC
  0
EOF
